  0
SECTION
  2
HEADER
  9
$ACADVER
  1
AC1009
  9
$DWGCODEPAGE
  3
ansi_1252
  9
$INSBASE
 10
0.0
 20
0.0
 30
0.0
  9
$EXTMIN
 10
0.0
 20
0.0
 30
0.0
  9
$EXTMAX
 10
420.0
 20
297.0
 30
0.0
  9
$LIMMIN
 10
0.0
 20
0.0
  9
$LIMMAX
 10
420.0
 20
297.0
  9
$ORTHOMODE
 70
     0
  9
$REGENMODE
 70
     1
  9
$FILLMODE
 70
     1
  9
$QTEXTMODE
 70
     0
  9
$MIRRTEXT
 70
     1
  9
$DRAGMODE
 70
     2
  9
$LTSCALE
 40
1.0
  9
$OSMODE
 70
    37
  9
$ATTMODE
 70
     1
  9
$TEXTSIZE
 40
4.8380952381
  9
$TRACEWID
 40
1.0
  9
$TEXTSTYLE
  7
STANDARD
  9
$CLAYER
  8
0
  9
$CELTYPE
  6
BYLAYER
  9
$CECOLOR
 62
   256
  9
$DIMSCALE
 40
1.0
  9
$DIMASZ
 40
3.5
  9
$DIMEXO
 40
1.0
  9
$DIMDLI
 40
3.75
  9
$DIMRND
 40
0.0
  9
$DIMDLE
 40
0.0
  9
$DIMEXE
 40
1.0
  9
$DIMTP
 40
0.0
  9
$DIMTM
 40
0.0
  9
$DIMTXT
 40
4.0317460317
  9
$DIMCEN
 40
2.5
  9
$DIMTSZ
 40
0.0
  9
$DIMTOL
 70
     0
  9
$DIMLIM
 70
     0
  9
$DIMTIH
 70
     1
  9
$DIMTOH
 70
     1
  9
$DIMSE1
 70
     0
  9
$DIMSE2
 70
     0
  9
$DIMTAD
 70
     1
  9
$DIMZIN
 70
     0
  9
$DIMBLK
  1

  9
$DIMASO
 70
     1
  9
$DIMSHO
 70
     1
  9
$DIMPOST
  1

  9
$DIMAPOST
  1

  9
$DIMALT
 70
     0
  9
$DIMALTD
 70
     3
  9
$DIMALTF
 40
0.0393700787
  9
$DIMLFAC
 40
1.0
  9
$DIMTOFL
 70
     1
  9
$DIMTVP
 40
0.0
  9
$DIMTIX
 70
     0
  9
$DIMSOXD
 70
     0
  9
$DIMSAH
 70
     0
  9
$DIMBLK1
  1

  9
$DIMBLK2
  1

  9
$DIMSTYLE
  2
ISO-25
  9
$DIMCLRD
 70
     0
  9
$DIMCLRE
 70
     0
  9
$DIMCLRT
 70
     0
  9
$DIMTFAC
 40
1.0
  9
$DIMGAP
 40
1.524
  9
$LUNITS
 70
     2
  9
$LUPREC
 70
     2
  9
$SKETCHINC
 40
1.0
  9
$FILLETRAD
 40
10.0
  9
$AUNITS
 70
     0
  9
$AUPREC
 70
     2
  9
$MENU
  1
.
  9
$ELEVATION
 40
0.0
  9
$PELEVATION
 40
0.0
  9
$THICKNESS
 40
0.0
  9
$LIMCHECK
 70
     0
  9
$CHAMFERA
 40
10.0
  9
$CHAMFERB
 40
10.0
  9
$SKPOLY
 70
     0
  9
$TDCREATE
 40
2455889.512502928
  9
$TDUPDATE
 40
2455889.51250294
  9
$TDINDWG
 40
0.0000000116
  9
$TDUSRTIMER
 40
0.0000000116
  9
$USRTIMER
 70
     1
  9
$ANGBASE
 50
0.0
  9
$ANGDIR
 70
     0
  9
$PDMODE
 70
     0
  9
$PDSIZE
 40
-1.0
  9
$PLINEWID
 40
0.0
  9
$COORDS
 70
     1
  9
$SPLFRAME
 70
     0
  9
$SPLINETYPE
 70
     6
  9
$SPLINESEGS
 70
     8
  9
$ATTDIA
 70
     0
  9
$ATTREQ
 70
     1
  9
$HANDLING
 70
     1
  9
$HANDSEED
  5
6E1
  9
$SURFTAB1
 70
     6
  9
$SURFTAB2
 70
     6
  9
$SURFTYPE
 70
     6
  9
$SURFU
 70
     6
  9
$SURFV
 70
     6
  9
$UCSNAME
  2

  9
$UCSORG
 10
0.0
 20
0.0
 30
0.0
  9
$UCSXDIR
 10
1.0
 20
0.0
 30
0.0
  9
$UCSYDIR
 10
0.0
 20
1.0
 30
0.0
  9
$PUCSNAME
  2

  9
$PUCSORG
 10
0.0
 20
0.0
 30
0.0
  9
$PUCSXDIR
 10
1.0
 20
0.0
 30
0.0
  9
$PUCSYDIR
 10
0.0
 20
1.0
 30
0.0
  9
$USERI1
 70
     0
  9
$USERI2
 70
     0
  9
$USERI3
 70
     0
  9
$USERI4
 70
     0
  9
$USERI5
 70
     0
  9
$USERR1
 40
0.0
  9
$USERR2
 40
0.0
  9
$USERR3
 40
0.0
  9
$USERR4
 40
0.0
  9
$USERR5
 40
0.0
  9
$WORLDVIEW
 70
     1
  9
$SHADEDGE
 70
     3
  9
$SHADEDIF
 70
    70
  9
$TILEMODE
 70
     1
  9
$MAXACTVP
 70
    64
  9
$PLIMCHECK
 70
     0
  9
$PEXTMIN
 10
1.0000000000E+20
 20
1.0000000000E+20
 30
1.0000000000E+20
  9
$PEXTMAX
 10
-1.0000000000E+20
 20
-1.0000000000E+20
 30
-1.0000000000E+20
  9
$PLIMMIN
 10
0.0
 20
0.0
  9
$PLIMMAX
 10
420.0
 20
297.0
  9
$UNITMODE
 70
     0
  9
$VISRETAIN
 70
     1
  9
$PLINEGEN
 70
     0
  9
$PSLTSCALE
 70
     1
  0
ENDSEC
  0
SECTION
  2
TABLES
  0
TABLE
  2
VPORT
 70
     1
  0
VPORT
  2
*ACTIVE
 70
     0
 10
0.0
 20
0.0
 11
1.0
 21
1.0
 12
210.0
 22
148.5
 13
0.0
 23
0.0
 14
10.0
 24
10.0
 15
10.0
 25
10.0
 16
0.0
 26
0.0
 36
1.0
 17
0.0
 27
0.0
 37
0.0
 40
297.0
 41
1.4141414141
 42
50.0
 43
0.0
 44
0.0
 50
0.0
 51
0.0
 71
     0
 72
  2000
 73
     1
 74
     3
 75
     0
 76
     0
 77
     0
 78
     0
  0
ENDTAB
  0
TABLE
  2
LTYPE
 70
     6
  0
LTYPE
  2
CONTINUOUS
 70
     0
  3
Solid line
 72
    65
 73
     0
 40
0.0
  0
LTYPE
  2
HIDDEN
 70
     0
  3
Hidden __ __ __ __ __ __ __ __ __ __ __ __ __ __
 72
    65
 73
     2
 40
1.905
 49
1.27
 49
-0.635
  0
LTYPE
  2
PHANTOM
 70
     0
  3
Phantom ______  __  __  ______  __  __  ______
 72
    65
 73
     6
 40
12.7
 49
6.35
 49
-1.27
 49
1.27
 49
-1.27
 49
1.27
 49
-1.27
  0
LTYPE
  2
CENTER
 70
     0
  3
Center ____ _ ____ _ ____ _ ____ _ ____ _ ____
 72
    65
 73
     4
 40
10.16
 49
6.35
 49
-1.27
 49
1.27
 49
-1.27
  0
LTYPE
  2
CENTERX2
 70
     0
  3
Center (2x) ________  __  ________  __  _____
 72
    65
 73
     4
 40
20.32
 49
12.7
 49
-2.54
 49
2.54
 49
-2.54
  0
LTYPE
  2
DOT2
 70
     0
  3
Dot (.5x) ........................................
 72
    65
 73
     2
 40
0.635
 49
0.0
 49
-0.635
  0
ENDTAB
  0
TABLE
  2
LAYER
 70
     8
  0
LAYER
  2
0
 70
     0
 62
     7
  6
CONTINUOUS
  0
LAYER
  2
SLD-0
 70
     0
 62
     7
  6
CONTINUOUS
  0
LAYER
  2
AM_BOR
 70
     0
 62
     7
  6
CONTINUOUS
  0
LAYER
  2
BIEGLINIE__ZU_
 70
     0
 62
     8
  6
CONTINUOUS
  0
LAYER
  2
BIEGELINIE__WEG_
 70
     0
 62
     8
  6
HIDDEN
  0
LAYER
  2
BIEGELINIE__ZU_
 70
     0
 62
     8
  6
CONTINUOUS
  0
LAYER
  2
LAYER0
 70
     0
 62
     7
  6
CONTINUOUS
  0
LAYER
  2
CK_LEVEL_1
 70
     0
 62
     7
  6
CONTINUOUS
  0
ENDTAB
  0
TABLE
  2
STYLE
 70
     1
  0
STYLE
  2
STANDARD
 70
     0
 40
0.0
 41
1.0
 50
0.0
 71
     0
 42
2.5
  3
txt
  4

  0
ENDTAB
  0
TABLE
  2
VIEW
 70
     0
  0
ENDTAB
  0
TABLE
  2
UCS
 70
     0
  0
ENDTAB
  0
TABLE
  2
APPID
 70
     1
  0
APPID
  2
ACAD
 70
     0
  0
ENDTAB
  0
TABLE
  2
DIMSTYLE
 70
     1
  0
DIMSTYLE
  2
ISO-25
 70
     0
  3

  4

  5

  6

  7

 40
1.0
 41
2.5
 42
0.625
 43
3.75
 44
1.25
 45
0.0
 46
0.0
 47
0.0
 48
0.0
140
2.5
141
2.5
142
0.0
143
0.0393700787
144
1.0
145
0.0
146
1.0
147
0.625
 71
     0
 72
     0
 73
     0
 74
     0
 75
     0
 76
     0
 77
     1
 78
     8
170
     0
171
     3
172
     1
173
     0
174
     0
175
     0
176
     0
177
     0
178
     0
  0
ENDTAB
  0
ENDSEC
  0
SECTION
  2
BLOCKS
  0
BLOCK
  8
0
  2
$MODEL_SPACE
 70
     0
 10
0.0
 20
0.0
 30
0.0
  3
$MODEL_SPACE
  1

  0
ENDBLK
  5
21
  8
0
  0
BLOCK
 67
     1
  8
0
  2
$PAPER_SPACE
 70
     0
 10
0.0
 20
0.0
 30
0.0
  3
$PAPER_SPACE
  1

  0
ENDBLK
  5
1D
 67
     1
  8
0
  0
BLOCK
  8
0
  2
ERDUNG1
 70
     0
 10
0.0
 20
0.0
 30
0.0
  3
ERDUNG1
  1

  0
CIRCLE
  5
4E
  8
CK_LEVEL_1
  6
CONTINUOUS
 62
     7
 10
8.75
 20
8.75
 30
0.0
 40
8.749999999999998
  0
LINE
  5
4F
  8
CK_LEVEL_1
  6
CONTINUOUS
 62
     7
 10
8.75
 20
3.75
 30
0.0
 11
9.918893
 21
3.75
 31
0.0
  0
LINE
  5
50
  8
CK_LEVEL_1
  6
CONTINUOUS
 62
     7
 10
8.75
 20
3.75
 30
0.0
 11
7.581107
 21
3.75
 31
0.0
  0
LINE
  5
51
  8
CK_LEVEL_1
  6
CONTINUOUS
 62
     7
 10
8.75
 20
6.25
 30
0.0
 11
11.019622
 21
6.25
 31
0.0
  0
LINE
  5
52
  8
CK_LEVEL_1
  6
CONTINUOUS
 62
     7
 10
8.75
 20
8.75
 30
0.0
 11
12.815547
 21
8.75
 31
0.0
  0
LINE
  5
53
  8
CK_LEVEL_1
  6
CONTINUOUS
 62
     7
 10
8.75
 20
6.25
 30
0.0
 11
6.480378
 21
6.25
 31
0.0
  0
LINE
  5
54
  8
CK_LEVEL_1
  6
CONTINUOUS
 62
     7
 10
8.75
 20
8.75
 30
0.0
 11
4.684453
 21
8.75
 31
0.0
  0
LINE
  5
55
  8
CK_LEVEL_1
  6
CONTINUOUS
 62
     7
 10
8.75
 20
8.75
 30
0.0
 11
8.75
 21
16.692861
 31
0.0
  0
ENDBLK
  5
4D
  8
0
  0
ENDSEC
  0
SECTION
  2
ENTITIES
  0
LINE
  5
56
  8
0
  6
CONTINUOUS
 62
     7
 10
-127.5947807651
 20
-8.6316656828
 30
0.0
 11
-127.5947807651
 21
-10.6316548348
 31
0.0
  0
LINE
  5
57
  8
0
  6
CONTINUOUS
 62
     7
 10
-113.5947821956
 20
-10.6316548348
 30
0.0
 11
-113.5947821956
 21
-8.6316656828
 31
0.0
  0
LINE
  5
58
  8
0
  6
CONTINUOUS
 62
     7
 10
-297.5947825533
 20
-8.6316656828
 30
0.0
 11
-297.5947825533
 21
-10.6316548348
 31
0.0
  0
LINE
  5
59
  8
0
  6
CONTINUOUS
 62
     7
 10
-283.5947839838
 20
-10.6316548348
 30
0.0
 11
-283.5947839838
 21
-8.6316656828
 31
0.0
  0
POLYLINE
  5
5A
  8
0
  6
CONTINUOUS
 62
     7
 66
     1
 10
0.0
 20
0.0
 30
0.0
  0
VERTEX
  5
4D2
  8
0
  6
CONTINUOUS
 62
     7
 10
-300.0447793227
 20
286.8683445692
 30
0.0
  0
VERTEX
  5
4D3
  8
0
  6
CONTINUOUS
 62
     7
 10
-299.8302175027
 20
287.3995262623
 30
0.0
  0
VERTEX
  5
4D4
  8
0
  6
CONTINUOUS
 62
     7
 10
-299.6731294614
 20
287.9569489002
 30
0.0
  0
VERTEX
  5
4D5
  8
0
  6
CONTINUOUS
 62
     7
 10
-299.5769350153
 20
288.5018247604
 30
0.0
  0
VERTEX
  5
4D6
  8
0
  6
CONTINUOUS
 62
     7
 10
-299.54478576
 20
288.9896738768
 30
0.0
  0
VERTEX
  5
4D7
  8
0
  6
CONTINUOUS
 62
     7
 10
-299.5767711025
 20
289.3850612879
 30
0.0
  0
VERTEX
  5
4D8
  8
0
  6
CONTINUOUS
 62
     7
 10
-299.6727420312
 20
289.6632957697
 30
0.0
  0
VERTEX
  5
4D9
  8
0
  6
CONTINUOUS
 62
     7
 10
-299.8303590637
 20
289.8210096598
 30
0.0
  0
VERTEX
  5
4DA
  8
0
  6
CONTINUOUS
 62
     7
 10
-300.0447793227
 20
289.8683357477
 30
0.0
  0
SEQEND
  5
4DB
  8
0
  6
CONTINUOUS
 62
     7
  0
LINE
  5
5B
  8
0
  6
CONTINUOUS
 62
     7
 10
-110.0447817069
 20
289.8683357477
 30
0.0
 11
-300.0447793227
 21
289.8683357477
 31
0.0
  0
POLYLINE
  5
5C
  8
0
  6
CONTINUOUS
 62
     7
 66
     1
 10
0.0
 20
0.0
 30
0.0
  0
VERTEX
  5
4DC
  8
0
  6
CONTINUOUS
 62
     7
 10
-110.0447817069
 20
286.8683445692
 30
0.0
  0
VERTEX
  5
4DD
  8
0
  6
CONTINUOUS
 62
     7
 10
-110.2593435269
 20
287.3995262623
 30
0.0
  0
VERTEX
  5
4DE
  8
0
  6
CONTINUOUS
 62
     7
 10
-110.4164315682
 20
287.9569489002
 30
0.0
  0
VERTEX
  5
4DF
  8
0
  6
CONTINUOUS
 62
     7
 10
-110.5126334649
 20
288.5018247604
 30
0.0
  0
VERTEX
  5
4E0
  8
0
  6
CONTINUOUS
 62
     7
 10
-110.5447827202
 20
288.9896738768
 30
0.0
  0
VERTEX
  5
4E1
  8
0
  6
CONTINUOUS
 62
     7
 10
-110.5127973777
 20
289.3850612879
 30
0.0
  0
VERTEX
  5
4E2
  8
0
  6
CONTINUOUS
 62
     7
 10
-110.4168189984
 20
289.6632957697
 30
0.0
  0
VERTEX
  5
4E3
  8
0
  6
CONTINUOUS
 62
     7
 10
-110.2592019659
 20
289.8210096598
 30
0.0
  0
VERTEX
  5
4E4
  8
0
  6
CONTINUOUS
 62
     7
 10
-110.0447817069
 20
289.8683357477
 30
0.0
  0
SEQEND
  5
4E5
  8
0
  6
CONTINUOUS
 62
     7
  0
ARC
  5
5D
  8
0
  6
CONTINUOUS
 62
     7
 10
-299.9657423412
 20
287.954108835
 30
0.0
 40
0.4217042017594886
 50
356.5877686732
 51
100.8024197037
  0
LINE
  5
5E
  8
0
  6
CONTINUOUS
 62
     7
 10
-300.0447793227
 20
288.3683401585
 30
0.0
 11
-300.0447793227
 21
289.8683357477
 31
0.0
  0
POLYLINE
  5
5F
  8
0
  6
CONTINUOUS
 62
     7
 66
     1
 10
0.0
 20
0.0
 30
0.0
  0
VERTEX
  5
4E6
  8
0
  6
CONTINUOUS
 62
     7
 10
-303.5447789651
 20
-3.63165555
 30
0.0
  0
VERTEX
  5
4E7
  8
0
  6
CONTINUOUS
 62
     7
 10
-303.4973858219
 20
-3.41709373
 30
0.0
  0
VERTEX
  5
4E8
  8
0
  6
CONTINUOUS
 62
     7
 10
-303.3403052312
 20
-3.2600056887
 30
0.0
  0
VERTEX
  5
4E9
  8
0
  6
CONTINUOUS
 62
     7
 10
-303.0610798221
 20
-3.1638186932
 30
0.0
  0
VERTEX
  5
4EA
  8
0
  6
CONTINUOUS
 62
     7
 10
-302.6660947424
 20
-3.1316619873
 30
0.0
  0
VERTEX
  5
4EB
  8
0
  6
CONTINUOUS
 62
     7
 10
-302.1775974255
 20
-3.1636398792
 30
0.0
  0
VERTEX
  5
4EC
  8
0
  6
CONTINUOUS
 62
     7
 10
-301.6348375302
 20
-3.2596182585
 30
0.0
  0
VERTEX
  5
4ED
  8
0
  6
CONTINUOUS
 62
     7
 10
-301.075537346
 20
-3.4172427416
 30
0.0
  0
VERTEX
  5
4EE
  8
0
  6
CONTINUOUS
 62
     7
 10
-300.544780336
 20
-3.63165555
 30
0.0
  0
SEQEND
  5
4EF
  8
0
  6
CONTINUOUS
 62
     7
  0
LINE
  5
60
  8
0
  6
CONTINUOUS
 62
     7
 10
-303.5447789651
 20
286.3683361053
 30
0.0
 11
-303.5447789651
 21
-3.63165555
 31
0.0
  0
POLYLINE
  5
61
  8
0
  6
CONTINUOUS
 62
     7
 66
     1
 10
0.0
 20
0.0
 30
0.0
  0
VERTEX
  5
4F0
  8
0
  6
CONTINUOUS
 62
     7
 10
-303.5447789651
 20
286.3683361053
 30
0.0
  0
VERTEX
  5
4F1
  8
0
  6
CONTINUOUS
 62
     7
 10
-303.4973858219
 20
286.1537742853
 30
0.0
  0
VERTEX
  5
4F2
  8
0
  6
CONTINUOUS
 62
     7
 10
-303.3403052312
 20
285.996686244
 30
0.0
  0
VERTEX
  5
4F3
  8
0
  6
CONTINUOUS
 62
     7
 10
-303.0610798221
 20
285.9004992485
 30
0.0
  0
VERTEX
  5
4F4
  8
0
  6
CONTINUOUS
 62
     7
 10
-302.6660947424
 20
285.8683425426
 30
0.0
  0
VERTEX
  5
4F5
  8
0
  6
CONTINUOUS
 62
     7
 10
-302.1775974255
 20
285.9003204346
 30
0.0
  0
VERTEX
  5
4F6
  8
0
  6
CONTINUOUS
 62
     7
 10
-301.6348375302
 20
285.9962988138
 30
0.0
  0
VERTEX
  5
4F7
  8
0
  6
CONTINUOUS
 62
     7
 10
-301.075537346
 20
286.1539232969
 30
0.0
  0
VERTEX
  5
4F8
  8
0
  6
CONTINUOUS
 62
     7
 10
-300.544780336
 20
286.3683361053
 30
0.0
  0
SEQEND
  5
4F9
  8
0
  6
CONTINUOUS
 62
     7
  0
POLYLINE
  5
62
  8
0
  6
CONTINUOUS
 62
     7
 66
     1
 10
0.0
 20
0.0
 30
0.0
  0
VERTEX
  5
4FA
  8
0
  6
CONTINUOUS
 62
     7
 10
-106.5447820645
 20
286.3683361053
 30
0.0
  0
VERTEX
  5
4FB
  8
0
  6
CONTINUOUS
 62
     7
 10
-106.5921826583
 20
286.1537742853
 30
0.0
  0
VERTEX
  5
4FC
  8
0
  6
CONTINUOUS
 62
     7
 10
-106.749263249
 20
285.996686244
 30
0.0
  0
VERTEX
  5
4FD
  8
0
  6
CONTINUOUS
 62
     7
 10
-107.028488658
 20
285.9004992485
 30
0.0
  0
VERTEX
  5
4FE
  8
0
  6
CONTINUOUS
 62
     7
 10
-107.4234662872
 20
285.8683425426
 30
0.0
  0
VERTEX
  5
4FF
  8
0
  6
CONTINUOUS
 62
     7
 10
-107.911963604
 20
285.9003204346
 30
0.0
  0
VERTEX
  5
500
  8
0
  6
CONTINUOUS
 62
     7
 10
-108.45473095
 20
285.9962988138
 30
0.0
  0
VERTEX
  5
501
  8
0
  6
CONTINUOUS
 62
     7
 10
-109.0140236836
 20
286.1539232969
 30
0.0
  0
VERTEX
  5
502
  8
0
  6
CONTINUOUS
 62
     7
 10
-109.5447806936
 20
286.3683361053
 30
0.0
  0
SEQEND
  5
503
  8
0
  6
CONTINUOUS
 62
     7
  0
LINE
  5
63
  8
0
  6
CONTINUOUS
 62
     7
 10
-106.5447820645
 20
-3.63165555
 30
0.0
 11
-106.5447820645
 21
286.3683361053
 31
0.0
  0
POLYLINE
  5
64
  8
0
  6
CONTINUOUS
 62
     7
 66
     1
 10
0.0
 20
0.0
 30
0.0
  0
VERTEX
  5
504
  8
0
  6
CONTINUOUS
 62
     7
 10
-106.5447820645
 20
-3.63165555
 30
0.0
  0
VERTEX
  5
505
  8
0
  6
CONTINUOUS
 62
     7
 10
-106.5921826583
 20
-3.41709373
 30
0.0
  0
VERTEX
  5
506
  8
0
  6
CONTINUOUS
 62
     7
 10
-106.749263249
 20
-3.2600056887
 30
0.0
  0
VERTEX
  5
507
  8
0
  6
CONTINUOUS
 62
     7
 10
-107.028488658
 20
-3.1638186932
 30
0.0
  0
VERTEX
  5
508
  8
0
  6
CONTINUOUS
 62
     7
 10
-107.4234662872
 20
-3.1316619873
 30
0.0
  0
VERTEX
  5
509
  8
0
  6
CONTINUOUS
 62
     7
 10
-107.911963604
 20
-3.1636398792
 30
0.0
  0
VERTEX
  5
50A
  8
0
  6
CONTINUOUS
 62
     7
 10
-108.45473095
 20
-3.2596182585
 30
0.0
  0
VERTEX
  5
50B
  8
0
  6
CONTINUOUS
 62
     7
 10
-109.0140236836
 20
-3.4172427416
 30
0.0
  0
VERTEX
  5
50C
  8
0
  6
CONTINUOUS
 62
     7
 10
-109.5447806936
 20
-3.63165555
 30
0.0
  0
SEQEND
  5
50D
  8
0
  6
CONTINUOUS
 62
     7
  0
ARC
  5
65
  8
0
  6
CONTINUOUS
 62
     7
 10
-108.4714207807
 20
286.300197928
 30
0.0
 40
0.4320426038359026
 50
268.313197142
 51
9.0741004889
  0
LINE
  5
66
  8
0
  6
CONTINUOUS
 62
     7
 10
-106.5447820645
 20
286.3683361053
 30
0.0
 11
-108.0447851043
 21
286.3683361053
 31
0.0
  0
LINE
  5
67
  8
0
  6
CONTINUOUS
 62
     7
 10
-110.0447817069
 20
288.3683401585
 30
0.0
 11
-110.0447817069
 21
289.8683357477
 31
0.0
  0
ARC
  5
68
  8
0
  6
CONTINUOUS
 62
     7
 10
-110.1238194195
 20
287.954102528
 30
0.0
 40
0.421710533970866
 50
79.1976433239
 51
183.4113216139
  0
LINE
  5
69
  8
0
  6
CONTINUOUS
 62
     7
 10
-303.5447789651
 20
286.3683361053
 30
0.0
 11
-302.0447833758
 21
286.3683361053
 31
0.0
  0
ARC
  5
6A
  8
0
  6
CONTINUOUS
 62
     7
 10
-301.6181464577
 20
286.3001990192
 30
0.0
 40
0.432043657972186
 50
170.9260683766
 51
271.6866339925
  0
ARC
  5
6B
  8
0
  6
CONTINUOUS
 62
     7
 10
-302.044782594
 20
-5.6316597223
 30
0.0
 40
2.499999999999972
 50
36.8698976458
 51
53.1301023542
  0
ARC
  5
6C
  8
0
  6
CONTINUOUS
 62
     7
 10
-108.044782594
 20
-5.6316597223
 30
0.0
 40
2.500000000000013
 50
126.8698976458
 51
143.1301023542
  0
ARC
  5
6D
  8
0
  6
CONTINUOUS
 62
     7
 10
-108.044782594
 20
288.3683402777
 30
0.0
 40
2.5
 50
216.8698976458
 51
233.1301023542
  0
ARC
  5
6E
  8
0
  6
CONTINUOUS
 62
     7
 10
-302.044782594
 20
288.3683402777
 30
0.0
 40
2.500000000000034
 50
306.8698976458
 51
323.1301023542
  0
POLYLINE
  5
6F
  8
0
  6
CONTINUOUS
 62
     7
 66
     1
 10
0.0
 20
0.0
 30
0.0
  0
VERTEX
  5
50E
  8
0
  6
CONTINUOUS
 62
     7
 10
-110.0447817069
 20
-4.1316640139
 30
0.0
  0
VERTEX
  5
50F
  8
0
  6
CONTINUOUS
 62
     7
 10
-110.2593435269
 20
-4.6628457069
 30
0.0
  0
VERTEX
  5
510
  8
0
  6
CONTINUOUS
 62
     7
 10
-110.4164315682
 20
-5.2202683449
 30
0.0
  0
VERTEX
  5
511
  8
0
  6
CONTINUOUS
 62
     7
 10
-110.5126334649
 20
-5.7651442051
 30
0.0
  0
VERTEX
  5
512
  8
0
  6
CONTINUOUS
 62
     7
 10
-110.5447827202
 20
-6.2529933214
 30
0.0
  0
VERTEX
  5
513
  8
0
  6
CONTINUOUS
 62
     7
 10
-110.5127973777
 20
-6.6483807325
 30
0.0
  0
VERTEX
  5
514
  8
0
  6
CONTINUOUS
 62
     7
 10
-110.4168189984
 20
-6.9266152144
 30
0.0
  0
VERTEX
  5
515
  8
0
  6
CONTINUOUS
 62
     7
 10
-110.2592019659
 20
-7.0843291044
 30
0.0
  0
VERTEX
  5
516
  8
0
  6
CONTINUOUS
 62
     7
 10
-110.0447817069
 20
-7.1316551924
 30
0.0
  0
SEQEND
  5
517
  8
0
  6
CONTINUOUS
 62
     7
  0
LINE
  5
70
  8
0
  6
CONTINUOUS
 62
     7
 10
-300.0447793227
 20
-7.1316551924
 30
0.0
 11
-110.0447817069
 21
-7.1316551924
 31
0.0
  0
POLYLINE
  5
71
  8
0
  6
CONTINUOUS
 62
     7
 66
     1
 10
0.0
 20
0.0
 30
0.0
  0
VERTEX
  5
518
  8
0
  6
CONTINUOUS
 62
     7
 10
-300.0447793227
 20
-4.1316640139
 30
0.0
  0
VERTEX
  5
519
  8
0
  6
CONTINUOUS
 62
     7
 10
-299.8302175027
 20
-4.6628457069
 30
0.0
  0
VERTEX
  5
51A
  8
0
  6
CONTINUOUS
 62
     7
 10
-299.6731294614
 20
-5.2202683449
 30
0.0
  0
VERTEX
  5
51B
  8
0
  6
CONTINUOUS
 62
     7
 10
-299.5769350153
 20
-5.7651442051
 30
0.0
  0
VERTEX
  5
51C
  8
0
  6
CONTINUOUS
 62
     7
 10
-299.54478576
 20
-6.2529933214
 30
0.0
  0
VERTEX
  5
51D
  8
0
  6
CONTINUOUS
 62
     7
 10
-299.5767711025
 20
-6.6483807325
 30
0.0
  0
VERTEX
  5
51E
  8
0
  6
CONTINUOUS
 62
     7
 10
-299.6727420312
 20
-6.9266152144
 30
0.0
  0
VERTEX
  5
51F
  8
0
  6
CONTINUOUS
 62
     7
 10
-299.8303590637
 20
-7.0843291044
 30
0.0
  0
VERTEX
  5
520
  8
0
  6
CONTINUOUS
 62
     7
 10
-300.0447793227
 20
-7.1316551924
 30
0.0
  0
SEQEND
  5
521
  8
0
  6
CONTINUOUS
 62
     7
  0
LINE
  5
72
  8
0
  6
CONTINUOUS
 62
     7
 10
-300.0447793227
 20
-5.6316596031
 30
0.0
 11
-300.0447793227
 21
-7.1316551924
 31
0.0
  0
ARC
  5
73
  8
0
  6
CONTINUOUS
 62
     7
 10
-299.9657423412
 20
-5.2174282797
 30
0.0
 40
0.4217042017594712
 50
259.1975802963
 51
3.4122313268
  0
ARC
  5
74
  8
0
  6
CONTINUOUS
 62
     7
 10
-301.6181464577
 20
-3.5635184639
 30
0.0
 40
0.4320436579721133
 50
88.3133660075
 51
189.0739316234
  0
LINE
  5
75
  8
0
  6
CONTINUOUS
 62
     7
 10
-303.5447789651
 20
-3.63165555
 30
0.0
 11
-302.0447833758
 21
-3.63165555
 31
0.0
  0
LINE
  5
76
  8
0
  6
CONTINUOUS
 62
     7
 10
-106.5447820645
 20
-3.63165555
 30
0.0
 11
-108.0447851043
 21
-3.63165555
 31
0.0
  0
ARC
  5
77
  8
0
  6
CONTINUOUS
 62
     7
 10
-108.4714207807
 20
-3.5635173727
 30
0.0
 40
0.432042603835899
 50
350.9258995111
 51
91.686802858
  0
ARC
  5
78
  8
0
  6
CONTINUOUS
 62
     7
 10
-110.1238194195
 20
-5.2174219727
 30
0.0
 40
0.4217105339708163
 50
176.5886783861
 51
280.8023566761
  0
LINE
  5
79
  8
0
  6
CONTINUOUS
 62
     7
 10
-110.0447817069
 20
-5.6316596031
 30
0.0
 11
-110.0447817069
 21
-7.1316551924
 31
0.0
  0
LINE
  5
7A
  8
0
  6
CONTINUOUS
 62
     7
 10
-109.8125471097
 20
288.3683401585
 30
0.0
 11
-109.8125471097
 21
289.8683357477
 31
0.0
  0
LINE
  5
7B
  8
0
  6
CONTINUOUS
 62
     7
 10
-110.0447817069
 20
288.3683401585
 30
0.0
 11
-109.8125471097
 21
288.3683401585
 31
0.0
  0
LINE
  5
7C
  8
0
  6
CONTINUOUS
 62
     7
 10
-110.0447817069
 20
289.8683357477
 30
0.0
 11
-109.8125471097
 21
289.8683357477
 31
0.0
  0
LINE
  5
7D
  8
0
  6
CONTINUOUS
 62
     7
 10
-303.5447789651
 20
286.8683445692
 30
0.0
 11
-302.0447833758
 21
286.8683445692
 31
0.0
  0
LINE
  5
7E
  8
0
  6
CONTINUOUS
 62
     7
 10
-302.0447833758
 20
286.8683445692
 30
0.0
 11
-302.0447833758
 21
286.3683361053
 31
0.0
  0
LINE
  5
7F
  8
0
  6
CONTINUOUS
 62
     7
 10
-303.5447789651
 20
286.8683445692
 30
0.0
 11
-303.5447789651
 21
286.3683361053
 31
0.0
  0
LINE
  5
80
  8
0
  6
CONTINUOUS
 62
     7
 10
-106.5447820645
 20
286.8683445692
 30
0.0
 11
-108.0447851043
 21
286.8683445692
 31
0.0
  0
LINE
  5
81
  8
0
  6
CONTINUOUS
 62
     7
 10
-108.0447851043
 20
286.8683445692
 30
0.0
 11
-108.0447851043
 21
286.3683361053
 31
0.0
  0
LINE
  5
82
  8
0
  6
CONTINUOUS
 62
     7
 10
-106.5447820645
 20
286.8683445692
 30
0.0
 11
-106.5447820645
 21
286.3683361053
 31
0.0
  0
LINE
  5
83
  8
0
  6
CONTINUOUS
 62
     7
 10
-300.2770139199
 20
289.8683357477
 30
0.0
 11
-300.2770139199
 21
288.3683401585
 31
0.0
  0
LINE
  5
84
  8
0
  6
CONTINUOUS
 62
     7
 10
-300.0447793227
 20
288.3683401585
 30
0.0
 11
-300.2770139199
 21
288.3683401585
 31
0.0
  0
LINE
  5
85
  8
0
  6
CONTINUOUS
 62
     7
 10
-300.0447793227
 20
289.8683357477
 30
0.0
 11
-300.2770139199
 21
289.8683357477
 31
0.0
  0
LINE
  5
86
  8
0
  6
CONTINUOUS
 62
     7
 10
-303.5447789651
 20
-4.1316640139
 30
0.0
 11
-302.0447833758
 21
-4.1316640139
 31
0.0
  0
LINE
  5
87
  8
0
  6
CONTINUOUS
 62
     7
 10
-302.0447833758
 20
-4.1316640139
 30
0.0
 11
-302.0447833758
 21
-3.63165555
 31
0.0
  0
LINE
  5
88
  8
0
  6
CONTINUOUS
 62
     7
 10
-303.5447789651
 20
-4.1316640139
 30
0.0
 11
-303.5447789651
 21
-3.63165555
 31
0.0
  0
LINE
  5
89
  8
0
  6
CONTINUOUS
 62
     7
 10
-300.0447793227
 20
-7.1316551924
 30
0.0
 11
-300.2770139199
 21
-7.1316551924
 31
0.0
  0
LINE
  5
8A
  8
0
  6
CONTINUOUS
 62
     7
 10
-300.2770139199
 20
-5.6316596031
 30
0.0
 11
-300.2770139199
 21
-7.1316551924
 31
0.0
  0
LINE
  5
8B
  8
0
  6
CONTINUOUS
 62
     7
 10
-300.0447793227
 20
-5.6316596031
 30
0.0
 11
-300.2770139199
 21
-5.6316596031
 31
0.0
  0
LINE
  5
8C
  8
0
  6
CONTINUOUS
 62
     7
 10
-109.8125471097
 20
-7.1316551924
 30
0.0
 11
-109.8125471097
 21
-5.6316596031
 31
0.0
  0
LINE
  5
8D
  8
0
  6
CONTINUOUS
 62
     7
 10
-110.0447817069
 20
-7.1316551924
 30
0.0
 11
-109.8125471097
 21
-7.1316551924
 31
0.0
  0
LINE
  5
8E
  8
0
  6
CONTINUOUS
 62
     7
 10
-110.0447817069
 20
-5.6316596031
 30
0.0
 11
-109.8125471097
 21
-5.6316596031
 31
0.0
  0
LINE
  5
8F
  8
0
  6
CONTINUOUS
 62
     7
 10
-106.5447820645
 20
-4.1316640139
 30
0.0
 11
-108.0447851043
 21
-4.1316640139
 31
0.0
  0
LINE
  5
90
  8
0
  6
CONTINUOUS
 62
     7
 10
-108.0447851043
 20
-4.1316640139
 30
0.0
 11
-108.0447851043
 21
-3.63165555
 31
0.0
  0
LINE
  5
91
  8
0
  6
CONTINUOUS
 62
     7
 10
-106.5447820645
 20
-4.1316640139
 30
0.0
 11
-106.5447820645
 21
-3.63165555
 31
0.0
  0
LINE
  5
92
  8
0
  6
CONTINUOUS
 62
     7
 10
-300.2770139199
 20
288.3683401585
 30
0.0
 11
-300.544780336
 21
288.3683401585
 31
0.0
  0
LINE
  5
93
  8
0
  6
CONTINUOUS
 62
     7
 10
-300.544780336
 20
289.8683357477
 30
0.0
 11
-300.544780336
 21
288.3683401585
 31
0.0
  0
LINE
  5
94
  8
0
  6
CONTINUOUS
 62
     7
 10
-300.2770139199
 20
289.8683357477
 30
0.0
 11
-300.544780336
 21
289.8683357477
 31
0.0
  0
LINE
  5
95
  8
0
  6
CONTINUOUS
 62
     7
 10
-109.8125471097
 20
288.3683401585
 30
0.0
 11
-109.5447806936
 21
288.3683401585
 31
0.0
  0
LINE
  5
96
  8
0
  6
CONTINUOUS
 62
     7
 10
-109.5447806936
 20
289.8683357477
 30
0.0
 11
-109.5447806936
 21
288.3683401585
 31
0.0
  0
LINE
  5
97
  8
0
  6
CONTINUOUS
 62
     7
 10
-109.8125471097
 20
289.8683357477
 30
0.0
 11
-109.5447806936
 21
289.8683357477
 31
0.0
  0
LINE
  5
98
  8
0
  6
CONTINUOUS
 62
     7
 10
-300.2770139199
 20
-5.6316596031
 30
0.0
 11
-300.544780336
 21
-5.6316596031
 31
0.0
  0
LINE
  5
99
  8
0
  6
CONTINUOUS
 62
     7
 10
-300.2770139199
 20
-7.1316551924
 30
0.0
 11
-300.544780336
 21
-7.1316551924
 31
0.0
  0
LINE
  5
9A
  8
0
  6
CONTINUOUS
 62
     7
 10
-300.544780336
 20
-7.1316551924
 30
0.0
 11
-300.544780336
 21
-5.6316596031
 31
0.0
  0
LINE
  5
9B
  8
0
  6
CONTINUOUS
 62
     7
 10
-109.8125471097
 20
-5.6316596031
 30
0.0
 11
-109.5447806936
 21
-5.6316596031
 31
0.0
  0
LINE
  5
9C
  8
0
  6
CONTINUOUS
 62
     7
 10
-109.5447806936
 20
-7.1316551924
 30
0.0
 11
-109.5447806936
 21
-5.6316596031
 31
0.0
  0
LINE
  5
9D
  8
0
  6
CONTINUOUS
 62
     7
 10
-109.8125471097
 20
-7.1316551924
 30
0.0
 11
-109.5447806936
 21
-7.1316551924
 31
0.0
  0
ARC
  5
9E
  8
0
  6
CONTINUOUS
 62
     7
 10
-300.5447975432
 20
286.8683543259
 30
0.0
 40
2.999981421901004
 50
89.9996713645
 51
180.0001863397
  0
ARC
  5
9F
  8
0
  6
CONTINUOUS
 62
     7
 10
-300.5447847765
 20
286.8683415591
 30
0.0
 40
1.499998599356112
 50
89.9998303859
 51
179.9998850228
  0
ARC
  5
A0
  8
0
  6
CONTINUOUS
 62
     7
 10
-109.5447764061
 20
286.8683488567
 30
0.0
 40
1.499991301766673
 50
359.9998362288
 51
90.0001637712
  0
ARC
  5
A1
  8
0
  6
CONTINUOUS
 62
     7
 10
-109.5447755692
 20
286.868342243
 30
0.0
 40
2.99999350473363
 50
0.0000444276
 51
90.0000978683
  0
ARC
  5
A2
  8
0
  6
CONTINUOUS
 62
     7
 10
-300.5447847765
 20
-4.1316610038
 30
0.0
 40
1.499998599356125
 50
180.0001149772
 51
270.0001696141
  0
ARC
  5
A3
  8
0
  6
CONTINUOUS
 62
     7
 10
-300.5447975432
 20
-4.1316737705
 30
0.0
 40
2.999981421901015
 50
179.9998136603
 51
270.0003286355
  0
ARC
  5
A4
  8
0
  6
CONTINUOUS
 62
     7
 10
-109.5447764061
 20
-4.1316683014
 30
0.0
 40
1.499991301766673
 50
269.9998362288
 51
0.0001637712
  0
ARC
  5
A5
  8
0
  6
CONTINUOUS
 62
     7
 10
-109.5447755692
 20
-4.1316616877
 30
0.0
 40
2.99999350473363
 50
269.9999021317
 51
359.9999555724
  0
LINE
  5
A6
  8
0
  6
CONTINUOUS
 62
     7
 10
-303.094070993
 20
-6.4053725958
 30
0.0
 11
-302.8498111587
 21
-6.0260188341
 31
0.0
  0
LINE
  5
A7
  8
0
  6
CONTINUOUS
 62
     7
 10
-303.0940784436
 20
-6.4053725958
 30
0.0
 11
-303.0940784436
 21
-6.0185086489
 31
0.0
  0
LINE
  5
A8
  8
0
  6
CONTINUOUS
 62
     7
 10
-110.0375620943
 20
-4.1220825672
 30
0.0
 11
-108.5664077025
 21
-5.5878799915
 31
0.0
  0
LINE
  5
A9
  8
0
  6
CONTINUOUS
 62
     7
 10
-301.8401382786
 20
-4.8759025097
 30
0.0
 11
-300.5811838728
 21
-3.6169481039
 31
0.0
  0
ARC
  5
AA
  8
0
  6
CONTINUOUS
 62
     7
 10
-330.379545415
 20
4.2189733616
 30
0.0
 40
29.28093978800606
 50
333.9679490222
 51
338.7251825741
  0
ARC
  5
AB
  8
0
  6
CONTINUOUS
 62
     7
 10
-320.6023447225
 20
-100.6792209537
 30
0.0
 40
232.4807654338162
 50
23.3243764456
 51
23.8493742018
  0
LINE
  5
AC
  8
0
  6
CONTINUOUS
 62
     7
 10
-107.1203692179
 20
-8.6316656828
 30
0.0
 11
-117.9967044216
 21
-8.6316656828
 31
0.0
  0
LINE
  5
AD
  8
0
  6
CONTINUOUS
 62
     7
 10
-123.1928585392
 20
-8.6316656828
 30
0.0
 11
-287.9967062097
 21
-8.6316656828
 31
0.0
  0
LINE
  5
AE
  8
0
  6
CONTINUOUS
 62
     7
 10
-293.1928603273
 20
-8.6316656828
 30
0.0
 11
-304.069195531
 21
-8.6316656828
 31
0.0
  0
ARC
  5
AF
  8
0
  6
CONTINUOUS
 62
     7
 10
-159.4329695685
 20
-52.1835990451
 30
0.0
 40
69.03829227568202
 50
40.7352400674
 51
41.4607660135
  0
LINE
  5
B0
  8
0
  6
CONTINUOUS
 62
     7
 10
-107.1203692179
 20
-8.6316656828
 30
0.0
 11
-107.1203692179
 21
-7.1316551924
 31
0.0
  0
LINE
  5
B1
  8
0
  6
CONTINUOUS
 62
     7
 10
-301.8632797819
 20
287.5674474478
 30
0.0
 11
-300.6266175133
 21
286.3352853298
 31
0.0
  0
ARC
  5
B2
  8
0
  6
CONTINUOUS
 62
     7
 10
-299.0940752677
 20
291.8665285356
 30
0.0
 40
4.999999999973015
 50
224.3979399628
 51
225.1044244628
  0
LINE
  5
B3
  8
0
  6
CONTINUOUS
 62
     7
 10
-110.0588484031
 20
286.9031685829
 30
0.0
 11
-108.5936768275
 21
288.3683401585
 31
0.0
  0
ARC
  5
B4
  8
0
  6
CONTINUOUS
 62
     7
 10
-80.8100193339
 20
278.5177071938
 30
0.0
 40
29.28093978800607
 50
153.9679490222
 51
158.7251825741
  0
POLYLINE
  5
B5
  8
0
  6
CONTINUOUS
 62
     7
 66
     1
 10
0.0
 20
0.0
 30
0.0
  0
VERTEX
  5
522
  8
0
  6
CONTINUOUS
 62
     7
 10
-302.8648985844
 20
288.7440580368
 30
0.0
  0
VERTEX
  5
523
  8
0
  6
CONTINUOUS
 62
     7
 10
-303.2030431848
 20
289.3846440554
 30
0.0
  0
VERTEX
  5
524
  8
0
  6
CONTINUOUS
 62
     7
 10
-303.5989148837
 20
290.2892637491
 30
0.0
  0
VERTEX
  5
525
  8
0
  6
CONTINUOUS
 62
     7
 10
-303.840954445
 20
290.9677881241
 30
0.0
  0
VERTEX
  5
526
  8
0
  6
CONTINUOUS
 62
     7
 10
-303.9568035227
 20
291.2494051695
 30
0.0
  0
VERTEX
  5
527
  8
0
  6
CONTINUOUS
 62
     7
 10
-304.069195531
 20
291.3683462381
 30
0.0
  0
SEQEND
  5
528
  8
0
  6
CONTINUOUS
 62
     7
  0
LINE
  5
B6
  8
0
  6
CONTINUOUS
 62
     7
 10
-107.1203692179
 20
291.3683462381
 30
0.0
 11
-304.069195531
 21
291.3683462381
 31
0.0
  0
POLYLINE
  5
B7
  8
0
  6
CONTINUOUS
 62
     7
 66
     1
 10
0.0
 20
0.0
 30
0.0
  0
VERTEX
  5
529
  8
0
  6
CONTINUOUS
 62
     7
 10
-303.1936927062
 20
288.8676333666
 30
0.0
  0
VERTEX
  5
52A
  8
0
  6
CONTINUOUS
 62
     7
 10
-303.2030431848
 20
288.8764995575
 30
0.0
  0
VERTEX
  5
52B
  8
0
  6
CONTINUOUS
 62
     7
 10
-303.5989148837
 20
289.3287945032
 30
0.0
  0
VERTEX
  5
52C
  8
0
  6
CONTINUOUS
 62
     7
 10
-303.840954445
 20
289.6680641413
 30
0.0
  0
VERTEX
  5
52D
  8
0
  6
CONTINUOUS
 62
     7
 10
-303.9568035227
 20
289.8088652134
 30
0.0
  0
VERTEX
  5
52E
  8
0
  6
CONTINUOUS
 62
     7
 10
-304.069195531
 20
289.8683357477
 30
0.0
  0
SEQEND
  5
52F
  8
0
  6
CONTINUOUS
 62
     7
  0
LINE
  5
B8
  8
0
  6
CONTINUOUS
 62
     7
 10
-304.069195531
 20
291.3683462381
 30
0.0
 11
-304.069195531
 21
289.8683357477
 31
0.0
  0
LINE
  5
B9
  8
0
  6
CONTINUOUS
 62
     7
 10
-110.0784210783
 20
286.951612258
 30
0.0
 11
-108.6385665756
 21
288.3967119694
 31
0.0
  0
LINE
  5
BA
  8
0
  6
CONTINUOUS
 62
     7
 10
-108.5947795134
 20
-5.6327622891
 30
0.0
 11
-110.059489153
 21
-4.1680675507
 31
0.0
  0
LINE
  5
BB
  8
0
  6
CONTINUOUS
 62
     7
 10
-105.5947808843
 20
-7.1060698986
 30
0.0
 11
-105.5947808843
 21
289.8427504539
 31
0.0
  0
ARC
  5
BC
  8
0
  6
CONTINUOUS
 62
     7
 10
-118.4491041722
 20
-33.4248312913
 30
0.0
 40
29.29011485871021
 50
63.9686945473
 51
68.724437049
  0
ARC
  5
BD
  8
0
  6
CONTINUOUS
 62
     7
 10
-17.6279369893
 20
85.7972591451
 30
0.0
 40
222.1997483084389
 50
113.321544746
 51
113.8484226882
  0
ARC
  5
BE
  8
0
  6
CONTINUOUS
 62
     7
 10
-292.7404605767
 20
316.1615118467
 30
0.0
 40
29.2901148587102
 50
243.9686945473
 51
248.724437049
  0
LINE
  5
BF
  8
0
  6
CONTINUOUS
 62
     7
 10
-303.3684907776
 20
288.8676333666
 30
0.0
 11
-302.9716877561
 21
288.6121380568
 31
0.0
  0
POLYLINE
  5
C0
  8
0
  6
CONTINUOUS
 62
     7
 66
     1
 10
0.0
 20
0.0
 30
0.0
  0
VERTEX
  5
530
  8
0
  6
CONTINUOUS
 62
     7
 10
-302.9563991648
 20
-5.8943372726
 30
0.0
  0
VERTEX
  5
531
  8
0
  6
CONTINUOUS
 62
     7
 10
-303.6110891324
 20
-6.2399250031
 30
0.0
  0
VERTEX
  5
532
  8
0
  6
CONTINUOUS
 62
     7
 10
-304.5157013756
 20
-6.6357892513
 30
0.0
  0
VERTEX
  5
533
  8
0
  6
CONTINUOUS
 62
     7
 10
-305.1942332011
 20
-6.8778288126
 30
0.0
  0
VERTEX
  5
534
  8
0
  6
CONTINUOUS
 62
     7
 10
-305.4758427959
 20
-6.9936704397
 30
0.0
  0
VERTEX
  5
535
  8
0
  6
CONTINUOUS
 62
     7
 10
-305.5947838646
 20
-7.1060698986
 30
0.0
  0
SEQEND
  5
536
  8
0
  6
CONTINUOUS
 62
     7
  0
LINE
  5
C1
  8
0
  6
CONTINUOUS
 62
     7
 10
-305.5947838646
 20
-7.1060698986
 30
0.0
 11
-305.5947838646
 21
289.8427504539
 31
0.0
  0
LINE
  5
C2
  8
0
  6
CONTINUOUS
 62
     7
 10
-303.3684907776
 20
288.8676333666
 30
0.0
 11
-302.9816342812
 21
288.8676333666
 31
0.0
  0
LINE
  5
C3
  8
0
  6
CONTINUOUS
 62
     7
 10
-300.5363388282
 20
-3.6380183458
 30
0.0
 11
-301.8162144643
 21
-4.9225729466
 31
0.0
  0
LINE
  5
C4
  8
0
  6
CONTINUOUS
 62
     7
 10
-301.8393857699
 20
287.6140433788
 30
0.0
 11
-300.5796118003
 21
286.3542694092
 31
0.0
  0
POLYLINE
  5
C5
  8
0
  6
CONTINUOUS
 62
     7
 66
     1
 10
0.0
 20
0.0
 30
0.0
  0
VERTEX
  5
537
  8
0
  6
CONTINUOUS
 62
     7
 10
-303.0940784436
 20
-6.2305670738
 30
0.0
  0
VERTEX
  5
538
  8
0
  6
CONTINUOUS
 62
     7
 10
-303.1029371839
 20
-6.2399250031
 30
0.0
  0
VERTEX
  5
539
  8
0
  6
CONTINUOUS
 62
     7
 10
-303.5552395802
 20
-6.6357892513
 30
0.0
  0
VERTEX
  5
53A
  8
0
  6
CONTINUOUS
 62
     7
 10
-303.8945092183
 20
-6.8778288126
 30
0.0
  0
VERTEX
  5
53B
  8
0
  6
CONTINUOUS
 62
     7
 10
-304.035317741
 20
-6.9936704397
 30
0.0
  0
VERTEX
  5
53C
  8
0
  6
CONTINUOUS
 62
     7
 10
-304.0947808247
 20
-7.1060698986
 30
0.0
  0
SEQEND
  5
53D
  8
0
  6
CONTINUOUS
 62
     7
  0
LINE
  5
C6
  8
0
  6
CONTINUOUS
 62
     7
 10
-305.5947838646
 20
-7.1060698986
 30
0.0
 11
-304.0947808247
 21
-7.1060698986
 31
0.0
  0
ARC
  5
C7
  8
0
  6
CONTINUOUS
 62
     7
 10
-59.931680587
 20
235.1035955369
 30
0.0
 40
72.25464273962359
 50
130.7480956261
 51
131.4482969494
  0
LINE
  5
C8
  8
0
  6
CONTINUOUS
 62
     7
 10
-105.5947808843
 20
289.8427504539
 30
0.0
 11
-107.0947839242
 21
289.8427504539
 31
0.0
  0
LINE
  5
C9
  8
0
  6
CONTINUOUS
 62
     7
 10
-304.069195531
 20
-7.1316551924
 30
0.0
 11
-304.069195531
 21
-8.6316656828
 31
0.0
  0
ARC
  5
CA
  8
0
  6
CONTINUOUS
 62
     7
 10
-313.621642761
 20
2.2199695884
 30
0.0
 40
13.36795175492487
 50
315.6086437862
 51
321.9545949616
  0
LINE
  5
CB
  8
0
  6
CONTINUOUS
 62
     7
 10
-107.1203692179
 20
289.8683357477
 30
0.0
 11
-107.1203692179
 21
291.3683462381
 31
0.0
  0
ARC
  5
CC
  8
0
  6
CONTINUOUS
 62
     7
 10
-99.8852437362
 20
282.7436384845
 30
0.0
 40
10.15422827347581
 50
135.440600574
 51
140.3788324623
  0
LINE
  5
CD
  8
0
  6
CONTINUOUS
 62
     7
 10
-304.0947808247
 20
289.8427504539
 30
0.0
 11
-305.5947838646
 21
289.8427504539
 31
0.0
  0
ARC
  5
CE
  8
0
  6
CONTINUOUS
 62
     7
 10
-294.7378210704
 20
299.401287832
 30
0.0
 40
13.37603575999533
 50
225.6105633819
 51
231.9526753659
  0
ARC
  5
CF
  8
0
  6
CONTINUOUS
 62
     7
 10
-114.2359049934
 20
-14.3587373332
 30
0.0
 40
10.17825107969639
 50
45.4440115273
 51
50.4021758023
  0
LINE
  5
D0
  8
0
  6
CONTINUOUS
 62
     7
 10
-107.0947839242
 20
-7.1060698986
 30
0.0
 11
-105.5947808843
 21
-7.1060698986
 31
0.0
  0
LINE
  5
D1
  8
0
  6
CONTINUOUS
 62
     7
 10
-304.0940730196
 20
291.3683462381
 30
0.0
 11
-304.0940730196
 21
289.8683357477
 31
0.0
  0
LINE
  5
D2
  8
0
  6
CONTINUOUS
 62
     7
 10
-304.0940730196
 20
291.3683462381
 30
0.0
 11
-304.069195531
 21
291.3683462381
 31
0.0
  0
LINE
  5
D3
  8
0
  6
CONTINUOUS
 62
     7
 10
-304.0940730196
 20
289.8683357477
 30
0.0
 11
-304.069195531
 21
289.8683357477
 31
0.0
  0
LINE
  5
D4
  8
0
  6
CONTINUOUS
 62
     7
 10
-305.5947838646
 20
-7.1309548378
 30
0.0
 11
-304.0947808247
 21
-7.1309548378
 31
0.0
  0
LINE
  5
D5
  8
0
  6
CONTINUOUS
 62
     7
 10
-305.5947838646
 20
-7.1309548378
 30
0.0
 11
-305.5947838646
 21
-7.1060698986
 31
0.0
  0
LINE
  5
D6
  8
0
  6
CONTINUOUS
 62
     7
 10
-304.0947808247
 20
-7.1309548378
 30
0.0
 11
-304.0947808247
 21
-7.1060698986
 31
0.0
  0
LINE
  5
D7
  8
0
  6
CONTINUOUS
 62
     7
 10
-105.5947808843
 20
-7.1309548378
 30
0.0
 11
-105.5947808843
 21
-7.1060698986
 31
0.0
  0
LINE
  5
D8
  8
0
  6
CONTINUOUS
 62
     7
 10
-105.5947808843
 20
-7.1309548378
 30
0.0
 11
-107.0947839242
 21
-7.1309548378
 31
0.0
  0
LINE
  5
D9
  8
0
  6
CONTINUOUS
 62
     7
 10
-107.0947839242
 20
-7.1060698986
 30
0.0
 11
-107.0947839242
 21
-7.1309548378
 31
0.0
  0
LINE
  5
DA
  8
0
  6
CONTINUOUS
 62
     7
 10
-107.1203692179
 20
291.3683462381
 30
0.0
 11
-107.0954917293
 21
291.3683462381
 31
0.0
  0
LINE
  5
DB
  8
0
  6
CONTINUOUS
 62
     7
 10
-107.0954917293
 20
291.3683462381
 30
0.0
 11
-107.0954917293
 21
289.8683357477
 31
0.0
  0
LINE
  5
DC
  8
0
  6
CONTINUOUS
 62
     7
 10
-107.1203692179
 20
289.8683357477
 30
0.0
 11
-107.0954917293
 21
289.8683357477
 31
0.0
  0
LINE
  5
DD
  8
0
  6
CONTINUOUS
 62
     7
 10
-304.0940730196
 20
-8.6316656828
 30
0.0
 11
-304.0940730196
 21
-7.1316551924
 31
0.0
  0
LINE
  5
DE
  8
0
  6
CONTINUOUS
 62
     7
 10
-304.069195531
 20
-7.1316551924
 30
0.0
 11
-304.0940730196
 21
-7.1316551924
 31
0.0
  0
LINE
  5
DF
  8
0
  6
CONTINUOUS
 62
     7
 10
-304.0940730196
 20
-8.6316656828
 30
0.0
 11
-304.069195531
 21
-8.6316656828
 31
0.0
  0
LINE
  5
E0
  8
0
  6
CONTINUOUS
 62
     7
 10
-107.0954917293
 20
-7.1316551924
 30
0.0
 11
-107.1203692179
 21
-7.1316551924
 31
0.0
  0
LINE
  5
E1
  8
0
  6
CONTINUOUS
 62
     7
 10
-107.0954917293
 20
-8.6316656828
 30
0.0
 11
-107.0954917293
 21
-7.1316551924
 31
0.0
  0
LINE
  5
E2
  8
0
  6
CONTINUOUS
 62
     7
 10
-107.0954917293
 20
-8.6316656828
 30
0.0
 11
-107.1203692179
 21
-8.6316656828
 31
0.0
  0
LINE
  5
E3
  8
0
  6
CONTINUOUS
 62
     7
 10
-107.0947839242
 20
289.8676353931
 30
0.0
 11
-107.0947839242
 21
289.8427504539
 31
0.0
  0
LINE
  5
E4
  8
0
  6
CONTINUOUS
 62
     7
 10
-105.5947808843
 20
289.8676353931
 30
0.0
 11
-107.0947839242
 21
289.8676353931
 31
0.0
  0
LINE
  5
E5
  8
0
  6
CONTINUOUS
 62
     7
 10
-105.5947808843
 20
289.8427504539
 30
0.0
 11
-105.5947808843
 21
289.8676353931
 31
0.0
  0
LINE
  5
E6
  8
0
  6
CONTINUOUS
 62
     7
 10
-305.5947838646
 20
289.8427504539
 30
0.0
 11
-305.5947838646
 21
289.8676353931
 31
0.0
  0
LINE
  5
E7
  8
0
  6
CONTINUOUS
 62
     7
 10
-305.5947838646
 20
289.8676353931
 30
0.0
 11
-304.0947808247
 21
289.8676353931
 31
0.0
  0
LINE
  5
E8
  8
0
  6
CONTINUOUS
 62
     7
 10
-304.0947808247
 20
289.8427504539
 30
0.0
 11
-304.0947808247
 21
289.8676353931
 31
0.0
  0
ARC
  5
E9
  8
0
  6
CONTINUOUS
 62
     7
 10
-303.0947823745
 20
-6.1316597223
 30
0.0
 40
2.000000000000028
 50
209.9766118508
 51
240.0233881504
  0
ARC
  5
EA
  8
0
  6
CONTINUOUS
 62
     7
 10
-108.0947823745
 20
-6.1316597223
 30
0.0
 40
2.0
 50
299.9766118527
 51
330.0233881477
  0
ARC
  5
EB
  8
0
  6
CONTINUOUS
 62
     7
 10
-108.0947823745
 20
288.8683402777
 30
0.0
 40
2.000000000000005
 50
29.9766118508
 51
60.0233881503
  0
ARC
  5
EC
  8
0
  6
CONTINUOUS
 62
     7
 10
-303.0947823745
 20
288.8683402777
 30
0.0
 40
1.999999999999973
 50
119.9766118527
 51
150.0233881477
  0
LINE
  5
ED
  8
0
  6
CONTINUOUS
 62
     7
 10
-314.5947797519
 20
291.3683462381
 30
0.0
 11
-314.5947797519
 21
-8.6316656828
 31
0.0
  0
LINE
  5
EE
  8
0
  6
CONTINUOUS
 62
     7
 10
-324.5947851163
 20
-8.6316656828
 30
0.0
 11
-324.5947851163
 21
291.3683462381
 31
0.0
  0
LINE
  5
EF
  8
0
  6
CONTINUOUS
 62
     7
 10
-96.5947849971
 20
-8.6316656828
 30
0.0
 11
-96.5947849971
 21
291.3683462381
 31
0.0
  0
LINE
  5
F0
  8
0
  6
CONTINUOUS
 62
     7
 10
-86.5947796326
 20
291.3683462381
 30
0.0
 11
-86.5947796326
 21
-8.6316656828
 31
0.0
  0
LINE
  5
F1
  8
0
  6
CONTINUOUS
 62
     7
 10
-282.5947819572
 20
-8.93165586
 30
0.0
 11
-283.5947839838
 21
-8.93165586
 31
0.0
  0
LINE
  5
F2
  8
0
  6
CONTINUOUS
 62
     7
 10
-282.5947819572
 20
-8.93165586
 30
0.0
 11
-282.5947819572
 21
-12.3316538096
 31
0.0
  0
LINE
  5
F3
  8
0
  6
CONTINUOUS
 62
     7
 10
-294.7275681716
 20
-12.3316538096
 30
0.0
 11
-282.5947819572
 21
-12.3316538096
 31
0.0
  0
LINE
  5
F4
  8
0
  6
CONTINUOUS
 62
     7
 10
-282.5947819572
 20
-8.93165586
 30
0.0
 11
-282.894779585
 21
-8.6316656828
 31
0.0
  0
LINE
  5
F5
  8
0
  6
CONTINUOUS
 62
     7
 10
-282.894779585
 20
-12.6316588879
 30
0.0
 11
-294.5075897795
 21
-12.6316588879
 31
0.0
  0
LINE
  5
F6
  8
0
  6
CONTINUOUS
 62
     7
 10
-282.5947819572
 20
-12.3316538096
 30
0.0
 11
-282.894779585
 21
-12.6316588879
 31
0.0
  0
LINE
  5
F7
  8
0
  6
CONTINUOUS
 62
     7
 10
-297.5947825533
 20
-8.93165586
 30
0.0
 11
-324.7278599363
 21
-8.93165586
 31
0.0
  0
LINE
  5
F8
  8
0
  6
CONTINUOUS
 62
     7
 10
-324.7278599363
 20
-12.3316538096
 30
0.0
 11
-294.7275681716
 21
-12.3316538096
 31
0.0
  0
LINE
  5
F9
  8
0
  6
CONTINUOUS
 62
     7
 10
-294.5075897795
 20
-12.6316588879
 30
0.0
 11
-324.5078889948
 21
-12.6316588879
 31
0.0
  0
LINE
  5
FA
  8
0
  6
CONTINUOUS
 62
     7
 10
-324.5078889948
 20
-8.6316656828
 30
0.0
 11
-304.0940730196
 21
-8.6316656828
 31
0.0
  0
LINE
  5
FB
  8
0
  6
CONTINUOUS
 62
     7
 10
-325.2947820645
 20
-12.6316588879
 30
0.0
 11
-325.5947796922
 21
-12.3316538096
 31
0.0
  0
LINE
  5
FC
  8
0
  6
CONTINUOUS
 62
     7
 10
-325.5947796922
 20
-12.3316538096
 30
0.0
 11
-324.7278599363
 21
-12.3316538096
 31
0.0
  0
LINE
  5
FD
  8
0
  6
CONTINUOUS
 62
     7
 10
-324.5078889948
 20
-12.6316588879
 30
0.0
 11
-325.2947820645
 21
-12.6316588879
 31
0.0
  0
LINE
  5
FE
  8
0
  6
CONTINUOUS
 62
     7
 10
-324.7278599363
 20
-8.93165586
 30
0.0
 11
-325.5947796922
 21
-8.93165586
 31
0.0
  0
LINE
  5
FF
  8
0
  6
CONTINUOUS
 62
     7
 10
-325.5947796922
 20
-12.3316538096
 30
0.0
 11
-325.5947796922
 21
-8.93165586
 31
0.0
  0
LINE
  5
100
  8
0
  6
CONTINUOUS
 62
     7
 10
-325.5947796922
 20
-8.93165586
 30
0.0
 11
-325.2947820645
 21
-8.6316656828
 31
0.0
  0
LINE
  5
101
  8
0
  6
CONTINUOUS
 62
     7
 10
-325.2947820645
 20
-8.6316656828
 30
0.0
 11
-324.5078889948
 21
-8.6316656828
 31
0.0
  0
LINE
  5
102
  8
0
  6
CONTINUOUS
 62
     7
 10
-294.7275681716
 20
291.6683364153
 30
0.0
 11
-282.5947819572
 21
291.6683364153
 31
0.0
  0
LINE
  5
103
  8
0
  6
CONTINUOUS
 62
     7
 10
-282.5947819572
 20
291.6683364153
 30
0.0
 11
-282.894779585
 21
291.3683462381
 31
0.0
  0
LINE
  5
104
  8
0
  6
CONTINUOUS
 62
     7
 10
-282.5947819572
 20
295.0683343649
 30
0.0
 11
-294.7275681716
 21
295.0683343649
 31
0.0
  0
LINE
  5
105
  8
0
  6
CONTINUOUS
 62
     7
 10
-294.5075897795
 20
295.3683394432
 30
0.0
 11
-282.894779585
 21
295.3683394432
 31
0.0
  0
LINE
  5
106
  8
0
  6
CONTINUOUS
 62
     7
 10
-282.5947819572
 20
295.0683343649
 30
0.0
 11
-282.894779585
 21
295.3683394432
 31
0.0
  0
LINE
  5
107
  8
0
  6
CONTINUOUS
 62
     7
 10
-282.5947819572
 20
295.0683343649
 30
0.0
 11
-282.5947819572
 21
291.6683364153
 31
0.0
  0
LINE
  5
108
  8
0
  6
CONTINUOUS
 62
     7
 10
-294.7275681716
 20
295.0683343649
 30
0.0
 11
-324.7278599363
 21
295.0683343649
 31
0.0
  0
LINE
  5
109
  8
0
  6
CONTINUOUS
 62
     7
 10
-324.7278599363
 20
291.6683364153
 30
0.0
 11
-294.7275681716
 21
291.6683364153
 31
0.0
  0
LINE
  5
10A
  8
0
  6
CONTINUOUS
 62
     7
 10
-324.5078889948
 20
295.3683394432
 30
0.0
 11
-294.5075897795
 21
295.3683394432
 31
0.0
  0
LINE
  5
10B
  8
0
  6
CONTINUOUS
 62
     7
 10
-304.0940730196
 20
291.3683462381
 30
0.0
 11
-324.5078889948
 21
291.3683462381
 31
0.0
  0
LINE
  5
10C
  8
0
  6
CONTINUOUS
 62
     7
 10
-325.2947820645
 20
291.3683462381
 30
0.0
 11
-325.5947796922
 21
291.6683364153
 31
0.0
  0
LINE
  5
10D
  8
0
  6
CONTINUOUS
 62
     7
 10
-325.5947796922
 20
291.6683364153
 30
0.0
 11
-324.7278599363
 21
291.6683364153
 31
0.0
  0
LINE
  5
10E
  8
0
  6
CONTINUOUS
 62
     7
 10
-324.5078889948
 20
291.3683462381
 30
0.0
 11
-325.2947820645
 21
291.3683462381
 31
0.0
  0
LINE
  5
10F
  8
0
  6
CONTINUOUS
 62
     7
 10
-324.7278599363
 20
295.0683343649
 30
0.0
 11
-325.5947796922
 21
295.0683343649
 31
0.0
  0
LINE
  5
110
  8
0
  6
CONTINUOUS
 62
     7
 10
-325.5947796922
 20
295.0683343649
 30
0.0
 11
-325.2947820645
 21
295.3683394432
 31
0.0
  0
LINE
  5
111
  8
0
  6
CONTINUOUS
 62
     7
 10
-325.2947820645
 20
295.3683394432
 30
0.0
 11
-324.5078889948
 21
295.3683394432
 31
0.0
  0
LINE
  5
112
  8
0
  6
CONTINUOUS
 62
     7
 10
-325.5947796922
 20
291.6683364153
 30
0.0
 11
-325.5947796922
 21
295.0683343649
 31
0.0
  0
LINE
  5
113
  8
0
  6
CONTINUOUS
 62
     7
 10
-128.5947827917
 20
291.6683364153
 30
0.0
 11
-116.4619965773
 21
291.6683364153
 31
0.0
  0
LINE
  5
114
  8
0
  6
CONTINUOUS
 62
     7
 10
-128.5947827917
 20
291.6683364153
 30
0.0
 11
-128.294785164
 21
291.3683462381
 31
0.0
  0
LINE
  5
115
  8
0
  6
CONTINUOUS
 62
     7
 10
-128.294785164
 20
295.3683394432
 30
0.0
 11
-116.6819749695
 21
295.3683394432
 31
0.0
  0
LINE
  5
116
  8
0
  6
CONTINUOUS
 62
     7
 10
-116.4619965773
 20
295.0683343649
 30
0.0
 11
-128.5947827917
 21
295.0683343649
 31
0.0
  0
LINE
  5
117
  8
0
  6
CONTINUOUS
 62
     7
 10
-128.5947827917
 20
295.0683343649
 30
0.0
 11
-128.294785164
 21
295.3683394432
 31
0.0
  0
LINE
  5
118
  8
0
  6
CONTINUOUS
 62
     7
 10
-128.5947827917
 20
291.6683364153
 30
0.0
 11
-128.5947827917
 21
295.0683343649
 31
0.0
  0
LINE
  5
119
  8
0
  6
CONTINUOUS
 62
     7
 10
-116.4619965773
 20
291.6683364153
 30
0.0
 11
-86.4617048126
 21
291.6683364153
 31
0.0
  0
LINE
  5
11A
  8
0
  6
CONTINUOUS
 62
     7
 10
-86.4617048126
 20
295.0683343649
 30
0.0
 11
-116.4619965773
 21
295.0683343649
 31
0.0
  0
LINE
  5
11B
  8
0
  6
CONTINUOUS
 62
     7
 10
-86.6816757541
 20
291.3683462381
 30
0.0
 11
-107.0954917293
 21
291.3683462381
 31
0.0
  0
LINE
  5
11C
  8
0
  6
CONTINUOUS
 62
     7
 10
-116.6819749695
 20
295.3683394432
 30
0.0
 11
-86.6816757541
 21
295.3683394432
 31
0.0
  0
LINE
  5
11D
  8
0
  6
CONTINUOUS
 62
     7
 10
-85.8947826844
 20
295.3683394432
 30
0.0
 11
-85.5947850567
 21
295.0683343649
 31
0.0
  0
LINE
  5
11E
  8
0
  6
CONTINUOUS
 62
     7
 10
-85.5947850567
 20
295.0683343649
 30
0.0
 11
-86.4617048126
 21
295.0683343649
 31
0.0
  0
LINE
  5
11F
  8
0
  6
CONTINUOUS
 62
     7
 10
-86.6816757541
 20
295.3683394432
 30
0.0
 11
-85.8947826844
 21
295.3683394432
 31
0.0
  0
LINE
  5
120
  8
0
  6
CONTINUOUS
 62
     7
 10
-86.4617048126
 20
291.6683364153
 30
0.0
 11
-85.5947850567
 21
291.6683364153
 31
0.0
  0
LINE
  5
121
  8
0
  6
CONTINUOUS
 62
     7
 10
-85.5947850567
 20
295.0683343649
 30
0.0
 11
-85.5947850567
 21
291.6683364153
 31
0.0
  0
LINE
  5
122
  8
0
  6
CONTINUOUS
 62
     7
 10
-85.5947850567
 20
291.6683364153
 30
0.0
 11
-85.8947826844
 21
291.3683462381
 31
0.0
  0
LINE
  5
123
  8
0
  6
CONTINUOUS
 62
     7
 10
-85.8947826844
 20
291.3683462381
 30
0.0
 11
-86.6816757541
 21
291.3683462381
 31
0.0
  0
LINE
  5
124
  8
0
  6
CONTINUOUS
 62
     7
 10
-128.5947827917
 20
-12.3316538096
 30
0.0
 11
-116.4619965773
 21
-12.3316538096
 31
0.0
  0
LINE
  5
125
  8
0
  6
CONTINUOUS
 62
     7
 10
-116.6819749695
 20
-12.6316588879
 30
0.0
 11
-128.294785164
 21
-12.6316588879
 31
0.0
  0
LINE
  5
126
  8
0
  6
CONTINUOUS
 62
     7
 10
-128.5947827917
 20
-12.3316538096
 30
0.0
 11
-128.294785164
 21
-12.6316588879
 31
0.0
  0
LINE
  5
127
  8
0
  6
CONTINUOUS
 62
     7
 10
-127.5947807651
 20
-8.93165586
 30
0.0
 11
-128.5947827917
 21
-8.93165586
 31
0.0
  0
LINE
  5
128
  8
0
  6
CONTINUOUS
 62
     7
 10
-128.5947827917
 20
-8.93165586
 30
0.0
 11
-128.294785164
 21
-8.6316656828
 31
0.0
  0
LINE
  5
129
  8
0
  6
CONTINUOUS
 62
     7
 10
-128.5947827917
 20
-12.3316538096
 30
0.0
 11
-128.5947827917
 21
-8.93165586
 31
0.0
  0
LINE
  5
12A
  8
0
  6
CONTINUOUS
 62
     7
 10
-86.4617048126
 20
-8.93165586
 30
0.0
 11
-113.5947821956
 21
-8.93165586
 31
0.0
  0
LINE
  5
12B
  8
0
  6
CONTINUOUS
 62
     7
 10
-107.0954917293
 20
-8.6316656828
 30
0.0
 11
-86.6816757541
 21
-8.6316656828
 31
0.0
  0
LINE
  5
12C
  8
0
  6
CONTINUOUS
 62
     7
 10
-116.4619965773
 20
-12.3316538096
 30
0.0
 11
-86.4617048126
 21
-12.3316538096
 31
0.0
  0
LINE
  5
12D
  8
0
  6
CONTINUOUS
 62
     7
 10
-86.6816757541
 20
-12.6316588879
 30
0.0
 11
-116.6819749695
 21
-12.6316588879
 31
0.0
  0
LINE
  5
12E
  8
0
  6
CONTINUOUS
 62
     7
 10
-86.4617048126
 20
-12.3316538096
 30
0.0
 11
-85.5947850567
 21
-12.3316538096
 31
0.0
  0
LINE
  5
12F
  8
0
  6
CONTINUOUS
 62
     7
 10
-85.5947850567
 20
-12.3316538096
 30
0.0
 11
-85.8947826844
 21
-12.6316588879
 31
0.0
  0
LINE
  5
130
  8
0
  6
CONTINUOUS
 62
     7
 10
-85.8947826844
 20
-12.6316588879
 30
0.0
 11
-86.6816757541
 21
-12.6316588879
 31
0.0
  0
LINE
  5
131
  8
0
  6
CONTINUOUS
 62
     7
 10
-85.8947826844
 20
-8.6316656828
 30
0.0
 11
-85.5947850567
 21
-8.93165586
 31
0.0
  0
LINE
  5
132
  8
0
  6
CONTINUOUS
 62
     7
 10
-85.5947850567
 20
-8.93165586
 30
0.0
 11
-86.4617048126
 21
-8.93165586
 31
0.0
  0
LINE
  5
133
  8
0
  6
CONTINUOUS
 62
     7
 10
-86.6816757541
 20
-8.6316656828
 30
0.0
 11
-85.8947826844
 21
-8.6316656828
 31
0.0
  0
LINE
  5
134
  8
0
  6
CONTINUOUS
 62
     7
 10
-85.5947850567
 20
-8.93165586
 30
0.0
 11
-85.5947850567
 21
-12.3316538096
 31
0.0
  0
ARC
  5
135
  8
0
  6
CONTINUOUS
 62
     7
 10
-258.044782594
 20
141.3683402777
 30
0.0
 40
8.000000000000078
 50
190.8069228749
 51
349.1930771251
  0
ARC
  5
136
  8
0
  6
CONTINUOUS
 62
     7
 10
-258.044782594
 20
141.3683402777
 30
0.0
 40
5.000000000000009
 50
197.4576031237
 51
342.5423968763
  0
LINE
  5
137
  8
0
  6
CONTINUOUS
 62
     7
 10
-253.2750858289
 20
139.8683402646
 30
0.0
 11
-250.1866674345
 21
139.8683402646
 31
0.0
  0
LINE
  5
138
  8
0
  6
CONTINUOUS
 62
     7
 10
-262.8144776743
 20
139.8683402646
 30
0.0
 11
-265.9028997939
 21
139.8683402646
 31
0.0
  0
LINE
  5
139
  8
0
  6
CONTINUOUS
 62
     7
 10
-253.2750858289
 20
142.8683402907
 30
0.0
 11
-250.1866674345
 21
142.8683402907
 31
0.0
  0
ARC
  5
13A
  8
0
  6
CONTINUOUS
 62
     7
 10
-258.044782594
 20
141.3683402777
 30
0.0
 40
5.000000000000298
 50
17.4576031237
 51
162.5423968763
  0
LINE
  5
13B
  8
0
  6
CONTINUOUS
 62
     7
 10
-262.8144776743
 20
142.8683402907
 30
0.0
 11
-265.9028997939
 21
142.8683402907
 31
0.0
  0
ARC
  5
13C
  8
0
  6
CONTINUOUS
 62
     7
 10
-258.044782594
 20
141.3683402777
 30
0.0
 40
8.000000000000652
 50
10.8069228749
 51
169.1930771251
  0
CIRCLE
  5
13D
  8
0
  6
CONTINUOUS
 62
     7
 10
-258.044782594
 20
141.3683402777
 30
0.0
 40
2.5
  0
ARC
  5
13E
  8
0
  6
CONTINUOUS
 62
     7
 10
-258.044782594
 20
141.3683402777
 30
0.0
 40
8.000000000000743
 50
169.1930771251
 51
190.8069228749
  0
ARC
  5
13F
  8
0
  6
CONTINUOUS
 62
     7
 10
-258.044782594
 20
141.3683402777
 30
0.0
 40
7.999999999999988
 50
349.1930771251
 51
10.8069228749
  0
ARC
  5
140
  8
0
  6
CONTINUOUS
 62
     7
 10
-258.044782594
 20
141.3683402777
 30
0.0
 40
12.24192993465007
 50
152.862078374
 51
207.1379513768
  0
ARC
  5
141
  8
0
  6
CONTINUOUS
 62
     7
 10
-258.044782594
 20
141.3683402777
 30
0.0
 40
12.24192993624998
 50
332.8620780628
 51
27.137951024
  0
CIRCLE
  5
142
  8
0
  6
CONTINUOUS
 62
     7
 10
-258.044782594
 20
141.3683402777
 30
0.0
 40
8.049999999999983
  0
ARC
  5
143
  8
0
  6
CONTINUOUS
 62
     7
 10
-270.0122901297
 20
125.3097796618
 30
0.0
 40
2.770600138717877
 50
178.2664773063
 51
264.9847787543
  0
ARC
  5
144
  8
0
  6
CONTINUOUS
 62
     7
 10
-270.0230009422
 20
157.4364189687
 30
0.0
 40
2.760199691666722
 50
94.8110107521
 51
181.9377331873
  0
ARC
  5
145
  8
0
  6
CONTINUOUS
 62
     7
 10
-246.0772769066
 20
157.4268977539
 30
0.0
 40
2.770603575270072
 50
358.2665444155
 51
84.984711645
  0
ARC
  5
146
  8
0
  6
CONTINUOUS
 62
     7
 10
-246.0665643907
 20
125.3002632126
 30
0.0
 40
2.760201465332283
 50
274.811045768
 51
1.9376981714
  0
ARC
  5
147
  8
0
  6
CONTINUOUS
 62
     7
 10
-258.0372580101
 20
141.3683394401
 30
0.0
 40
12.49328826748529
 50
332.846352176
 51
27.1536852592
  0
ARC
  5
148
  8
0
  6
CONTINUOUS
 62
     7
 10
-258.0523264791
 20
141.3683372509
 30
0.0
 40
12.49327135799677
 50
152.8462924828
 51
207.1537075172
  0
ARC
  5
149
  8
0
  6
CONTINUOUS
 62
     7
 10
-258.044782594
 20
141.3683402777
 30
0.0
 40
12.50000000000004
 50
27.1379395953
 51
152.8620934681
  0
ARC
  5
14A
  8
0
  6
CONTINUOUS
 62
     7
 10
-258.044782594
 20
141.3683402777
 30
0.0
 40
12.50000000000003
 50
207.1379399383
 51
332.8620895856
  0
ARC
  5
14B
  8
0
  6
CONTINUOUS
 62
     7
 10
-272.8390279647
 20
156.9526529567
 30
0.0
 40
0.3946319652856568
 50
81.6357087086
 51
121.4253805699
  0
ARC
  5
14C
  8
0
  6
CONTINUOUS
 62
     7
 10
-272.8390296972
 20
125.7840307897
 30
0.0
 40
0.3946353744267788
 50
238.5752166295
 51
278.3644727582
  0
LINE
  5
14D
  8
0
  6
CONTINUOUS
 62
     7
 10
-273.0447842103
 20
125.4472784191
 30
0.0
 11
-273.0447842103
 21
157.2894002736
 31
0.0
  0
ARC
  5
14E
  8
0
  6
CONTINUOUS
 62
     7
 10
-243.2505354616
 20
125.7840129445
 30
0.0
 40
0.3946174782090303
 50
261.6353881524
 51
301.4260188375
  0
ARC
  5
14F
  8
0
  6
CONTINUOUS
 62
     7
 10
-243.2505321219
 20
156.9526722984
 30
0.0
 40
0.3946133263573809
 50
58.5741810813
 51
98.3651906051
  0
LINE
  5
150
  8
0
  6
CONTINUOUS
 62
     7
 10
-243.0447830182
 20
157.2894021362
 30
0.0
 11
-243.0447830182
 21
125.4472802818
 31
0.0
  0
ARC
  5
151
  8
0
  6
CONTINUOUS
 62
     7
 10
-270.0336926059
 20
157.9506826651
 30
0.0
 40
3.011117704372038
 50
94.0554439915
 51
180.2704730916
  0
ARC
  5
152
  8
0
  6
CONTINUOUS
 62
     7
 10
-270.0097533583
 20
157.388321225
 30
0.0
 40
3.036642492438794
 50
94.4200883637
 51
181.8667840985
  0
LINE
  5
153
  8
0
  6
CONTINUOUS
 62
     7
 10
-273.0447842103
 20
157.2894002736
 30
0.0
 11
-273.0447842103
 21
157.9364682972
 31
0.0
  0
ARC
  5
154
  8
0
  6
CONTINUOUS
 62
     7
 10
-246.0558708973
 20
124.7859978902
 30
0.0
 40
3.011117704372042
 50
274.0554439915
 51
0.2704730916
  0
ARC
  5
155
  8
0
  6
CONTINUOUS
 62
     7
 10
-246.0797985845
 20
125.3483456363
 30
0.0
 40
3.036627661089277
 50
274.4198207227
 51
1.8670517395
  0
LINE
  5
156
  8
0
  6
CONTINUOUS
 62
     7
 10
-243.0447830182
 20
125.4472802818
 30
0.0
 11
-243.0447830182
 21
124.8002122581
 31
0.0
  0
POLYLINE
  5
157
  8
0
  6
CONTINUOUS
 62
     7
 66
     1
 10
0.0
 20
0.0
 30
0.0
  0
VERTEX
  5
53E
  8
0
  6
CONTINUOUS
 62
     7
 10
-245.8429193419
 20
160.9542924404
 30
0.0
  0
VERTEX
  5
53F
  8
0
  6
CONTINUOUS
 62
     7
 10
-245.8442716223
 20
160.6900725007
 30
0.0
  0
VERTEX
  5
540
  8
0
  6
CONTINUOUS
 62
     7
 10
-245.845679782
 20
160.4159227997
 30
0.0
  0
SEQEND
  5
541
  8
0
  6
CONTINUOUS
 62
     7
  0
ARC
  5
158
  8
0
  6
CONTINUOUS
 62
     7
 10
-246.0608960876
 20
157.9460511738
 30
0.0
 40
3.01612821011187
 50
359.818454271
 51
85.8555989191
  0
ARC
  5
159
  8
0
  6
CONTINUOUS
 62
     7
 10
-246.0798006558
 20
157.3883373241
 30
0.0
 40
3.036629748870471
 50
358.1329393052
 51
85.5781691444
  0
LINE
  5
15A
  8
0
  6
CONTINUOUS
 62
     7
 10
-243.0447830182
 20
157.9364943743
 30
0.0
 11
-243.0447830182
 21
157.2894021362
 31
0.0
  0
POLYLINE
  5
15B
  8
0
  6
CONTINUOUS
 62
     7
 66
     1
 10
0.0
 20
0.0
 30
0.0
  0
VERTEX
  5
542
  8
0
  6
CONTINUOUS
 62
     7
 10
-270.2466441613
 20
121.7823881149
 30
0.0
  0
VERTEX
  5
543
  8
0
  6
CONTINUOUS
 62
     7
 10
-270.2452956062
 20
122.0466080546
 30
0.0
  0
VERTEX
  5
544
  8
0
  6
CONTINUOUS
 62
     7
 10
-270.2438874465
 20
122.3207577556
 30
0.0
  0
SEQEND
  5
545
  8
0
  6
CONTINUOUS
 62
     7
  0
ARC
  5
15C
  8
0
  6
CONTINUOUS
 62
     7
 10
-270.0286607374
 20
124.7906392968
 30
0.0
 40
3.016138582117073
 50
179.8186432511
 51
265.8554860021
  0
ARC
  5
15D
  8
0
  6
CONTINUOUS
 62
     7
 10
-270.0097634789
 20
125.3483460029
 30
0.0
 40
3.036632750762139
 50
178.1329934746
 51
265.578114975
  0
LINE
  5
15E
  8
0
  6
CONTINUOUS
 62
     7
 10
-273.0447842103
 20
124.8001861811
 30
0.0
 11
-273.0447842103
 21
125.4472784191
 31
0.0
  0
ARC
  5
15F
  8
0
  6
CONTINUOUS
 62
     7
 10
-269.2823692291
 20
122.4800623211
 30
0.0
 40
0.9746250766704122
 50
175.8975707189
 51
189.4071065971
  0
ARC
  5
160
  8
0
  6
CONTINUOUS
 62
     7
 10
-246.8073213846
 20
160.2565967039
 30
0.0
 40
0.9747503216600663
 50
355.8993675423
 51
9.4071697099
  0
ARC
  5
161
  8
0
  6
CONTINUOUS
 62
     7
 10
-258.044782594
 20
-18.6316597223
 30
0.0
 40
179.9999999999993
 50
86.1130450723
 51
93.8869556952
  0
ARC
  5
162
  8
0
  6
CONTINUOUS
 62
     7
 10
-258.044782594
 20
301.3683402777
 30
0.0
 40
180.0000000011287
 50
266.1130449516
 51
273.8869556953
  0
LINE
  5
163
  8
0
  6
CONTINUOUS
 62
     7
 10
-113.5947821956
 20
-10.6316548348
 30
0.0
 11
-127.5947807651
 21
-10.6316548348
 31
0.0
  0
LINE
  5
164
  8
0
  6
CONTINUOUS
 62
     7
 10
-117.9967044216
 20
-8.6316656828
 30
0.0
 11
-123.1928585392
 21
-8.6316656828
 31
0.0
  0
LINE
  5
165
  8
0
  6
CONTINUOUS
 62
     7
 10
-287.9967062097
 20
-8.6316656828
 30
0.0
 11
-293.1928603273
 21
-8.6316656828
 31
0.0
  0
LINE
  5
166
  8
0
  6
CONTINUOUS
 62
     7
 10
-283.5947839838
 20
-10.6316548348
 30
0.0
 11
-297.5947825533
 21
-10.6316548348
 31
0.0
  0
LINE
  5
167
  8
0
  6
CONTINUOUS
 62
     7
 10
-458.5260246796
 20
295.0683343649
 30
0.0
 11
-458.5260246796
 21
291.6683364153
 31
0.0
  0
LINE
  5
168
  8
0
  6
CONTINUOUS
 62
     7
 10
-458.5260246796
 20
291.6683364153
 30
0.0
 11
-458.2260270518
 21
291.3683462381
 31
0.0
  0
LINE
  5
169
  8
0
  6
CONTINUOUS
 62
     7
 10
-458.2260270518
 20
295.3683394432
 30
0.0
 11
-458.5260246796
 21
295.0683343649
 31
0.0
  0
LINE
  5
16A
  8
0
  6
CONTINUOUS
 62
     7
 10
-458.5260246796
 20
-8.93165586
 30
0.0
 11
-458.5260246796
 21
-12.3316538096
 31
0.0
  0
LINE
  5
16B
  8
0
  6
CONTINUOUS
 62
     7
 10
-458.2260270518
 20
-8.6316656828
 30
0.0
 11
-458.5260246796
 21
-8.93165586
 31
0.0
  0
LINE
  5
16C
  8
0
  6
CONTINUOUS
 62
     7
 10
-458.5260246796
 20
-12.3316538096
 30
0.0
 11
-458.2260270518
 21
-12.6316588879
 31
0.0
  0
ARC
  5
16D
  8
0
  6
CONTINUOUS
 62
     7
 10
-464.2260252671
 20
141.3683402777
 30
0.0
 40
89.50000000002
 50
167.6878123258
 51
171.8046187659
  0
ARC
  5
16E
  8
0
  6
CONTINUOUS
 62
     7
 10
-464.2260252671
 20
141.3683402777
 30
0.0
 40
89.50000000002005
 50
188.1938926696
 51
192.3117800122
  0
ARC
  5
16F
  8
0
  6
CONTINUOUS
 62
     7
 10
-553.1094623412
 20
128.5831213101
 30
0.0
 40
0.299836783872452
 50
5.6614785909
 51
90.4938849309
  0
ARC
  5
170
  8
0
  6
CONTINUOUS
 62
     7
 10
-464.2260252671
 20
141.3683402777
 30
0.0
 40
90.19999999999942
 50
185.4696070839
 51
187.799459856
  0
ARC
  5
171
  8
0
  6
CONTINUOUS
 62
     7
 10
-464.2260252671
 20
141.3683402777
 30
0.0
 40
90.19999999999939
 50
172.2005399977
 51
174.5303929161
  0
ARC
  5
172
  8
0
  6
CONTINUOUS
 62
     7
 10
-543.7260252671
 20
128.6116615694
 30
0.0
 40
32.99999999999996
 50
96.9620626911
 51
103.523892595
  0
ARC
  5
173
  8
0
  6
CONTINUOUS
 62
     7
 10
-543.7260252671
 20
154.125018986
 30
0.0
 40
32.99999999999995
 50
256.4797637263
 51
263.0379373089
  0
ARC
  5
174
  8
0
  6
CONTINUOUS
 62
     7
 10
-551.3709032511
 20
122.3312027492
 30
0.0
 40
0.2999840820389648
 50
191.9519472169
 51
257.7246706265
  0
ARC
  5
175
  8
0
  6
CONTINUOUS
 62
     7
 10
-551.3709032511
 20
160.4054778061
 30
0.0
 40
0.2999840820389786
 50
102.2753293735
 51
168.0480527831
  0
ARC
  5
176
  8
0
  6
CONTINUOUS
 62
     7
 10
-553.2943698122
 20
153.5683402777
 30
0.0
 40
0.3000000000000762
 50
90.0
 51
172.2023682146
  0
LINE
  5
177
  8
0
  6
CONTINUOUS
 62
     7
 10
-553.0815143985
 20
153.8683404639
 30
0.0
 11
-553.3219446343
 21
153.8683404639
 31
0.0
  0
LINE
  5
178
  8
0
  6
CONTINUOUS
 62
     7
 10
-553.3219446343
 20
128.8683400914
 30
0.0
 11
-553.0815292996
 21
128.8683400914
 31
0.0
  0
ARC
  5
179
  8
0
  6
CONTINUOUS
 62
     7
 10
-553.2943698122
 20
129.1683402777
 30
0.0
 40
0.3000000000000682
 50
187.7975877808
 51
270.0
  0
ARC
  5
17A
  8
0
  6
CONTINUOUS
 62
     7
 10
-553.5176122169
 20
149.9183402777
 30
0.0
 40
0.5000000000001812
 50
174.5304035698
 51
180.0
  0
ARC
  5
17B
  8
0
  6
CONTINUOUS
 62
     7
 10
-553.5176122169
 20
132.8183402777
 30
0.0
 40
0.5000000000001785
 50
180.0
 51
185.4695964302
  0
LINE
  5
17C
  8
0
  6
CONTINUOUS
 62
     7
 10
-554.0176053447
 20
149.9183406547
 30
0.0
 11
-554.0176053447
 21
132.8183399007
 31
0.0
  0
ARC
  5
17D
  8
0
  6
CONTINUOUS
 62
     7
 10
-553.0983604272
 20
154.1467230539
 30
0.0
 40
0.2881711577723163
 50
273.461146093
 51
355.4734187739
  0
LINE
  5
17E
  8
0
  6
CONTINUOUS
 62
     7
 10
-524.0260233086
 20
-8.6316656828
 30
0.0
 11
-524.0260233086
 21
-10.6316548348
 31
0.0
  0
LINE
  5
17F
  8
0
  6
CONTINUOUS
 62
     7
 10
-510.0260247392
 20
-10.6316548348
 30
0.0
 11
-510.0260247392
 21
-8.6316656828
 31
0.0
  0
LINE
  5
180
  8
0
  6
CONTINUOUS
 62
     7
 10
-512.526022355
 20
-7.1316551924
 30
0.0
 11
-512.526022355
 21
-7.1309548378
 31
0.0
  0
LINE
  5
181
  8
0
  6
CONTINUOUS
 62
     7
 10
-521.5260256928
 20
-7.1309548378
 30
0.0
 11
-521.5260256928
 21
-7.1316551924
 31
0.0
  0
LINE
  5
182
  8
0
  6
CONTINUOUS
 62
     7
 10
-528.5260249776
 20
218.3683398604
 30
0.0
 11
-528.7460257214
 21
218.3683398604
 31
0.0
  0
LINE
  5
183
  8
0
  6
CONTINUOUS
 62
     7
 10
-528.7460257214
 20
213.3683371782
 30
0.0
 11
-528.5260249776
 21
213.3683371782
 31
0.0
  0
LINE
  5
184
  8
0
  6
CONTINUOUS
 62
     7
 10
-528.7460257214
 20
218.3683398604
 30
0.0
 11
-529.1460324925
 21
217.9683405399
 31
0.0
  0
LINE
  5
185
  8
0
  6
CONTINUOUS
 62
     7
 10
-529.1460324925
 20
213.7683439493
 30
0.0
 11
-528.7460257214
 21
213.3683371782
 31
0.0
  0
LINE
  5
186
  8
0
  6
CONTINUOUS
 62
     7
 10
-528.5260249776
 20
258.3683389664
 30
0.0
 11
-528.7460257214
 21
258.3683389664
 31
0.0
  0
LINE
  5
187
  8
0
  6
CONTINUOUS
 62
     7
 10
-528.7460257214
 20
253.3683437347
 30
0.0
 11
-528.5260249776
 21
253.3683437347
 31
0.0
  0
LINE
  5
188
  8
0
  6
CONTINUOUS
 62
     7
 10
-528.7460257214
 20
258.3683389664
 30
0.0
 11
-529.1460324925
 21
257.9683396459
 31
0.0
  0
LINE
  5
189
  8
0
  6
CONTINUOUS
 62
     7
 10
-529.1460324925
 20
253.7683430552
 30
0.0
 11
-528.7460257214
 21
253.3683437347
 31
0.0
  0
LINE
  5
18A
  8
0
  6
CONTINUOUS
 62
     7
 10
-528.5260249776
 20
29.3683368206
 30
0.0
 11
-528.7460257214
 21
29.3683368206
 31
0.0
  0
LINE
  5
18B
  8
0
  6
CONTINUOUS
 62
     7
 10
-528.7460257214
 20
24.368341589
 30
0.0
 11
-528.5260249776
 21
24.368341589
 31
0.0
  0
LINE
  5
18C
  8
0
  6
CONTINUOUS
 62
     7
 10
-528.7460257214
 20
29.3683368206
 30
0.0
 11
-529.1460324925
 21
28.9683375001
 31
0.0
  0
LINE
  5
18D
  8
0
  6
CONTINUOUS
 62
     7
 10
-529.1460324925
 20
24.7683409095
 30
0.0
 11
-528.7460257214
 21
24.368341589
 31
0.0
  0
LINE
  5
18E
  8
0
  6
CONTINUOUS
 62
     7
 10
-528.5260249776
 20
69.3683433771
 30
0.0
 11
-528.7460257214
 21
69.3683433771
 31
0.0
  0
LINE
  5
18F
  8
0
  6
CONTINUOUS
 62
     7
 10
-528.7460257214
 20
64.3683406949
 30
0.0
 11
-528.5260249776
 21
64.3683406949
 31
0.0
  0
LINE
  5
190
  8
0
  6
CONTINUOUS
 62
     7
 10
-528.7460257214
 20
69.3683433771
 30
0.0
 11
-529.1460324925
 21
68.968336606
 31
0.0
  0
LINE
  5
191
  8
0
  6
CONTINUOUS
 62
     7
 10
-529.1460324925
 20
64.7683400154
 30
0.0
 11
-528.7460257214
 21
64.3683406949
 31
0.0
  0
LINE
  5
192
  8
0
  6
CONTINUOUS
 62
     7
 10
-445.4260264439
 20
-7.1316551924
 30
0.0
 11
-445.3994427723
 21
-7.1309548378
 31
0.0
  0
LINE
  5
193
  8
0
  6
CONTINUOUS
 62
     7
 10
-457.6526080173
 20
-7.1309548378
 30
0.0
 11
-457.6260243458
 21
-7.1316551924
 31
0.0
  0
LINE
  5
194
  8
0
  6
CONTINUOUS
 62
     7
 10
-457.6260243458
 20
289.8683357477
 30
0.0
 11
-457.6526080173
 21
289.8676353931
 31
0.0
  0
LINE
  5
195
  8
0
  6
CONTINUOUS
 62
     7
 10
-445.3994427723
 20
289.8676353931
 30
0.0
 11
-445.4260264439
 21
289.8683357477
 31
0.0
  0
LINE
  5
196
  8
0
  6
CONTINUOUS
 62
     7
 10
-432.6260258359
 20
289.8683357477
 30
0.0
 11
-432.6526095075
 21
289.8676353931
 31
0.0
  0
LINE
  5
197
  8
0
  6
CONTINUOUS
 62
     7
 10
-432.6526095075
 20
-7.1309548378
 30
0.0
 11
-432.6260258359
 21
-7.1316551924
 31
0.0
  0
LINE
  5
198
  8
0
  6
CONTINUOUS
 62
     7
 10
-499.8472799462
 20
289.8676353931
 30
0.0
 11
-499.7769315642
 21
289.8683357477
 31
0.0
  0
LINE
  5
199
  8
0
  6
CONTINUOUS
 62
     7
 10
-515.2769331736
 20
289.8683357477
 30
0.0
 11
-515.2769331736
 21
289.8676353931
 31
0.0
  0
LINE
  5
19A
  8
0
  6
CONTINUOUS
 62
     7
 10
-517.2769297761
 20
289.8676353931
 30
0.0
 11
-517.2769297761
 21
289.8683357477
 31
0.0
  0
LINE
  5
19B
  8
0
  6
CONTINUOUS
 62
     7
 10
-532.7260215682
 20
-4.1316640139
 30
0.0
 11
-532.7260215682
 21
-7.1316551924
 31
0.0
  0
LINE
  5
19C
  8
0
  6
CONTINUOUS
 62
     7
 10
-544.2260225219
 20
-7.1316551924
 30
0.0
 11
-532.7260215682
 21
-7.1316551924
 31
0.0
  0
POLYLINE
  5
19D
  8
0
  6
CONTINUOUS
 62
     7
 66
     1
 10
0.0
 20
0.0
 30
0.0
  0
VERTEX
  5
546
  8
0
  6
CONTINUOUS
 62
     7
 10
-544.2260225219
 20
-7.1316551924
 30
0.0
  0
VERTEX
  5
547
  8
0
  6
CONTINUOUS
 62
     7
 10
-544.0114607018
 20
-7.0842545986
 30
0.0
  0
VERTEX
  5
548
  8
0
  6
CONTINUOUS
 62
     7
 10
-543.8543726605
 20
-6.9271814585
 30
0.0
  0
VERTEX
  5
549
  8
0
  6
CONTINUOUS
 62
     7
 10
-543.7581707639
 20
-6.6479485989
 30
0.0
  0
VERTEX
  5
54A
  8
0
  6
CONTINUOUS
 62
     7
 10
-543.7260289592
 20
-6.2529784203
 30
0.0
  0
VERTEX
  5
54B
  8
0
  6
CONTINUOUS
 62
     7
 10
-543.7580068511
 20
-5.7644736528
 30
0.0
  0
VERTEX
  5
54C
  8
0
  6
CONTINUOUS
 62
     7
 10
-543.8539852303
 20
-5.2217137575
 30
0.0
  0
VERTEX
  5
54D
  8
0
  6
CONTINUOUS
 62
     7
 10
-544.0116097134
 20
-4.6624135733
 30
0.0
  0
VERTEX
  5
54E
  8
0
  6
CONTINUOUS
 62
     7
 10
-544.2260225219
 20
-4.1316640139
 30
0.0
  0
SEQEND
  5
54F
  8
0
  6
CONTINUOUS
 62
     7
  0
ARC
  5
19E
  8
0
  6
CONTINUOUS
 62
     7
 10
-546.2260252671
 20
288.3683402777
 30
0.0
 40
2.500000000000057
 50
306.8698976458
 51
323.1301023542
  0
LINE
  5
19F
  8
0
  6
CONTINUOUS
 62
     7
 10
-532.7260215682
 20
286.8683445692
 30
0.0
 11
-532.7260215682
 21
-4.1316640139
 31
0.0
  0
ARC
  5
1A0
  8
0
  6
CONTINUOUS
 62
     7
 10
-546.2260252671
 20
-5.6316597223
 30
0.0
 40
2.50000000000007
 50
36.8698976458
 51
53.1301023542
  0
LINE
  5
1A1
  8
0
  6
CONTINUOUS
 62
     7
 10
-544.2260225219
 20
-7.1316551924
 30
0.0
 11
-544.2260225219
 21
-5.6316596031
 31
0.0
  0
ARC
  5
1A2
  8
0
  6
CONTINUOUS
 62
     7
 10
-544.1578693943
 20
-5.2050407245
 30
0.0
 40
0.4320283745350564
 50
260.9235902779
 51
1.6900756447
  0
POLYLINE
  5
1A3
  8
0
  6
CONTINUOUS
 62
     7
 66
     1
 10
0.0
 20
0.0
 30
0.0
  0
VERTEX
  5
550
  8
0
  6
CONTINUOUS
 62
     7
 10
-544.7260309857
 20
-3.63165555
 30
0.0
  0
VERTEX
  5
551
  8
0
  6
CONTINUOUS
 62
     7
 10
-545.2572126788
 20
-3.41709373
 30
0.0
  0
VERTEX
  5
552
  8
0
  6
CONTINUOUS
 62
     7
 10
-545.8146353167
 20
-3.2600056887
 30
0.0
  0
VERTEX
  5
553
  8
0
  6
CONTINUOUS
 62
     7
 10
-546.359511177
 20
-3.1638186932
 30
0.0
  0
VERTEX
  5
554
  8
0
  6
CONTINUOUS
 62
     7
 10
-546.8473453921
 20
-3.1316619873
 30
0.0
  0
VERTEX
  5
555
  8
0
  6
CONTINUOUS
 62
     7
 10
-547.2427477044
 20
-3.1636398792
 30
0.0
  0
VERTEX
  5
556
  8
0
  6
CONTINUOUS
 62
     7
 10
-547.5209821862
 20
-3.2596182585
 30
0.0
  0
VERTEX
  5
557
  8
0
  6
CONTINUOUS
 62
     7
 10
-547.6786960763
 20
-3.4172427416
 30
0.0
  0
VERTEX
  5
558
  8
0
  6
CONTINUOUS
 62
     7
 10
-547.7260221642
 20
-3.63165555
 30
0.0
  0
SEQEND
  5
559
  8
0
  6
CONTINUOUS
 62
     7
  0
ARC
  5
1A4
  8
0
  6
CONTINUOUS
 62
     7
 10
-545.8117985033
 20
-3.5526157112
 30
0.0
 40
0.4217015431104166
 50
86.5873045338
 51
190.8028838431
  0
LINE
  5
1A5
  8
0
  6
CONTINUOUS
 62
     7
 10
-547.7260221642
 20
-3.63165555
 30
0.0
 11
-546.226026575
 21
-3.63165555
 31
0.0
  0
LINE
  5
1A6
  8
0
  6
CONTINUOUS
 62
     7
 10
-547.7260221642
 20
-3.63165555
 30
0.0
 11
-547.7260221642
 21
286.3683361053
 31
0.0
  0
POLYLINE
  5
1A7
  8
0
  6
CONTINUOUS
 62
     7
 66
     1
 10
0.0
 20
0.0
 30
0.0
  0
VERTEX
  5
55A
  8
0
  6
CONTINUOUS
 62
     7
 10
-544.7260309857
 20
286.3683361053
 30
0.0
  0
VERTEX
  5
55B
  8
0
  6
CONTINUOUS
 62
     7
 10
-545.2572126788
 20
286.1537742853
 30
0.0
  0
VERTEX
  5
55C
  8
0
  6
CONTINUOUS
 62
     7
 10
-545.8146353167
 20
285.996686244
 30
0.0
  0
VERTEX
  5
55D
  8
0
  6
CONTINUOUS
 62
     7
 10
-546.359511177
 20
285.9004992485
 30
0.0
  0
VERTEX
  5
55E
  8
0
  6
CONTINUOUS
 62
     7
 10
-546.8473453921
 20
285.8683425426
 30
0.0
  0
VERTEX
  5
55F
  8
0
  6
CONTINUOUS
 62
     7
 10
-547.2427477044
 20
285.9003204346
 30
0.0
  0
VERTEX
  5
560
  8
0
  6
CONTINUOUS
 62
     7
 10
-547.5209821862
 20
285.9962988138
 30
0.0
  0
VERTEX
  5
561
  8
0
  6
CONTINUOUS
 62
     7
 10
-547.6786960763
 20
286.1539232969
 30
0.0
  0
VERTEX
  5
562
  8
0
  6
CONTINUOUS
 62
     7
 10
-547.7260221642
 20
286.3683361053
 30
0.0
  0
SEQEND
  5
563
  8
0
  6
CONTINUOUS
 62
     7
  0
POLYLINE
  5
1A8
  8
0
  6
CONTINUOUS
 62
     7
 66
     1
 10
0.0
 20
0.0
 30
0.0
  0
VERTEX
  5
564
  8
0
  6
CONTINUOUS
 62
     7
 10
-544.2260225219
 20
289.8683357477
 30
0.0
  0
VERTEX
  5
565
  8
0
  6
CONTINUOUS
 62
     7
 10
-544.0114607018
 20
289.820935154
 30
0.0
  0
VERTEX
  5
566
  8
0
  6
CONTINUOUS
 62
     7
 10
-543.8543726605
 20
289.6638620138
 30
0.0
  0
VERTEX
  5
567
  8
0
  6
CONTINUOUS
 62
     7
 10
-543.7581707639
 20
289.3846291542
 30
0.0
  0
VERTEX
  5
568
  8
0
  6
CONTINUOUS
 62
     7
 10
-543.7260289592
 20
288.9896589756
 30
0.0
  0
VERTEX
  5
569
  8
0
  6
CONTINUOUS
 62
     7
 10
-543.7580068511
 20
288.5011542082
 30
0.0
  0
VERTEX
  5
56A
  8
0
  6
CONTINUOUS
 62
     7
 10
-543.8539852303
 20
287.9583943129
 30
0.0
  0
VERTEX
  5
56B
  8
0
  6
CONTINUOUS
 62
     7
 10
-544.0116097134
 20
287.3990941286
 30
0.0
  0
VERTEX
  5
56C
  8
0
  6
CONTINUOUS
 62
     7
 10
-544.2260225219
 20
286.8683445692
 30
0.0
  0
SEQEND
  5
56D
  8
0
  6
CONTINUOUS
 62
     7
  0
LINE
  5
1A9
  8
0
  6
CONTINUOUS
 62
     7
 10
-532.7260215682
 20
289.8683357477
 30
0.0
 11
-544.2260225219
 21
289.8683357477
 31
0.0
  0
LINE
  5
1AA
  8
0
  6
CONTINUOUS
 62
     7
 10
-532.7260215682
 20
289.8683357477
 30
0.0
 11
-532.7260215682
 21
286.8683445692
 31
0.0
  0
LINE
  5
1AB
  8
0
  6
CONTINUOUS
 62
     7
 10
-547.7260221642
 20
286.3683361053
 30
0.0
 11
-546.226026575
 21
286.3683361053
 31
0.0
  0
ARC
  5
1AC
  8
0
  6
CONTINUOUS
 62
     7
 10
-545.8117985033
 20
286.2892962666
 30
0.0
 40
0.4217015431104268
 50
169.1971161569
 51
273.4126954662
  0
ARC
  5
1AD
  8
0
  6
CONTINUOUS
 62
     7
 10
-544.1578693943
 20
287.9417212798
 30
0.0
 40
0.4320283745350301
 50
358.3099243553
 51
99.0764097221
  0
LINE
  5
1AE
  8
0
  6
CONTINUOUS
 62
     7
 10
-544.2260225219
 20
289.8683357477
 30
0.0
 11
-544.2260225219
 21
288.3683401585
 31
0.0
  0
LINE
  5
1AF
  8
0
  6
CONTINUOUS
 62
     7
 10
-544.4582571191
 20
-5.6316596031
 30
0.0
 11
-544.4582571191
 21
-7.1316551924
 31
0.0
  0
LINE
  5
1B0
  8
0
  6
CONTINUOUS
 62
     7
 10
-544.4582571191
 20
-5.6316596031
 30
0.0
 11
-544.2260225219
 21
-5.6316596031
 31
0.0
  0
LINE
  5
1B1
  8
0
  6
CONTINUOUS
 62
     7
 10
-544.4582571191
 20
-7.1316551924
 30
0.0
 11
-544.2260225219
 21
-7.1316551924
 31
0.0
  0
LINE
  5
1B2
  8
0
  6
CONTINUOUS
 62
     7
 10
-546.226026575
 20
-4.1316640139
 30
0.0
 11
-547.7260221642
 21
-4.1316640139
 31
0.0
  0
LINE
  5
1B3
  8
0
  6
CONTINUOUS
 62
     7
 10
-547.7260221642
 20
-3.63165555
 30
0.0
 11
-547.7260221642
 21
-4.1316640139
 31
0.0
  0
LINE
  5
1B4
  8
0
  6
CONTINUOUS
 62
     7
 10
-546.226026575
 20
-3.63165555
 30
0.0
 11
-546.226026575
 21
-4.1316640139
 31
0.0
  0
LINE
  5
1B5
  8
0
  6
CONTINUOUS
 62
     7
 10
-544.4582571191
 20
289.8683357477
 30
0.0
 11
-544.4582571191
 21
288.3683401585
 31
0.0
  0
LINE
  5
1B6
  8
0
  6
CONTINUOUS
 62
     7
 10
-544.4582571191
 20
288.3683401585
 30
0.0
 11
-544.2260225219
 21
288.3683401585
 31
0.0
  0
LINE
  5
1B7
  8
0
  6
CONTINUOUS
 62
     7
 10
-544.4582571191
 20
289.8683357477
 30
0.0
 11
-544.2260225219
 21
289.8683357477
 31
0.0
  0
LINE
  5
1B8
  8
0
  6
CONTINUOUS
 62
     7
 10
-546.226026575
 20
286.8683445692
 30
0.0
 11
-547.7260221642
 21
286.8683445692
 31
0.0
  0
LINE
  5
1B9
  8
0
  6
CONTINUOUS
 62
     7
 10
-547.7260221642
 20
286.3683361053
 30
0.0
 11
-547.7260221642
 21
286.8683445692
 31
0.0
  0
LINE
  5
1BA
  8
0
  6
CONTINUOUS
 62
     7
 10
-546.226026575
 20
286.3683361053
 30
0.0
 11
-546.226026575
 21
286.8683445692
 31
0.0
  0
LINE
  5
1BB
  8
0
  6
CONTINUOUS
 62
     7
 10
-544.7260309857
 20
-5.6316596031
 30
0.0
 11
-544.7260309857
 21
-7.1316551924
 31
0.0
  0
LINE
  5
1BC
  8
0
  6
CONTINUOUS
 62
     7
 10
-544.7260309857
 20
-5.6316596031
 30
0.0
 11
-544.4582571191
 21
-5.6316596031
 31
0.0
  0
LINE
  5
1BD
  8
0
  6
CONTINUOUS
 62
     7
 10
-544.7260309857
 20
-7.1316551924
 30
0.0
 11
-544.4582571191
 21
-7.1316551924
 31
0.0
  0
LINE
  5
1BE
  8
0
  6
CONTINUOUS
 62
     7
 10
-544.7260309857
 20
288.3683401585
 30
0.0
 11
-544.7260309857
 21
289.8683357477
 31
0.0
  0
LINE
  5
1BF
  8
0
  6
CONTINUOUS
 62
     7
 10
-544.7260309857
 20
288.3683401585
 30
0.0
 11
-544.4582571191
 21
288.3683401585
 31
0.0
  0
LINE
  5
1C0
  8
0
  6
CONTINUOUS
 62
     7
 10
-544.7260309857
 20
289.8683357477
 30
0.0
 11
-544.4582571191
 21
289.8683357477
 31
0.0
  0
ARC
  5
1C1
  8
0
  6
CONTINUOUS
 62
     7
 10
-544.7260322153
 20
-4.1316652435
 30
0.0
 40
1.499994359638371
 50
179.9999530319
 51
270.0000469681
  0
ARC
  5
1C2
  8
0
  6
CONTINUOUS
 62
     7
 10
-544.7260480399
 20
-4.131681068
 30
0.0
 40
2.999974124416883
 50
179.999674287
 51
270.000325713
  0
ARC
  5
1C3
  8
0
  6
CONTINUOUS
 62
     7
 10
-544.7260322153
 20
286.8683457988
 30
0.0
 40
1.499994359638371
 50
89.9999530319
 51
180.0000469681
  0
ARC
  5
1C4
  8
0
  6
CONTINUOUS
 62
     7
 10
-544.7260480399
 20
286.8683616233
 30
0.0
 40
2.999974124416882
 50
89.999674287
 51
180.000325713
  0
ARC
  5
1C5
  8
0
  6
CONTINUOUS
 62
     7
 10
-523.0278374348
 20
284.8676331709
 30
0.0
 40
4.999999999972999
 50
90.0
 51
95.7183052343
  0
LINE
  5
1C6
  8
0
  6
CONTINUOUS
 62
     7
 10
-423.5260263932
 20
289.8676353931
 30
0.0
 11
-523.0278392238
 21
289.8676353931
 31
0.0
  0
LINE
  5
1C7
  8
0
  6
CONTINUOUS
 62
     7
 10
-523.0278392238
 20
-7.1309548378
 30
0.0
 11
-423.5260263932
 21
-7.1309548378
 31
0.0
  0
ARC
  5
1C8
  8
0
  6
CONTINUOUS
 62
     7
 10
-523.0278374348
 20
-2.1309526156
 30
0.0
 40
5.000000000006458
 50
264.2816947658
 51
270.0
  0
CIRCLE
  5
1C9
  8
0
  6
CONTINUOUS
 62
     7
 10
-491.5260256927
 20
41.3683402777
 30
0.0
 40
0.2999999999999545
  0
LINE
  5
1CA
  8
0
  6
CONTINUOUS
 62
     7
 10
-526.4245440167
 20
-6.1309528112
 30
0.0
 11
-526.5260209245
 21
-5.6327622891
 31
0.0
  0
LINE
  5
1CB
  8
0
  6
CONTINUOUS
 62
     7
 10
-526.5260209245
 20
-5.5878799915
 30
0.0
 11
-526.5260209245
 21
288.4401190519
 31
0.0
  0
POLYLINE
  5
1CC
  8
0
  6
CONTINUOUS
 62
     7
 66
     1
 10
0.0
 20
0.0
 30
0.0
  0
VERTEX
  5
56E
  8
0
  6
CONTINUOUS
 62
     7
 10
-526.5260209245
 20
288.4401190519
 30
0.0
  0
VERTEX
  5
56F
  8
0
  6
CONTINUOUS
 62
     7
 10
-526.3486375016
 20
288.9766055584
 30
0.0
  0
VERTEX
  5
570
  8
0
  6
CONTINUOUS
 62
     7
 10
-525.8303900164
 20
289.3724698067
 30
0.0
  0
VERTEX
  5
571
  8
0
  6
CONTINUOUS
 62
     7
 10
-525.0236411494
 20
289.6145093679
 30
0.0
  0
VERTEX
  5
572
  8
0
  6
CONTINUOUS
 62
     7
 10
-524.3623723191
 20
289.7303509951
 30
0.0
  0
VERTEX
  5
573
  8
0
  6
CONTINUOUS
 62
     7
 10
-523.5260297459
 20
289.8427504539
 30
0.0
  0
SEQEND
  5
574
  8
0
  6
CONTINUOUS
 62
     7
  0
ARC
  5
1CD
  8
0
  6
CONTINUOUS
 62
     7
 10
-523.7200156223
 20
-2.8872449201
 30
0.0
 40
4.223282457928121
 50
230.1794367469
 51
272.6326640633
  0
LINE
  5
1CE
  8
0
  6
CONTINUOUS
 62
     7
 10
-523.5260297459
 20
-8.6316656828
 30
0.0
 11
-523.5260297459
 21
-7.1316551924
 31
0.0
  0
LINE
  5
1CF
  8
0
  6
CONTINUOUS
 62
     7
 10
-523.0278392238
 20
-7.1316551924
 30
0.0
 11
-523.5260297459
 21
-7.1316551924
 31
0.0
  0
LINE
  5
1D0
  8
0
  6
CONTINUOUS
 62
     7
 10
-523.0278392238
 20
-8.6316656828
 30
0.0
 11
-523.5260297459
 21
-8.6316656828
 31
0.0
  0
LINE
  5
1D1
  8
0
  6
CONTINUOUS
 62
     7
 10
-523.5260297459
 20
289.8683357477
 30
0.0
 11
-523.5260297459
 21
291.3683462381
 31
0.0
  0
LINE
  5
1D2
  8
0
  6
CONTINUOUS
 62
     7
 10
-523.5260297459
 20
289.8683357477
 30
0.0
 11
-523.0278392238
 21
289.8683357477
 31
0.0
  0
LINE
  5
1D3
  8
0
  6
CONTINUOUS
 62
     7
 10
-523.5260297459
 20
291.3683462381
 30
0.0
 11
-523.0278392238
 21
291.3683462381
 31
0.0
  0
LINE
  5
1D4
  8
0
  6
CONTINUOUS
 62
     7
 10
-423.5260263932
 20
-7.1316551924
 30
0.0
 11
-523.0278392238
 21
-7.1316551924
 31
0.0
  0
LINE
  5
1D5
  8
0
  6
CONTINUOUS
 62
     7
 10
-445.7437415522
 20
-8.6316656828
 30
0.0
 11
-523.0278392238
 21
-8.6316656828
 31
0.0
  0
LINE
  5
1D6
  8
0
  6
CONTINUOUS
 62
     7
 10
-523.0278392238
 20
289.8683357477
 30
0.0
 11
-423.5260263932
 21
289.8683357477
 31
0.0
  0
LINE
  5
1D7
  8
0
  6
CONTINUOUS
 62
     7
 10
-523.0278392238
 20
291.3683462381
 30
0.0
 11
-445.7437415522
 21
291.3683462381
 31
0.0
  0
POLYLINE
  5
1D8
  8
0
  6
CONTINUOUS
 62
     7
 66
     1
 10
0.0
 20
0.0
 30
0.0
  0
VERTEX
  5
575
  8
0
  6
CONTINUOUS
 62
     7
 10
-524.0207631987
 20
-7.0395809174
 30
0.0
  0
VERTEX
  5
576
  8
0
  6
CONTINUOUS
 62
     7
 10
-523.9442010325
 20
-7.0721846581
 30
0.0
  0
VERTEX
  5
577
  8
0
  6
CONTINUOUS
 62
     7
 10
-523.5260297459
 20
-7.1316551924
 30
0.0
  0
SEQEND
  5
578
  8
0
  6
CONTINUOUS
 62
     7
  0
ARC
  5
1D9
  8
0
  6
CONTINUOUS
 62
     7
 10
-523.5260169438
 20
-5.6316617022
 30
0.0
 40
3.000003980652627
 50
179.9999599112
 51
269.9997554975
  0
ARC
  5
1DA
  8
0
  6
CONTINUOUS
 62
     7
 10
-523.5259984002
 20
288.3683037735
 30
0.0
 40
3.000042464837963
 50
90.0005986521
 51
165.0537484504
  0
POLYLINE
  5
1DB
  8
0
  6
CONTINUOUS
 62
     7
 66
     1
 10
0.0
 20
0.0
 30
0.0
  0
VERTEX
  5
579
  8
0
  6
CONTINUOUS
 62
     7
 10
-523.5260297459
 20
289.8683357477
 30
0.0
  0
VERTEX
  5
57A
  8
0
  6
CONTINUOUS
 62
     7
 10
-523.8751639527
 20
289.8271489382
 30
0.0
  0
VERTEX
  5
57B
  8
0
  6
CONTINUOUS
 62
     7
 10
-524.023370902
 20
289.775918746
 30
0.0
  0
SEQEND
  5
57C
  8
0
  6
CONTINUOUS
 62
     7
  0
LINE
  5
1DC
  8
0
  6
CONTINUOUS
 62
     7
 10
-526.4245440167
 20
289.1420531511
 30
0.0
 11
-526.5260209245
 21
288.3683401585
 31
0.0
  0
LINE
  5
1DD
  8
0
  6
CONTINUOUS
 62
     7
 10
-526.5260209245
 20
-5.6316596031
 30
0.0
 11
-526.5260209245
 21
-5.5878799915
 31
0.0
  0
LINE
  5
1DE
  8
0
  6
CONTINUOUS
 62
     7
 10
-532.7260215682
 20
268.0005091667
 30
0.0
 11
-528.4435470504
 21
267.3986363649
 31
0.0
  0
LINE
  5
1DF
  8
0
  6
CONTINUOUS
 62
     7
 10
-528.234781782
 20
268.8840437174
 30
0.0
 11
-532.7260215682
 21
269.5152420044
 31
0.0
  0
LINE
  5
1E0
  8
0
  6
CONTINUOUS
 62
     7
 10
-528.234781782
 20
268.8840437174
 30
0.0
 11
-528.4435470504
 21
267.3986363649
 31
0.0
  0
LINE
  5
1E1
  8
0
  6
CONTINUOUS
 62
     7
 10
-532.7260215682
 20
13.0212414503
 30
0.0
 11
-528.234781782
 21
13.6586535215
 31
0.0
  0
POLYLINE
  5
1E2
  8
0
  6
CONTINUOUS
 62
     7
 66
     1
 10
0.0
 20
0.0
 30
0.0
  0
VERTEX
  5
57D
  8
0
  6
CONTINUOUS
 62
     7
 10
-527.0438213748
 20
13.5009396315
 30
0.0
  0
VERTEX
  5
57E
  8
0
  6
CONTINUOUS
 62
     7
 10
-526.6616065902
 20
12.9904109478
 30
0.0
  0
VERTEX
  5
57F
  8
0
  6
CONTINUOUS
 62
     7
 10
-526.5260209245
 20
12.3672294855
 30
0.0
  0
SEQEND
  5
580
  8
0
  6
CONTINUOUS
 62
     7
  0
POLYLINE
  5
1E3
  8
0
  6
CONTINUOUS
 62
     7
 66
     1
 10
0.0
 20
0.0
 30
0.0
  0
VERTEX
  5
581
  8
0
  6
CONTINUOUS
 62
     7
 10
-526.5260209245
 20
270.3694510698
 30
0.0
  0
VERTEX
  5
582
  8
0
  6
CONTINUOUS
 62
     7
 10
-526.6616065902
 20
269.7462696075
 30
0.0
  0
VERTEX
  5
583
  8
0
  6
CONTINUOUS
 62
     7
 10
-527.0438213748
 20
269.2357409239
 30
0.0
  0
SEQEND
  5
584
  8
0
  6
CONTINUOUS
 62
     7
  0
POLYLINE
  5
1E4
  8
0
  6
CONTINUOUS
 62
     7
 66
     1
 10
0.0
 20
0.0
 30
0.0
  0
VERTEX
  5
585
  8
0
  6
CONTINUOUS
 62
     7
 10
-527.2494424981
 20
267.4789536238
 30
0.0
  0
VERTEX
  5
586
  8
0
  6
CONTINUOUS
 62
     7
 10
-527.1763672036
 20
267.4728292465
 30
0.0
  0
VERTEX
  5
587
  8
0
  6
CONTINUOUS
 62
     7
 10
-527.0438213748
 20
267.4610126257
 30
0.0
  0
SEQEND
  5
588
  8
0
  6
CONTINUOUS
 62
     7
  0
ARC
  5
1E5
  8
0
  6
CONTINUOUS
 62
     7
 10
-539.5320486082
 20
156.1322200006
 30
0.0
 40
142.9031465450228
 50
274.6182790366
 51
275.0673788486
  0
ARC
  5
1E6
  8
0
  6
CONTINUOUS
 62
     7
 10
-532.6258985045
 20
41.9916811691
 30
0.0
 40
28.67128113199758
 50
278.8097405312
 51
281.2267480843
  0
ARC
  5
1E7
  8
0
  6
CONTINUOUS
 62
     7
 10
-532.6348771518
 20
239.1961732885
 30
0.0
 40
28.72091070378033
 50
78.774642744
 51
81.1874782763
  0
LINE
  5
1E8
  8
0
  6
CONTINUOUS
 62
     7
 10
-527.0438213748
 20
267.3676270485
 30
0.0
 11
-527.0438213748
 21
268.8676375389
 31
0.0
  0
POLYLINE
  5
1E9
  8
0
  6
CONTINUOUS
 62
     7
 66
     1
 10
0.0
 20
0.0
 30
0.0
  0
VERTEX
  5
589
  8
0
  6
CONTINUOUS
 62
     7
 10
-526.5260209245
 20
12.3661267996
 30
0.0
  0
VERTEX
  5
58A
  8
0
  6
CONTINUOUS
 62
     7
 10
-526.6616065902
 20
13.1175923586
 30
0.0
  0
VERTEX
  5
58B
  8
0
  6
CONTINUOUS
 62
     7
 10
-527.0438213748
 20
13.8690430164
 30
0.0
  0
SEQEND
  5
58C
  8
0
  6
CONTINUOUS
 62
     7
  0
POLYLINE
  5
1EA
  8
0
  6
CONTINUOUS
 62
     7
 66
     1
 10
0.0
 20
0.0
 30
0.0
  0
VERTEX
  5
58D
  8
0
  6
CONTINUOUS
 62
     7
 10
-527.0438213748
 20
268.8676375389
 30
0.0
  0
VERTEX
  5
58E
  8
0
  6
CONTINUOUS
 62
     7
 10
-526.6616065902
 20
269.6218300104
 30
0.0
  0
VERTEX
  5
58F
  8
0
  6
CONTINUOUS
 62
     7
 10
-526.5260209245
 20
270.3760373831
 30
0.0
  0
SEQEND
  5
590
  8
0
  6
CONTINUOUS
 62
     7
  0
ARC
  5
1EB
  8
0
  6
CONTINUOUS
 62
     7
 10
-528.0260259087
 20
270.3694658894
 30
0.0
 40
1.50001934779279
 50
262.0002495898
 51
310.9040755073
  0
ARC
  5
1EC
  8
0
  6
CONTINUOUS
 62
     7
 10
-528.0000071854
 20
269.8853282452
 30
0.0
 40
2.525938265101766
 50
259.8867668991
 51
292.243696219
  0
POLYLINE
  5
1ED
  8
0
  6
CONTINUOUS
 62
     7
 66
     1
 10
0.0
 20
0.0
 30
0.0
  0
VERTEX
  5
591
  8
0
  6
CONTINUOUS
 62
     7
 10
-527.5305231017
 20
13.7764472008
 30
0.0
  0
VERTEX
  5
592
  8
0
  6
CONTINUOUS
 62
     7
 10
-527.3061861199
 20
13.6832255363
 30
0.0
  0
VERTEX
  5
593
  8
0
  6
CONTINUOUS
 62
     7
 10
-527.0438213748
 20
13.5009396315
 30
0.0
  0
SEQEND
  5
594
  8
0
  6
CONTINUOUS
 62
     7
  0
POLYLINE
  5
1EE
  8
0
  6
CONTINUOUS
 62
     7
 66
     1
 10
0.0
 20
0.0
 30
0.0
  0
VERTEX
  5
595
  8
0
  6
CONTINUOUS
 62
     7
 10
-527.4459143084
 20
268.9953851938
 30
0.0
  0
VERTEX
  5
596
  8
0
  6
CONTINUOUS
 62
     7
 10
-527.8049428862
 20
269.0254408359
 30
0.0
  0
VERTEX
  5
597
  8
0
  6
CONTINUOUS
 62
     7
 10
-528.4435470504
 20
269.0780270338
 30
0.0
  0
SEQEND
  5
598
  8
0
  6
CONTINUOUS
 62
     7
  0
LINE
  5
1EF
  8
0
  6
CONTINUOUS
 62
     7
 10
-528.234781782
 20
269.0780270338
 30
0.0
 11
-528.4435470504
 21
269.0780270338
 31
0.0
  0
LINE
  5
1F0
  8
0
  6
CONTINUOUS
 62
     7
 10
-528.0230511826
 20
269.0431583166
 30
0.0
 11
-528.234781782
 21
269.0780270338
 31
0.0
  0
LINE
  5
1F1
  8
0
  6
CONTINUOUS
 62
     7
 10
-532.7260215682
 20
269.6858155966
 30
0.0
 11
-528.4435470504
 21
269.0780270338
 31
0.0
  0
LINE
  5
1F2
  8
0
  6
CONTINUOUS
 62
     7
 10
-532.7260215682
 20
269.715439105
 30
0.0
 11
-528.234781782
 21
269.0780270338
 31
0.0
  0
LINE
  5
1F3
  8
0
  6
CONTINUOUS
 62
     7
 10
-526.5260209245
 20
-5.6327622891
 30
0.0
 11
-526.5260209245
 21
-5.660031414
 31
0.0
  0
LINE
  5
1F4
  8
0
  6
CONTINUOUS
 62
     7
 10
-526.5260209245
 20
-5.660031414
 30
0.0
 11
-526.5260209245
 21
-5.7034384966
 31
0.0
  0
LINE
  5
1F5
  8
0
  6
CONTINUOUS
 62
     7
 10
-383.5260254246
 20
291.3683462381
 30
0.0
 11
-383.5260254246
 21
-8.6316656828
 31
0.0
  0
LINE
  5
1F6
  8
0
  6
CONTINUOUS
 62
     7
 10
-423.5260263932
 20
-8.6316656828
 30
0.0
 11
-423.5260263932
 21
291.3683462381
 31
0.0
  0
LINE
  5
1F7
  8
0
  6
CONTINUOUS
 62
     7
 10
-385.7760253278
 20
291.6683364153
 30
0.0
 11
-382.5260252607
 21
291.6683364153
 31
0.0
  0
LINE
  5
1F8
  8
0
  6
CONTINUOUS
 62
     7
 10
-382.5260252607
 20
295.0683343649
 30
0.0
 11
-385.7760253278
 21
295.0683343649
 31
0.0
  0
LINE
  5
1F9
  8
0
  6
CONTINUOUS
 62
     7
 10
-382.5260252607
 20
295.0683343649
 30
0.0
 11
-382.5260252607
 21
291.6683364153
 31
0.0
  0
LINE
  5
1FA
  8
0
  6
CONTINUOUS
 62
     7
 10
-382.8260256824
 20
291.3683462381
 30
0.0
 11
-385.7760253278
 21
291.3683462381
 31
0.0
  0
LINE
  5
1FB
  8
0
  6
CONTINUOUS
 62
     7
 10
-382.8260256824
 20
291.3683462381
 30
0.0
 11
-382.5260252607
 21
291.6683364153
 31
0.0
  0
LINE
  5
1FC
  8
0
  6
CONTINUOUS
 62
     7
 10
-385.7760253278
 20
295.3683394432
 30
0.0
 11
-382.8260256824
 21
295.3683394432
 31
0.0
  0
LINE
  5
1FD
  8
0
  6
CONTINUOUS
 62
     7
 10
-382.8260256824
 20
295.3683394432
 30
0.0
 11
-382.5260252607
 21
295.0683343649
 31
0.0
  0
LINE
  5
1FE
  8
0
  6
CONTINUOUS
 62
     7
 10
-421.7238166285
 20
295.3683394432
 30
0.0
 11
-385.7760253278
 21
295.3683394432
 31
0.0
  0
LINE
  5
1FF
  8
0
  6
CONTINUOUS
 62
     7
 10
-385.7760253278
 20
295.0683343649
 30
0.0
 11
-421.7238166285
 21
295.0683343649
 31
0.0
  0
LINE
  5
200
  8
0
  6
CONTINUOUS
 62
     7
 10
-421.7238166285
 20
291.6683364153
 30
0.0
 11
-385.7760253278
 21
291.6683364153
 31
0.0
  0
LINE
  5
201
  8
0
  6
CONTINUOUS
 62
     7
 10
-385.7760253278
 20
291.3683462381
 30
0.0
 11
-421.7238166285
 21
291.3683462381
 31
0.0
  0
LINE
  5
202
  8
0
  6
CONTINUOUS
 62
     7
 10
-423.9336644215
 20
291.6683364153
 30
0.0
 11
-421.7238166285
 21
291.6683364153
 31
0.0
  0
LINE
  5
203
  8
0
  6
CONTINUOUS
 62
     7
 10
-421.7238166285
 20
291.3683462381
 30
0.0
 11
-423.7296787006
 21
291.3683462381
 31
0.0
  0
LINE
  5
204
  8
0
  6
CONTINUOUS
 62
     7
 10
-423.7296787006
 20
295.3683394432
 30
0.0
 11
-421.7238166285
 21
295.3683394432
 31
0.0
  0
LINE
  5
205
  8
0
  6
CONTINUOUS
 62
     7
 10
-421.7238166285
 20
295.0683343649
 30
0.0
 11
-423.9336644215
 21
295.0683343649
 31
0.0
  0
LINE
  5
206
  8
0
  6
CONTINUOUS
 62
     7
 10
-456.285698424
 20
291.6683364153
 30
0.0
 11
-423.9336644215
 21
291.6683364153
 31
0.0
  0
LINE
  5
207
  8
0
  6
CONTINUOUS
 62
     7
 10
-423.9336644215
 20
295.0683343649
 30
0.0
 11
-456.285698424
 21
295.0683343649
 31
0.0
  0
LINE
  5
208
  8
0
  6
CONTINUOUS
 62
     7
 10
-423.7296787006
 20
291.3683462381
 30
0.0
 11
-445.7437415522
 21
291.3683462381
 31
0.0
  0
LINE
  5
209
  8
0
  6
CONTINUOUS
 62
     7
 10
-456.0817127031
 20
295.3683394432
 30
0.0
 11
-423.7296787006
 21
295.3683394432
 31
0.0
  0
LINE
  5
20A
  8
0
  6
CONTINUOUS
 62
     7
 10
-458.5260246796
 20
291.6683364153
 30
0.0
 11
-456.285698424
 21
291.6683364153
 31
0.0
  0
LINE
  5
20B
  8
0
  6
CONTINUOUS
 62
     7
 10
-456.285698424
 20
295.0683343649
 30
0.0
 11
-458.5260246796
 21
295.0683343649
 31
0.0
  0
LINE
  5
20C
  8
0
  6
CONTINUOUS
 62
     7
 10
-458.2260270518
 20
295.3683394432
 30
0.0
 11
-456.0817127031
 21
295.3683394432
 31
0.0
  0
LINE
  5
20D
  8
0
  6
CONTINUOUS
 62
     7
 10
-382.8260256824
 20
-12.6316588879
 30
0.0
 11
-385.7760253278
 21
-12.6316588879
 31
0.0
  0
LINE
  5
20E
  8
0
  6
CONTINUOUS
 62
     7
 10
-385.7760253278
 20
-12.3316538096
 30
0.0
 11
-382.5260252607
 21
-12.3316538096
 31
0.0
  0
LINE
  5
20F
  8
0
  6
CONTINUOUS
 62
     7
 10
-382.8260256824
 20
-12.6316588879
 30
0.0
 11
-382.5260252607
 21
-12.3316538096
 31
0.0
  0
LINE
  5
210
  8
0
  6
CONTINUOUS
 62
     7
 10
-385.7760253278
 20
-8.6316656828
 30
0.0
 11
-382.8260256824
 21
-8.6316656828
 31
0.0
  0
LINE
  5
211
  8
0
  6
CONTINUOUS
 62
     7
 10
-382.8260256824
 20
-8.6316656828
 30
0.0
 11
-382.5260252607
 21
-8.93165586
 31
0.0
  0
LINE
  5
212
  8
0
  6
CONTINUOUS
 62
     7
 10
-382.5260252607
 20
-8.93165586
 30
0.0
 11
-385.7760253278
 21
-8.93165586
 31
0.0
  0
LINE
  5
213
  8
0
  6
CONTINUOUS
 62
     7
 10
-382.5260252607
 20
-8.93165586
 30
0.0
 11
-382.5260252607
 21
-12.3316538096
 31
0.0
  0
LINE
  5
214
  8
0
  6
CONTINUOUS
 62
     7
 10
-385.7760253278
 20
-12.6316588879
 30
0.0
 11
-421.7238166285
 21
-12.6316588879
 31
0.0
  0
LINE
  5
215
  8
0
  6
CONTINUOUS
 62
     7
 10
-421.7238166285
 20
-12.3316538096
 30
0.0
 11
-385.7760253278
 21
-12.3316538096
 31
0.0
  0
LINE
  5
216
  8
0
  6
CONTINUOUS
 62
     7
 10
-385.7760253278
 20
-8.93165586
 30
0.0
 11
-421.7238166285
 21
-8.93165586
 31
0.0
  0
LINE
  5
217
  8
0
  6
CONTINUOUS
 62
     7
 10
-421.7238166285
 20
-8.6316656828
 30
0.0
 11
-385.7760253278
 21
-8.6316656828
 31
0.0
  0
LINE
  5
218
  8
0
  6
CONTINUOUS
 62
     7
 10
-423.7296787006
 20
-8.6316656828
 30
0.0
 11
-421.7238166285
 21
-8.6316656828
 31
0.0
  0
LINE
  5
219
  8
0
  6
CONTINUOUS
 62
     7
 10
-421.7238166285
 20
-8.93165586
 30
0.0
 11
-423.9336644215
 21
-8.93165586
 31
0.0
  0
LINE
  5
21A
  8
0
  6
CONTINUOUS
 62
     7
 10
-423.9336644215
 20
-12.3316538096
 30
0.0
 11
-421.7238166285
 21
-12.3316538096
 31
0.0
  0
LINE
  5
21B
  8
0
  6
CONTINUOUS
 62
     7
 10
-421.7238166285
 20
-12.6316588879
 30
0.0
 11
-423.7296787006
 21
-12.6316588879
 31
0.0
  0
LINE
  5
21C
  8
0
  6
CONTINUOUS
 62
     7
 10
-423.9336644215
 20
-8.93165586
 30
0.0
 11
-456.285698424
 21
-8.93165586
 31
0.0
  0
LINE
  5
21D
  8
0
  6
CONTINUOUS
 62
     7
 10
-445.7437415522
 20
-8.6316656828
 30
0.0
 11
-423.7296787006
 21
-8.6316656828
 31
0.0
  0
LINE
  5
21E
  8
0
  6
CONTINUOUS
 62
     7
 10
-456.285698424
 20
-12.3316538096
 30
0.0
 11
-423.9336644215
 21
-12.3316538096
 31
0.0
  0
LINE
  5
21F
  8
0
  6
CONTINUOUS
 62
     7
 10
-423.7296787006
 20
-12.6316588879
 30
0.0
 11
-456.0817127031
 21
-12.6316588879
 31
0.0
  0
LINE
  5
220
  8
0
  6
CONTINUOUS
 62
     7
 10
-458.5260246796
 20
-12.3316538096
 30
0.0
 11
-456.285698424
 21
-12.3316538096
 31
0.0
  0
LINE
  5
221
  8
0
  6
CONTINUOUS
 62
     7
 10
-456.285698424
 20
-8.93165586
 30
0.0
 11
-458.5260246796
 21
-8.93165586
 31
0.0
  0
LINE
  5
222
  8
0
  6
CONTINUOUS
 62
     7
 10
-456.0817127031
 20
-12.6316588879
 30
0.0
 11
-458.2260270518
 21
-12.6316588879
 31
0.0
  0
POLYLINE
  5
223
  8
0
  6
CONTINUOUS
 62
     7
 66
     1
 10
0.0
 20
0.0
 30
0.0
  0
VERTEX
  5
599
  8
0
  6
CONTINUOUS
 62
     7
 10
-547.7260221642
 20
157.9364943743
 30
0.0
  0
VERTEX
  5
59A
  8
0
  6
CONTINUOUS
 62
     7
 10
-549.6090968055
 20
157.6211299241
 30
0.0
  0
VERTEX
  5
59B
  8
0
  6
CONTINUOUS
 62
     7
 10
-551.0726739568
 20
157.2894021362
 30
0.0
  0
SEQEND
  5
59C
  8
0
  6
CONTINUOUS
 62
     7
  0
LINE
  5
224
  8
0
  6
CONTINUOUS
 62
     7
 10
-547.7260221642
 20
156.3683399424
 30
0.0
 11
-549.7690607709
 21
156.3683399424
 31
0.0
  0
ARC
  5
225
  8
0
  6
CONTINUOUS
 62
     7
 10
-549.7690225811
 20
155.3683774677
 30
0.0
 40
0.9999615440998878
 50
90.0021881959
 51
170.7018156392
  0
ARC
  5
226
  8
0
  6
CONTINUOUS
 62
     7
 10
-464.2260252671
 20
141.3683402777
 30
0.0
 40
87.68108752478973
 50
170.7052868851
 51
189.2946613374
  0
ARC
  5
227
  8
0
  6
CONTINUOUS
 62
     7
 10
-549.7690171387
 20
127.3683119607
 30
0.0
 40
0.9999704166075767
 50
189.2940742041
 51
270.0009151823
  0
LINE
  5
228
  8
0
  6
CONTINUOUS
 62
     7
 10
-547.7260221642
 20
126.3683406129
 30
0.0
 11
-549.7690011662
 21
126.3683406129
 31
0.0
  0
LINE
  5
229
  8
0
  6
CONTINUOUS
 62
     7
 10
-547.7260221642
 20
124.8002122581
 30
0.0
 11
-547.7260221642
 21
126.3683406129
 31
0.0
  0
POLYLINE
  5
22A
  8
0
  6
CONTINUOUS
 62
     7
 66
     1
 10
0.0
 20
0.0
 30
0.0
  0
VERTEX
  5
59D
  8
0
  6
CONTINUOUS
 62
     7
 10
-551.0726739568
 20
125.4472802818
 30
0.0
  0
VERTEX
  5
59E
  8
0
  6
CONTINUOUS
 62
     7
 10
-549.2061545056
 20
125.0376473606
 30
0.0
  0
VERTEX
  5
59F
  8
0
  6
CONTINUOUS
 62
     7
 10
-547.7260221642
 20
124.8002122581
 30
0.0
  0
SEQEND
  5
5A0
  8
0
  6
CONTINUOUS
 62
     7
  0
LINE
  5
22B
  8
0
  6
CONTINUOUS
 62
     7
 10
-548.7556029958
 20
156.3683399424
 30
0.0
 11
-548.7556029958
 21
155.3683407098
 31
0.0
  0
LINE
  5
22C
  8
0
  6
CONTINUOUS
 62
     7
 10
-548.7556029958
 20
126.3683406129
 30
0.0
 11
-548.7556029958
 21
127.3683398455
 31
0.0
  0
POLYLINE
  5
22D
  8
0
  6
CONTINUOUS
 62
     7
 66
     1
 10
0.0
 20
0.0
 30
0.0
  0
VERTEX
  5
5A1
  8
0
  6
CONTINUOUS
 62
     7
 10
-547.7260221642
 20
160.9542924404
 30
0.0
  0
VERTEX
  5
5A2
  8
0
  6
CONTINUOUS
 62
     7
 10
-549.4885315102
 20
160.6900725007
 30
0.0
  0
VERTEX
  5
5A3
  8
0
  6
CONTINUOUS
 62
     7
 10
-550.8613158864
 20
160.4159227997
 30
0.0
  0
SEQEND
  5
5A4
  8
0
  6
CONTINUOUS
 62
     7
  0
POLYLINE
  5
22E
  8
0
  6
CONTINUOUS
 62
     7
 66
     1
 10
0.0
 20
0.0
 30
0.0
  0
VERTEX
  5
5A5
  8
0
  6
CONTINUOUS
 62
     7
 10
-551.0726739568
 20
157.2894021362
 30
0.0
  0
VERTEX
  5
5A6
  8
0
  6
CONTINUOUS
 62
     7
 10
-551.1257816953
 20
157.2991381824
 30
0.0
  0
VERTEX
  5
5A7
  8
0
  6
CONTINUOUS
 62
     7
 10
-551.1771459979
 20
157.3085557163
 30
0.0
  0
VERTEX
  5
5A8
  8
0
  6
CONTINUOUS
 62
     7
 10
-551.2251128358
 20
157.3173474014
 30
0.0
  0
VERTEX
  5
5A9
  8
0
  6
CONTINUOUS
 62
     7
 10
-551.2680877847
 20
157.325228253
 30
0.0
  0
VERTEX
  5
5AA
  8
0
  6
CONTINUOUS
 62
     7
 10
-551.3046999377
 20
157.3319375008
 30
0.0
  0
VERTEX
  5
5AB
  8
0
  6
CONTINUOUS
 62
     7
 10
-551.3337124986
 20
157.3372572154
 30
0.0
  0
VERTEX
  5
5AC
  8
0
  6
CONTINUOUS
 62
     7
 10
-551.3542164964
 20
157.3410160333
 30
0.0
  0
VERTEX
  5
5AD
  8
0
  6
CONTINUOUS
 62
     7
 10
-551.3655115765
 20
157.3430872947
 30
0.0
  0
SEQEND
  5
5AE
  8
0
  6
CONTINUOUS
 62
     7
  0
ARC
  5
22F
  8
0
  6
CONTINUOUS
 62
     7
 10
-561.4274261405
 20
159.75995859
 30
0.0
 40
10.34811053039693
 50
346.4934352929
 51
2.3645409826
  0
ARC
  5
230
  8
0
  6
CONTINUOUS
 62
     7
 10
-550.7941203454
 20
160.1225520349
 30
0.0
 40
0.3009642181100536
 50
102.9010242408
 51
167.655716148
  0
ARC
  5
231
  8
0
  6
CONTINUOUS
 62
     7
 10
-560.5525095154
 20
123.062061403
 30
0.0
 40
9.478236752277924
 50
356.9017987782
 51
14.2402249463
  0
POLYLINE
  5
232
  8
0
  6
CONTINUOUS
 62
     7
 66
     1
 10
0.0
 20
0.0
 30
0.0
  0
VERTEX
  5
5AF
  8
0
  6
CONTINUOUS
 62
     7
 10
-551.0726739568
 20
125.4472802818
 30
0.0
  0
VERTEX
  5
5B0
  8
0
  6
CONTINUOUS
 62
     7
 10
-551.1257816953
 20
125.4375442356
 30
0.0
  0
VERTEX
  5
5B1
  8
0
  6
CONTINUOUS
 62
     7
 10
-551.1771459979
 20
125.4281267017
 30
0.0
  0
VERTEX
  5
5B2
  8
0
  6
CONTINUOUS
 62
     7
 10
-551.2251128358
 20
125.419333154
 30
0.0
  0
VERTEX
  5
5B3
  8
0
  6
CONTINUOUS
 62
     7
 10
-551.2680877847
 20
125.411454165
 30
0.0
  0
VERTEX
  5
5B4
  8
0
  6
CONTINUOUS
 62
     7
 10
-551.3046999377
 20
125.4047449171
 30
0.0
  0
VERTEX
  5
5B5
  8
0
  6
CONTINUOUS
 62
     7
 10
-551.3337124986
 20
125.39942334
 30
0.0
  0
VERTEX
  5
5B6
  8
0
  6
CONTINUOUS
 62
     7
 10
-551.3542164964
 20
125.3956663847
 30
0.0
  0
VERTEX
  5
5B7
  8
0
  6
CONTINUOUS
 62
     7
 10
-551.3655115765
 20
125.3935932606
 30
0.0
  0
SEQEND
  5
5B8
  8
0
  6
CONTINUOUS
 62
     7
  0
LINE
  5
233
  8
0
  6
CONTINUOUS
 62
     7
 10
-552.8121610087
 20
128.611102277
 30
0.0
 11
-552.8143663806
 21
128.6723562941
 31
0.0
  0
ARC
  5
234
  8
0
  6
CONTINUOUS
 62
     7
 10
-553.1090856283
 20
154.1682950406
 30
0.0
 40
0.2999815852491083
 50
269.9979334925
 51
351.8133709556
  0
LINE
  5
235
  8
0
  6
CONTINUOUS
 62
     7
 10
-553.1090964478
 20
128.8683400914
 30
0.0
 11
-553.1106461686
 21
128.9095548406
 31
0.0
  0
LINE
  5
236
  8
0
  6
CONTINUOUS
 62
     7
 10
-553.5914321345
 20
135.7843797147
 30
0.0
 11
-553.5914321345
 21
146.9523064285
 31
0.0
  0
LINE
  5
237
  8
0
  6
CONTINUOUS
 62
     7
 10
-523.5260297459
 20
-8.6316656828
 30
0.0
 11
-524.0260233086
 21
-8.6316656828
 31
0.0
  0
LINE
  5
238
  8
0
  6
CONTINUOUS
 62
     7
 10
-510.0260247392
 20
-10.6316548348
 30
0.0
 11
-524.0260233086
 21
-10.6316548348
 31
0.0
  0
LINE
  5
239
  8
0
  6
CONTINUOUS
 62
     7
 10
-528.5260249776
 20
74.3683386087
 30
0.0
 11
-528.5260249776
 21
19.3683389068
 31
0.0
  0
LINE
  5
23A
  8
0
  6
CONTINUOUS
 62
     7
 10
-528.5260249776
 20
74.3683386087
 30
0.0
 11
-526.5260209245
 21
74.3683386087
 31
0.0
  0
LINE
  5
23B
  8
0
  6
CONTINUOUS
 62
     7
 10
-528.5260249776
 20
19.3683389068
 30
0.0
 11
-526.5260209245
 21
19.3683389068
 31
0.0
  0
LINE
  5
23C
  8
0
  6
CONTINUOUS
 62
     7
 10
-530.8043678206
 20
74.3683386087
 30
0.0
 11
-528.5260249776
 21
74.3683386087
 31
0.0
  0
LINE
  5
23D
  8
0
  6
CONTINUOUS
 62
     7
 10
-530.8043678206
 20
19.3683389068
 30
0.0
 11
-528.5260249776
 21
19.3683389068
 31
0.0
  0
LINE
  5
23E
  8
0
  6
CONTINUOUS
 62
     7
 10
-532.7260215682
 20
74.3683386087
 30
0.0
 11
-530.8043678206
 21
74.3683386087
 31
0.0
  0
LINE
  5
23F
  8
0
  6
CONTINUOUS
 62
     7
 10
-532.7260215682
 20
19.3683389068
 30
0.0
 11
-530.8043678206
 21
19.3683389068
 31
0.0
  0
LINE
  5
240
  8
0
  6
CONTINUOUS
 62
     7
 10
-528.5260249776
 20
263.3683416486
 30
0.0
 11
-528.5260249776
 21
208.3683419466
 31
0.0
  0
LINE
  5
241
  8
0
  6
CONTINUOUS
 62
     7
 10
-528.5260249776
 20
263.3683416486
 30
0.0
 11
-526.5260209245
 21
263.3683416486
 31
0.0
  0
LINE
  5
242
  8
0
  6
CONTINUOUS
 62
     7
 10
-528.5260249776
 20
208.3683419466
 30
0.0
 11
-526.5260209245
 21
208.3683419466
 31
0.0
  0
LINE
  5
243
  8
0
  6
CONTINUOUS
 62
     7
 10
-530.8043678206
 20
263.3683416486
 30
0.0
 11
-528.5260249776
 21
263.3683416486
 31
0.0
  0
LINE
  5
244
  8
0
  6
CONTINUOUS
 62
     7
 10
-530.8043678206
 20
208.3683419466
 30
0.0
 11
-528.5260249776
 21
208.3683419466
 31
0.0
  0
LINE
  5
245
  8
0
  6
CONTINUOUS
 62
     7
 10
-532.7260215682
 20
263.3683416486
 30
0.0
 11
-530.8043678206
 21
263.3683416486
 31
0.0
  0
LINE
  5
246
  8
0
  6
CONTINUOUS
 62
     7
 10
-532.7260215682
 20
208.3683419466
 30
0.0
 11
-530.8043678206
 21
208.3683419466
 31
0.0
  0
LINE
  5
247
  8
0
  6
CONTINUOUS
 62
     7
 10
-528.7460257214
 20
213.3683371782
 30
0.0
 11
-528.7460257214
 21
218.3683398604
 31
0.0
  0
LINE
  5
248
  8
0
  6
CONTINUOUS
 62
     7
 10
-529.1460324925
 20
213.7683439493
 30
0.0
 11
-529.1460324925
 21
217.9683405399
 31
0.0
  0
LINE
  5
249
  8
0
  6
CONTINUOUS
 62
     7
 10
-528.7460257214
 20
258.3683389664
 30
0.0
 11
-528.7460257214
 21
253.3683437347
 31
0.0
  0
LINE
  5
24A
  8
0
  6
CONTINUOUS
 62
     7
 10
-529.1460324925
 20
253.7683430552
 30
0.0
 11
-529.1460324925
 21
257.9683396459
 31
0.0
  0
LINE
  5
24B
  8
0
  6
CONTINUOUS
 62
     7
 10
-528.7460257214
 20
29.3683368206
 30
0.0
 11
-528.7460257214
 21
24.368341589
 31
0.0
  0
LINE
  5
24C
  8
0
  6
CONTINUOUS
 62
     7
 10
-529.1460324925
 20
24.7683409095
 30
0.0
 11
-529.1460324925
 21
28.9683375001
 31
0.0
  0
LINE
  5
24D
  8
0
  6
CONTINUOUS
 62
     7
 10
-528.7460257214
 20
69.3683433771
 30
0.0
 11
-528.7460257214
 21
64.3683406949
 31
0.0
  0
LINE
  5
24E
  8
0
  6
CONTINUOUS
 62
     7
 10
-529.1460324925
 20
64.7683400154
 30
0.0
 11
-529.1460324925
 21
68.968336606
 31
0.0
  0
POLYLINE
  5
24F
  8
0
  6
CONTINUOUS
 62
     7
 66
     1
 10
0.0
 20
0.0
 30
0.0
  0
VERTEX
  5
5B9
  8
0
  6
CONTINUOUS
 62
     7
 10
-662.0479965455
 20
-6.8200123072
 30
0.0
  0
VERTEX
  5
5BA
  8
0
  6
CONTINUOUS
 62
     7
 10
-661.9313949591
 20
-6.8782758474
 30
0.0
  0
VERTEX
  5
5BB
  8
0
  6
CONTINUOUS
 62
     7
 10
-661.6541663057
 20
-7.0168268442
 30
0.0
  0
VERTEX
  5
5BC
  8
0
  6
CONTINUOUS
 62
     7
 10
-661.4834511525
 20
-7.1021508932
 30
0.0
  0
VERTEX
  5
5BD
  8
0
  6
CONTINUOUS
 62
     7
 10
-661.4258060104
 20
-7.1309548378
 30
0.0
  0
SEQEND
  5
5BE
  8
0
  6
CONTINUOUS
 62
     7
  0
LINE
  5
250
  8
0
  6
CONTINUOUS
 62
     7
 10
-662.1933499223
 20
-7.1309548378
 30
0.0
 11
-661.4258060104
 21
-7.1309548378
 31
0.0
  0
POLYLINE
  5
251
  8
0
  6
CONTINUOUS
 62
     7
 66
     1
 10
0.0
 20
0.0
 30
0.0
  0
VERTEX
  5
5BF
  8
0
  6
CONTINUOUS
 62
     7
 10
-661.4258060104
 20
289.8676353931
 30
0.0
  0
VERTEX
  5
5C0
  8
0
  6
CONTINUOUS
 62
     7
 10
-661.4713812119
 20
289.8448515177
 30
0.0
  0
VERTEX
  5
5C1
  8
0
  6
CONTINUOUS
 62
     7
 10
-661.606728459
 20
289.777215147
 30
0.0
  0
VERTEX
  5
5C2
  8
0
  6
CONTINUOUS
 62
     7
 10
-661.8277275807
 20
289.6667677402
 30
0.0
  0
VERTEX
  5
5C3
  8
0
  6
CONTINUOUS
 62
     7
 10
-662.0479965455
 20
289.5566928625
 30
0.0
  0
SEQEND
  5
5C4
  8
0
  6
CONTINUOUS
 62
     7
  0
LINE
  5
252
  8
0
  6
CONTINUOUS
 62
     7
 10
-661.4258060104
 20
289.8676353931
 30
0.0
 11
-661.4258060104
 21
-7.1309548378
 31
0.0
  0
LINE
  5
253
  8
0
  6
CONTINUOUS
 62
     7
 10
-662.1933499223
 20
289.8676353931
 30
0.0
 11
-661.4258060104
 21
289.8676353931
 31
0.0
  0
POLYLINE
  5
254
  8
0
  6
CONTINUOUS
 62
     7
 66
     1
 10
0.0
 20
0.0
 30
0.0
  0
VERTEX
  5
5C5
  8
0
  6
CONTINUOUS
 62
     7
 10
-859.9250981456
 20
291.3683462381
 30
0.0
  0
VERTEX
  5
5C6
  8
0
  6
CONTINUOUS
 62
     7
 10
-859.9023217208
 20
291.322763586
 30
0.0
  0
VERTEX
  5
5C7
  8
0
  6
CONTINUOUS
 62
     7
 10
-859.8346853501
 20
291.1874163389
 30
0.0
  0
VERTEX
  5
5C8
  8
0
  6
CONTINUOUS
 62
     7
 10
-859.7242304927
 20
290.9664172172
 30
0.0
  0
VERTEX
  5
5C9
  8
0
  6
CONTINUOUS
 62
     7
 10
-859.614155615
 20
290.7461482525
 30
0.0
  0
SEQEND
  5
5CA
  8
0
  6
CONTINUOUS
 62
     7
  0
LINE
  5
255
  8
0
  6
CONTINUOUS
 62
     7
 10
-859.9250981456
 20
291.3683462381
 30
0.0
 11
-662.9265168554
 21
291.3683462381
 31
0.0
  0
POLYLINE
  5
256
  8
0
  6
CONTINUOUS
 62
     7
 66
     1
 10
0.0
 20
0.0
 30
0.0
  0
VERTEX
  5
5CB
  8
0
  6
CONTINUOUS
 62
     7
 10
-663.237459386
 20
290.7461482525
 30
0.0
  0
VERTEX
  5
5CC
  8
0
  6
CONTINUOUS
 62
     7
 10
-663.1273845083
 20
290.9664172172
 30
0.0
  0
VERTEX
  5
5CD
  8
0
  6
CONTINUOUS
 62
     7
 10
-663.0169296509
 20
291.1874163389
 30
0.0
  0
VERTEX
  5
5CE
  8
0
  6
CONTINUOUS
 62
     7
 10
-662.9492932803
 20
291.322763586
 30
0.0
  0
VERTEX
  5
5CF
  8
0
  6
CONTINUOUS
 62
     7
 10
-662.9265168554
 20
291.3683462381
 30
0.0
  0
SEQEND
  5
5D0
  8
0
  6
CONTINUOUS
 62
     7
  0
POLYLINE
  5
257
  8
0
  6
CONTINUOUS
 62
     7
 66
     1
 10
0.0
 20
0.0
 30
0.0
  0
VERTEX
  5
5D1
  8
0
  6
CONTINUOUS
 62
     7
 10
-662.9265168554
 20
-8.6316656828
 30
0.0
  0
VERTEX
  5
5D2
  8
0
  6
CONTINUOUS
 62
     7
 10
-662.9492932803
 20
-8.5860830307
 30
0.0
  0
VERTEX
  5
5D3
  8
0
  6
CONTINUOUS
 62
     7
 10
-663.0169296509
 20
-8.4507357836
 30
0.0
  0
VERTEX
  5
5D4
  8
0
  6
CONTINUOUS
 62
     7
 10
-663.1273845083
 20
-8.2297366619
 30
0.0
  0
VERTEX
  5
5D5
  8
0
  6
CONTINUOUS
 62
     7
 10
-663.237459386
 20
-8.0094676971
 30
0.0
  0
SEQEND
  5
5D6
  8
0
  6
CONTINUOUS
 62
     7
  0
LINE
  5
258
  8
0
  6
CONTINUOUS
 62
     7
 10
-662.9265168554
 20
-8.6316656828
 30
0.0
 11
-859.9250981456
 21
-8.6316656828
 31
0.0
  0
POLYLINE
  5
259
  8
0
  6
CONTINUOUS
 62
     7
 66
     1
 10
0.0
 20
0.0
 30
0.0
  0
VERTEX
  5
5D7
  8
0
  6
CONTINUOUS
 62
     7
 10
-859.614155615
 20
-8.0094676971
 30
0.0
  0
VERTEX
  5
5D8
  8
0
  6
CONTINUOUS
 62
     7
 10
-859.7242304927
 20
-8.2297366619
 30
0.0
  0
VERTEX
  5
5D9
  8
0
  6
CONTINUOUS
 62
     7
 10
-859.8346853501
 20
-8.4507357836
 30
0.0
  0
VERTEX
  5
5DA
  8
0
  6
CONTINUOUS
 62
     7
 10
-859.9023217208
 20
-8.5860830307
 30
0.0
  0
VERTEX
  5
5DB
  8
0
  6
CONTINUOUS
 62
     7
 10
-859.9250981456
 20
-8.6316656828
 30
0.0
  0
SEQEND
  5
5DC
  8
0
  6
CONTINUOUS
 62
     7
  0
LINE
  5
25A
  8
0
  6
CONTINUOUS
 62
     7
 10
-662.9265168554
 20
290.6008023262
 30
0.0
 11
-662.9265168554
 21
291.3683462381
 31
0.0
  0
LINE
  5
25B
  8
0
  6
CONTINUOUS
 62
     7
 10
-662.9265168554
 20
-7.8641217709
 30
0.0
 11
-662.9265168554
 21
-8.6316656828
 31
0.0
  0
LINE
  5
25C
  8
0
  6
CONTINUOUS
 62
     7
 10
-859.9250981456
 20
290.6008023262
 30
0.0
 11
-859.9250981456
 21
291.3683462381
 31
0.0
  0
LINE
  5
25D
  8
0
  6
CONTINUOUS
 62
     7
 10
-859.9250981456
 20
-7.8641217709
 30
0.0
 11
-859.9250981456
 21
-8.6316656828
 31
0.0
  0
POLYLINE
  5
25E
  8
0
  6
CONTINUOUS
 62
     7
 66
     1
 10
0.0
 20
0.0
 30
0.0
  0
VERTEX
  5
5DD
  8
0
  6
CONTINUOUS
 62
     7
 10
-861.4258089906
 20
-7.1309548378
 30
0.0
  0
VERTEX
  5
5DE
  8
0
  6
CONTINUOUS
 62
     7
 10
-861.3681638486
 20
-7.1021508932
 30
0.0
  0
VERTEX
  5
5DF
  8
0
  6
CONTINUOUS
 62
     7
 10
-861.1974486953
 20
-7.0168268442
 30
0.0
  0
VERTEX
  5
5E0
  8
0
  6
CONTINUOUS
 62
     7
 10
-860.9202200419
 20
-6.8782758474
 30
0.0
  0
VERTEX
  5
5E1
  8
0
  6
CONTINUOUS
 62
     7
 10
-860.8036184556
 20
-6.8200123072
 30
0.0
  0
SEQEND
  5
5E2
  8
0
  6
CONTINUOUS
 62
     7
  0
LINE
  5
25F
  8
0
  6
CONTINUOUS
 62
     7
 10
-860.6582650787
 20
-7.1309548378
 30
0.0
 11
-861.4258089906
 21
-7.1309548378
 31
0.0
  0
LINE
  5
260
  8
0
  6
CONTINUOUS
 62
     7
 10
-861.4258089906
 20
-7.1309548378
 30
0.0
 11
-861.4258089906
 21
289.8676353931
 31
0.0
  0
POLYLINE
  5
261
  8
0
  6
CONTINUOUS
 62
     7
 66
     1
 10
0.0
 20
0.0
 30
0.0
  0
VERTEX
  5
5E3
  8
0
  6
CONTINUOUS
 62
     7
 10
-860.8036184556
 20
289.5566928625
 30
0.0
  0
VERTEX
  5
5E4
  8
0
  6
CONTINUOUS
 62
     7
 10
-860.9202200419
 20
289.6149564028
 30
0.0
  0
VERTEX
  5
5E5
  8
0
  6
CONTINUOUS
 62
     7
 10
-861.1974486953
 20
289.7535073996
 30
0.0
  0
VERTEX
  5
5E6
  8
0
  6
CONTINUOUS
 62
     7
 10
-861.3681638486
 20
289.8388314486
 30
0.0
  0
VERTEX
  5
5E7
  8
0
  6
CONTINUOUS
 62
     7
 10
-861.4258089906
 20
289.8676353931
 30
0.0
  0
SEQEND
  5
5E8
  8
0
  6
CONTINUOUS
 62
     7
  0
LINE
  5
262
  8
0
  6
CONTINUOUS
 62
     7
 10
-860.6582650787
 20
289.8676353931
 30
0.0
 11
-861.4258089906
 21
289.8676353931
 31
0.0
  0
ARC
  5
263
  8
0
  6
CONTINUOUS
 62
     7
 10
-858.9258075005
 20
288.8683402777
 30
0.0
 40
2.0
 50
90.0
 51
180.0
  0
LINE
  5
264
  8
0
  6
CONTINUOUS
 62
     7
 10
-663.9258110768
 20
290.8683377743
 30
0.0
 11
-858.9258039242
 21
290.8683377743
 31
0.0
  0
ARC
  5
265
  8
0
  6
CONTINUOUS
 62
     7
 10
-663.9258075005
 20
-6.1316597223
 30
0.0
 40
2.000000000000001
 50
270.0
 51
0.0
  0
LINE
  5
266
  8
0
  6
CONTINUOUS
 62
     7
 10
-858.9258039242
 20
-8.1316572189
 30
0.0
 11
-663.9258110768
 21
-8.1316572189
 31
0.0
  0
ARC
  5
267
  8
0
  6
CONTINUOUS
 62
     7
 10
-858.9258075005
 20
-6.1316597223
 30
0.0
 40
2.000000000000001
 50
180.0
 51
270.0
  0
LINE
  5
268
  8
0
  6
CONTINUOUS
 62
     7
 10
-860.9258079774
 20
288.8683337212
 30
0.0
 11
-860.9258079774
 21
-6.1316531658
 31
0.0
  0
ARC
  5
269
  8
0
  6
CONTINUOUS
 62
     7
 10
-663.9258075005
 20
288.8683402777
 30
0.0
 40
2.0
 50
0.0
 51
90.0
  0
LINE
  5
26A
  8
0
  6
CONTINUOUS
 62
     7
 10
-661.9258070237
 20
-6.1316531658
 30
0.0
 11
-661.9258070237
 21
288.8683337212
 31
0.0
  0
LINE
  5
26B
  8
0
  6
CONTINUOUS
 62
     7
 10
-642.4258047587
 20
291.3683462381
 30
0.0
 11
-642.4258047587
 21
-8.6316656828
 31
0.0
  0
LINE
  5
26C
  8
0
  6
CONTINUOUS
 62
     7
 10
-652.4258101231
 20
-8.6316656828
 30
0.0
 11
-652.4258101231
 21
291.3683462381
 31
0.0
  0
LINE
  5
26D
  8
0
  6
CONTINUOUS
 62
     7
 10
-870.4258048779
 20
291.3683462381
 30
0.0
 11
-870.4258048779
 21
-8.6316656828
 31
0.0
  0
LINE
  5
26E
  8
0
  6
CONTINUOUS
 62
     7
 10
-880.4258102423
 20
-8.6316656828
 30
0.0
 11
-880.4258102423
 21
291.3683462381
 31
0.0
  0
LINE
  5
26F
  8
0
  6
CONTINUOUS
 62
     7
 10
-644.6758055932
 20
-8.6316656828
 30
0.0
 11
-641.7258078105
 21
-8.6316656828
 31
0.0
  0
LINE
  5
270
  8
0
  6
CONTINUOUS
 62
     7
 10
-641.7258078105
 20
-8.6316656828
 30
0.0
 11
-641.4258101827
 21
-8.93165586
 31
0.0
  0
LINE
  5
271
  8
0
  6
CONTINUOUS
 62
     7
 10
-641.4258101827
 20
-8.93165586
 30
0.0
 11
-644.6758055932
 21
-8.93165586
 31
0.0
  0
LINE
  5
272
  8
0
  6
CONTINUOUS
 62
     7
 10
-641.4258101827
 20
-8.93165586
 30
0.0
 11
-641.4258101827
 21
-12.3316538096
 31
0.0
  0
LINE
  5
273
  8
0
  6
CONTINUOUS
 62
     7
 10
-644.6758055932
 20
-12.3316538096
 30
0.0
 11
-641.4258101827
 21
-12.3316538096
 31
0.0
  0
LINE
  5
274
  8
0
  6
CONTINUOUS
 62
     7
 10
-650.1758092887
 20
-8.6316656828
 30
0.0
 11
-644.6758055932
 21
-8.6316656828
 31
0.0
  0
LINE
  5
275
  8
0
  6
CONTINUOUS
 62
     7
 10
-644.6758055932
 20
-8.93165586
 30
0.0
 11
-650.1758092887
 21
-8.93165586
 31
0.0
  0
LINE
  5
276
  8
0
  6
CONTINUOUS
 62
     7
 10
-650.1758092887
 20
-12.3316538096
 30
0.0
 11
-644.6758055932
 21
-12.3316538096
 31
0.0
  0
LINE
  5
277
  8
0
  6
CONTINUOUS
 62
     7
 10
-641.7258078105
 20
-12.6316588879
 30
0.0
 11
-644.6758055932
 21
-12.6316588879
 31
0.0
  0
LINE
  5
278
  8
0
  6
CONTINUOUS
 62
     7
 10
-641.7258078105
 20
-12.6316588879
 30
0.0
 11
-641.4258101827
 21
-12.3316538096
 31
0.0
  0
LINE
  5
279
  8
0
  6
CONTINUOUS
 62
     7
 10
-644.6758055932
 20
-12.6316588879
 30
0.0
 11
-650.1758092887
 21
-12.6316588879
 31
0.0
  0
LINE
  5
27A
  8
0
  6
CONTINUOUS
 62
     7
 10
-653.1258070714
 20
-8.6316656828
 30
0.0
 11
-650.1758092887
 21
-8.6316656828
 31
0.0
  0
LINE
  5
27B
  8
0
  6
CONTINUOUS
 62
     7
 10
-650.1758092887
 20
-8.93165586
 30
0.0
 11
-653.4258046991
 21
-8.93165586
 31
0.0
  0
LINE
  5
27C
  8
0
  6
CONTINUOUS
 62
     7
 10
-653.1258070714
 20
-8.6316656828
 30
0.0
 11
-653.4258046991
 21
-8.93165586
 31
0.0
  0
LINE
  5
27D
  8
0
  6
CONTINUOUS
 62
     7
 10
-653.4258046991
 20
-12.3316538096
 30
0.0
 11
-650.1758092887
 21
-12.3316538096
 31
0.0
  0
LINE
  5
27E
  8
0
  6
CONTINUOUS
 62
     7
 10
-653.4258046991
 20
-12.3316538096
 30
0.0
 11
-653.4258046991
 21
-8.93165586
 31
0.0
  0
LINE
  5
27F
  8
0
  6
CONTINUOUS
 62
     7
 10
-650.1758092887
 20
-12.6316588879
 30
0.0
 11
-653.1258070714
 21
-12.6316588879
 31
0.0
  0
LINE
  5
280
  8
0
  6
CONTINUOUS
 62
     7
 10
-653.4258046991
 20
-12.3316538096
 30
0.0
 11
-653.1258070714
 21
-12.6316588879
 31
0.0
  0
LINE
  5
281
  8
0
  6
CONTINUOUS
 62
     7
 10
-654.292724455
 20
-12.3316538096
 30
0.0
 11
-653.4258046991
 21
-12.3316538096
 31
0.0
  0
LINE
  5
282
  8
0
  6
CONTINUOUS
 62
     7
 10
-653.1258070714
 20
-12.6316588879
 30
0.0
 11
-654.0727535135
 21
-12.6316588879
 31
0.0
  0
LINE
  5
283
  8
0
  6
CONTINUOUS
 62
     7
 10
-653.4258046991
 20
-8.93165586
 30
0.0
 11
-654.292724455
 21
-8.93165586
 31
0.0
  0
LINE
  5
284
  8
0
  6
CONTINUOUS
 62
     7
 10
-654.0727535135
 20
-8.6316656828
 30
0.0
 11
-653.1258070714
 21
-8.6316656828
 31
0.0
  0
LINE
  5
285
  8
0
  6
CONTINUOUS
 62
     7
 10
-682.5585955626
 20
-12.3316538096
 30
0.0
 11
-654.292724455
 21
-12.3316538096
 31
0.0
  0
LINE
  5
286
  8
0
  6
CONTINUOUS
 62
     7
 10
-654.0727535135
 20
-12.6316588879
 30
0.0
 11
-682.3386171705
 21
-12.6316588879
 31
0.0
  0
LINE
  5
287
  8
0
  6
CONTINUOUS
 62
     7
 10
-654.292724455
 20
-8.93165586
 30
0.0
 11
-682.5585955626
 21
-8.93165586
 31
0.0
  0
LINE
  5
288
  8
0
  6
CONTINUOUS
 62
     7
 10
-662.9265168554
 20
-8.6316656828
 30
0.0
 11
-654.0727535135
 21
-8.6316656828
 31
0.0
  0
LINE
  5
289
  8
0
  6
CONTINUOUS
 62
     7
 10
-682.5585955626
 20
-8.93165586
 30
0.0
 11
-684.4258079177
 21
-8.93165586
 31
0.0
  0
LINE
  5
28A
  8
0
  6
CONTINUOUS
 62
     7
 10
-684.4258079177
 20
-12.3316538096
 30
0.0
 11
-682.5585955626
 21
-12.3316538096
 31
0.0
  0
LINE
  5
28B
  8
0
  6
CONTINUOUS
 62
     7
 10
-684.4258079177
 20
-12.3316538096
 30
0.0
 11
-684.4258079177
 21
-8.93165586
 31
0.0
  0
LINE
  5
28C
  8
0
  6
CONTINUOUS
 62
     7
 10
-684.4258079177
 20
-12.3316538096
 30
0.0
 11
-684.12581029
 21
-12.6316588879
 31
0.0
  0
LINE
  5
28D
  8
0
  6
CONTINUOUS
 62
     7
 10
-682.3386171705
 20
-12.6316588879
 30
0.0
 11
-684.12581029
 21
-12.6316588879
 31
0.0
  0
LINE
  5
28E
  8
0
  6
CONTINUOUS
 62
     7
 10
-684.4258079177
 20
-8.93165586
 30
0.0
 11
-684.12581029
 21
-8.6316656828
 31
0.0
  0
LINE
  5
28F
  8
0
  6
CONTINUOUS
 62
     7
 10
-644.6758055932
 20
295.3683394432
 30
0.0
 11
-641.7258078105
 21
295.3683394432
 31
0.0
  0
LINE
  5
290
  8
0
  6
CONTINUOUS
 62
     7
 10
-641.7258078105
 20
295.3683394432
 30
0.0
 11
-641.4258101827
 21
295.0683343649
 31
0.0
  0
LINE
  5
291
  8
0
  6
CONTINUOUS
 62
     7
 10
-641.4258101827
 20
295.0683343649
 30
0.0
 11
-644.6758055932
 21
295.0683343649
 31
0.0
  0
LINE
  5
292
  8
0
  6
CONTINUOUS
 62
     7
 10
-641.4258101827
 20
295.0683343649
 30
0.0
 11
-641.4258101827
 21
291.6683364153
 31
0.0
  0
LINE
  5
293
  8
0
  6
CONTINUOUS
 62
     7
 10
-644.6758055932
 20
291.6683364153
 30
0.0
 11
-641.4258101827
 21
291.6683364153
 31
0.0
  0
LINE
  5
294
  8
0
  6
CONTINUOUS
 62
     7
 10
-644.6758055932
 20
295.0683343649
 30
0.0
 11
-650.1758092887
 21
295.0683343649
 31
0.0
  0
LINE
  5
295
  8
0
  6
CONTINUOUS
 62
     7
 10
-650.1758092887
 20
291.6683364153
 30
0.0
 11
-644.6758055932
 21
291.6683364153
 31
0.0
  0
LINE
  5
296
  8
0
  6
CONTINUOUS
 62
     7
 10
-650.1758092887
 20
295.3683394432
 30
0.0
 11
-644.6758055932
 21
295.3683394432
 31
0.0
  0
LINE
  5
297
  8
0
  6
CONTINUOUS
 62
     7
 10
-641.7258078105
 20
291.3683462381
 30
0.0
 11
-644.6758055932
 21
291.3683462381
 31
0.0
  0
LINE
  5
298
  8
0
  6
CONTINUOUS
 62
     7
 10
-641.7258078105
 20
291.3683462381
 30
0.0
 11
-641.4258101827
 21
291.6683364153
 31
0.0
  0
LINE
  5
299
  8
0
  6
CONTINUOUS
 62
     7
 10
-644.6758055932
 20
291.3683462381
 30
0.0
 11
-650.1758092887
 21
291.3683462381
 31
0.0
  0
LINE
  5
29A
  8
0
  6
CONTINUOUS
 62
     7
 10
-650.1758092887
 20
295.0683343649
 30
0.0
 11
-653.4258046991
 21
295.0683343649
 31
0.0
  0
LINE
  5
29B
  8
0
  6
CONTINUOUS
 62
     7
 10
-653.4258046991
 20
291.6683364153
 30
0.0
 11
-650.1758092887
 21
291.6683364153
 31
0.0
  0
LINE
  5
29C
  8
0
  6
CONTINUOUS
 62
     7
 10
-653.4258046991
 20
291.6683364153
 30
0.0
 11
-653.4258046991
 21
295.0683343649
 31
0.0
  0
LINE
  5
29D
  8
0
  6
CONTINUOUS
 62
     7
 10
-653.1258070714
 20
295.3683394432
 30
0.0
 11
-650.1758092887
 21
295.3683394432
 31
0.0
  0
LINE
  5
29E
  8
0
  6
CONTINUOUS
 62
     7
 10
-653.1258070714
 20
295.3683394432
 30
0.0
 11
-653.4258046991
 21
295.0683343649
 31
0.0
  0
LINE
  5
29F
  8
0
  6
CONTINUOUS
 62
     7
 10
-650.1758092887
 20
291.3683462381
 30
0.0
 11
-653.1258070714
 21
291.3683462381
 31
0.0
  0
LINE
  5
2A0
  8
0
  6
CONTINUOUS
 62
     7
 10
-653.4258046991
 20
291.6683364153
 30
0.0
 11
-653.1258070714
 21
291.3683462381
 31
0.0
  0
LINE
  5
2A1
  8
0
  6
CONTINUOUS
 62
     7
 10
-653.4258046991
 20
295.0683343649
 30
0.0
 11
-654.292724455
 21
295.0683343649
 31
0.0
  0
LINE
  5
2A2
  8
0
  6
CONTINUOUS
 62
     7
 10
-654.0727535135
 20
295.3683394432
 30
0.0
 11
-653.1258070714
 21
295.3683394432
 31
0.0
  0
LINE
  5
2A3
  8
0
  6
CONTINUOUS
 62
     7
 10
-654.292724455
 20
291.6683364153
 30
0.0
 11
-653.4258046991
 21
291.6683364153
 31
0.0
  0
LINE
  5
2A4
  8
0
  6
CONTINUOUS
 62
     7
 10
-653.1258070714
 20
291.3683462381
 30
0.0
 11
-654.0727535135
 21
291.3683462381
 31
0.0
  0
LINE
  5
2A5
  8
0
  6
CONTINUOUS
 62
     7
 10
-654.292724455
 20
295.0683343649
 30
0.0
 11
-682.5585955626
 21
295.0683343649
 31
0.0
  0
LINE
  5
2A6
  8
0
  6
CONTINUOUS
 62
     7
 10
-682.3386171705
 20
295.3683394432
 30
0.0
 11
-654.0727535135
 21
295.3683394432
 31
0.0
  0
LINE
  5
2A7
  8
0
  6
CONTINUOUS
 62
     7
 10
-682.5585955626
 20
291.6683364153
 30
0.0
 11
-654.292724455
 21
291.6683364153
 31
0.0
  0
LINE
  5
2A8
  8
0
  6
CONTINUOUS
 62
     7
 10
-654.0727535135
 20
291.3683462381
 30
0.0
 11
-662.9265168554
 21
291.3683462381
 31
0.0
  0
LINE
  5
2A9
  8
0
  6
CONTINUOUS
 62
     7
 10
-682.5585955626
 20
295.0683343649
 30
0.0
 11
-684.4258079177
 21
295.0683343649
 31
0.0
  0
LINE
  5
2AA
  8
0
  6
CONTINUOUS
 62
     7
 10
-684.4258079177
 20
291.6683364153
 30
0.0
 11
-682.5585955626
 21
291.6683364153
 31
0.0
  0
LINE
  5
2AB
  8
0
  6
CONTINUOUS
 62
     7
 10
-684.4258079177
 20
291.6683364153
 30
0.0
 11
-684.4258079177
 21
295.0683343649
 31
0.0
  0
LINE
  5
2AC
  8
0
  6
CONTINUOUS
 62
     7
 10
-684.4258079177
 20
295.0683343649
 30
0.0
 11
-684.12581029
 21
295.3683394432
 31
0.0
  0
LINE
  5
2AD
  8
0
  6
CONTINUOUS
 62
     7
 10
-684.12581029
 20
295.3683394432
 30
0.0
 11
-682.3386171705
 21
295.3683394432
 31
0.0
  0
LINE
  5
2AE
  8
0
  6
CONTINUOUS
 62
     7
 10
-684.4258079177
 20
291.6683364153
 30
0.0
 11
-684.12581029
 21
291.3683462381
 31
0.0
  0
LINE
  5
2AF
  8
0
  6
CONTINUOUS
 62
     7
 10
-872.6758057124
 20
291.6683364153
 30
0.0
 11
-869.4258103019
 21
291.6683364153
 31
0.0
  0
LINE
  5
2B0
  8
0
  6
CONTINUOUS
 62
     7
 10
-869.4258103019
 20
295.0683343649
 30
0.0
 11
-872.6758057124
 21
295.0683343649
 31
0.0
  0
LINE
  5
2B1
  8
0
  6
CONTINUOUS
 62
     7
 10
-869.4258103019
 20
295.0683343649
 30
0.0
 11
-869.4258103019
 21
291.6683364153
 31
0.0
  0
LINE
  5
2B2
  8
0
  6
CONTINUOUS
 62
     7
 10
-869.7258079297
 20
291.3683462381
 30
0.0
 11
-872.6758057124
 21
291.3683462381
 31
0.0
  0
LINE
  5
2B3
  8
0
  6
CONTINUOUS
 62
     7
 10
-869.7258079297
 20
291.3683462381
 30
0.0
 11
-869.4258103019
 21
291.6683364153
 31
0.0
  0
LINE
  5
2B4
  8
0
  6
CONTINUOUS
 62
     7
 10
-872.6758057124
 20
291.3683462381
 30
0.0
 11
-878.1758094079
 21
291.3683462381
 31
0.0
  0
LINE
  5
2B5
  8
0
  6
CONTINUOUS
 62
     7
 10
-878.1758094079
 20
291.6683364153
 30
0.0
 11
-872.6758057124
 21
291.6683364153
 31
0.0
  0
LINE
  5
2B6
  8
0
  6
CONTINUOUS
 62
     7
 10
-872.6758057124
 20
295.0683343649
 30
0.0
 11
-878.1758094079
 21
295.0683343649
 31
0.0
  0
LINE
  5
2B7
  8
0
  6
CONTINUOUS
 62
     7
 10
-872.6758057124
 20
295.3683394432
 30
0.0
 11
-869.7258079297
 21
295.3683394432
 31
0.0
  0
LINE
  5
2B8
  8
0
  6
CONTINUOUS
 62
     7
 10
-869.4258103019
 20
295.0683343649
 30
0.0
 11
-869.7258079297
 21
295.3683394432
 31
0.0
  0
LINE
  5
2B9
  8
0
  6
CONTINUOUS
 62
     7
 10
-878.1758094079
 20
295.3683394432
 30
0.0
 11
-872.6758057124
 21
295.3683394432
 31
0.0
  0
LINE
  5
2BA
  8
0
  6
CONTINUOUS
 62
     7
 10
-881.4258048183
 20
291.6683364153
 30
0.0
 11
-878.1758094079
 21
291.6683364153
 31
0.0
  0
LINE
  5
2BB
  8
0
  6
CONTINUOUS
 62
     7
 10
-881.4258048183
 20
291.6683364153
 30
0.0
 11
-881.4258048183
 21
295.0683343649
 31
0.0
  0
LINE
  5
2BC
  8
0
  6
CONTINUOUS
 62
     7
 10
-878.1758094079
 20
295.0683343649
 30
0.0
 11
-881.4258048183
 21
295.0683343649
 31
0.0
  0
LINE
  5
2BD
  8
0
  6
CONTINUOUS
 62
     7
 10
-878.1758094079
 20
291.3683462381
 30
0.0
 11
-881.1258071906
 21
291.3683462381
 31
0.0
  0
LINE
  5
2BE
  8
0
  6
CONTINUOUS
 62
     7
 10
-881.1258071906
 20
291.3683462381
 30
0.0
 11
-881.4258048183
 21
291.6683364153
 31
0.0
  0
LINE
  5
2BF
  8
0
  6
CONTINUOUS
 62
     7
 10
-881.1258071906
 20
295.3683394432
 30
0.0
 11
-878.1758094079
 21
295.3683394432
 31
0.0
  0
LINE
  5
2C0
  8
0
  6
CONTINUOUS
 62
     7
 10
-881.1258071906
 20
295.3683394432
 30
0.0
 11
-881.4258048183
 21
295.0683343649
 31
0.0
  0
LINE
  5
2C1
  8
0
  6
CONTINUOUS
 62
     7
 10
-868.558890546
 20
295.0683343649
 30
0.0
 11
-869.4258103019
 21
295.0683343649
 31
0.0
  0
LINE
  5
2C2
  8
0
  6
CONTINUOUS
 62
     7
 10
-869.7258079297
 20
295.3683394432
 30
0.0
 11
-868.7788614875
 21
295.3683394432
 31
0.0
  0
LINE
  5
2C3
  8
0
  6
CONTINUOUS
 62
     7
 10
-869.4258103019
 20
291.6683364153
 30
0.0
 11
-868.558890546
 21
291.6683364153
 31
0.0
  0
LINE
  5
2C4
  8
0
  6
CONTINUOUS
 62
     7
 10
-868.7788614875
 20
291.3683462381
 30
0.0
 11
-869.7258079297
 21
291.3683462381
 31
0.0
  0
LINE
  5
2C5
  8
0
  6
CONTINUOUS
 62
     7
 10
-840.2930194384
 20
295.0683343649
 30
0.0
 11
-868.558890546
 21
295.0683343649
 31
0.0
  0
LINE
  5
2C6
  8
0
  6
CONTINUOUS
 62
     7
 10
-868.7788614875
 20
295.3683394432
 30
0.0
 11
-840.5129978305
 21
295.3683394432
 31
0.0
  0
LINE
  5
2C7
  8
0
  6
CONTINUOUS
 62
     7
 10
-868.558890546
 20
291.6683364153
 30
0.0
 11
-840.2930194384
 21
291.6683364153
 31
0.0
  0
LINE
  5
2C8
  8
0
  6
CONTINUOUS
 62
     7
 10
-859.9250981456
 20
291.3683462381
 30
0.0
 11
-868.7788614875
 21
291.3683462381
 31
0.0
  0
LINE
  5
2C9
  8
0
  6
CONTINUOUS
 62
     7
 10
-838.4258070833
 20
295.0683343649
 30
0.0
 11
-840.2930194384
 21
295.0683343649
 31
0.0
  0
LINE
  5
2CA
  8
0
  6
CONTINUOUS
 62
     7
 10
-838.4258070833
 20
295.0683343649
 30
0.0
 11
-838.725804711
 21
295.3683394432
 31
0.0
  0
LINE
  5
2CB
  8
0
  6
CONTINUOUS
 62
     7
 10
-840.5129978305
 20
295.3683394432
 30
0.0
 11
-838.725804711
 21
295.3683394432
 31
0.0
  0
LINE
  5
2CC
  8
0
  6
CONTINUOUS
 62
     7
 10
-840.2930194384
 20
291.6683364153
 30
0.0
 11
-838.4258070833
 21
291.6683364153
 31
0.0
  0
LINE
  5
2CD
  8
0
  6
CONTINUOUS
 62
     7
 10
-838.4258070833
 20
295.0683343649
 30
0.0
 11
-838.4258070833
 21
291.6683364153
 31
0.0
  0
LINE
  5
2CE
  8
0
  6
CONTINUOUS
 62
     7
 10
-838.4258070833
 20
291.6683364153
 30
0.0
 11
-838.725804711
 21
291.3683462381
 31
0.0
  0
LINE
  5
2CF
  8
0
  6
CONTINUOUS
 62
     7
 10
-872.6758057124
 20
-12.3316538096
 30
0.0
 11
-869.4258103019
 21
-12.3316538096
 31
0.0
  0
LINE
  5
2D0
  8
0
  6
CONTINUOUS
 62
     7
 10
-869.4258103019
 20
-8.93165586
 30
0.0
 11
-872.6758057124
 21
-8.93165586
 31
0.0
  0
LINE
  5
2D1
  8
0
  6
CONTINUOUS
 62
     7
 10
-869.4258103019
 20
-8.93165586
 30
0.0
 11
-869.4258103019
 21
-12.3316538096
 31
0.0
  0
LINE
  5
2D2
  8
0
  6
CONTINUOUS
 62
     7
 10
-869.7258079297
 20
-12.6316588879
 30
0.0
 11
-872.6758057124
 21
-12.6316588879
 31
0.0
  0
LINE
  5
2D3
  8
0
  6
CONTINUOUS
 62
     7
 10
-869.7258079297
 20
-12.6316588879
 30
0.0
 11
-869.4258103019
 21
-12.3316538096
 31
0.0
  0
LINE
  5
2D4
  8
0
  6
CONTINUOUS
 62
     7
 10
-878.1758094079
 20
-12.3316538096
 30
0.0
 11
-872.6758057124
 21
-12.3316538096
 31
0.0
  0
LINE
  5
2D5
  8
0
  6
CONTINUOUS
 62
     7
 10
-872.6758057124
 20
-8.93165586
 30
0.0
 11
-878.1758094079
 21
-8.93165586
 31
0.0
  0
LINE
  5
2D6
  8
0
  6
CONTINUOUS
 62
     7
 10
-872.6758057124
 20
-12.6316588879
 30
0.0
 11
-878.1758094079
 21
-12.6316588879
 31
0.0
  0
LINE
  5
2D7
  8
0
  6
CONTINUOUS
 62
     7
 10
-872.6758057124
 20
-8.6316656828
 30
0.0
 11
-869.7258079297
 21
-8.6316656828
 31
0.0
  0
LINE
  5
2D8
  8
0
  6
CONTINUOUS
 62
     7
 10
-869.4258103019
 20
-8.93165586
 30
0.0
 11
-869.7258079297
 21
-8.6316656828
 31
0.0
  0
LINE
  5
2D9
  8
0
  6
CONTINUOUS
 62
     7
 10
-878.1758094079
 20
-8.6316656828
 30
0.0
 11
-872.6758057124
 21
-8.6316656828
 31
0.0
  0
LINE
  5
2DA
  8
0
  6
CONTINUOUS
 62
     7
 10
-878.1758094079
 20
-12.6316588879
 30
0.0
 11
-881.1258071906
 21
-12.6316588879
 31
0.0
  0
LINE
  5
2DB
  8
0
  6
CONTINUOUS
 62
     7
 10
-881.1258071906
 20
-12.6316588879
 30
0.0
 11
-881.4258048183
 21
-12.3316538096
 31
0.0
  0
LINE
  5
2DC
  8
0
  6
CONTINUOUS
 62
     7
 10
-881.4258048183
 20
-12.3316538096
 30
0.0
 11
-878.1758094079
 21
-12.3316538096
 31
0.0
  0
LINE
  5
2DD
  8
0
  6
CONTINUOUS
 62
     7
 10
-881.4258048183
 20
-12.3316538096
 30
0.0
 11
-881.4258048183
 21
-8.93165586
 31
0.0
  0
LINE
  5
2DE
  8
0
  6
CONTINUOUS
 62
     7
 10
-878.1758094079
 20
-8.93165586
 30
0.0
 11
-881.4258048183
 21
-8.93165586
 31
0.0
  0
LINE
  5
2DF
  8
0
  6
CONTINUOUS
 62
     7
 10
-881.1258071906
 20
-8.6316656828
 30
0.0
 11
-878.1758094079
 21
-8.6316656828
 31
0.0
  0
LINE
  5
2E0
  8
0
  6
CONTINUOUS
 62
     7
 10
-881.1258071906
 20
-8.6316656828
 30
0.0
 11
-881.4258048183
 21
-8.93165586
 31
0.0
  0
LINE
  5
2E1
  8
0
  6
CONTINUOUS
 62
     7
 10
-869.4258103019
 20
-12.3316538096
 30
0.0
 11
-868.558890546
 21
-12.3316538096
 31
0.0
  0
LINE
  5
2E2
  8
0
  6
CONTINUOUS
 62
     7
 10
-868.7788614875
 20
-12.6316588879
 30
0.0
 11
-869.7258079297
 21
-12.6316588879
 31
0.0
  0
LINE
  5
2E3
  8
0
  6
CONTINUOUS
 62
     7
 10
-868.558890546
 20
-8.93165586
 30
0.0
 11
-869.4258103019
 21
-8.93165586
 31
0.0
  0
LINE
  5
2E4
  8
0
  6
CONTINUOUS
 62
     7
 10
-869.7258079297
 20
-8.6316656828
 30
0.0
 11
-868.7788614875
 21
-8.6316656828
 31
0.0
  0
LINE
  5
2E5
  8
0
  6
CONTINUOUS
 62
     7
 10
-840.2930194384
 20
-8.93165586
 30
0.0
 11
-868.558890546
 21
-8.93165586
 31
0.0
  0
LINE
  5
2E6
  8
0
  6
CONTINUOUS
 62
     7
 10
-868.7788614875
 20
-8.6316656828
 30
0.0
 11
-859.9250981456
 21
-8.6316656828
 31
0.0
  0
LINE
  5
2E7
  8
0
  6
CONTINUOUS
 62
     7
 10
-868.558890546
 20
-12.3316538096
 30
0.0
 11
-840.2930194384
 21
-12.3316538096
 31
0.0
  0
LINE
  5
2E8
  8
0
  6
CONTINUOUS
 62
     7
 10
-840.5129978305
 20
-12.6316588879
 30
0.0
 11
-868.7788614875
 21
-12.6316588879
 31
0.0
  0
LINE
  5
2E9
  8
0
  6
CONTINUOUS
 62
     7
 10
-840.2930194384
 20
-12.3316538096
 30
0.0
 11
-838.4258070833
 21
-12.3316538096
 31
0.0
  0
LINE
  5
2EA
  8
0
  6
CONTINUOUS
 62
     7
 10
-838.4258070833
 20
-12.3316538096
 30
0.0
 11
-838.725804711
 21
-12.6316588879
 31
0.0
  0
LINE
  5
2EB
  8
0
  6
CONTINUOUS
 62
     7
 10
-838.725804711
 20
-12.6316588879
 30
0.0
 11
-840.5129978305
 21
-12.6316588879
 31
0.0
  0
LINE
  5
2EC
  8
0
  6
CONTINUOUS
 62
     7
 10
-838.4258070833
 20
-8.93165586
 30
0.0
 11
-840.2930194384
 21
-8.93165586
 31
0.0
  0
LINE
  5
2ED
  8
0
  6
CONTINUOUS
 62
     7
 10
-838.4258070833
 20
-8.93165586
 30
0.0
 11
-838.725804711
 21
-8.6316656828
 31
0.0
  0
LINE
  5
2EE
  8
0
  6
CONTINUOUS
 62
     7
 10
-838.4258070833
 20
-8.93165586
 30
0.0
 11
-838.4258070833
 21
-12.3316538096
 31
0.0
  0
ARC
  5
2EF
  8
0
  6
CONTINUOUS
 62
     7
 10
-708.9758072809
 20
488.9547049392
 30
0.0
 40
120.0000000000276
 50
276.1072898503
 51
277.0541313733
  0
ARC
  5
2F0
  8
0
  6
CONTINUOUS
 62
     7
 10
-708.9758072809
 20
488.9547049392
 30
0.0
 40
120.0000000000275
 50
262.9458686267
 51
263.8915999146
  0
ARC
  5
2F1
  8
0
  6
CONTINUOUS
 62
     7
 10
-694.2758072809
 20
370.1607656998
 30
0.0
 40
0.3000000000022199
 50
277.054127852
 51
359.9999856569
  0
ARC
  5
2F2
  8
0
  6
CONTINUOUS
 62
     7
 10
-723.6758072809
 20
370.1607656998
 30
0.0
 40
0.3000000000021775
 50
180.0000143431
 51
262.945872148
  0
ARC
  5
2F3
  8
0
  6
CONTINUOUS
 62
     7
 10
-721.7757997495
 20
369.337607601
 30
0.0
 40
0.300007524386974
 50
359.5424680995
 51
84.3753515535
  0
ARC
  5
2F4
  8
0
  6
CONTINUOUS
 62
     7
 10
-696.1758191498
 20
369.3376136993
 30
0.0
 40
0.3000011955060621
 50
95.6242584386
 51
180.4587062692
  0
ARC
  5
2F5
  8
0
  6
CONTINUOUS
 62
     7
 10
-708.9758072809
 20
458.4547049392
 30
0.0
 40
90.19999999999959
 50
275.4696070839
 51
277.8002470321
  0
ARC
  5
2F6
  8
0
  6
CONTINUOUS
 62
     7
 10
-708.9758072809
 20
458.4547049392
 30
0.0
 40
90.1999999999995
 50
262.1997529669
 51
264.5303929161
  0
ARC
  5
2F7
  8
0
  6
CONTINUOUS
 62
     7
 10
-717.5258072809
 20
369.1631179894
 30
0.0
 40
0.5000000000001247
 50
264.5304035698
 51
270.0
  0
ARC
  5
2F8
  8
0
  6
CONTINUOUS
 62
     7
 10
-700.4258072809
 20
369.1631179894
 30
0.0
 40
0.5000000000001138
 50
270.0
 51
275.4695964302
  0
LINE
  5
2F9
  8
0
  6
CONTINUOUS
 62
     7
 10
-717.5258057064
 20
368.6631248616
 30
0.0
 11
-700.4258068151
 21
368.6631248616
 31
0.0
  0
ARC
  5
2FA
  8
0
  6
CONTINUOUS
 62
     7
 10
-696.7738019159
 20
369.3866141048
 30
0.0
 40
0.2999787907994229
 50
272.6602214011
 51
355.7681346432
  0
ARC
  5
2FB
  8
0
  6
CONTINUOUS
 62
     7
 10
-721.1778017089
 20
369.3866312808
 30
0.0
 40
0.2999963613782094
 50
184.2349064473
 51
267.338233524
  0
LINE
  5
2FC
  8
0
  6
CONTINUOUS
 62
     7
 10
-680.1758104807
 20
396.1547092819
 30
0.0
 11
-680.1758104807
 21
395.1547072553
 31
0.0
  0
LINE
  5
2FD
  8
0
  6
CONTINUOUS
 62
     7
 10
-670.1758051163
 20
395.1547072553
 30
0.0
 11
-670.1758051163
 21
396.1547092819
 31
0.0
  0
LINE
  5
2FE
  8
0
  6
CONTINUOUS
 62
     7
 10
-859.9258059508
 20
427.4047018313
 30
0.0
 11
-859.9250981456
 21
427.4047018313
 31
0.0
  0
LINE
  5
2FF
  8
0
  6
CONTINUOUS
 62
     7
 10
-859.9250981456
 20
434.9047021293
 30
0.0
 11
-859.9258059508
 21
434.9047021293
 31
0.0
  0
LINE
  5
300
  8
0
  6
CONTINUOUS
 62
     7
 10
-662.9258090502
 20
434.9047021293
 30
0.0
 11
-662.9265168554
 21
434.9047021293
 31
0.0
  0
LINE
  5
301
  8
0
  6
CONTINUOUS
 62
     7
 10
-662.9265168554
 20
427.4047018313
 30
0.0
 11
-662.9258090502
 21
427.4047018313
 31
0.0
  0
LINE
  5
302
  8
0
  6
CONTINUOUS
 62
     7
 10
-850.1758048183
 20
393.9347044849
 30
0.0
 11
-849.7758054978
 21
393.5346977138
 31
0.0
  0
LINE
  5
303
  8
0
  6
CONTINUOUS
 62
     7
 10
-845.5758089072
 20
393.5346977138
 30
0.0
 11
-845.1758095867
 21
393.9347044849
 31
0.0
  0
LINE
  5
304
  8
0
  6
CONTINUOUS
 62
     7
 10
-850.1758048183
 20
394.1547052287
 30
0.0
 11
-850.1758048183
 21
393.9347044849
 31
0.0
  0
LINE
  5
305
  8
0
  6
CONTINUOUS
 62
     7
 10
-845.1758095867
 20
393.9347044849
 30
0.0
 11
-845.1758095867
 21
394.1547052287
 31
0.0
  0
LINE
  5
306
  8
0
  6
CONTINUOUS
 62
     7
 10
-859.4258049375
 20
527.154704561
 30
0.0
 11
-859.4258049375
 21
525.9831316413
 31
0.0
  0
LINE
  5
307
  8
0
  6
CONTINUOUS
 62
     7
 10
-663.4258100635
 20
527.154704561
 30
0.0
 11
-663.4258100635
 21
525.9831316413
 31
0.0
  0
POLYLINE
  5
308
  8
0
  6
CONTINUOUS
 62
     7
 66
     1
 10
0.0
 20
0.0
 30
0.0
  0
VERTEX
  5
5E9
  8
0
  6
CONTINUOUS
 62
     7
 10
-666.475809539
 20
378.4547076844
 30
0.0
  0
VERTEX
  5
5EA
  8
0
  6
CONTINUOUS
 62
     7
 10
-665.9446278459
 20
378.6692695045
 30
0.0
  0
VERTEX
  5
5EB
  8
0
  6
CONTINUOUS
 62
     7
 10
-665.387205208
 20
378.8263575458
 30
0.0
  0
VERTEX
  5
5EC
  8
0
  6
CONTINUOUS
 62
     7
 10
-664.8423293478
 20
378.9225594425
 30
0.0
  0
VERTEX
  5
5ED
  8
0
  6
CONTINUOUS
 62
     7
 10
-664.3544802314
 20
378.9547012471
 30
0.0
  0
VERTEX
  5
5EE
  8
0
  6
CONTINUOUS
 62
     7
 10
-663.9590779192
 20
378.9227233552
 30
0.0
  0
VERTEX
  5
5EF
  8
0
  6
CONTINUOUS
 62
     7
 10
-663.6808508879
 20
378.826744976
 30
0.0
  0
VERTEX
  5
5F0
  8
0
  6
CONTINUOUS
 62
     7
 10
-663.5231295473
 20
378.6691204929
 30
0.0
  0
VERTEX
  5
5F1
  8
0
  6
CONTINUOUS
 62
     7
 10
-663.4758109099
 20
378.4547076844
 30
0.0
  0
SEQEND
  5
5F2
  8
0
  6
CONTINUOUS
 62
     7
  0
LINE
  5
309
  8
0
  6
CONTINUOUS
 62
     7
 10
-663.4758109099
 20
378.4547076844
 30
0.0
 11
-664.9758064992
 21
378.4547076844
 31
0.0
  0
ARC
  5
30A
  8
0
  6
CONTINUOUS
 62
     7
 10
-665.3900337678
 20
378.5337478548
 30
0.0
 40
0.4217008164591902
 50
349.1970514543
 51
93.4117965583
  0
LINE
  5
30B
  8
0
  6
CONTINUOUS
 62
     7
 10
-666.9758105523
 20
374.9547080421
 30
0.0
 11
-856.9758081681
 21
374.9547080421
 31
0.0
  0
POLYLINE
  5
30C
  8
0
  6
CONTINUOUS
 62
     7
 66
     1
 10
0.0
 20
0.0
 30
0.0
  0
VERTEX
  5
5F3
  8
0
  6
CONTINUOUS
 62
     7
 10
-856.9758081681
 20
374.9547080421
 30
0.0
  0
VERTEX
  5
5F4
  8
0
  6
CONTINUOUS
 62
     7
 10
-856.7612463481
 20
375.0021086358
 30
0.0
  0
VERTEX
  5
5F5
  8
0
  6
CONTINUOUS
 62
     7
 10
-856.6041583068
 20
375.159181776
 30
0.0
  0
VERTEX
  5
5F6
  8
0
  6
CONTINUOUS
 62
     7
 10
-856.5079564101
 20
375.4384146356
 30
0.0
  0
VERTEX
  5
5F7
  8
0
  6
CONTINUOUS
 62
     7
 10
-856.4758071548
 20
375.8333848142
 30
0.0
  0
VERTEX
  5
5F8
  8
0
  6
CONTINUOUS
 62
     7
 10
-856.5077924973
 20
376.3218895816
 30
0.0
  0
VERTEX
  5
5F9
  8
0
  6
CONTINUOUS
 62
     7
 10
-856.6037708766
 20
376.8646494769
 30
0.0
  0
VERTEX
  5
5FA
  8
0
  6
CONTINUOUS
 62
     7
 10
-856.7613879091
 20
377.4239496612
 30
0.0
  0
VERTEX
  5
5FB
  8
0
  6
CONTINUOUS
 62
     7
 10
-856.9758081681
 20
377.9546992206
 30
0.0
  0
SEQEND
  5
5FC
  8
0
  6
CONTINUOUS
 62
     7
  0
POLYLINE
  5
30D
  8
0
  6
CONTINUOUS
 62
     7
 66
     1
 10
0.0
 20
0.0
 30
0.0
  0
VERTEX
  5
5FD
  8
0
  6
CONTINUOUS
 62
     7
 10
-666.9758105523
 20
374.9547080421
 30
0.0
  0
VERTEX
  5
5FE
  8
0
  6
CONTINUOUS
 62
     7
 10
-667.1903723723
 20
375.0021086358
 30
0.0
  0
VERTEX
  5
5FF
  8
0
  6
CONTINUOUS
 62
     7
 10
-667.3474604136
 20
375.159181776
 30
0.0
  0
VERTEX
  5
600
  8
0
  6
CONTINUOUS
 62
     7
 10
-667.4436548597
 20
375.4384146356
 30
0.0
  0
VERTEX
  5
601
  8
0
  6
CONTINUOUS
 62
     7
 10
-667.475804115
 20
375.8333848142
 30
0.0
  0
VERTEX
  5
602
  8
0
  6
CONTINUOUS
 62
     7
 10
-667.4438187725
 20
376.3218895816
 30
0.0
  0
VERTEX
  5
603
  8
0
  6
CONTINUOUS
 62
     7
 10
-667.3478478438
 20
376.8646494769
 30
0.0
  0
VERTEX
  5
604
  8
0
  6
CONTINUOUS
 62
     7
 10
-667.1902308113
 20
377.4239496612
 30
0.0
  0
VERTEX
  5
605
  8
0
  6
CONTINUOUS
 62
     7
 10
-666.9758105523
 20
377.9546992206
 30
0.0
  0
SEQEND
  5
606
  8
0
  6
CONTINUOUS
 62
     7
  0
LINE
  5
30E
  8
0
  6
CONTINUOUS
 62
     7
 10
-663.4758109099
 20
389.9547086381
 30
0.0
 11
-663.4758109099
 21
378.4547076844
 31
0.0
  0
LINE
  5
30F
  8
0
  6
CONTINUOUS
 62
     7
 10
-666.475809539
 20
389.9547086381
 30
0.0
 11
-663.4758109099
 21
389.9547086381
 31
0.0
  0
ARC
  5
310
  8
0
  6
CONTINUOUS
 62
     7
 10
-858.9758072809
 20
376.4547049392
 30
0.0
 40
2.50000000000002
 50
36.8698976458
 51
45.0
  0
LINE
  5
311
  8
0
  6
CONTINUOUS
 62
     7
 10
-857.2080427653
 20
378.2224730872
 30
0.0
 11
-852.2258097178
 21
383.2047061347
 31
0.0
  0
LINE
  5
312
  8
0
  6
CONTINUOUS
 62
     7
 10
-852.2258097178
 20
383.2047061347
 30
0.0
 11
-845.4758072144
 21
383.2047061347
 31
0.0
  0
LINE
  5
313
  8
0
  6
CONTINUOUS
 62
     7
 10
-845.4758072144
 20
383.2047061347
 30
0.0
 11
-845.4758072144
 21
389.9547086381
 31
0.0
  0
LINE
  5
314
  8
0
  6
CONTINUOUS
 62
     7
 10
-845.4758072144
 20
389.9547086381
 30
0.0
 11
-678.4758040554
 21
389.9547086381
 31
0.0
  0
LINE
  5
315
  8
0
  6
CONTINUOUS
 62
     7
 10
-678.4758040554
 20
383.2047061347
 30
0.0
 11
-678.4758040554
 21
389.9547086381
 31
0.0
  0
LINE
  5
316
  8
0
  6
CONTINUOUS
 62
     7
 10
-671.7258090026
 20
383.2047061347
 30
0.0
 11
-678.4758040554
 21
383.2047061347
 31
0.0
  0
LINE
  5
317
  8
0
  6
CONTINUOUS
 62
     7
 10
-666.7435759551
 20
378.2224730872
 30
0.0
 11
-671.7258090026
 21
383.2047061347
 31
0.0
  0
ARC
  5
318
  8
0
  6
CONTINUOUS
 62
     7
 10
-664.9758072809
 20
376.4547049392
 30
0.0
 40
2.50000000000002
 50
135.0
 51
143.1301023542
  0
ARC
  5
319
  8
0
  6
CONTINUOUS
 62
     7
 10
-664.9758072809
 20
376.4547049392
 30
0.0
 40
2.50000000000006
 50
126.8698976458
 51
135.0
  0
LINE
  5
31A
  8
0
  6
CONTINUOUS
 62
     7
 10
-678.4758040554
 20
389.9547086381
 30
0.0
 11
-666.475809539
 21
389.9547086381
 31
0.0
  0
ARC
  5
31B
  8
0
  6
CONTINUOUS
 62
     7
 10
-667.0439436573
 20
376.8813452957
 30
0.0
 40
0.4320477169906144
 50
178.3130230689
 51
279.0733110085
  0
LINE
  5
31C
  8
0
  6
CONTINUOUS
 62
     7
 10
-666.9758105523
 20
376.4547036313
 30
0.0
 11
-666.9758105523
 21
374.9547080421
 31
0.0
  0
LINE
  5
31D
  8
0
  6
CONTINUOUS
 62
     7
 10
-857.4758091814
 20
389.9547086381
 30
0.0
 11
-845.4758072144
 21
389.9547086381
 31
0.0
  0
ARC
  5
31E
  8
0
  6
CONTINUOUS
 62
     7
 10
-858.9758072809
 20
376.4547049392
 30
0.0
 40
2.50000000000002
 50
45.0
 51
53.1301023542
  0
LINE
  5
31F
  8
0
  6
CONTINUOUS
 62
     7
 10
-856.9758081681
 20
376.4547036313
 30
0.0
 11
-856.9758081681
 21
374.9547080421
 31
0.0
  0
ARC
  5
320
  8
0
  6
CONTINUOUS
 62
     7
 10
-856.907671197
 20
376.8813482194
 30
0.0
 40
0.4320512138311757
 50
260.9262438503
 51
1.6865753796
  0
LINE
  5
321
  8
0
  6
CONTINUOUS
 62
     7
 10
-860.4758078105
 20
378.4547076844
 30
0.0
 11
-860.4758078105
 21
389.9547086381
 31
0.0
  0
LINE
  5
322
  8
0
  6
CONTINUOUS
 62
     7
 10
-860.4758078105
 20
389.9547086381
 30
0.0
 11
-857.4758091814
 21
389.9547086381
 31
0.0
  0
POLYLINE
  5
323
  8
0
  6
CONTINUOUS
 62
     7
 66
     1
 10
0.0
 20
0.0
 30
0.0
  0
VERTEX
  5
607
  8
0
  6
CONTINUOUS
 62
     7
 10
-857.4758091814
 20
378.4547076844
 30
0.0
  0
VERTEX
  5
608
  8
0
  6
CONTINUOUS
 62
     7
 10
-858.0069908744
 20
378.6692695045
 30
0.0
  0
VERTEX
  5
609
  8
0
  6
CONTINUOUS
 62
     7
 10
-858.5644135124
 20
378.8263575458
 30
0.0
  0
VERTEX
  5
60A
  8
0
  6
CONTINUOUS
 62
     7
 10
-859.1092893726
 20
378.9225594425
 30
0.0
  0
VERTEX
  5
60B
  8
0
  6
CONTINUOUS
 62
     7
 10
-859.5971310383
 20
378.9547012471
 30
0.0
  0
VERTEX
  5
60C
  8
0
  6
CONTINUOUS
 62
     7
 10
-859.9925333506
 20
378.9227233552
 30
0.0
  0
VERTEX
  5
60D
  8
0
  6
CONTINUOUS
 62
     7
 10
-860.2707603819
 20
378.826744976
 30
0.0
  0
VERTEX
  5
60E
  8
0
  6
CONTINUOUS
 62
     7
 10
-860.4284817225
 20
378.6691204929
 30
0.0
  0
VERTEX
  5
60F
  8
0
  6
CONTINUOUS
 62
     7
 10
-860.4758078105
 20
378.4547076844
 30
0.0
  0
SEQEND
  5
610
  8
0
  6
CONTINUOUS
 62
     7
  0
ARC
  5
324
  8
0
  6
CONTINUOUS
 62
     7
 10
-858.5615837087
 20
378.5337533084
 30
0.0
 40
0.4216957419800179
 50
86.5873175355
 51
190.8038344519
  0
LINE
  5
325
  8
0
  6
CONTINUOUS
 62
     7
 10
-860.4758078105
 20
378.4547076844
 30
0.0
 11
-858.9758047706
 21
378.4547076844
 31
0.0
  0
LINE
  5
326
  8
0
  6
CONTINUOUS
 62
     7
 10
-664.9758064992
 20
378.4547076844
 30
0.0
 11
-664.9758064992
 21
377.9546992206
 31
0.0
  0
LINE
  5
327
  8
0
  6
CONTINUOUS
 62
     7
 10
-663.4758109099
 20
378.4547076844
 30
0.0
 11
-663.4758109099
 21
377.9546992206
 31
0.0
  0
LINE
  5
328
  8
0
  6
CONTINUOUS
 62
     7
 10
-663.4758109099
 20
377.9546992206
 30
0.0
 11
-664.9758064992
 21
377.9546992206
 31
0.0
  0
LINE
  5
329
  8
0
  6
CONTINUOUS
 62
     7
 10
-666.475809539
 20
374.9547080421
 30
0.0
 11
-666.475809539
 21
376.4547036313
 31
0.0
  0
LINE
  5
32A
  8
0
  6
CONTINUOUS
 62
     7
 10
-666.475809539
 20
374.9547080421
 30
0.0
 11
-666.9758105523
 21
374.9547080421
 31
0.0
  0
LINE
  5
32B
  8
0
  6
CONTINUOUS
 62
     7
 10
-666.475809539
 20
376.4547036313
 30
0.0
 11
-666.9758105523
 21
376.4547036313
 31
0.0
  0
LINE
  5
32C
  8
0
  6
CONTINUOUS
 62
     7
 10
-858.9758047706
 20
378.4547076844
 30
0.0
 11
-858.9758047706
 21
377.9546992206
 31
0.0
  0
LINE
  5
32D
  8
0
  6
CONTINUOUS
 62
     7
 10
-860.4758078105
 20
377.9546992206
 30
0.0
 11
-858.9758047706
 21
377.9546992206
 31
0.0
  0
LINE
  5
32E
  8
0
  6
CONTINUOUS
 62
     7
 10
-860.4758078105
 20
378.4547076844
 30
0.0
 11
-860.4758078105
 21
377.9546992206
 31
0.0
  0
LINE
  5
32F
  8
0
  6
CONTINUOUS
 62
     7
 10
-857.4758091814
 20
374.9547080421
 30
0.0
 11
-856.9758081681
 21
374.9547080421
 31
0.0
  0
LINE
  5
330
  8
0
  6
CONTINUOUS
 62
     7
 10
-857.4758091814
 20
374.9547080421
 30
0.0
 11
-857.4758091814
 21
376.4547036313
 31
0.0
  0
LINE
  5
331
  8
0
  6
CONTINUOUS
 62
     7
 10
-857.4758091814
 20
376.4547036313
 30
0.0
 11
-856.9758081681
 21
376.4547036313
 31
0.0
  0
ARC
  5
332
  8
0
  6
CONTINUOUS
 62
     7
 10
-666.4757977532
 20
377.9546948853
 30
0.0
 40
2.999986843283472
 50
269.9997749066
 51
0.0000827976
  0
ARC
  5
333
  8
0
  6
CONTINUOUS
 62
     7
 10
-666.4758008589
 20
377.954697991
 30
0.0
 40
1.499994359696124
 50
269.9996684418
 51
0.0000469669
  0
ARC
  5
334
  8
0
  6
CONTINUOUS
 62
     7
 10
-857.4758100557
 20
377.9547057969
 30
0.0
 40
2.999997754775382
 50
180.0001255975
 51
270.0000166984
  0
ARC
  5
335
  8
0
  6
CONTINUOUS
 62
     7
 10
-857.4758146506
 20
377.9546937514
 30
0.0
 40
1.499990120071482
 50
179.9997910908
 51
270.0002089092
  0
ARC
  5
336
  8
0
  6
CONTINUOUS
 62
     7
 10
-854.9251003938
 20
399.6528927715
 30
0.0
 40
4.999999999973076
 50
180.0
 51
185.7183052343
  0
LINE
  5
337
  8
0
  6
CONTINUOUS
 62
     7
 10
-859.9250981456
 20
523.1547044874
 30
0.0
 11
-859.9250981456
 21
520.6164546595
 31
0.0
  0
LINE
  5
338
  8
0
  6
CONTINUOUS
 62
     7
 10
-859.9250981456
 20
476.4957838976
 30
0.0
 11
-859.9250981456
 21
399.6528909826
 31
0.0
  0
LINE
  5
339
  8
0
  6
CONTINUOUS
 62
     7
 10
-662.9265168554
 20
399.6528909826
 30
0.0
 11
-662.9265168554
 21
476.4957838976
 31
0.0
  0
LINE
  5
33A
  8
0
  6
CONTINUOUS
 62
     7
 10
-662.9265168554
 20
520.6164546595
 30
0.0
 11
-662.9265168554
 21
523.1547044874
 31
0.0
  0
ARC
  5
33B
  8
0
  6
CONTINUOUS
 62
     7
 10
-667.9265146074
 20
399.6528927715
 30
0.0
 40
5.000000000006446
 50
354.2816947658
 51
0.0
  0
LINE
  5
33C
  8
0
  6
CONTINUOUS
 62
     7
 10
-663.9265188819
 20
396.2561861896
 30
0.0
 11
-664.4247019536
 21
396.1547092819
 31
0.0
  0
LINE
  5
33D
  8
0
  6
CONTINUOUS
 62
     7
 10
-858.497589255
 20
396.1547092819
 30
0.0
 11
-664.4695917017
 21
396.1547092819
 31
0.0
  0
POLYLINE
  5
33E
  8
0
  6
CONTINUOUS
 62
     7
 66
     1
 10
0.0
 20
0.0
 30
0.0
  0
VERTEX
  5
611
  8
0
  6
CONTINUOUS
 62
     7
 10
-858.497589255
 20
396.1547092819
 30
0.0
  0
VERTEX
  5
612
  8
0
  6
CONTINUOUS
 62
     7
 10
-859.0340683109
 20
396.3320927047
 30
0.0
  0
VERTEX
  5
613
  8
0
  6
CONTINUOUS
 62
     7
 10
-859.4299400097
 20
396.8503401899
 30
0.0
  0
VERTEX
  5
614
  8
0
  6
CONTINUOUS
 62
     7
 10
-859.671979571
 20
397.6570890569
 30
0.0
  0
VERTEX
  5
615
  8
0
  6
CONTINUOUS
 62
     7
 10
-859.7878286487
 20
398.3183578872
 30
0.0
  0
VERTEX
  5
616
  8
0
  6
CONTINUOUS
 62
     7
 10
-859.900220657
 20
399.1547004604
 30
0.0
  0
SEQEND
  5
617
  8
0
  6
CONTINUOUS
 62
     7
  0
ARC
  5
33F
  8
0
  6
CONTINUOUS
 62
     7
 10
-667.1703648188
 20
398.9607635318
 30
0.0
 40
4.223425552720449
 50
320.1801907441
 51
2.6319100661
  0
POLYLINE
  5
340
  8
0
  6
CONTINUOUS
 62
     7
 66
     1
 10
0.0
 20
0.0
 30
0.0
  0
VERTEX
  5
618
  8
0
  6
CONTINUOUS
 62
     7
 10
-662.9265168554
 20
523.1547044874
 30
0.0
  0
VERTEX
  5
619
  8
0
  6
CONTINUOUS
 62
     7
 10
-662.9492932803
 20
523.6756490827
 30
0.0
  0
VERTEX
  5
61A
  8
0
  6
CONTINUOUS
 62
     7
 10
-663.0169296509
 20
524.1807649196
 30
0.0
  0
VERTEX
  5
61B
  8
0
  6
CONTINUOUS
 62
     7
 10
-663.1273845083
 20
524.6547045004
 30
0.0
  0
VERTEX
  5
61C
  8
0
  6
CONTINUOUS
 62
     7
 10
-663.2772827393
 20
525.0830673664
 30
0.0
  0
VERTEX
  5
61D
  8
0
  6
CONTINUOUS
 62
     7
 10
-663.4620794899
 20
525.4528378188
 30
0.0
  0
VERTEX
  5
61E
  8
0
  6
CONTINUOUS
 62
     7
 10
-663.6761644727
 20
525.7527807313
 30
0.0
  0
VERTEX
  5
61F
  8
0
  6
CONTINUOUS
 62
     7
 10
-663.9130184299
 20
525.9737823704
 30
0.0
  0
VERTEX
  5
620
  8
0
  6
CONTINUOUS
 62
     7
 10
-664.1654590017
 20
526.1091277731
 30
0.0
  0
VERTEX
  5
621
  8
0
  6
CONTINUOUS
 62
     7
 10
-664.4258046395
 20
526.1547045135
 30
0.0
  0
SEQEND
  5
622
  8
0
  6
CONTINUOUS
 62
     7
  0
POLYLINE
  5
341
  8
0
  6
CONTINUOUS
 62
     7
 66
     1
 10
0.0
 20
0.0
 30
0.0
  0
VERTEX
  5
623
  8
0
  6
CONTINUOUS
 62
     7
 10
-858.4258103615
 20
526.1547045135
 30
0.0
  0
VERTEX
  5
624
  8
0
  6
CONTINUOUS
 62
     7
 10
-858.6861559993
 20
526.1091277731
 30
0.0
  0
VERTEX
  5
625
  8
0
  6
CONTINUOUS
 62
     7
 10
-858.9385965711
 20
525.9737823704
 30
0.0
  0
VERTEX
  5
626
  8
0
  6
CONTINUOUS
 62
     7
 10
-859.1754505283
 20
525.7527807313
 30
0.0
  0
VERTEX
  5
627
  8
0
  6
CONTINUOUS
 62
     7
 10
-859.3895355112
 20
525.4528378188
 30
0.0
  0
VERTEX
  5
628
  8
0
  6
CONTINUOUS
 62
     7
 10
-859.5743322617
 20
525.0830673664
 30
0.0
  0
VERTEX
  5
629
  8
0
  6
CONTINUOUS
 62
     7
 10
-859.7242304927
 20
524.6547045004
 30
0.0
  0
VERTEX
  5
62A
  8
0
  6
CONTINUOUS
 62
     7
 10
-859.8346853501
 20
524.1807649196
 30
0.0
  0
VERTEX
  5
62B
  8
0
  6
CONTINUOUS
 62
     7
 10
-859.9023217208
 20
523.6756490827
 30
0.0
  0
VERTEX
  5
62C
  8
0
  6
CONTINUOUS
 62
     7
 10
-859.9250981456
 20
523.1547044874
 30
0.0
  0
SEQEND
  5
62D
  8
0
  6
CONTINUOUS
 62
     7
  0
LINE
  5
342
  8
0
  6
CONTINUOUS
 62
     7
 10
-664.4258046395
 20
526.1547045135
 30
0.0
 11
-669.4536724931
 21
526.1547045135
 31
0.0
  0
LINE
  5
343
  8
0
  6
CONTINUOUS
 62
     7
 10
-853.3979425079
 20
526.1547045135
 30
0.0
 11
-858.4258103615
 21
526.1547045135
 31
0.0
  0
LINE
  5
344
  8
0
  6
CONTINUOUS
 62
     7
 10
-861.4258089906
 20
399.6528909826
 30
0.0
 11
-861.4258089906
 21
399.1547004604
 31
0.0
  0
LINE
  5
345
  8
0
  6
CONTINUOUS
 62
     7
 10
-859.9258059508
 20
399.1547004604
 30
0.0
 11
-859.9258059508
 21
399.6528909826
 31
0.0
  0
LINE
  5
346
  8
0
  6
CONTINUOUS
 62
     7
 10
-859.9258059508
 20
399.1547004604
 30
0.0
 11
-861.4258089906
 21
399.1547004604
 31
0.0
  0
LINE
  5
347
  8
0
  6
CONTINUOUS
 62
     7
 10
-661.4258060104
 20
399.1547004604
 30
0.0
 11
-662.9258090502
 21
399.1547004604
 31
0.0
  0
LINE
  5
348
  8
0
  6
CONTINUOUS
 62
     7
 10
-661.4258060104
 20
399.6528909826
 30
0.0
 11
-661.4258060104
 21
399.1547004604
 31
0.0
  0
LINE
  5
349
  8
0
  6
CONTINUOUS
 62
     7
 10
-662.9258090502
 20
399.6528909826
 30
0.0
 11
-662.9258090502
 21
399.1547004604
 31
0.0
  0
LINE
  5
34A
  8
0
  6
CONTINUOUS
 62
     7
 10
-859.9258059508
 20
399.6528909826
 30
0.0
 11
-859.9258059508
 21
476.4965438568
 31
0.0
  0
LINE
  5
34B
  8
0
  6
CONTINUOUS
 62
     7
 10
-859.9258059508
 20
520.617216947
 30
0.0
 11
-859.9258059508
 21
523.1547044874
 31
0.0
  0
LINE
  5
34C
  8
0
  6
CONTINUOUS
 62
     7
 10
-861.4258089906
 20
399.6528909826
 30
0.0
 11
-861.4258089906
 21
478.1141319596
 31
0.0
  0
LINE
  5
34D
  8
0
  6
CONTINUOUS
 62
     7
 10
-861.4258089906
 20
522.2348031872
 30
0.0
 11
-861.4258089906
 21
523.1547044874
 31
0.0
  0
ARC
  5
34E
  8
0
  6
CONTINUOUS
 62
     7
 10
-858.4258058745
 20
523.1547013973
 30
0.0
 40
3.000003116164352
 50
90.0000856966
 51
179.9999409838
  0
LINE
  5
34F
  8
0
  6
CONTINUOUS
 62
     7
 10
-661.4258060104
 20
523.1547044874
 30
0.0
 11
-661.4258060104
 21
522.2348031872
 31
0.0
  0
LINE
  5
350
  8
0
  6
CONTINUOUS
 62
     7
 10
-661.4258060104
 20
478.1141319596
 30
0.0
 11
-661.4258060104
 21
399.6528909826
 31
0.0
  0
LINE
  5
351
  8
0
  6
CONTINUOUS
 62
     7
 10
-662.9258090502
 20
523.1547044874
 30
0.0
 11
-662.9258090502
 21
520.617216947
 31
0.0
  0
LINE
  5
352
  8
0
  6
CONTINUOUS
 62
     7
 10
-662.9258090502
 20
476.4965438568
 30
0.0
 11
-662.9258090502
 21
399.6528909826
 31
0.0
  0
ARC
  5
353
  8
0
  6
CONTINUOUS
 62
     7
 10
-664.4258091266
 20
523.1547013973
 30
0.0
 40
3.000003116164352
 50
0.0000590162
 51
89.9999143034
  0
POLYLINE
  5
354
  8
0
  6
CONTINUOUS
 62
     7
 66
     1
 10
0.0
 20
0.0
 30
0.0
  0
VERTEX
  5
62E
  8
0
  6
CONTINUOUS
 62
     7
 10
-859.9258059508
 20
399.1547004604
 30
0.0
  0
VERTEX
  5
62F
  8
0
  6
CONTINUOUS
 62
     7
 10
-859.8846116907
 20
398.8055662536
 30
0.0
  0
VERTEX
  5
630
  8
0
  6
CONTINUOUS
 62
     7
 10
-859.8333814985
 20
398.6573593044
 30
0.0
  0
SEQEND
  5
631
  8
0
  6
CONTINUOUS
 62
     7
  0
ARC
  5
355
  8
0
  6
CONTINUOUS
 62
     7
 10
-858.4257897843
 20
399.1547139418
 30
0.0
 40
3.000019206311486
 50
180.0002574755
 51
255.054089627
  0
POLYLINE
  5
356
  8
0
  6
CONTINUOUS
 62
     7
 66
     1
 10
0.0
 20
0.0
 30
0.0
  0
VERTEX
  5
632
  8
0
  6
CONTINUOUS
 62
     7
 10
-663.0178833253
 20
398.6599670076
 30
0.0
  0
VERTEX
  5
633
  8
0
  6
CONTINUOUS
 62
     7
 10
-662.985272134
 20
398.7365291738
 30
0.0
  0
VERTEX
  5
634
  8
0
  6
CONTINUOUS
 62
     7
 10
-662.9258090502
 20
399.1547004604
 30
0.0
  0
SEQEND
  5
635
  8
0
  6
CONTINUOUS
 62
     7
  0
ARC
  5
357
  8
0
  6
CONTINUOUS
 62
     7
 10
-664.4258010978
 20
399.1547043692
 30
0.0
 40
2.999995087359979
 50
269.9999323577
 51
359.9999253464
  0
LINE
  5
358
  8
0
  6
CONTINUOUS
 62
     7
 10
-859.1995159036
 20
396.2561861896
 30
0.0
 11
-858.4258103615
 21
396.1547092819
 31
0.0
  0
LINE
  5
359
  8
0
  6
CONTINUOUS
 62
     7
 10
-664.4695917017
 20
396.1547092819
 30
0.0
 11
-664.4258046395
 21
396.1547092819
 31
0.0
  0
LINE
  5
35A
  8
0
  6
CONTINUOUS
 62
     7
 10
-838.9415139205
 20
394.4459484243
 30
0.0
 11
-837.456106568
 21
394.2371831559
 31
0.0
  0
LINE
  5
35B
  8
0
  6
CONTINUOUS
 62
     7
 10
-839.5727122075
 20
389.9547086381
 30
0.0
 11
-838.9415139205
 21
394.4459484243
 31
0.0
  0
LINE
  5
35C
  8
0
  6
CONTINUOUS
 62
     7
 10
-838.0579719192
 20
389.9547086381
 30
0.0
 11
-837.456106568
 21
394.2371831559
 31
0.0
  0
LINE
  5
35D
  8
0
  6
CONTINUOUS
 62
     7
 10
-683.7161103136
 20
394.4459484243
 30
0.0
 11
-683.0787056929
 21
389.9547086381
 31
0.0
  0
POLYLINE
  5
35E
  8
0
  6
CONTINUOUS
 62
     7
 66
     1
 10
0.0
 20
0.0
 30
0.0
  0
VERTEX
  5
636
  8
0
  6
CONTINUOUS
 62
     7
 10
-683.5584038741
 20
395.6369088315
 30
0.0
  0
VERTEX
  5
637
  8
0
  6
CONTINUOUS
 62
     7
 10
-683.0478751904
 20
396.0191236161
 30
0.0
  0
VERTEX
  5
638
  8
0
  6
CONTINUOUS
 62
     7
 10
-682.4247011787
 20
396.1547092819
 30
0.0
  0
SEQEND
  5
639
  8
0
  6
CONTINUOUS
 62
     7
  0
POLYLINE
  5
35F
  8
0
  6
CONTINUOUS
 62
     7
 66
     1
 10
0.0
 20
0.0
 30
0.0
  0
VERTEX
  5
63A
  8
0
  6
CONTINUOUS
 62
     7
 10
-840.4269138223
 20
396.1547092819
 30
0.0
  0
VERTEX
  5
63B
  8
0
  6
CONTINUOUS
 62
     7
 10
-839.8037398106
 20
396.0191236161
 30
0.0
  0
VERTEX
  5
63C
  8
0
  6
CONTINUOUS
 62
     7
 10
-839.293211127
 20
395.6369088315
 30
0.0
  0
SEQEND
  5
63D
  8
0
  6
CONTINUOUS
 62
     7
  0
POLYLINE
  5
360
  8
0
  6
CONTINUOUS
 62
     7
 66
     1
 10
0.0
 20
0.0
 30
0.0
  0
VERTEX
  5
63E
  8
0
  6
CONTINUOUS
 62
     7
 10
-682.4235984928
 20
396.1547092819
 30
0.0
  0
VERTEX
  5
63F
  8
0
  6
CONTINUOUS
 62
     7
 10
-683.1750566012
 20
396.0191236161
 30
0.0
  0
VERTEX
  5
640
  8
0
  6
CONTINUOUS
 62
     7
 10
-683.9265147096
 20
395.6369088315
 30
0.0
  0
SEQEND
  5
641
  8
0
  6
CONTINUOUS
 62
     7
  0
ARC
  5
361
  8
0
  6
CONTINUOUS
 62
     7
 10
-712.0979684696
 20
390.0458530545
 30
0.0
 40
28.72091070378027
 50
8.8125217237
 51
11.225357256
  0
ARC
  5
362
  8
0
  6
CONTINUOUS
 62
     7
 10
-809.2536434916
 20
390.0458530545
 30
0.0
 40
28.72091070378026
 50
168.774642744
 51
171.1874782763
  0
LINE
  5
363
  8
0
  6
CONTINUOUS
 62
     7
 10
-837.4250972516
 20
395.6369088315
 30
0.0
 11
-838.9251002914
 21
395.6369088315
 31
0.0
  0
POLYLINE
  5
364
  8
0
  6
CONTINUOUS
 62
     7
 66
     1
 10
0.0
 20
0.0
 30
0.0
  0
VERTEX
  5
642
  8
0
  6
CONTINUOUS
 62
     7
 10
-838.9251002914
 20
395.6369088315
 30
0.0
  0
VERTEX
  5
643
  8
0
  6
CONTINUOUS
 62
     7
 10
-839.6793002135
 20
396.0191236161
 30
0.0
  0
VERTEX
  5
644
  8
0
  6
CONTINUOUS
 62
     7
 10
-840.4335075862
 20
396.1547092819
 30
0.0
  0
SEQEND
  5
645
  8
0
  6
CONTINUOUS
 62
     7
  0
POLYLINE
  5
365
  8
0
  6
CONTINUOUS
 62
     7
 66
     1
 10
0.0
 20
0.0
 30
0.0
  0
VERTEX
  5
646
  8
0
  6
CONTINUOUS
 62
     7
 10
-837.5364163763
 20
395.4312877082
 30
0.0
  0
VERTEX
  5
647
  8
0
  6
CONTINUOUS
 62
     7
 10
-837.5302994496
 20
395.5043630027
 30
0.0
  0
VERTEX
  5
648
  8
0
  6
CONTINUOUS
 62
     7
 10
-837.5184828288
 20
395.6369088315
 30
0.0
  0
SEQEND
  5
649
  8
0
  6
CONTINUOUS
 62
     7
  0
ARC
  5
366
  8
0
  6
CONTINUOUS
 62
     7
 10
-827.3396549934
 20
383.0502922352
 30
0.0
 40
144.0573057311428
 50
4.6204577214
 51
5.0659596648
  0
ARC
  5
367
  8
0
  6
CONTINUOUS
 62
     7
 10
-840.4269106246
 20
394.6547118185
 30
0.0
 40
1.499995174502929
 50
351.9998297276
 51
40.9044953694
  0
ARC
  5
368
  8
0
  6
CONTINUOUS
 62
     7
 10
-839.9431341758
 20
394.6806997946
 30
0.0
 40
2.526264699198737
 50
349.8886225174
 51
22.2412374522
  0
POLYLINE
  5
369
  8
0
  6
CONTINUOUS
 62
     7
 66
     1
 10
0.0
 20
0.0
 30
0.0
  0
VERTEX
  5
64A
  8
0
  6
CONTINUOUS
 62
     7
 10
-683.7987596041
 20
395.2348158979
 30
0.0
  0
VERTEX
  5
64B
  8
0
  6
CONTINUOUS
 62
     7
 10
-683.740689779
 20
395.3745440864
 30
0.0
  0
VERTEX
  5
64C
  8
0
  6
CONTINUOUS
 62
     7
 10
-683.5584038741
 20
395.6369088315
 30
0.0
  0
SEQEND
  5
64D
  8
0
  6
CONTINUOUS
 62
     7
  0
POLYLINE
  5
36A
  8
0
  6
CONTINUOUS
 62
     7
 66
     1
 10
0.0
 20
0.0
 30
0.0
  0
VERTEX
  5
64E
  8
0
  6
CONTINUOUS
 62
     7
 10
-839.0528553969
 20
395.2348158979
 30
0.0
  0
VERTEX
  5
64F
  8
0
  6
CONTINUOUS
 62
     7
 10
-839.0829035884
 20
394.8757873201
 30
0.0
  0
VERTEX
  5
650
  8
0
  6
CONTINUOUS
 62
     7
 10
-839.1355046875
 20
394.2371831559
 30
0.0
  0
SEQEND
  5
651
  8
0
  6
CONTINUOUS
 62
     7
  0
LINE
  5
36B
  8
0
  6
CONTINUOUS
 62
     7
 10
-839.1355046875
 20
394.4459484243
 30
0.0
 11
-839.1355046875
 21
394.2371831559
 31
0.0
  0
LINE
  5
36C
  8
0
  6
CONTINUOUS
 62
     7
 10
-839.1006210691
 20
394.6576790237
 30
0.0
 11
-839.1355046875
 21
394.4459484243
 31
0.0
  0
LINE
  5
36D
  8
0
  6
CONTINUOUS
 62
     7
 10
-839.7432783491
 20
389.9547086381
 30
0.0
 11
-839.1355046875
 21
394.2371831559
 31
0.0
  0
LINE
  5
36E
  8
0
  6
CONTINUOUS
 62
     7
 10
-839.1355046875
 20
394.4459484243
 30
0.0
 11
-839.7729093081
 21
389.9547086381
 31
0.0
  0
LINE
  5
36F
  8
0
  6
CONTINUOUS
 62
     7
 10
-664.3974328286
 20
396.1547092819
 30
0.0
 11
-664.4247019536
 21
396.1547092819
 31
0.0
  0
LINE
  5
370
  8
0
  6
CONTINUOUS
 62
     7
 10
-664.354025746
 20
396.1547092819
 30
0.0
 11
-664.3974328286
 21
396.1547092819
 31
0.0
  0
LINE
  5
371
  8
0
  6
CONTINUOUS
 62
     7
 10
-663.9258110768
 20
530.1547047035
 30
0.0
 11
-661.9258070237
 21
530.1547047035
 31
0.0
  0
LINE
  5
372
  8
0
  6
CONTINUOUS
 62
     7
 10
-661.9258070237
 20
530.1547047035
 30
0.0
 11
-661.9258070237
 21
527.154704561
 31
0.0
  0
LINE
  5
373
  8
0
  6
CONTINUOUS
 62
     7
 10
-661.9258070237
 20
527.154704561
 30
0.0
 11
-663.9258110768
 21
527.154704561
 31
0.0
  0
LINE
  5
374
  8
0
  6
CONTINUOUS
 62
     7
 10
-860.9258079774
 20
527.154704561
 30
0.0
 11
-860.9258079774
 21
530.1547047035
 31
0.0
  0
LINE
  5
375
  8
0
  6
CONTINUOUS
 62
     7
 10
-860.9258079774
 20
530.1547047035
 30
0.0
 11
-858.9258039242
 21
530.1547047035
 31
0.0
  0
LINE
  5
376
  8
0
  6
CONTINUOUS
 62
     7
 10
-858.9258039242
 20
527.154704561
 30
0.0
 11
-860.9258079774
 21
527.154704561
 31
0.0
  0
LINE
  5
377
  8
0
  6
CONTINUOUS
 62
     7
 10
-858.9258039242
 20
530.1547047035
 30
0.0
 11
-663.9258110768
 21
530.1547047035
 31
0.0
  0
LINE
  5
378
  8
0
  6
CONTINUOUS
 62
     7
 10
-858.9258039242
 20
527.154704561
 30
0.0
 11
-663.9258110768
 21
527.154704561
 31
0.0
  0
CIRCLE
  5
379
  8
0
  6
CONTINUOUS
 62
     7
 10
-845.4258075005
 20
471.1547045135
 30
0.0
 40
3.750000000000013
  0
CIRCLE
  5
37A
  8
0
  6
CONTINUOUS
 62
     7
 10
-677.4258075005
 20
471.1547045135
 30
0.0
 40
3.750000000000015
  0
CIRCLE
  5
37B
  8
0
  6
CONTINUOUS
 62
     7
 10
-677.4258075005
 20
496.1547045135
 30
0.0
 40
3.750000000000038
  0
CIRCLE
  5
37C
  8
0
  6
CONTINUOUS
 62
     7
 10
-845.4258075005
 20
496.1547045135
 30
0.0
 40
3.750000000000087
  0
CIRCLE
  5
37D
  8
0
  6
CONTINUOUS
 62
     7
 10
-875.4258075005
 20
534.4547045135
 30
0.0
 40
3.060000000000053
  0
CIRCLE
  5
37E
  8
0
  6
CONTINUOUS
 62
     7
 10
-647.4258075005
 20
534.4547045135
 30
0.0
 40
3.060000000000039
  0
CIRCLE
  5
37F
  8
0
  6
CONTINUOUS
 62
     7
 10
-875.4258075005
 20
503.8547045135
 30
0.0
 40
3.059999999999986
  0
CIRCLE
  5
380
  8
0
  6
CONTINUOUS
 62
     7
 10
-647.4258075005
 20
503.8547045135
 30
0.0
 40
3.060000000000122
  0
LINE
  5
381
  8
0
  6
CONTINUOUS
 62
     7
 10
-672.5130000955
 20
466.5990175032
 30
0.0
 11
-642.5127008802
 21
498.9510515057
 31
0.0
  0
LINE
  5
382
  8
0
  6
CONTINUOUS
 62
     7
 10
-642.2927299387
 20
498.7470657849
 30
0.0
 11
-672.2930217034
 21
466.3950317823
 31
0.0
  0
ARC
  5
383
  8
0
  6
CONTINUOUS
 62
     7
 10
-677.4258075005
 20
471.1547045135
 30
0.0
 40
6.700000000000045
 50
180.0
 51
317.16
  0
ARC
  5
384
  8
0
  6
CONTINUOUS
 62
     7
 10
-677.4258075005
 20
471.1547045135
 30
0.0
 40
7.0
 50
180.0
 51
317.16
  0
CIRCLE
  5
385
  8
0
  6
CONTINUOUS
 62
     7
 10
-677.4258075005
 20
471.1547045135
 30
0.0
 40
3.199999999999989
  0
CIRCLE
  5
386
  8
0
  6
CONTINUOUS
 62
     7
 10
-677.4258075005
 20
496.1547045135
 30
0.0
 40
3.199999999999989
  0
CIRCLE
  5
387
  8
0
  6
CONTINUOUS
 62
     7
 10
-647.4258075005
 20
534.4547045135
 30
0.0
 40
2.250000000000114
  0
CIRCLE
  5
388
  8
0
  6
CONTINUOUS
 62
     7
 10
-647.4258075005
 20
503.8547045135
 30
0.0
 40
2.25
  0
ARC
  5
389
  8
0
  6
CONTINUOUS
 62
     7
 10
-644.6758075005
 20
536.9047045135
 30
0.0
 40
2.950000000000045
 50
0.0
 51
90.0
  0
LINE
  5
38A
  8
0
  6
CONTINUOUS
 62
     7
 10
-641.7258078105
 20
500.9569135778
 30
0.0
 11
-641.7258078105
 21
536.9047048786
 31
0.0
  0
ARC
  5
38B
  8
0
  6
CONTINUOUS
 62
     7
 10
-644.6758075005
 20
500.9569133456
 30
0.0
 40
2.950000000000049
 50
317.16
 51
0.0
  0
LINE
  5
38C
  8
0
  6
CONTINUOUS
 62
     7
 10
-684.12581029
 20
494.6857282244
 30
0.0
 11
-684.12581029
 21
471.1547048115
 31
0.0
  0
ARC
  5
38D
  8
0
  6
CONTINUOUS
 62
     7
 10
-677.4258075005
 20
494.6857295818
 30
0.0
 40
6.700000000000045
 50
137.16
 51
180.0
  0
LINE
  5
38E
  8
0
  6
CONTINUOUS
 62
     7
 10
-654.0727535135
 20
529.7230634657
 30
0.0
 11
-682.3386171705
 21
499.2414173954
 31
0.0
  0
ARC
  5
38F
  8
0
  6
CONTINUOUS
 62
     7
 10
-656.6758075005
 20
532.1368978986
 30
0.0
 40
3.550000000000068
 50
317.16
 51
0.0
  0
LINE
  5
390
  8
0
  6
CONTINUOUS
 62
     7
 10
-653.1258070714
 20
536.9047048786
 30
0.0
 11
-653.1258070714
 21
532.136897678
 31
0.0
  0
ARC
  5
391
  8
0
  6
CONTINUOUS
 62
     7
 10
-650.1758075005
 20
536.9047045135
 30
0.0
 40
2.950000000000045
 50
90.0
 51
180.0
  0
LINE
  5
392
  8
0
  6
CONTINUOUS
 62
     7
 10
-644.6758055932
 20
539.8547045239
 30
0.0
 11
-650.1758092887
 21
539.8547045239
 31
0.0
  0
LINE
  5
393
  8
0
  6
CONTINUOUS
 62
     7
 10
-684.4258079177
 20
471.1547048115
 30
0.0
 11
-684.4258079177
 21
494.6857282244
 31
0.0
  0
ARC
  5
394
  8
0
  6
CONTINUOUS
 62
     7
 10
-677.4258075005
 20
494.6857295818
 30
0.0
 40
7.000000000000042
 50
137.16
 51
180.0
  0
ARC
  5
395
  8
0
  6
CONTINUOUS
 62
     7
 10
-644.6758075005
 20
500.9569133456
 30
0.0
 40
3.250000000000114
 50
317.16
 51
0.0
  0
LINE
  5
396
  8
0
  6
CONTINUOUS
 62
     7
 10
-682.5585955626
 20
499.4454031163
 30
0.0
 11
-654.292724455
 21
529.9270494194
 31
0.0
  0
LINE
  5
397
  8
0
  6
CONTINUOUS
 62
     7
 10
-641.4258101827
 20
536.9047048786
 30
0.0
 11
-641.4258101827
 21
500.9569135778
 31
0.0
  0
ARC
  5
398
  8
0
  6
CONTINUOUS
 62
     7
 10
-656.6758075005
 20
532.1368978986
 30
0.0
 40
3.250000000000161
 50
317.16
 51
0.0
  0
LINE
  5
399
  8
0
  6
CONTINUOUS
 62
     7
 10
-653.4258046991
 20
532.136897678
 30
0.0
 11
-653.4258046991
 21
536.9047048786
 31
0.0
  0
ARC
  5
39A
  8
0
  6
CONTINUOUS
 62
     7
 10
-650.1758075005
 20
536.9047045135
 30
0.0
 40
3.25
 50
90.0
 51
180.0
  0
ARC
  5
39B
  8
0
  6
CONTINUOUS
 62
     7
 10
-644.6758075005
 20
536.9047045135
 30
0.0
 40
3.250000000000114
 50
0.0
 51
90.0
  0
LINE
  5
39C
  8
0
  6
CONTINUOUS
 62
     7
 10
-650.1758092887
 20
540.1547049456
 30
0.0
 11
-644.6758055932
 21
540.1547049456
 31
0.0
  0
LINE
  5
39D
  8
0
  6
CONTINUOUS
 62
     7
 10
-850.5585932976
 20
466.3950317823
 30
0.0
 11
-880.5588850624
 21
498.7470657849
 31
0.0
  0
LINE
  5
39E
  8
0
  6
CONTINUOUS
 62
     7
 10
-880.3389141208
 20
498.9510515057
 30
0.0
 11
-850.3386149055
 21
466.5990175032
 31
0.0
  0
ARC
  5
39F
  8
0
  6
CONTINUOUS
 62
     7
 10
-845.4258075005
 20
471.1547045135
 30
0.0
 40
7.0
 50
222.84
 51
0.0
  0
ARC
  5
3A0
  8
0
  6
CONTINUOUS
 62
     7
 10
-845.4258075005
 20
471.1547045135
 30
0.0
 40
6.699999999999969
 50
222.84
 51
0.0
  0
CIRCLE
  5
3A1
  8
0
  6
CONTINUOUS
 62
     7
 10
-845.4258075005
 20
471.1547045135
 30
0.0
 40
3.199999999999989
  0
CIRCLE
  5
3A2
  8
0
  6
CONTINUOUS
 62
     7
 10
-845.4258075005
 20
496.1547045135
 30
0.0
 40
3.200000000000045
  0
CIRCLE
  5
3A3
  8
0
  6
CONTINUOUS
 62
     7
 10
-875.4258075005
 20
534.4547045135
 30
0.0
 40
2.25
  0
CIRCLE
  5
3A4
  8
0
  6
CONTINUOUS
 62
     7
 10
-875.4258075005
 20
503.8547045135
 30
0.0
 40
2.25
  0
ARC
  5
3A5
  8
0
  6
CONTINUOUS
 62
     7
 10
-872.6758075005
 20
536.9047045135
 30
0.0
 40
2.950000000000045
 50
0.0
 51
90.0
  0
LINE
  5
3A6
  8
0
  6
CONTINUOUS
 62
     7
 10
-869.7258079297
 20
532.136897678
 30
0.0
 11
-869.7258079297
 21
536.9047048786
 31
0.0
  0
ARC
  5
3A7
  8
0
  6
CONTINUOUS
 62
     7
 10
-866.1758075005
 20
532.1368978986
 30
0.0
 40
3.550000000000111
 50
180.0
 51
222.84
  0
LINE
  5
3A8
  8
0
  6
CONTINUOUS
 62
     7
 10
-840.5129978305
 20
499.2414173954
 30
0.0
 11
-868.7788614875
 21
529.7230634657
 31
0.0
  0
ARC
  5
3A9
  8
0
  6
CONTINUOUS
 62
     7
 10
-845.4258075005
 20
494.6857295818
 30
0.0
 40
6.699999999999969
 50
0.0
 51
42.84
  0
LINE
  5
3AA
  8
0
  6
CONTINUOUS
 62
     7
 10
-838.725804711
 20
471.1547048115
 30
0.0
 11
-838.725804711
 21
494.6857282244
 31
0.0
  0
ARC
  5
3AB
  8
0
  6
CONTINUOUS
 62
     7
 10
-878.1758075005
 20
500.9569133456
 30
0.0
 40
2.95000000000001
 50
180.0
 51
222.84
  0
LINE
  5
3AC
  8
0
  6
CONTINUOUS
 62
     7
 10
-881.1258071906
 20
536.9047048786
 30
0.0
 11
-881.1258071906
 21
500.9569135778
 31
0.0
  0
ARC
  5
3AD
  8
0
  6
CONTINUOUS
 62
     7
 10
-878.1758075005
 20
536.9047045135
 30
0.0
 40
2.949999999999932
 50
90.0
 51
180.0
  0
LINE
  5
3AE
  8
0
  6
CONTINUOUS
 62
     7
 10
-872.6758057124
 20
539.8547045239
 30
0.0
 11
-878.1758094079
 21
539.8547045239
 31
0.0
  0
LINE
  5
3AF
  8
0
  6
CONTINUOUS
 62
     7
 10
-838.4258070833
 20
494.6857282244
 30
0.0
 11
-838.4258070833
 21
471.1547048115
 31
0.0
  0
ARC
  5
3B0
  8
0
  6
CONTINUOUS
 62
     7
 10
-845.4258075005
 20
494.6857295818
 30
0.0
 40
7.000000000000042
 50
0.0
 51
42.84
  0
ARC
  5
3B1
  8
0
  6
CONTINUOUS
 62
     7
 10
-878.1758075005
 20
500.9569133456
 30
0.0
 40
3.25
 50
180.0
 51
222.84
  0
LINE
  5
3B2
  8
0
  6
CONTINUOUS
 62
     7
 10
-868.558890546
 20
529.9270494194
 30
0.0
 11
-840.2930194384
 21
499.4454031163
 31
0.0
  0
LINE
  5
3B3
  8
0
  6
CONTINUOUS
 62
     7
 10
-881.4258048183
 20
500.9569135778
 30
0.0
 11
-881.4258048183
 21
536.9047048786
 31
0.0
  0
ARC
  5
3B4
  8
0
  6
CONTINUOUS
 62
     7
 10
-866.1758075005
 20
532.1368978986
 30
0.0
 40
3.250000000000077
 50
180.0
 51
222.84
  0
ARC
  5
3B5
  8
0
  6
CONTINUOUS
 62
     7
 10
-872.6758075005
 20
536.9047045135
 30
0.0
 40
3.250000000000114
 50
0.0
 51
90.0
  0
LINE
  5
3B6
  8
0
  6
CONTINUOUS
 62
     7
 10
-869.4258103019
 20
536.9047048786
 30
0.0
 11
-869.4258103019
 21
532.136897678
 31
0.0
  0
ARC
  5
3B7
  8
0
  6
CONTINUOUS
 62
     7
 10
-878.1758075005
 20
536.9047045135
 30
0.0
 40
3.250000000000114
 50
90.0
 51
180.0
  0
LINE
  5
3B8
  8
0
  6
CONTINUOUS
 62
     7
 10
-878.1758094079
 20
540.1547049456
 30
0.0
 11
-872.6758057124
 21
540.1547049456
 31
0.0
  0
POLYLINE
  5
3B9
  8
0
  6
CONTINUOUS
 62
     7
 66
     1
 10
0.0
 20
0.0
 30
0.0
  0
VERTEX
  5
652
  8
0
  6
CONTINUOUS
 62
     7
 10
-696.7739457137
 20
374.9547080421
 30
0.0
  0
VERTEX
  5
653
  8
0
  6
CONTINUOUS
 62
     7
 10
-696.7752942688
 20
373.1921986961
 30
0.0
  0
VERTEX
  5
654
  8
0
  6
CONTINUOUS
 62
     7
 10
-696.7767024285
 20
371.8194143199
 30
0.0
  0
SEQEND
  5
655
  8
0
  6
CONTINUOUS
 62
     7
  0
LINE
  5
3BA
  8
0
  6
CONTINUOUS
 62
     7
 10
-723.9758068568
 20
371.6080562495
 30
0.0
 11
-723.9758068568
 21
374.9547080421
 31
0.0
  0
LINE
  5
3BB
  8
0
  6
CONTINUOUS
 62
     7
 10
-723.9758068568
 20
371.6080562495
 30
0.0
 11
-723.8936344034
 21
371.7088775062
 31
0.0
  0
LINE
  5
3BC
  8
0
  6
CONTINUOUS
 62
     7
 10
-693.9758056647
 20
374.9547080421
 30
0.0
 11
-693.9758056647
 21
371.6080562495
 31
0.0
  0
LINE
  5
3BD
  8
0
  6
CONTINUOUS
 62
     7
 10
-694.0580004698
 20
371.7088924073
 30
0.0
 11
-693.9758056647
 21
371.6080562495
 31
0.0
  0
ARC
  5
3BE
  8
0
  6
CONTINUOUS
 62
     7
 10
-698.6465871408
 20
371.618292395
 30
0.0
 40
1.880669791849545
 50
359.217354912
 51
6.1390447145
  0
POLYLINE
  5
3BF
  8
0
  6
CONTINUOUS
 62
     7
 66
     1
 10
0.0
 20
0.0
 30
0.0
  0
VERTEX
  5
656
  8
0
  6
CONTINUOUS
 62
     7
 10
-696.7660928017
 20
371.5926037454
 30
0.0
  0
VERTEX
  5
657
  8
0
  6
CONTINUOUS
 62
     7
 10
-695.7738244778
 20
371.6456667804
 30
0.0
  0
VERTEX
  5
658
  8
0
  6
CONTINUOUS
 62
     7
 10
-694.9918636924
 20
371.6129140281
 30
0.0
  0
VERTEX
  5
659
  8
0
  6
CONTINUOUS
 62
     7
 10
-694.533079291
 20
371.5301529788
 30
0.0
  0
VERTEX
  5
65A
  8
0
  6
CONTINUOUS
 62
     7
 10
-694.2941913253
 20
371.4178578281
 30
0.0
  0
VERTEX
  5
65B
  8
0
  6
CONTINUOUS
 62
     7
 10
-694.238967622
 20
371.3152186298
 30
0.0
  0
SEQEND
  5
65C
  8
0
  6
CONTINUOUS
 62
     7
  0
POLYLINE
  5
3C0
  8
0
  6
CONTINUOUS
 62
     7
 66
     1
 10
0.0
 20
0.0
 30
0.0
  0
VERTEX
  5
65D
  8
0
  6
CONTINUOUS
 62
     7
 10
-723.7126486248
 20
371.3152186298
 30
0.0
  0
VERTEX
  5
65E
  8
0
  6
CONTINUOUS
 62
     7
 10
-723.6745836085
 20
371.4013175391
 30
0.0
  0
VERTEX
  5
65F
  8
0
  6
CONTINUOUS
 62
     7
 10
-723.5184268898
 20
371.4962081336
 30
0.0
  0
VERTEX
  5
660
  8
0
  6
CONTINUOUS
 62
     7
 10
-723.1584595389
 20
371.5866581821
 30
0.0
  0
VERTEX
  5
661
  8
0
  6
CONTINUOUS
 62
     7
 10
-722.6631784684
 20
371.6359363221
 30
0.0
  0
VERTEX
  5
662
  8
0
  6
CONTINUOUS
 62
     7
 10
-721.9752663619
 20
371.6418967866
 30
0.0
  0
VERTEX
  5
663
  8
0
  6
CONTINUOUS
 62
     7
 10
-721.185523445
 20
371.5926037454
 30
0.0
  0
SEQEND
  5
664
  8
0
  6
CONTINUOUS
 62
     7
  0
ARC
  5
3C1
  8
0
  6
CONTINUOUS
 62
     7
 10
-694.2726375488
 20
371.6101421016
 30
0.0
 40
0.2968392126947549
 50
276.5129722393
 51
359.59738641
  0
ARC
  5
3C2
  8
0
  6
CONTINUOUS
 62
     7
 10
-723.6789785881
 20
371.6101384242
 30
0.0
 40
0.296835571556512
 50
180.4019087049
 51
263.4869261762
  0
LINE
  5
3C3
  8
0
  6
CONTINUOUS
 62
     7
 10
-693.9758056647
 20
371.6080562495
 30
0.0
 11
-693.9758056647
 21
370.1607660674
 31
0.0
  0
LINE
  5
3C4
  8
0
  6
CONTINUOUS
 62
     7
 10
-723.9758068568
 20
370.1607660674
 30
0.0
 11
-723.9758068568
 21
371.6080562495
 31
0.0
  0
LINE
  5
3C5
  8
0
  6
CONTINUOUS
 62
     7
 10
-698.0826699978
 20
369.089134159
 30
0.0
 11
-719.8689425236
 21
369.089134159
 31
0.0
  0
LINE
  5
3C6
  8
0
  6
CONTINUOUS
 62
     7
 10
-696.7338764912
 20
369.0892980718
 30
0.0
 11
-698.0815822131
 21
369.0892980718
 31
0.0
  0
LINE
  5
3C7
  8
0
  6
CONTINUOUS
 62
     7
 10
-719.870037759
 20
369.0892980718
 30
0.0
 11
-721.2177360303
 21
369.0892980718
 31
0.0
  0
LINE
  5
3C8
  8
0
  6
CONTINUOUS
 62
     7
 10
-856.9758081681
 20
377.9546992206
 30
0.0
 11
-856.9758081681
 21
376.5052185678
 31
0.0
  0
ARC
  5
3C9
  8
0
  6
CONTINUOUS
 62
     7
 10
-856.4758072809
 20
378.9547049392
 30
0.0
 40
2.500000000000058
 50
185.574458229
 51
258.4630409672
  0
LINE
  5
3CA
  8
0
  6
CONTINUOUS
 62
     7
 10
-675.9702259547
 20
395.1547072553
 30
0.0
 11
-680.1758104807
 21
395.1547072553
 31
0.0
  0
LINE
  5
3CB
  8
0
  6
CONTINUOUS
 62
     7
 10
-670.1758051163
 20
395.1547072553
 30
0.0
 11
-675.9702259547
 21
395.1547072553
 31
0.0
  0
CIRCLE
  5
3CC
  8
0
  6
CONTINUOUS
 62
     7
 10
-846.4258075005
 20
405.6547045134
 30
0.0
 40
7.00000000000008
  0
CIRCLE
  5
3CD
  8
0
  6
CONTINUOUS
 62
     7
 10
-676.4258075005
 20
405.6547045134
 30
0.0
 40
7.000000000000112
  0
LINE
  5
3CE
  8
0
  6
CONTINUOUS
 62
     7
 10
-841.9264176733
 20
389.9547086381
 30
0.0
 11
-841.6563415772
 21
391.8763623857
 31
0.0
  0
ARC
  5
3CF
  8
0
  6
CONTINUOUS
 62
     7
 10
-843.6368798322
 20
392.1547045136
 30
0.0
 40
2.000000082123563
 50
352.0000011903
 51
89.9999999999
  0
LINE
  5
3D0
  8
0
  6
CONTINUOUS
 62
     7
 10
-843.6368772632
 20
394.1547052287
 30
0.0
 11
-852.6758098847
 21
394.1547052287
 31
0.0
  0
LINE
  5
3D1
  8
0
  6
CONTINUOUS
 62
     7
 10
-852.6758098847
 20
394.1547052287
 30
0.0
 11
-852.6758098847
 21
396.1547092819
 31
0.0
  0
ARC
  5
3D2
  8
0
  6
CONTINUOUS
 62
     7
 10
-843.6368798322
 20
392.1547045136
 30
0.0
 40
4.0
 50
352.0000011904
 51
90.0000000001
  0
LINE
  5
3D3
  8
0
  6
CONTINUOUS
 62
     7
 10
-839.6758058912
 20
391.5980086946
 30
0.0
 11
-839.9067589885
 21
389.9547086381
 31
0.0
  0
LINE
  5
3D4
  8
0
  6
CONTINUOUS
 62
     7
 10
-847.6758072025
 20
393.5346977138
 30
0.0
 11
-849.7758054978
 21
393.5346977138
 31
0.0
  0
LINE
  5
3D5
  8
0
  6
CONTINUOUS
 62
     7
 10
-845.5758089072
 20
393.5346977138
 30
0.0
 11
-847.6758072025
 21
393.5346977138
 31
0.0
  0
LINE
  5
3D6
  8
0
  6
CONTINUOUS
 62
     7
 10
-847.6758072025
 20
393.9347044849
 30
0.0
 11
-845.1758095867
 21
393.9347044849
 31
0.0
  0
LINE
  5
3D7
  8
0
  6
CONTINUOUS
 62
     7
 10
-850.1758048183
 20
393.9347044849
 30
0.0
 11
-847.6758072025
 21
393.9347044849
 31
0.0
  0
ARC
  5
3D8
  8
0
  6
CONTINUOUS
 62
     7
 10
-708.9758072809
 20
-211.5529467378
 30
0.0
 40
120.0000000000276
 50
96.1072772981
 51
97.0541313733
  0
ARC
  5
3D9
  8
0
  6
CONTINUOUS
 62
     7
 10
-708.9758072809
 20
-211.5529467378
 30
0.0
 40
120.0000000000276
 50
82.9458686267
 51
83.8915872211
  0
ARC
  5
3DA
  8
0
  6
CONTINUOUS
 62
     7
 10
-723.6758072809
 20
-92.7590074985
 30
0.0
 40
0.3000000000021775
 50
97.054127852
 51
179.9999856569
  0
ARC
  5
3DB
  8
0
  6
CONTINUOUS
 62
     7
 10
-694.2758072809
 20
-92.7590074985
 30
0.0
 40
0.3000000000022199
 50
0.0000143431
 51
82.945872148
  0
ARC
  5
3DC
  8
0
  6
CONTINUOUS
 62
     7
 10
-696.1758191498
 20
-91.9358554979
 30
0.0
 40
0.3000011955060692
 50
179.5412937308
 51
264.3757415614
  0
ARC
  5
3DD
  8
0
  6
CONTINUOUS
 62
     7
 10
-721.7757997495
 20
-91.9358493997
 30
0.0
 40
0.3000075243869635
 50
275.6246484465
 51
0.4575319005
  0
ARC
  5
3DE
  8
0
  6
CONTINUOUS
 62
     7
 10
-708.9758072809
 20
-181.0529467378
 30
0.0
 40
90.1999999999995
 50
95.4696070839
 51
97.8002470331
  0
ARC
  5
3DF
  8
0
  6
CONTINUOUS
 62
     7
 10
-708.9758072809
 20
-181.0529467378
 30
0.0
 40
90.19999999999966
 50
82.1997529679
 51
84.5303929161
  0
ARC
  5
3E0
  8
0
  6
CONTINUOUS
 62
     7
 10
-700.4258072809
 20
-91.7613597881
 30
0.0
 40
0.5000000000001704
 50
84.5304035698
 51
90.0
  0
ARC
  5
3E1
  8
0
  6
CONTINUOUS
 62
     7
 10
-717.5258072809
 20
-91.7613597881
 30
0.0
 40
0.5000000000001812
 50
90.0
 51
95.4695964302
  0
LINE
  5
3E2
  8
0
  6
CONTINUOUS
 62
     7
 10
-700.4258068151
 20
-91.2613666603
 30
0.0
 11
-717.5258057064
 21
-91.2613666603
 31
0.0
  0
ARC
  5
3E3
  8
0
  6
CONTINUOUS
 62
     7
 10
-721.1778017089
 20
-91.9848730794
 30
0.0
 40
0.2999963613782378
 50
92.661766476
 51
175.7650935527
  0
ARC
  5
3E4
  8
0
  6
CONTINUOUS
 62
     7
 10
-696.7738019159
 20
-91.9848559034
 30
0.0
 40
0.2999787907994197
 50
4.2318653568
 51
87.3397785989
  0
LINE
  5
3E5
  8
0
  6
CONTINUOUS
 62
     7
 10
-670.1758051163
 20
-118.7529510805
 30
0.0
 11
-670.1758051163
 21
-117.7529490539
 31
0.0
  0
LINE
  5
3E6
  8
0
  6
CONTINUOUS
 62
     7
 10
-680.1758104807
 20
-117.7529490539
 30
0.0
 11
-680.1758104807
 21
-118.7529510805
 31
0.0
  0
LINE
  5
3E7
  8
0
  6
CONTINUOUS
 62
     7
 10
-859.9258059508
 20
-157.5029439279
 30
0.0
 11
-859.9250981456
 21
-157.5029439279
 31
0.0
  0
LINE
  5
3E8
  8
0
  6
CONTINUOUS
 62
     7
 10
-859.9250981456
 20
-150.0029436299
 30
0.0
 11
-859.9258059508
 21
-150.0029436299
 31
0.0
  0
LINE
  5
3E9
  8
0
  6
CONTINUOUS
 62
     7
 10
-662.9258090502
 20
-150.0029436299
 30
0.0
 11
-662.9265168554
 21
-150.0029436299
 31
0.0
  0
LINE
  5
3EA
  8
0
  6
CONTINUOUS
 62
     7
 10
-662.9265168554
 20
-157.5029439279
 30
0.0
 11
-662.9258090502
 21
-157.5029439279
 31
0.0
  0
LINE
  5
3EB
  8
0
  6
CONTINUOUS
 62
     7
 10
-845.1758095867
 20
-116.7529470274
 30
0.0
 11
-845.1758095867
 21
-116.5329462835
 31
0.0
  0
LINE
  5
3EC
  8
0
  6
CONTINUOUS
 62
     7
 10
-850.1758048183
 20
-116.5329462835
 30
0.0
 11
-850.1758048183
 21
-116.7529470274
 31
0.0
  0
LINE
  5
3ED
  8
0
  6
CONTINUOUS
 62
     7
 10
-845.1758095867
 20
-116.5329462835
 30
0.0
 11
-845.5758089072
 21
-116.1329395124
 31
0.0
  0
LINE
  5
3EE
  8
0
  6
CONTINUOUS
 62
     7
 10
-849.7758054978
 20
-116.1329395124
 30
0.0
 11
-850.1758048183
 21
-116.5329462835
 31
0.0
  0
LINE
  5
3EF
  8
0
  6
CONTINUOUS
 62
     7
 10
-859.4258049375
 20
-249.7529463596
 30
0.0
 11
-859.4258049375
 21
-248.5813734399
 31
0.0
  0
LINE
  5
3F0
  8
0
  6
CONTINUOUS
 62
     7
 10
-663.4258100635
 20
-249.7529463596
 30
0.0
 11
-663.4258100635
 21
-248.5813734399
 31
0.0
  0
CIRCLE
  5
3F1
  8
0
  6
CONTINUOUS
 62
     7
 10
-761.4258075005
 20
-184.0020404411
 30
0.0
 40
24.0
  0
ARC
  5
3F2
  8
0
  6
CONTINUOUS
 62
     7
 10
-664.9758072809
 20
-99.0529467378
 30
0.0
 40
2.50000000000002
 50
216.8698976458
 51
225.0
  0
LINE
  5
3F3
  8
0
  6
CONTINUOUS
 62
     7
 10
-666.7435759551
 20
-100.8207148859
 30
0.0
 11
-671.7258090026
 21
-105.8029479334
 31
0.0
  0
LINE
  5
3F4
  8
0
  6
CONTINUOUS
 62
     7
 10
-671.7258090026
 20
-105.8029479334
 30
0.0
 11
-678.4758040554
 21
-105.8029479334
 31
0.0
  0
LINE
  5
3F5
  8
0
  6
CONTINUOUS
 62
     7
 10
-678.4758040554
 20
-105.8029479334
 30
0.0
 11
-678.4758040554
 21
-112.5529504368
 31
0.0
  0
LINE
  5
3F6
  8
0
  6
CONTINUOUS
 62
     7
 10
-678.4758040554
 20
-112.5529504368
 30
0.0
 11
-845.4758072144
 21
-112.5529504368
 31
0.0
  0
LINE
  5
3F7
  8
0
  6
CONTINUOUS
 62
     7
 10
-845.4758072144
 20
-105.8029479334
 30
0.0
 11
-845.4758072144
 21
-112.5529504368
 31
0.0
  0
LINE
  5
3F8
  8
0
  6
CONTINUOUS
 62
     7
 10
-852.2258097178
 20
-105.8029479334
 30
0.0
 11
-845.4758072144
 21
-105.8029479334
 31
0.0
  0
LINE
  5
3F9
  8
0
  6
CONTINUOUS
 62
     7
 10
-857.2080427653
 20
-100.8207148859
 30
0.0
 11
-852.2258097178
 21
-105.8029479334
 31
0.0
  0
ARC
  5
3FA
  8
0
  6
CONTINUOUS
 62
     7
 10
-858.9758072809
 20
-99.0529467378
 30
0.0
 40
2.50000000000002
 50
315.0
 51
323.1301023542
  0
LINE
  5
3FB
  8
0
  6
CONTINUOUS
 62
     7
 10
-860.4758078105
 20
-112.5529504368
 30
0.0
 11
-860.4758078105
 21
-101.0529494831
 31
0.0
  0
POLYLINE
  5
3FC
  8
0
  6
CONTINUOUS
 62
     7
 66
     1
 10
0.0
 20
0.0
 30
0.0
  0
VERTEX
  5
665
  8
0
  6
CONTINUOUS
 62
     7
 10
-857.4758091814
 20
-101.0529494831
 30
0.0
  0
VERTEX
  5
666
  8
0
  6
CONTINUOUS
 62
     7
 10
-858.0069908744
 20
-101.2675113031
 30
0.0
  0
VERTEX
  5
667
  8
0
  6
CONTINUOUS
 62
     7
 10
-858.5644135124
 20
-101.4245993444
 30
0.0
  0
VERTEX
  5
668
  8
0
  6
CONTINUOUS
 62
     7
 10
-859.1092893726
 20
-101.5208012411
 30
0.0
  0
VERTEX
  5
669
  8
0
  6
CONTINUOUS
 62
     7
 10
-859.5971310383
 20
-101.5529430458
 30
0.0
  0
VERTEX
  5
66A
  8
0
  6
CONTINUOUS
 62
     7
 10
-859.9925333506
 20
-101.5209651539
 30
0.0
  0
VERTEX
  5
66B
  8
0
  6
CONTINUOUS
 62
     7
 10
-860.2707603819
 20
-101.4249867746
 30
0.0
  0
VERTEX
  5
66C
  8
0
  6
CONTINUOUS
 62
     7
 10
-860.4284817225
 20
-101.2673622915
 30
0.0
  0
VERTEX
  5
66D
  8
0
  6
CONTINUOUS
 62
     7
 10
-860.4758078105
 20
-101.0529494831
 30
0.0
  0
SEQEND
  5
66E
  8
0
  6
CONTINUOUS
 62
     7
  0
LINE
  5
3FD
  8
0
  6
CONTINUOUS
 62
     7
 10
-857.4758091814
 20
-112.5529504368
 30
0.0
 11
-860.4758078105
 21
-112.5529504368
 31
0.0
  0
LINE
  5
3FE
  8
0
  6
CONTINUOUS
 62
     7
 10
-860.4758078105
 20
-101.0529494831
 30
0.0
 11
-858.9758047706
 21
-101.0529494831
 31
0.0
  0
ARC
  5
3FF
  8
0
  6
CONTINUOUS
 62
     7
 10
-858.5615837087
 20
-101.131995107
 30
0.0
 40
0.4216957419800072
 50
169.1961655481
 51
273.4126824645
  0
LINE
  5
400
  8
0
  6
CONTINUOUS
 62
     7
 10
-856.9758081681
 20
-97.5529498407
 30
0.0
 11
-666.9758105523
 21
-97.5529498407
 31
0.0
  0
POLYLINE
  5
401
  8
0
  6
CONTINUOUS
 62
     7
 66
     1
 10
0.0
 20
0.0
 30
0.0
  0
VERTEX
  5
66F
  8
0
  6
CONTINUOUS
 62
     7
 10
-666.9758105523
 20
-97.5529498407
 30
0.0
  0
VERTEX
  5
670
  8
0
  6
CONTINUOUS
 62
     7
 10
-667.1903723723
 20
-97.6003504345
 30
0.0
  0
VERTEX
  5
671
  8
0
  6
CONTINUOUS
 62
     7
 10
-667.3474604136
 20
-97.7574235746
 30
0.0
  0
VERTEX
  5
672
  8
0
  6
CONTINUOUS
 62
     7
 10
-667.4436548597
 20
-98.0366564342
 30
0.0
  0
VERTEX
  5
673
  8
0
  6
CONTINUOUS
 62
     7
 10
-667.475804115
 20
-98.4316266128
 30
0.0
  0
VERTEX
  5
674
  8
0
  6
CONTINUOUS
 62
     7
 10
-667.4438187725
 20
-98.9201313802
 30
0.0
  0
VERTEX
  5
675
  8
0
  6
CONTINUOUS
 62
     7
 10
-667.3478478438
 20
-99.4628912756
 30
0.0
  0
VERTEX
  5
676
  8
0
  6
CONTINUOUS
 62
     7
 10
-667.1902308113
 20
-100.0221914598
 30
0.0
  0
VERTEX
  5
677
  8
0
  6
CONTINUOUS
 62
     7
 10
-666.9758105523
 20
-100.5529410192
 30
0.0
  0
SEQEND
  5
678
  8
0
  6
CONTINUOUS
 62
     7
  0
POLYLINE
  5
402
  8
0
  6
CONTINUOUS
 62
     7
 66
     1
 10
0.0
 20
0.0
 30
0.0
  0
VERTEX
  5
679
  8
0
  6
CONTINUOUS
 62
     7
 10
-856.9758081681
 20
-97.5529498407
 30
0.0
  0
VERTEX
  5
67A
  8
0
  6
CONTINUOUS
 62
     7
 10
-856.7612463481
 20
-97.6003504345
 30
0.0
  0
VERTEX
  5
67B
  8
0
  6
CONTINUOUS
 62
     7
 10
-856.6041583068
 20
-97.7574235746
 30
0.0
  0
VERTEX
  5
67C
  8
0
  6
CONTINUOUS
 62
     7
 10
-856.5079564101
 20
-98.0366564342
 30
0.0
  0
VERTEX
  5
67D
  8
0
  6
CONTINUOUS
 62
     7
 10
-856.4758071548
 20
-98.4316266128
 30
0.0
  0
VERTEX
  5
67E
  8
0
  6
CONTINUOUS
 62
     7
 10
-856.5077924973
 20
-98.9201313802
 30
0.0
  0
VERTEX
  5
67F
  8
0
  6
CONTINUOUS
 62
     7
 10
-856.6037708766
 20
-99.4628912756
 30
0.0
  0
VERTEX
  5
680
  8
0
  6
CONTINUOUS
 62
     7
 10
-856.7613879091
 20
-100.0221914598
 30
0.0
  0
VERTEX
  5
681
  8
0
  6
CONTINUOUS
 62
     7
 10
-856.9758081681
 20
-100.5529410192
 30
0.0
  0
SEQEND
  5
682
  8
0
  6
CONTINUOUS
 62
     7
  0
ARC
  5
403
  8
0
  6
CONTINUOUS
 62
     7
 10
-856.907671197
 20
-99.4795900181
 30
0.0
 40
0.4320512138311335
 50
358.3134246204
 51
99.0737561497
  0
LINE
  5
404
  8
0
  6
CONTINUOUS
 62
     7
 10
-856.9758081681
 20
-99.05294543
 30
0.0
 11
-856.9758081681
 21
-97.5529498407
 31
0.0
  0
LINE
  5
405
  8
0
  6
CONTINUOUS
 62
     7
 10
-845.4758072144
 20
-112.5529504368
 30
0.0
 11
-857.4758091814
 21
-112.5529504368
 31
0.0
  0
ARC
  5
406
  8
0
  6
CONTINUOUS
 62
     7
 10
-858.9758072809
 20
-99.0529467378
 30
0.0
 40
2.50000000000002
 50
306.8698976458
 51
315.0
  0
LINE
  5
407
  8
0
  6
CONTINUOUS
 62
     7
 10
-666.9758105523
 20
-99.05294543
 30
0.0
 11
-666.9758105523
 21
-97.5529498407
 31
0.0
  0
ARC
  5
408
  8
0
  6
CONTINUOUS
 62
     7
 10
-667.0439436573
 20
-99.4795870943
 30
0.0
 40
0.4320477169905712
 50
80.9266889915
 51
181.6869769311
  0
LINE
  5
409
  8
0
  6
CONTINUOUS
 62
     7
 10
-663.4758109099
 20
-101.0529494831
 30
0.0
 11
-663.4758109099
 21
-112.5529504368
 31
0.0
  0
LINE
  5
40A
  8
0
  6
CONTINUOUS
 62
     7
 10
-663.4758109099
 20
-112.5529504368
 30
0.0
 11
-666.475809539
 21
-112.5529504368
 31
0.0
  0
POLYLINE
  5
40B
  8
0
  6
CONTINUOUS
 62
     7
 66
     1
 10
0.0
 20
0.0
 30
0.0
  0
VERTEX
  5
683
  8
0
  6
CONTINUOUS
 62
     7
 10
-666.475809539
 20
-101.0529494831
 30
0.0
  0
VERTEX
  5
684
  8
0
  6
CONTINUOUS
 62
     7
 10
-665.9446278459
 20
-101.2675113031
 30
0.0
  0
VERTEX
  5
685
  8
0
  6
CONTINUOUS
 62
     7
 10
-665.387205208
 20
-101.4245993444
 30
0.0
  0
VERTEX
  5
686
  8
0
  6
CONTINUOUS
 62
     7
 10
-664.8423293478
 20
-101.5208012411
 30
0.0
  0
VERTEX
  5
687
  8
0
  6
CONTINUOUS
 62
     7
 10
-664.3544802314
 20
-101.5529430458
 30
0.0
  0
VERTEX
  5
688
  8
0
  6
CONTINUOUS
 62
     7
 10
-663.9590779192
 20
-101.5209651539
 30
0.0
  0
VERTEX
  5
689
  8
0
  6
CONTINUOUS
 62
     7
 10
-663.6808508879
 20
-101.4249867746
 30
0.0
  0
VERTEX
  5
68A
  8
0
  6
CONTINUOUS
 62
     7
 10
-663.5231295473
 20
-101.2673622915
 30
0.0
  0
VERTEX
  5
68B
  8
0
  6
CONTINUOUS
 62
     7
 10
-663.4758109099
 20
-101.0529494831
 30
0.0
  0
SEQEND
  5
68C
  8
0
  6
CONTINUOUS
 62
     7
  0
ARC
  5
40C
  8
0
  6
CONTINUOUS
 62
     7
 10
-665.3900337678
 20
-101.1319896534
 30
0.0
 40
0.4217008164592
 50
266.5882034417
 51
10.8029485457
  0
LINE
  5
40D
  8
0
  6
CONTINUOUS
 62
     7
 10
-663.4758109099
 20
-101.0529494831
 30
0.0
 11
-664.9758064992
 21
-101.0529494831
 31
0.0
  0
LINE
  5
40E
  8
0
  6
CONTINUOUS
 62
     7
 10
-666.475809539
 20
-112.5529504368
 30
0.0
 11
-678.4758040554
 21
-112.5529504368
 31
0.0
  0
ARC
  5
40F
  8
0
  6
CONTINUOUS
 62
     7
 10
-664.9758072809
 20
-99.0529467378
 30
0.0
 40
2.500000000000057
 50
225.0
 51
233.1301023542
  0
LINE
  5
410
  8
0
  6
CONTINUOUS
 62
     7
 10
-857.4758091814
 20
-99.05294543
 30
0.0
 11
-856.9758081681
 21
-99.05294543
 31
0.0
  0
LINE
  5
411
  8
0
  6
CONTINUOUS
 62
     7
 10
-857.4758091814
 20
-97.5529498407
 30
0.0
 11
-857.4758091814
 21
-99.05294543
 31
0.0
  0
LINE
  5
412
  8
0
  6
CONTINUOUS
 62
     7
 10
-857.4758091814
 20
-97.5529498407
 30
0.0
 11
-856.9758081681
 21
-97.5529498407
 31
0.0
  0
LINE
  5
413
  8
0
  6
CONTINUOUS
 62
     7
 10
-858.9758047706
 20
-101.0529494831
 30
0.0
 11
-858.9758047706
 21
-100.5529410192
 31
0.0
  0
LINE
  5
414
  8
0
  6
CONTINUOUS
 62
     7
 10
-860.4758078105
 20
-101.0529494831
 30
0.0
 11
-860.4758078105
 21
-100.5529410192
 31
0.0
  0
LINE
  5
415
  8
0
  6
CONTINUOUS
 62
     7
 10
-860.4758078105
 20
-100.5529410192
 30
0.0
 11
-858.9758047706
 21
-100.5529410192
 31
0.0
  0
LINE
  5
416
  8
0
  6
CONTINUOUS
 62
     7
 10
-666.475809539
 20
-99.05294543
 30
0.0
 11
-666.9758105523
 21
-99.05294543
 31
0.0
  0
LINE
  5
417
  8
0
  6
CONTINUOUS
 62
     7
 10
-666.475809539
 20
-97.5529498407
 30
0.0
 11
-666.475809539
 21
-99.05294543
 31
0.0
  0
LINE
  5
418
  8
0
  6
CONTINUOUS
 62
     7
 10
-666.475809539
 20
-97.5529498407
 30
0.0
 11
-666.9758105523
 21
-97.5529498407
 31
0.0
  0
LINE
  5
419
  8
0
  6
CONTINUOUS
 62
     7
 10
-664.9758064992
 20
-101.0529494831
 30
0.0
 11
-664.9758064992
 21
-100.5529410192
 31
0.0
  0
LINE
  5
41A
  8
0
  6
CONTINUOUS
 62
     7
 10
-663.4758109099
 20
-100.5529410192
 30
0.0
 11
-664.9758064992
 21
-100.5529410192
 31
0.0
  0
LINE
  5
41B
  8
0
  6
CONTINUOUS
 62
     7
 10
-663.4758109099
 20
-101.0529494831
 30
0.0
 11
-663.4758109099
 21
-100.5529410192
 31
0.0
  0
ARC
  5
41C
  8
0
  6
CONTINUOUS
 62
     7
 10
-857.4758146506
 20
-100.55293555
 30
0.0
 40
1.499990120071482
 50
89.9997910908
 51
180.0002089092
  0
ARC
  5
41D
  8
0
  6
CONTINUOUS
 62
     7
 10
-857.4758100557
 20
-100.5529475955
 30
0.0
 40
2.999997754775382
 50
89.9999833016
 51
179.9998744025
  0
ARC
  5
41E
  8
0
  6
CONTINUOUS
 62
     7
 10
-666.4758008589
 20
-100.5529397896
 30
0.0
 40
1.499994359696124
 50
359.9999530331
 51
90.0003315582
  0
ARC
  5
41F
  8
0
  6
CONTINUOUS
 62
     7
 10
-666.4757977532
 20
-100.552936684
 30
0.0
 40
2.999986843283472
 50
359.9999172024
 51
90.0002250934
  0
LINE
  5
420
  8
0
  6
CONTINUOUS
 62
     7
 10
-858.9250961191
 20
-118.8544279882
 30
0.0
 11
-858.4269130475
 21
-118.7529510805
 31
0.0
  0
LINE
  5
421
  8
0
  6
CONTINUOUS
 62
     7
 10
-858.3820232994
 20
-118.7529510805
 30
0.0
 11
-664.354025746
 21
-118.7529510805
 31
0.0
  0
POLYLINE
  5
422
  8
0
  6
CONTINUOUS
 62
     7
 66
     1
 10
0.0
 20
0.0
 30
0.0
  0
VERTEX
  5
68D
  8
0
  6
CONTINUOUS
 62
     7
 10
-664.354025746
 20
-118.7529510805
 30
0.0
  0
VERTEX
  5
68E
  8
0
  6
CONTINUOUS
 62
     7
 10
-663.8175466901
 20
-118.9303345033
 30
0.0
  0
VERTEX
  5
68F
  8
0
  6
CONTINUOUS
 62
     7
 10
-663.4216749913
 20
-119.4485819885
 30
0.0
  0
VERTEX
  5
690
  8
0
  6
CONTINUOUS
 62
     7
 10
-663.17963543
 20
-120.2553308555
 30
0.0
  0
VERTEX
  5
691
  8
0
  6
CONTINUOUS
 62
     7
 10
-663.0637863523
 20
-120.9165996858
 30
0.0
  0
VERTEX
  5
692
  8
0
  6
CONTINUOUS
 62
     7
 10
-662.951394344
 20
-121.752942259
 30
0.0
  0
SEQEND
  5
693
  8
0
  6
CONTINUOUS
 62
     7
  0
ARC
  5
423
  8
0
  6
CONTINUOUS
 62
     7
 10
-855.6812501822
 20
-121.5590053305
 30
0.0
 40
4.22342555272044
 50
140.1801907441
 51
182.6319100661
  0
ARC
  5
424
  8
0
  6
CONTINUOUS
 62
     7
 10
-667.9265146072
 20
-122.2511345701
 30
0.0
 40
4.999999999973056
 50
0.0
 51
5.7183052343
  0
LINE
  5
425
  8
0
  6
CONTINUOUS
 62
     7
 10
-662.9265168554
 20
-245.752946286
 30
0.0
 11
-662.9265168554
 21
-243.2146964581
 31
0.0
  0
LINE
  5
426
  8
0
  6
CONTINUOUS
 62
     7
 10
-662.9265168554
 20
-199.0940256962
 30
0.0
 11
-662.9265168554
 21
-122.2511327812
 31
0.0
  0
LINE
  5
427
  8
0
  6
CONTINUOUS
 62
     7
 10
-859.9250981456
 20
-122.2511327812
 30
0.0
 11
-859.9250981456
 21
-199.0940256962
 31
0.0
  0
LINE
  5
428
  8
0
  6
CONTINUOUS
 62
     7
 10
-859.9250981456
 20
-243.2146964581
 30
0.0
 11
-859.9250981456
 21
-245.752946286
 31
0.0
  0
ARC
  5
429
  8
0
  6
CONTINUOUS
 62
     7
 10
-854.9251003937
 20
-122.2511345701
 30
0.0
 40
5.00000000000648
 50
174.2816947658
 51
180.0
  0
CIRCLE
  5
42A
  8
0
  6
CONTINUOUS
 62
     7
 10
-761.4258075005
 20
-184.0020404411
 30
0.0
 40
25.25000000000011
  0
LINE
  5
42B
  8
0
  6
CONTINUOUS
 62
     7
 10
-789.8348172999
 20
-207.8148557791
 30
0.0
 11
-793.7239030248
 21
-211.7039433667
 31
0.0
  0
ARC
  5
42C
  8
0
  6
CONTINUOUS
 62
     7
 10
-791.4258075005
 20
-214.0020404411
 30
0.0
 40
3.250000000000026
 50
135.0
 51
315.0
  0
LINE
  5
42D
  8
0
  6
CONTINUOUS
 62
     7
 10
-789.1277106351
 20
-216.3001357564
 30
0.0
 11
-785.2386230475
 21
-212.4110518941
 31
0.0
  0
ARC
  5
42E
  8
0
  6
CONTINUOUS
 62
     7
 10
-787.536720204
 20
-210.1129531446
 30
0.0
 40
3.250000000000047
 50
315.0
 51
135.0
  0
LINE
  5
42F
  8
0
  6
CONTINUOUS
 62
     7
 10
-793.7239030248
 20
-156.3001370975
 30
0.0
 11
-789.8348172999
 21
-160.1892284104
 31
0.0
  0
ARC
  5
430
  8
0
  6
CONTINUOUS
 62
     7
 10
-787.536720204
 20
-157.8911277376
 30
0.0
 40
3.250000000000026
 50
225.0
 51
45.0
  0
LINE
  5
431
  8
0
  6
CONTINUOUS
 62
     7
 10
-785.2386230475
 20
-155.5930322954
 30
0.0
 11
-789.1277106351
 21
-151.7039409825
 31
0.0
  0
ARC
  5
432
  8
0
  6
CONTINUOUS
 62
     7
 10
-791.4258075005
 20
-154.0020404411
 30
0.0
 40
3.250000000000006
 50
45.0
 51
225.0
  0
LINE
  5
433
  8
0
  6
CONTINUOUS
 62
     7
 10
-729.1277119762
 20
-211.7039433667
 30
0.0
 11
-733.0167977012
 21
-207.8148557791
 31
0.0
  0
ARC
  5
434
  8
0
  6
CONTINUOUS
 62
     7
 10
-735.314894797
 20
-210.1129531446
 30
0.0
 40
3.249999999999946
 50
45.0
 51
225.0
  0
LINE
  5
435
  8
0
  6
CONTINUOUS
 62
     7
 10
-737.6129919535
 20
-212.4110518941
 30
0.0
 11
-733.7239043659
 21
-216.3001357564
 31
0.0
  0
ARC
  5
436
  8
0
  6
CONTINUOUS
 62
     7
 10
-731.4258075005
 20
-214.0020404411
 30
0.0
 40
3.250000000000207
 50
225.0
 51
45.0
  0
LINE
  5
437
  8
0
  6
CONTINUOUS
 62
     7
 10
-733.0167977012
 20
-160.1892284104
 30
0.0
 11
-729.1277119762
 21
-156.3001370975
 31
0.0
  0
ARC
  5
438
  8
0
  6
CONTINUOUS
 62
     7
 10
-731.4258075005
 20
-154.0020404411
 30
0.0
 40
3.250000000000026
 50
315.0
 51
135.0
  0
LINE
  5
439
  8
0
  6
CONTINUOUS
 62
     7
 10
-733.7239043659
 20
-151.7039409825
 30
0.0
 11
-737.6129919535
 21
-155.5930322954
 31
0.0
  0
ARC
  5
43A
  8
0
  6
CONTINUOUS
 62
     7
 10
-735.314894797
 20
-157.8911277376
 30
0.0
 40
3.249999999999946
 50
135.0
 51
315.0
  0
POLYLINE
  5
43B
  8
0
  6
CONTINUOUS
 62
     7
 66
     1
 10
0.0
 20
0.0
 30
0.0
  0
VERTEX
  5
694
  8
0
  6
CONTINUOUS
 62
     7
 10
-664.4258046395
 20
-248.7529463121
 30
0.0
  0
VERTEX
  5
695
  8
0
  6
CONTINUOUS
 62
     7
 10
-664.1654590017
 20
-248.7073695717
 30
0.0
  0
VERTEX
  5
696
  8
0
  6
CONTINUOUS
 62
     7
 10
-663.9130184299
 20
-248.5720241691
 30
0.0
  0
VERTEX
  5
697
  8
0
  6
CONTINUOUS
 62
     7
 10
-663.6761644727
 20
-248.3510225299
 30
0.0
  0
VERTEX
  5
698
  8
0
  6
CONTINUOUS
 62
     7
 10
-663.4620794899
 20
-248.0510796174
 30
0.0
  0
VERTEX
  5
699
  8
0
  6
CONTINUOUS
 62
     7
 10
-663.2772827393
 20
-247.681309165
 30
0.0
  0
VERTEX
  5
69A
  8
0
  6
CONTINUOUS
 62
     7
 10
-663.1273845083
 20
-247.2529462991
 30
0.0
  0
VERTEX
  5
69B
  8
0
  6
CONTINUOUS
 62
     7
 10
-663.0169296509
 20
-246.7790067182
 30
0.0
  0
VERTEX
  5
69C
  8
0
  6
CONTINUOUS
 62
     7
 10
-662.9492932803
 20
-246.2738908814
 30
0.0
  0
VERTEX
  5
69D
  8
0
  6
CONTINUOUS
 62
     7
 10
-662.9265168554
 20
-245.752946286
 30
0.0
  0
SEQEND
  5
69E
  8
0
  6
CONTINUOUS
 62
     7
  0
POLYLINE
  5
43C
  8
0
  6
CONTINUOUS
 62
     7
 66
     1
 10
0.0
 20
0.0
 30
0.0
  0
VERTEX
  5
69F
  8
0
  6
CONTINUOUS
 62
     7
 10
-859.9250981456
 20
-245.752946286
 30
0.0
  0
VERTEX
  5
6A0
  8
0
  6
CONTINUOUS
 62
     7
 10
-859.9023217208
 20
-246.2738908814
 30
0.0
  0
VERTEX
  5
6A1
  8
0
  6
CONTINUOUS
 62
     7
 10
-859.8346853501
 20
-246.7790067182
 30
0.0
  0
VERTEX
  5
6A2
  8
0
  6
CONTINUOUS
 62
     7
 10
-859.7242304927
 20
-247.2529462991
 30
0.0
  0
VERTEX
  5
6A3
  8
0
  6
CONTINUOUS
 62
     7
 10
-859.5743322617
 20
-247.681309165
 30
0.0
  0
VERTEX
  5
6A4
  8
0
  6
CONTINUOUS
 62
     7
 10
-859.3895355112
 20
-248.0510796174
 30
0.0
  0
VERTEX
  5
6A5
  8
0
  6
CONTINUOUS
 62
     7
 10
-859.1754505283
 20
-248.3510225299
 30
0.0
  0
VERTEX
  5
6A6
  8
0
  6
CONTINUOUS
 62
     7
 10
-858.9385965711
 20
-248.5720241691
 30
0.0
  0
VERTEX
  5
6A7
  8
0
  6
CONTINUOUS
 62
     7
 10
-858.6861559993
 20
-248.7073695717
 30
0.0
  0
VERTEX
  5
6A8
  8
0
  6
CONTINUOUS
 62
     7
 10
-858.4258103615
 20
-248.7529463121
 30
0.0
  0
SEQEND
  5
6A9
  8
0
  6
CONTINUOUS
 62
     7
  0
LINE
  5
43D
  8
0
  6
CONTINUOUS
 62
     7
 10
-858.4258103615
 20
-248.7529463121
 30
0.0
 11
-853.3979425079
 21
-248.7529463121
 31
0.0
  0
LINE
  5
43E
  8
0
  6
CONTINUOUS
 62
     7
 10
-669.4536724931
 20
-248.7529463121
 30
0.0
 11
-664.4258046395
 21
-248.7529463121
 31
0.0
  0
LINE
  5
43F
  8
0
  6
CONTINUOUS
 62
     7
 10
-662.9258090502
 20
-121.752942259
 30
0.0
 11
-662.9258090502
 21
-122.2511327812
 31
0.0
  0
LINE
  5
440
  8
0
  6
CONTINUOUS
 62
     7
 10
-662.9258090502
 20
-121.752942259
 30
0.0
 11
-661.4258060104
 21
-121.752942259
 31
0.0
  0
LINE
  5
441
  8
0
  6
CONTINUOUS
 62
     7
 10
-661.4258060104
 20
-121.752942259
 30
0.0
 11
-661.4258060104
 21
-122.2511327812
 31
0.0
  0
LINE
  5
442
  8
0
  6
CONTINUOUS
 62
     7
 10
-859.9258059508
 20
-122.2511327812
 30
0.0
 11
-859.9258059508
 21
-121.752942259
 31
0.0
  0
LINE
  5
443
  8
0
  6
CONTINUOUS
 62
     7
 10
-861.4258089906
 20
-121.752942259
 30
0.0
 11
-859.9258059508
 21
-121.752942259
 31
0.0
  0
LINE
  5
444
  8
0
  6
CONTINUOUS
 62
     7
 10
-861.4258089906
 20
-121.752942259
 30
0.0
 11
-861.4258089906
 21
-122.2511327812
 31
0.0
  0
LINE
  5
445
  8
0
  6
CONTINUOUS
 62
     7
 10
-662.9258090502
 20
-122.2511327812
 30
0.0
 11
-662.9258090502
 21
-199.0947856554
 31
0.0
  0
LINE
  5
446
  8
0
  6
CONTINUOUS
 62
     7
 10
-662.9258090502
 20
-243.2154587456
 30
0.0
 11
-662.9258090502
 21
-245.752946286
 31
0.0
  0
LINE
  5
447
  8
0
  6
CONTINUOUS
 62
     7
 10
-661.4258060104
 20
-122.2511327812
 30
0.0
 11
-661.4258060104
 21
-200.7123737582
 31
0.0
  0
LINE
  5
448
  8
0
  6
CONTINUOUS
 62
     7
 10
-661.4258060104
 20
-244.8330449858
 30
0.0
 11
-661.4258060104
 21
-245.752946286
 31
0.0
  0
ARC
  5
449
  8
0
  6
CONTINUOUS
 62
     7
 10
-664.4258084855
 20
-245.752943837
 30
0.0
 40
3.000002475125761
 50
270.0000734537
 51
359.9999532267
  0
LINE
  5
44A
  8
0
  6
CONTINUOUS
 62
     7
 10
-859.9258059508
 20
-245.752946286
 30
0.0
 11
-859.9258059508
 21
-243.2154587456
 31
0.0
  0
LINE
  5
44B
  8
0
  6
CONTINUOUS
 62
     7
 10
-859.9258059508
 20
-199.0947856554
 30
0.0
 11
-859.9258059508
 21
-122.2511327812
 31
0.0
  0
LINE
  5
44C
  8
0
  6
CONTINUOUS
 62
     7
 10
-861.4258089906
 20
-245.752946286
 30
0.0
 11
-861.4258089906
 21
-244.8330449858
 31
0.0
  0
LINE
  5
44D
  8
0
  6
CONTINUOUS
 62
     7
 10
-861.4258089906
 20
-200.7123737582
 30
0.0
 11
-861.4258089906
 21
-122.2511327812
 31
0.0
  0
ARC
  5
44E
  8
0
  6
CONTINUOUS
 62
     7
 10
-858.4258058745
 20
-245.752943196
 30
0.0
 40
3.000003116164324
 50
180.0000590162
 51
269.9999143034
  0
POLYLINE
  5
44F
  8
0
  6
CONTINUOUS
 62
     7
 66
     1
 10
0.0
 20
0.0
 30
0.0
  0
VERTEX
  5
6AA
  8
0
  6
CONTINUOUS
 62
     7
 10
-662.9258090502
 20
-121.752942259
 30
0.0
  0
VERTEX
  5
6AB
  8
0
  6
CONTINUOUS
 62
     7
 10
-662.9670033104
 20
-121.4038080522
 30
0.0
  0
VERTEX
  5
6AC
  8
0
  6
CONTINUOUS
 62
     7
 10
-663.0182335025
 20
-121.255601103
 30
0.0
  0
SEQEND
  5
6AD
  8
0
  6
CONTINUOUS
 62
     7
  0
ARC
  5
450
  8
0
  6
CONTINUOUS
 62
     7
 10
-664.4258252167
 20
-121.7529557405
 30
0.0
 40
3.0000192063116
 50
0.0002574755
 51
75.054089627
  0
POLYLINE
  5
451
  8
0
  6
CONTINUOUS
 62
     7
 66
     1
 10
0.0
 20
0.0
 30
0.0
  0
VERTEX
  5
6AE
  8
0
  6
CONTINUOUS
 62
     7
 10
-859.8337316758
 20
-121.2582088062
 30
0.0
  0
VERTEX
  5
6AF
  8
0
  6
CONTINUOUS
 62
     7
 10
-859.866342867
 20
-121.3347709724
 30
0.0
  0
VERTEX
  5
6B0
  8
0
  6
CONTINUOUS
 62
     7
 10
-859.9258059508
 20
-121.752942259
 30
0.0
  0
SEQEND
  5
6B1
  8
0
  6
CONTINUOUS
 62
     7
  0
ARC
  5
452
  8
0
  6
CONTINUOUS
 62
     7
 10
-858.4258108947
 20
-121.7529491765
 30
0.0
 40
2.999998095964718
 50
89.9999898178
 51
179.9998678863
  0
LINE
  5
453
  8
0
  6
CONTINUOUS
 62
     7
 10
-663.6520990974
 20
-118.8544279882
 30
0.0
 11
-664.4258046395
 21
-118.7529510805
 31
0.0
  0
LINE
  5
454
  8
0
  6
CONTINUOUS
 62
     7
 10
-858.3820232994
 20
-118.7529510805
 30
0.0
 11
-858.4258103615
 21
-118.7529510805
 31
0.0
  0
LINE
  5
455
  8
0
  6
CONTINUOUS
 62
     7
 10
-684.7936430818
 20
-112.5529504368
 30
0.0
 11
-685.395508433
 21
-116.8354249546
 31
0.0
  0
LINE
  5
456
  8
0
  6
CONTINUOUS
 62
     7
 10
-683.2789027936
 20
-112.5529504368
 30
0.0
 11
-683.9101010806
 21
-117.0441902229
 31
0.0
  0
LINE
  5
457
  8
0
  6
CONTINUOUS
 62
     7
 10
-683.9101010806
 20
-117.0441902229
 30
0.0
 11
-685.395508433
 21
-116.8354249546
 31
0.0
  0
LINE
  5
458
  8
0
  6
CONTINUOUS
 62
     7
 10
-839.1355046875
 20
-117.0441902229
 30
0.0
 11
-839.7729093081
 21
-112.5529504368
 31
0.0
  0
POLYLINE
  5
459
  8
0
  6
CONTINUOUS
 62
     7
 66
     1
 10
0.0
 20
0.0
 30
0.0
  0
VERTEX
  5
6B2
  8
0
  6
CONTINUOUS
 62
     7
 10
-839.293211127
 20
-118.2351506302
 30
0.0
  0
VERTEX
  5
6B3
  8
0
  6
CONTINUOUS
 62
     7
 10
-839.8037398106
 20
-118.6173654148
 30
0.0
  0
VERTEX
  5
6B4
  8
0
  6
CONTINUOUS
 62
     7
 10
-840.4269138223
 20
-118.7529510805
 30
0.0
  0
SEQEND
  5
6B5
  8
0
  6
CONTINUOUS
 62
     7
  0
POLYLINE
  5
45A
  8
0
  6
CONTINUOUS
 62
     7
 66
     1
 10
0.0
 20
0.0
 30
0.0
  0
VERTEX
  5
6B6
  8
0
  6
CONTINUOUS
 62
     7
 10
-682.4247011787
 20
-118.7529510805
 30
0.0
  0
VERTEX
  5
6B7
  8
0
  6
CONTINUOUS
 62
     7
 10
-683.0478751904
 20
-118.6173654148
 30
0.0
  0
VERTEX
  5
6B8
  8
0
  6
CONTINUOUS
 62
     7
 10
-683.5584038741
 20
-118.2351506302
 30
0.0
  0
SEQEND
  5
6B9
  8
0
  6
CONTINUOUS
 62
     7
  0
POLYLINE
  5
45B
  8
0
  6
CONTINUOUS
 62
     7
 66
     1
 10
0.0
 20
0.0
 30
0.0
  0
VERTEX
  5
6BA
  8
0
  6
CONTINUOUS
 62
     7
 10
-685.3151986248
 20
-118.0295295069
 30
0.0
  0
VERTEX
  5
6BB
  8
0
  6
CONTINUOUS
 62
     7
 10
-685.3213155514
 20
-118.1026048013
 30
0.0
  0
VERTEX
  5
6BC
  8
0
  6
CONTINUOUS
 62
     7
 10
-685.3331321723
 20
-118.2351506302
 30
0.0
  0
SEQEND
  5
6BD
  8
0
  6
CONTINUOUS
 62
     7
  0
ARC
  5
45C
  8
0
  6
CONTINUOUS
 62
     7
 10
-695.5119600076
 20
-105.6485340339
 30
0.0
 40
144.0573057311428
 50
184.6204577214
 51
185.0659596648
  0
POLYLINE
  5
45D
  8
0
  6
CONTINUOUS
 62
     7
 66
     1
 10
0.0
 20
0.0
 30
0.0
  0
VERTEX
  5
6BE
  8
0
  6
CONTINUOUS
 62
     7
 10
-840.4280165083
 20
-118.7529510805
 30
0.0
  0
VERTEX
  5
6BF
  8
0
  6
CONTINUOUS
 62
     7
 10
-839.6765583998
 20
-118.6173654148
 30
0.0
  0
VERTEX
  5
6C0
  8
0
  6
CONTINUOUS
 62
     7
 10
-838.9251002914
 20
-118.2351506302
 30
0.0
  0
SEQEND
  5
6C1
  8
0
  6
CONTINUOUS
 62
     7
  0
ARC
  5
45E
  8
0
  6
CONTINUOUS
 62
     7
 10
-810.7536465314
 20
-112.6440948531
 30
0.0
 40
28.72091070378027
 50
188.8125217237
 51
191.225357256
  0
ARC
  5
45F
  8
0
  6
CONTINUOUS
 62
     7
 10
-713.5979715095
 20
-112.6440948531
 30
0.0
 40
28.72091070378049
 50
348.774642744
 51
351.1874782763
  0
LINE
  5
460
  8
0
  6
CONTINUOUS
 62
     7
 10
-685.4265177495
 20
-118.2351506302
 30
0.0
 11
-683.9265147096
 21
-118.2351506302
 31
0.0
  0
POLYLINE
  5
461
  8
0
  6
CONTINUOUS
 62
     7
 66
     1
 10
0.0
 20
0.0
 30
0.0
  0
VERTEX
  5
6C2
  8
0
  6
CONTINUOUS
 62
     7
 10
-683.9265147096
 20
-118.2351506302
 30
0.0
  0
VERTEX
  5
6C3
  8
0
  6
CONTINUOUS
 62
     7
 10
-683.1723147875
 20
-118.6173654148
 30
0.0
  0
VERTEX
  5
6C4
  8
0
  6
CONTINUOUS
 62
     7
 10
-682.4181074149
 20
-118.7529510805
 30
0.0
  0
SEQEND
  5
6C5
  8
0
  6
CONTINUOUS
 62
     7
  0
ARC
  5
462
  8
0
  6
CONTINUOUS
 62
     7
 10
-682.4247043764
 20
-117.2529536171
 30
0.0
 40
1.499995174502919
 50
171.9998297277
 51
220.9044953694
  0
ARC
  5
463
  8
0
  6
CONTINUOUS
 62
     7
 10
-682.9084808253
 20
-117.2789415932
 30
0.0
 40
2.526264699198727
 50
169.8886225175
 51
202.2412374522
  0
POLYLINE
  5
464
  8
0
  6
CONTINUOUS
 62
     7
 66
     1
 10
0.0
 20
0.0
 30
0.0
  0
VERTEX
  5
6C6
  8
0
  6
CONTINUOUS
 62
     7
 10
-839.0176961071
 20
-117.7484489033
 30
0.0
  0
VERTEX
  5
6C7
  8
0
  6
CONTINUOUS
 62
     7
 10
-839.1109252221
 20
-117.972785885
 30
0.0
  0
VERTEX
  5
6C8
  8
0
  6
CONTINUOUS
 62
     7
 10
-839.293211127
 20
-118.2351506302
 30
0.0
  0
SEQEND
  5
6C9
  8
0
  6
CONTINUOUS
 62
     7
  0
POLYLINE
  5
465
  8
0
  6
CONTINUOUS
 62
     7
 66
     1
 10
0.0
 20
0.0
 30
0.0
  0
VERTEX
  5
6CA
  8
0
  6
CONTINUOUS
 62
     7
 10
-683.7987596041
 20
-117.8330576965
 30
0.0
  0
VERTEX
  5
6CB
  8
0
  6
CONTINUOUS
 62
     7
 10
-683.7687114126
 20
-117.4740291187
 30
0.0
  0
VERTEX
  5
6CC
  8
0
  6
CONTINUOUS
 62
     7
 10
-683.7161103136
 20
-116.8354249546
 30
0.0
  0
SEQEND
  5
6CD
  8
0
  6
CONTINUOUS
 62
     7
  0
LINE
  5
466
  8
0
  6
CONTINUOUS
 62
     7
 10
-683.7161103136
 20
-117.0441902229
 30
0.0
 11
-683.7161103136
 21
-116.8354249546
 31
0.0
  0
LINE
  5
467
  8
0
  6
CONTINUOUS
 62
     7
 10
-683.7509939319
 20
-117.2559208223
 30
0.0
 11
-683.7161103136
 21
-117.0441902229
 31
0.0
  0
LINE
  5
468
  8
0
  6
CONTINUOUS
 62
     7
 10
-683.108336652
 20
-112.5529504368
 30
0.0
 11
-683.7161103136
 21
-116.8354249546
 31
0.0
  0
LINE
  5
469
  8
0
  6
CONTINUOUS
 62
     7
 10
-683.7161103136
 20
-117.0441902229
 30
0.0
 11
-683.0787056929
 21
-112.5529504368
 31
0.0
  0
LINE
  5
46A
  8
0
  6
CONTINUOUS
 62
     7
 10
-858.4269130475
 20
-118.7529510805
 30
0.0
 11
-858.4541821725
 21
-118.7529510805
 31
0.0
  0
LINE
  5
46B
  8
0
  6
CONTINUOUS
 62
     7
 10
-858.497589255
 20
-118.7529510805
 30
0.0
 11
-858.4541821725
 21
-118.7529510805
 31
0.0
  0
LINE
  5
46C
  8
0
  6
CONTINUOUS
 62
     7
 10
-661.9258070237
 20
-249.7529463596
 30
0.0
 11
-661.9258070237
 21
-252.7529465021
 31
0.0
  0
LINE
  5
46D
  8
0
  6
CONTINUOUS
 62
     7
 10
-661.9258070237
 20
-252.7529465021
 30
0.0
 11
-663.9258110768
 21
-252.7529465021
 31
0.0
  0
LINE
  5
46E
  8
0
  6
CONTINUOUS
 62
     7
 10
-663.9258110768
 20
-249.7529463596
 30
0.0
 11
-661.9258070237
 21
-249.7529463596
 31
0.0
  0
LINE
  5
46F
  8
0
  6
CONTINUOUS
 62
     7
 10
-663.9258110768
 20
-249.7529463596
 30
0.0
 11
-858.9258039242
 21
-249.7529463596
 31
0.0
  0
LINE
  5
470
  8
0
  6
CONTINUOUS
 62
     7
 10
-663.9258110768
 20
-252.7529465021
 30
0.0
 11
-858.9258039242
 21
-252.7529465021
 31
0.0
  0
LINE
  5
471
  8
0
  6
CONTINUOUS
 62
     7
 10
-858.9258039242
 20
-252.7529465021
 30
0.0
 11
-860.9258079774
 21
-252.7529465021
 31
0.0
  0
LINE
  5
472
  8
0
  6
CONTINUOUS
 62
     7
 10
-860.9258079774
 20
-252.7529465021
 30
0.0
 11
-860.9258079774
 21
-249.7529463596
 31
0.0
  0
LINE
  5
473
  8
0
  6
CONTINUOUS
 62
     7
 10
-860.9258079774
 20
-249.7529463596
 30
0.0
 11
-858.9258039242
 21
-249.7529463596
 31
0.0
  0
CIRCLE
  5
474
  8
0
  6
CONTINUOUS
 62
     7
 10
-677.4258075005
 20
-218.7529463121
 30
0.0
 40
3.749999999999975
  0
CIRCLE
  5
475
  8
0
  6
CONTINUOUS
 62
     7
 10
-845.4258075005
 20
-218.7529463121
 30
0.0
 40
3.750000000000049
  0
CIRCLE
  5
476
  8
0
  6
CONTINUOUS
 62
     7
 10
-677.4258075005
 20
-193.7529463121
 30
0.0
 40
3.749999999999999
  0
CIRCLE
  5
477
  8
0
  6
CONTINUOUS
 62
     7
 10
-845.4258075005
 20
-193.7529463121
 30
0.0
 40
3.750000000000013
  0
CIRCLE
  5
478
  8
0
  6
CONTINUOUS
 62
     7
 10
-875.4258075005
 20
-226.4529463121
 30
0.0
 40
3.060000000000012
  0
CIRCLE
  5
479
  8
0
  6
CONTINUOUS
 62
     7
 10
-875.4258075005
 20
-257.0529463121
 30
0.0
 40
3.060000000000039
  0
CIRCLE
  5
47A
  8
0
  6
CONTINUOUS
 62
     7
 10
-647.4258075005
 20
-226.4529463121
 30
0.0
 40
3.059999999999975
  0
CIRCLE
  5
47B
  8
0
  6
CONTINUOUS
 62
     7
 10
-647.4258075005
 20
-257.0529463121
 30
0.0
 40
3.060000000000053
  0
LINE
  5
47C
  8
0
  6
CONTINUOUS
 62
     7
 10
-672.2930217034
 20
-188.993273581
 30
0.0
 11
-642.2927299387
 21
-221.3453075835
 31
0.0
  0
LINE
  5
47D
  8
0
  6
CONTINUOUS
 62
     7
 10
-642.5127008802
 20
-221.5492933044
 30
0.0
 11
-672.5130000955
 21
-189.1972593018
 31
0.0
  0
ARC
  5
47E
  8
0
  6
CONTINUOUS
 62
     7
 10
-677.4258075005
 20
-193.7529463121
 30
0.0
 40
7.0
 50
42.84
 51
180.0
  0
ARC
  5
47F
  8
0
  6
CONTINUOUS
 62
     7
 10
-677.4258075005
 20
-193.7529463121
 30
0.0
 40
6.700000000000045
 50
42.84
 51
180.0
  0
CIRCLE
  5
480
  8
0
  6
CONTINUOUS
 62
     7
 10
-677.4258075005
 20
-193.7529463121
 30
0.0
 40
3.199999999999989
  0
CIRCLE
  5
481
  8
0
  6
CONTINUOUS
 62
     7
 10
-677.4258075005
 20
-218.7529463121
 30
0.0
 40
3.200000000000045
  0
CIRCLE
  5
482
  8
0
  6
CONTINUOUS
 62
     7
 10
-647.4258075005
 20
-257.0529463121
 30
0.0
 40
2.250000000000028
  0
CIRCLE
  5
483
  8
0
  6
CONTINUOUS
 62
     7
 10
-647.4258075005
 20
-226.4529463121
 30
0.0
 40
2.25
  0
ARC
  5
484
  8
0
  6
CONTINUOUS
 62
     7
 10
-650.1758075005
 20
-259.5029463121
 30
0.0
 40
2.950000000000045
 50
180.0
 51
270.0
  0
LINE
  5
485
  8
0
  6
CONTINUOUS
 62
     7
 10
-653.1258070714
 20
-254.7351394766
 30
0.0
 11
-653.1258070714
 21
-259.5029466772
 31
0.0
  0
ARC
  5
486
  8
0
  6
CONTINUOUS
 62
     7
 10
-656.6758075005
 20
-254.7351396972
 30
0.0
 40
3.550000000000137
 50
0.0
 51
42.84
  0
LINE
  5
487
  8
0
  6
CONTINUOUS
 62
     7
 10
-682.3386171705
 20
-221.839659194
 30
0.0
 11
-654.0727535135
 21
-252.3213052643
 31
0.0
  0
ARC
  5
488
  8
0
  6
CONTINUOUS
 62
     7
 10
-677.4258075005
 20
-217.2839713804
 30
0.0
 40
6.699999999999969
 50
180.0
 51
222.84
  0
LINE
  5
489
  8
0
  6
CONTINUOUS
 62
     7
 10
-684.12581029
 20
-193.7529466101
 30
0.0
 11
-684.12581029
 21
-217.2839700231
 31
0.0
  0
ARC
  5
48A
  8
0
  6
CONTINUOUS
 62
     7
 10
-644.6758075005
 20
-223.5551551442
 30
0.0
 40
2.950000000000045
 50
0.0
 51
42.84
  0
LINE
  5
48B
  8
0
  6
CONTINUOUS
 62
     7
 10
-641.7258078105
 20
-259.5029466772
 30
0.0
 11
-641.7258078105
 21
-223.5551553765
 31
0.0
  0
ARC
  5
48C
  8
0
  6
CONTINUOUS
 62
     7
 10
-644.6758075005
 20
-259.5029463121
 30
0.0
 40
2.949999999999932
 50
270.0
 51
0.0
  0
LINE
  5
48D
  8
0
  6
CONTINUOUS
 62
     7
 10
-650.1758092887
 20
-262.4529463225
 30
0.0
 11
-644.6758055932
 21
-262.4529463225
 31
0.0
  0
LINE
  5
48E
  8
0
  6
CONTINUOUS
 62
     7
 10
-684.4258079177
 20
-217.2839700231
 30
0.0
 11
-684.4258079177
 21
-193.7529466101
 31
0.0
  0
ARC
  5
48F
  8
0
  6
CONTINUOUS
 62
     7
 10
-677.4258075005
 20
-217.2839713804
 30
0.0
 40
7.000000000000022
 50
180.0
 51
222.84
  0
ARC
  5
490
  8
0
  6
CONTINUOUS
 62
     7
 10
-644.6758075005
 20
-223.5551551442
 30
0.0
 40
3.250000000000083
 50
0.0
 51
42.84
  0
LINE
  5
491
  8
0
  6
CONTINUOUS
 62
     7
 10
-641.4258101827
 20
-223.5551553765
 30
0.0
 11
-641.4258101827
 21
-259.5029466772
 31
0.0
  0
LINE
  5
492
  8
0
  6
CONTINUOUS
 62
     7
 10
-654.292724455
 20
-252.525291218
 30
0.0
 11
-682.5585955626
 21
-222.0436449149
 31
0.0
  0
ARC
  5
493
  8
0
  6
CONTINUOUS
 62
     7
 10
-656.6758075005
 20
-254.7351396972
 30
0.0
 40
3.250000000000122
 50
0.0
 51
42.84
  0
ARC
  5
494
  8
0
  6
CONTINUOUS
 62
     7
 10
-650.1758075005
 20
-259.5029463121
 30
0.0
 40
3.25
 50
180.0
 51
270.0
  0
LINE
  5
495
  8
0
  6
CONTINUOUS
 62
     7
 10
-653.4258046991
 20
-259.5029466772
 30
0.0
 11
-653.4258046991
 21
-254.7351394766
 31
0.0
  0
ARC
  5
496
  8
0
  6
CONTINUOUS
 62
     7
 10
-644.6758075005
 20
-259.5029463121
 30
0.0
 40
3.25
 50
270.0
 51
0.0
  0
LINE
  5
497
  8
0
  6
CONTINUOUS
 62
     7
 10
-644.6758055932
 20
-262.7529467443
 30
0.0
 11
-650.1758092887
 21
-262.7529467443
 31
0.0
  0
CIRCLE
  5
498
  8
0
  6
CONTINUOUS
 62
     7
 10
-845.4258075005
 20
-193.7529463121
 30
0.0
 40
3.200000000000017
  0
CIRCLE
  5
499
  8
0
  6
CONTINUOUS
 62
     7
 10
-845.4258075005
 20
-218.7529463121
 30
0.0
 40
3.200000000000017
  0
CIRCLE
  5
49A
  8
0
  6
CONTINUOUS
 62
     7
 10
-875.4258075005
 20
-257.0529463121
 30
0.0
 40
2.25
  0
CIRCLE
  5
49B
  8
0
  6
CONTINUOUS
 62
     7
 10
-875.4258075005
 20
-226.4529463121
 30
0.0
 40
2.25
  0
ARC
  5
49C
  8
0
  6
CONTINUOUS
 62
     7
 10
-878.1758075005
 20
-259.5029463121
 30
0.0
 40
2.949999999999989
 50
180.0
 51
270.0
  0
LINE
  5
49D
  8
0
  6
CONTINUOUS
 62
     7
 10
-881.1258071906
 20
-223.5551553765
 30
0.0
 11
-881.1258071906
 21
-259.5029466772
 31
0.0
  0
ARC
  5
49E
  8
0
  6
CONTINUOUS
 62
     7
 10
-878.1758075005
 20
-223.5551551442
 30
0.0
 40
2.950000000000049
 50
137.16
 51
180.0
  0
LINE
  5
49F
  8
0
  6
CONTINUOUS
 62
     7
 10
-850.3386149055
 20
-189.1972593018
 30
0.0
 11
-880.3389141208
 21
-221.5492933044
 31
0.0
  0
ARC
  5
4A0
  8
0
  6
CONTINUOUS
 62
     7
 10
-845.4258075005
 20
-193.7529463121
 30
0.0
 40
6.700000000000045
 50
0.0
 51
137.16
  0
LINE
  5
4A1
  8
0
  6
CONTINUOUS
 62
     7
 10
-838.725804711
 20
-217.2839700231
 30
0.0
 11
-838.725804711
 21
-193.7529466101
 31
0.0
  0
ARC
  5
4A2
  8
0
  6
CONTINUOUS
 62
     7
 10
-845.4258075005
 20
-217.2839713804
 30
0.0
 40
6.700000000000092
 50
317.16
 51
0.0
  0
LINE
  5
4A3
  8
0
  6
CONTINUOUS
 62
     7
 10
-868.7788614875
 20
-252.3213052643
 30
0.0
 11
-840.5129978305
 21
-221.839659194
 31
0.0
  0
ARC
  5
4A4
  8
0
  6
CONTINUOUS
 62
     7
 10
-866.1758075005
 20
-254.7351396972
 30
0.0
 40
3.549999999999955
 50
137.16
 51
180.0
  0
LINE
  5
4A5
  8
0
  6
CONTINUOUS
 62
     7
 10
-869.7258079297
 20
-259.5029466772
 30
0.0
 11
-869.7258079297
 21
-254.7351394766
 31
0.0
  0
ARC
  5
4A6
  8
0
  6
CONTINUOUS
 62
     7
 10
-872.6758075005
 20
-259.5029463121
 30
0.0
 40
2.950000000000045
 50
270.0
 51
0.0
  0
LINE
  5
4A7
  8
0
  6
CONTINUOUS
 62
     7
 10
-878.1758094079
 20
-262.4529463225
 30
0.0
 11
-872.6758057124
 21
-262.4529463225
 31
0.0
  0
LINE
  5
4A8
  8
0
  6
CONTINUOUS
 62
     7
 10
-880.5588850624
 20
-221.3453075835
 30
0.0
 11
-850.5585932976
 21
-188.993273581
 31
0.0
  0
ARC
  5
4A9
  8
0
  6
CONTINUOUS
 62
     7
 10
-845.4258075005
 20
-193.7529463121
 30
0.0
 40
7.0
 50
0.0
 51
137.16
  0
LINE
  5
4AA
  8
0
  6
CONTINUOUS
 62
     7
 10
-838.4258070833
 20
-193.7529466101
 30
0.0
 11
-838.4258070833
 21
-217.2839700231
 31
0.0
  0
ARC
  5
4AB
  8
0
  6
CONTINUOUS
 62
     7
 10
-845.4258075005
 20
-217.2839713804
 30
0.0
 40
7.000000000000022
 50
317.16
 51
0.0
  0
LINE
  5
4AC
  8
0
  6
CONTINUOUS
 62
     7
 10
-840.2930194384
 20
-222.0436449149
 30
0.0
 11
-868.558890546
 21
-252.525291218
 31
0.0
  0
ARC
  5
4AD
  8
0
  6
CONTINUOUS
 62
     7
 10
-878.1758075005
 20
-223.5551551442
 30
0.0
 40
3.25
 50
137.16
 51
180.0
  0
LINE
  5
4AE
  8
0
  6
CONTINUOUS
 62
     7
 10
-881.4258048183
 20
-259.5029466772
 30
0.0
 11
-881.4258048183
 21
-223.5551553765
 31
0.0
  0
ARC
  5
4AF
  8
0
  6
CONTINUOUS
 62
     7
 10
-866.1758075005
 20
-254.7351396972
 30
0.0
 40
3.250000000000039
 50
137.16
 51
180.0
  0
ARC
  5
4B0
  8
0
  6
CONTINUOUS
 62
     7
 10
-872.6758075005
 20
-259.5029463121
 30
0.0
 40
3.25
 50
270.0
 51
0.0
  0
LINE
  5
4B1
  8
0
  6
CONTINUOUS
 62
     7
 10
-869.4258103019
 20
-254.7351394766
 30
0.0
 11
-869.4258103019
 21
-259.5029466772
 31
0.0
  0
ARC
  5
4B2
  8
0
  6
CONTINUOUS
 62
     7
 10
-878.1758075005
 20
-259.5029463121
 30
0.0
 40
3.25
 50
180.0
 51
270.0
  0
LINE
  5
4B3
  8
0
  6
CONTINUOUS
 62
     7
 10
-872.6758057124
 20
-262.7529467443
 30
0.0
 11
-878.1758094079
 21
-262.7529467443
 31
0.0
  0
POLYLINE
  5
4B4
  8
0
  6
CONTINUOUS
 62
     7
 66
     1
 10
0.0
 20
0.0
 30
0.0
  0
VERTEX
  5
6CE
  8
0
  6
CONTINUOUS
 62
     7
 10
-721.1776705331
 20
-97.5529498407
 30
0.0
  0
VERTEX
  5
6CF
  8
0
  6
CONTINUOUS
 62
     7
 10
-721.1763182527
 20
-95.7904404947
 30
0.0
  0
VERTEX
  5
6D0
  8
0
  6
CONTINUOUS
 62
     7
 10
-721.174910093
 20
-94.4176561186
 30
0.0
  0
SEQEND
  5
6D1
  8
0
  6
CONTINUOUS
 62
     7
  0
LINE
  5
4B5
  8
0
  6
CONTINUOUS
 62
     7
 10
-693.9758056647
 20
-94.2062980482
 30
0.0
 11
-693.9758056647
 21
-97.5529498407
 31
0.0
  0
LINE
  5
4B6
  8
0
  6
CONTINUOUS
 62
     7
 10
-693.9758056647
 20
-94.2062980482
 30
0.0
 11
-694.0579855687
 21
-94.3071193048
 31
0.0
  0
LINE
  5
4B7
  8
0
  6
CONTINUOUS
 62
     7
 10
-723.9758068568
 20
-97.5529498407
 30
0.0
 11
-723.9758068568
 21
-94.2062980482
 31
0.0
  0
LINE
  5
4B8
  8
0
  6
CONTINUOUS
 62
     7
 10
-723.8936120516
 20
-94.307134206
 30
0.0
 11
-723.9758068568
 21
-94.2062980482
 31
0.0
  0
ARC
  5
4B9
  8
0
  6
CONTINUOUS
 62
     7
 10
-719.3042465038
 20
-94.2164668604
 30
0.0
 40
1.881451402938459
 50
179.2197307538
 51
186.1385468911
  0
POLYLINE
  5
4BA
  8
0
  6
CONTINUOUS
 62
     7
 66
     1
 10
0.0
 20
0.0
 30
0.0
  0
VERTEX
  5
6D2
  8
0
  6
CONTINUOUS
 62
     7
 10
-694.238967622
 20
-93.9134604284
 30
0.0
  0
VERTEX
  5
6D3
  8
0
  6
CONTINUOUS
 62
     7
 10
-694.2770326382
 20
-93.9995593378
 30
0.0
  0
VERTEX
  5
6D4
  8
0
  6
CONTINUOUS
 62
     7
 10
-694.433189357
 20
-94.0944499323
 30
0.0
  0
VERTEX
  5
6D5
  8
0
  6
CONTINUOUS
 62
     7
 10
-694.7931567079
 20
-94.1848999807
 30
0.0
  0
VERTEX
  5
6D6
  8
0
  6
CONTINUOUS
 62
     7
 10
-695.2884340531
 20
-94.2341781208
 30
0.0
  0
VERTEX
  5
6D7
  8
0
  6
CONTINUOUS
 62
     7
 10
-695.9763461596
 20
-94.2401385853
 30
0.0
  0
VERTEX
  5
6D8
  8
0
  6
CONTINUOUS
 62
     7
 10
-696.7660928017
 20
-94.190845544
 30
0.0
  0
SEQEND
  5
6D9
  8
0
  6
CONTINUOUS
 62
     7
  0
POLYLINE
  5
4BB
  8
0
  6
CONTINUOUS
 62
     7
 66
     1
 10
0.0
 20
0.0
 30
0.0
  0
VERTEX
  5
6DA
  8
0
  6
CONTINUOUS
 62
     7
 10
-721.185523445
 20
-94.190845544
 30
0.0
  0
VERTEX
  5
6DB
  8
0
  6
CONTINUOUS
 62
     7
 10
-722.1777917689
 20
-94.243908579
 30
0.0
  0
VERTEX
  5
6DC
  8
0
  6
CONTINUOUS
 62
     7
 10
-722.959748829
 20
-94.2111558267
 30
0.0
  0
VERTEX
  5
6DD
  8
0
  6
CONTINUOUS
 62
     7
 10
-723.4185332305
 20
-94.1283947775
 30
0.0
  0
VERTEX
  5
6DE
  8
0
  6
CONTINUOUS
 62
     7
 10
-723.6574249214
 20
-94.0160996267
 30
0.0
  0
VERTEX
  5
6DF
  8
0
  6
CONTINUOUS
 62
     7
 10
-723.7126486248
 20
-93.9134604284
 30
0.0
  0
SEQEND
  5
6E0
  8
0
  6
CONTINUOUS
 62
     7
  0
ARC
  5
4BC
  8
0
  6
CONTINUOUS
 62
     7
 10
-723.6789813291
 20
-94.2083777597
 30
0.0
 40
0.2968328134053648
 50
96.5126020997
 51
179.5985630191
  0
ARC
  5
4BD
  8
0
  6
CONTINUOUS
 62
     7
 10
-694.2726375488
 20
-94.2083839002
 30
0.0
 40
0.2968392126947549
 50
0.40261359
 51
83.4870277607
  0
LINE
  5
4BE
  8
0
  6
CONTINUOUS
 62
     7
 10
-723.9758068568
 20
-94.2062980482
 30
0.0
 11
-723.9758068568
 21
-92.7590078661
 31
0.0
  0
LINE
  5
4BF
  8
0
  6
CONTINUOUS
 62
     7
 10
-693.9758056647
 20
-92.7590078661
 30
0.0
 11
-693.9758056647
 21
-94.2062980482
 31
0.0
  0
LINE
  5
4C0
  8
0
  6
CONTINUOUS
 62
     7
 10
-719.8689425236
 20
-91.6873759577
 30
0.0
 11
-698.0826699978
 21
-91.6873759577
 31
0.0
  0
LINE
  5
4C1
  8
0
  6
CONTINUOUS
 62
     7
 10
-698.0815747625
 20
-91.6875398704
 30
0.0
 11
-696.7338764912
 21
-91.6875398704
 31
0.0
  0
LINE
  5
4C2
  8
0
  6
CONTINUOUS
 62
     7
 10
-721.2177360303
 20
-91.6875398704
 30
0.0
 11
-719.8700340337
 21
-91.6875398704
 31
0.0
  0
LINE
  5
4C3
  8
0
  6
CONTINUOUS
 62
     7
 10
-723.9758068568
 20
-97.5529498407
 30
0.0
 11
-723.9758068568
 21
-97.5520855734
 31
0.0
  0
LINE
  5
4C4
  8
0
  6
CONTINUOUS
 62
     7
 10
-856.9758081681
 20
-100.5529410192
 30
0.0
 11
-856.9758081681
 21
-99.1034603664
 31
0.0
  0
ARC
  5
4C5
  8
0
  6
CONTINUOUS
 62
     7
 10
-856.4758072809
 20
-101.5529467378
 30
0.0
 40
2.5
 50
101.5369590328
 51
180.0000000001
  0
LINE
  5
4C6
  8
0
  6
CONTINUOUS
 62
     7
 10
-677.3084172851
 20
-117.7529490539
 30
0.0
 11
-670.1758051163
 21
-117.7529490539
 31
0.0
  0
LINE
  5
4C7
  8
0
  6
CONTINUOUS
 62
     7
 10
-680.1758104807
 20
-117.7529490539
 30
0.0
 11
-677.3084172851
 21
-117.7529490539
 31
0.0
  0
LINE
  5
4C8
  8
0
  6
CONTINUOUS
 62
     7
 10
-839.6758058912
 20
-114.1962504932
 30
0.0
 11
-839.9067589885
 21
-112.5529504368
 31
0.0
  0
ARC
  5
4C9
  8
0
  6
CONTINUOUS
 62
     7
 10
-843.6368798322
 20
-114.7529463123
 30
0.0
 40
4.000000000000114
 50
269.9999999999
 51
7.9999988096
  0
LINE
  5
4CA
  8
0
  6
CONTINUOUS
 62
     7
 10
-852.6758098847
 20
-116.7529470274
 30
0.0
 11
-852.6758098847
 21
-118.7529510805
 31
0.0
  0
LINE
  5
4CB
  8
0
  6
CONTINUOUS
 62
     7
 10
-843.6368772632
 20
-116.7529470274
 30
0.0
 11
-852.6758098847
 21
-116.7529470274
 31
0.0
  0
ARC
  5
4CC
  8
0
  6
CONTINUOUS
 62
     7
 10
-843.6368798322
 20
-114.7529463123
 30
0.0
 40
2.000000082123648
 50
269.9999999998
 51
7.9999988096
  0
LINE
  5
4CD
  8
0
  6
CONTINUOUS
 62
     7
 10
-841.9264176733
 20
-112.5529504368
 30
0.0
 11
-841.6563415772
 21
-114.4746041843
 31
0.0
  0
LINE
  5
4CE
  8
0
  6
CONTINUOUS
 62
     7
 10
-847.2183490044
 20
-116.5329462835
 30
0.0
 11
-850.1758048183
 21
-116.5329462835
 31
0.0
  0
LINE
  5
4CF
  8
0
  6
CONTINUOUS
 62
     7
 10
-845.1758095867
 20
-116.5329462835
 30
0.0
 11
-847.2183490044
 21
-116.5329462835
 31
0.0
  0
LINE
  5
4D0
  8
0
  6
CONTINUOUS
 62
     7
 10
-847.2915435082
 20
-116.1329395124
 30
0.0
 11
-845.5758089072
 21
-116.1329395124
 31
0.0
  0
LINE
  5
4D1
  8
0
  6
CONTINUOUS
 62
     7
 10
-849.7758054978
 20
-116.1329395124
 30
0.0
 11
-847.2915435082
 21
-116.1329395124
 31
0.0
  0
ENDSEC
  0
EOF
