  0
SECTION
  2
HEADER
  9
$ACADVER
  1
AC1009
  9
$DWGCODEPAGE
  3
ansi_1252
  9
$INSBASE
 10
0.0
 20
0.0
 30
0.0
  9
$EXTMIN
 10
0.0
 20
0.0
 30
0.0
  9
$EXTMAX
 10
420.0
 20
297.0
 30
0.0
  9
$LIMMIN
 10
0.0
 20
0.0
  9
$LIMMAX
 10
420.0
 20
297.0
  9
$ORTHOMODE
 70
     0
  9
$REGENMODE
 70
     1
  9
$FILLMODE
 70
     1
  9
$QTEXTMODE
 70
     0
  9
$MIRRTEXT
 70
     1
  9
$DRAGMODE
 70
     2
  9
$LTSCALE
 40
1.0
  9
$OSMODE
 70
    37
  9
$ATTMODE
 70
     1
  9
$TEXTSIZE
 40
4.8380952381
  9
$TRACEWID
 40
1.0
  9
$TEXTSTYLE
  7
STANDARD
  9
$CLAYER
  8
0
  9
$CELTYPE
  6
BYLAYER
  9
$CECOLOR
 62
   256
  9
$DIMSCALE
 40
1.0
  9
$DIMASZ
 40
3.5
  9
$DIMEXO
 40
1.0
  9
$DIMDLI
 40
3.75
  9
$DIMRND
 40
0.0
  9
$DIMDLE
 40
0.0
  9
$DIMEXE
 40
1.0
  9
$DIMTP
 40
0.0
  9
$DIMTM
 40
0.0
  9
$DIMTXT
 40
4.0317460317
  9
$DIMCEN
 40
2.5
  9
$DIMTSZ
 40
0.0
  9
$DIMTOL
 70
     0
  9
$DIMLIM
 70
     0
  9
$DIMTIH
 70
     1
  9
$DIMTOH
 70
     1
  9
$DIMSE1
 70
     0
  9
$DIMSE2
 70
     0
  9
$DIMTAD
 70
     1
  9
$DIMZIN
 70
     0
  9
$DIMBLK
  1

  9
$DIMASO
 70
     1
  9
$DIMSHO
 70
     1
  9
$DIMPOST
  1

  9
$DIMAPOST
  1

  9
$DIMALT
 70
     0
  9
$DIMALTD
 70
     3
  9
$DIMALTF
 40
0.0393700787
  9
$DIMLFAC
 40
1.0
  9
$DIMTOFL
 70
     1
  9
$DIMTVP
 40
0.0
  9
$DIMTIX
 70
     0
  9
$DIMSOXD
 70
     0
  9
$DIMSAH
 70
     0
  9
$DIMBLK1
  1

  9
$DIMBLK2
  1

  9
$DIMSTYLE
  2
ISO-25
  9
$DIMCLRD
 70
     0
  9
$DIMCLRE
 70
     0
  9
$DIMCLRT
 70
     0
  9
$DIMTFAC
 40
1.0
  9
$DIMGAP
 40
1.524
  9
$LUNITS
 70
     2
  9
$LUPREC
 70
     2
  9
$SKETCHINC
 40
1.0
  9
$FILLETRAD
 40
10.0
  9
$AUNITS
 70
     0
  9
$AUPREC
 70
     2
  9
$MENU
  1
.
  9
$ELEVATION
 40
0.0
  9
$PELEVATION
 40
0.0
  9
$THICKNESS
 40
0.0
  9
$LIMCHECK
 70
     0
  9
$CHAMFERA
 40
10.0
  9
$CHAMFERB
 40
10.0
  9
$SKPOLY
 70
     0
  9
$TDCREATE
 40
2455889.556607651
  9
$TDUPDATE
 40
2455889.556607662
  9
$TDINDWG
 40
0.0000000116
  9
$TDUSRTIMER
 40
0.0000000116
  9
$USRTIMER
 70
     1
  9
$ANGBASE
 50
0.0
  9
$ANGDIR
 70
     0
  9
$PDMODE
 70
     0
  9
$PDSIZE
 40
-1.0
  9
$PLINEWID
 40
0.0
  9
$COORDS
 70
     1
  9
$SPLFRAME
 70
     0
  9
$SPLINETYPE
 70
     6
  9
$SPLINESEGS
 70
     8
  9
$ATTDIA
 70
     0
  9
$ATTREQ
 70
     1
  9
$HANDLING
 70
     1
  9
$HANDSEED
  5
6DF
  9
$SURFTAB1
 70
     6
  9
$SURFTAB2
 70
     6
  9
$SURFTYPE
 70
     6
  9
$SURFU
 70
     6
  9
$SURFV
 70
     6
  9
$UCSNAME
  2

  9
$UCSORG
 10
0.0
 20
0.0
 30
0.0
  9
$UCSXDIR
 10
1.0
 20
0.0
 30
0.0
  9
$UCSYDIR
 10
0.0
 20
1.0
 30
0.0
  9
$PUCSNAME
  2

  9
$PUCSORG
 10
0.0
 20
0.0
 30
0.0
  9
$PUCSXDIR
 10
1.0
 20
0.0
 30
0.0
  9
$PUCSYDIR
 10
0.0
 20
1.0
 30
0.0
  9
$USERI1
 70
     0
  9
$USERI2
 70
     0
  9
$USERI3
 70
     0
  9
$USERI4
 70
     0
  9
$USERI5
 70
     0
  9
$USERR1
 40
0.0
  9
$USERR2
 40
0.0
  9
$USERR3
 40
0.0
  9
$USERR4
 40
0.0
  9
$USERR5
 40
0.0
  9
$WORLDVIEW
 70
     1
  9
$SHADEDGE
 70
     3
  9
$SHADEDIF
 70
    70
  9
$TILEMODE
 70
     1
  9
$MAXACTVP
 70
    64
  9
$PLIMCHECK
 70
     0
  9
$PEXTMIN
 10
1.0000000000E+20
 20
1.0000000000E+20
 30
1.0000000000E+20
  9
$PEXTMAX
 10
-1.0000000000E+20
 20
-1.0000000000E+20
 30
-1.0000000000E+20
  9
$PLIMMIN
 10
0.0
 20
0.0
  9
$PLIMMAX
 10
420.0
 20
297.0
  9
$UNITMODE
 70
     0
  9
$VISRETAIN
 70
     1
  9
$PLINEGEN
 70
     0
  9
$PSLTSCALE
 70
     1
  0
ENDSEC
  0
SECTION
  2
TABLES
  0
TABLE
  2
VPORT
 70
     1
  0
VPORT
  2
*ACTIVE
 70
     0
 10
0.0
 20
0.0
 11
1.0
 21
1.0
 12
210.0
 22
148.5
 13
0.0
 23
0.0
 14
10.0
 24
10.0
 15
10.0
 25
10.0
 16
0.0
 26
0.0
 36
1.0
 17
0.0
 27
0.0
 37
0.0
 40
297.0
 41
1.4141414141
 42
50.0
 43
0.0
 44
0.0
 50
0.0
 51
0.0
 71
     0
 72
  2000
 73
     1
 74
     3
 75
     0
 76
     0
 77
     0
 78
     0
  0
ENDTAB
  0
TABLE
  2
LTYPE
 70
     6
  0
LTYPE
  2
CONTINUOUS
 70
     0
  3
Solid line
 72
    65
 73
     0
 40
0.0
  0
LTYPE
  2
HIDDEN
 70
     0
  3
Hidden __ __ __ __ __ __ __ __ __ __ __ __ __ __
 72
    65
 73
     2
 40
1.905
 49
1.27
 49
-0.635
  0
LTYPE
  2
PHANTOM
 70
     0
  3
Phantom ______  __  __  ______  __  __  ______
 72
    65
 73
     6
 40
12.7
 49
6.35
 49
-1.27
 49
1.27
 49
-1.27
 49
1.27
 49
-1.27
  0
LTYPE
  2
CENTER
 70
     0
  3
Center ____ _ ____ _ ____ _ ____ _ ____ _ ____
 72
    65
 73
     4
 40
10.16
 49
6.35
 49
-1.27
 49
1.27
 49
-1.27
  0
LTYPE
  2
CENTERX2
 70
     0
  3
Center (2x) ________  __  ________  __  _____
 72
    65
 73
     4
 40
20.32
 49
12.7
 49
-2.54
 49
2.54
 49
-2.54
  0
LTYPE
  2
DOT2
 70
     0
  3
Dot (.5x) ........................................
 72
    65
 73
     2
 40
0.635
 49
0.0
 49
-0.635
  0
ENDTAB
  0
TABLE
  2
LAYER
 70
     8
  0
LAYER
  2
0
 70
     0
 62
     7
  6
CONTINUOUS
  0
LAYER
  2
SLD-0
 70
     0
 62
     7
  6
CONTINUOUS
  0
LAYER
  2
AM_BOR
 70
     0
 62
     7
  6
CONTINUOUS
  0
LAYER
  2
BIEGLINIE__ZU_
 70
     0
 62
     8
  6
CONTINUOUS
  0
LAYER
  2
BIEGELINIE__WEG_
 70
     0
 62
     8
  6
HIDDEN
  0
LAYER
  2
BIEGELINIE__ZU_
 70
     0
 62
     8
  6
CONTINUOUS
  0
LAYER
  2
LAYER0
 70
     0
 62
     7
  6
CONTINUOUS
  0
LAYER
  2
CK_LEVEL_1
 70
     0
 62
     7
  6
CONTINUOUS
  0
ENDTAB
  0
TABLE
  2
STYLE
 70
     1
  0
STYLE
  2
STANDARD
 70
     0
 40
0.0
 41
1.0
 50
0.0
 71
     0
 42
2.5
  3
txt
  4

  0
ENDTAB
  0
TABLE
  2
VIEW
 70
     0
  0
ENDTAB
  0
TABLE
  2
UCS
 70
     0
  0
ENDTAB
  0
TABLE
  2
APPID
 70
     1
  0
APPID
  2
ACAD
 70
     0
  0
ENDTAB
  0
TABLE
  2
DIMSTYLE
 70
     1
  0
DIMSTYLE
  2
ISO-25
 70
     0
  3

  4

  5

  6

  7

 40
1.0
 41
2.5
 42
0.625
 43
3.75
 44
1.25
 45
0.0
 46
0.0
 47
0.0
 48
0.0
140
2.5
141
2.5
142
0.0
143
0.0393700787
144
1.0
145
0.0
146
1.0
147
0.625
 71
     0
 72
     0
 73
     0
 74
     0
 75
     0
 76
     0
 77
     1
 78
     8
170
     0
171
     3
172
     1
173
     0
174
     0
175
     0
176
     0
177
     0
178
     0
  0
ENDTAB
  0
ENDSEC
  0
SECTION
  2
BLOCKS
  0
BLOCK
  8
0
  2
$MODEL_SPACE
 70
     0
 10
0.0
 20
0.0
 30
0.0
  3
$MODEL_SPACE
  1

  0
ENDBLK
  5
21
  8
0
  0
BLOCK
 67
     1
  8
0
  2
$PAPER_SPACE
 70
     0
 10
0.0
 20
0.0
 30
0.0
  3
$PAPER_SPACE
  1

  0
ENDBLK
  5
1D
 67
     1
  8
0
  0
BLOCK
  8
0
  2
ERDUNG1
 70
     0
 10
0.0
 20
0.0
 30
0.0
  3
ERDUNG1
  1

  0
CIRCLE
  5
4E
  8
CK_LEVEL_1
  6
CONTINUOUS
 62
     7
 10
8.75
 20
8.75
 30
0.0
 40
8.749999999999998
  0
LINE
  5
4F
  8
CK_LEVEL_1
  6
CONTINUOUS
 62
     7
 10
8.75
 20
3.75
 30
0.0
 11
9.918893
 21
3.75
 31
0.0
  0
LINE
  5
50
  8
CK_LEVEL_1
  6
CONTINUOUS
 62
     7
 10
8.75
 20
3.75
 30
0.0
 11
7.581107
 21
3.75
 31
0.0
  0
LINE
  5
51
  8
CK_LEVEL_1
  6
CONTINUOUS
 62
     7
 10
8.75
 20
6.25
 30
0.0
 11
11.019622
 21
6.25
 31
0.0
  0
LINE
  5
52
  8
CK_LEVEL_1
  6
CONTINUOUS
 62
     7
 10
8.75
 20
8.75
 30
0.0
 11
12.815547
 21
8.75
 31
0.0
  0
LINE
  5
53
  8
CK_LEVEL_1
  6
CONTINUOUS
 62
     7
 10
8.75
 20
6.25
 30
0.0
 11
6.480378
 21
6.25
 31
0.0
  0
LINE
  5
54
  8
CK_LEVEL_1
  6
CONTINUOUS
 62
     7
 10
8.75
 20
8.75
 30
0.0
 11
4.684453
 21
8.75
 31
0.0
  0
LINE
  5
55
  8
CK_LEVEL_1
  6
CONTINUOUS
 62
     7
 10
8.75
 20
8.75
 30
0.0
 11
8.75
 21
16.692861
 31
0.0
  0
ENDBLK
  5
4D
  8
0
  0
ENDSEC
  0
SECTION
  2
ENTITIES
  0
LINE
  5
56
  8
0
  6
CONTINUOUS
 62
     7
 10
-501.0753198133
 20
-3.3929210978
 30
0.0
 11
-501.0753198133
 21
-5.3929102498
 31
0.0
  0
LINE
  5
57
  8
0
  6
CONTINUOUS
 62
     7
 10
-487.0753212439
 20
-5.3929102498
 30
0.0
 11
-487.0753212439
 21
-3.3929210978
 31
0.0
  0
LINE
  5
58
  8
0
  6
CONTINUOUS
 62
     7
 10
-131.075315045
 20
-3.3929210978
 30
0.0
 11
-131.075315045
 21
-5.3929102498
 31
0.0
  0
LINE
  5
59
  8
0
  6
CONTINUOUS
 62
     7
 10
-117.0753164755
 20
-5.3929102498
 30
0.0
 11
-117.0753164755
 21
-3.3929210978
 31
0.0
  0
ARC
  5
5A
  8
0
  6
CONTINUOUS
 62
     7
 10
-506.5753181444
 20
-0.8929151374
 30
0.0
 40
2.000000000000033
 50
209.976611851
 51
240.0233881466
  0
ARC
  5
5B
  8
0
  6
CONTINUOUS
 62
     7
 10
-506.5753181444
 20
294.1070848626
 30
0.0
 40
2.000000000000076
 50
119.9766118531
 51
150.0233881479
  0
ARC
  5
5C
  8
0
  6
CONTINUOUS
 62
     7
 10
-111.5753181444
 20
294.1070848626
 30
0.0
 40
2.000000000000029
 50
29.976611851
 51
60.0233881465
  0
ARC
  5
5D
  8
0
  6
CONTINUOUS
 62
     7
 10
-111.5753181444
 20
-0.8929151374
 30
0.0
 40
2.000000000000004
 50
299.9766118532
 51
330.0233881479
  0
LINE
  5
5E
  8
0
  6
CONTINUOUS
 62
     7
 10
-100.0753118263
 20
-3.3929210978
 30
0.0
 11
-100.0753118263
 21
296.6070908231
 31
0.0
  0
LINE
  5
5F
  8
0
  6
CONTINUOUS
 62
     7
 10
-90.0753213631
 20
296.6070908231
 30
0.0
 11
-90.0753213631
 21
-3.3929210978
 31
0.0
  0
LINE
  5
60
  8
0
  6
CONTINUOUS
 62
     7
 10
-518.0753244625
 20
296.6070908231
 30
0.0
 11
-518.0753244625
 21
-3.3929210978
 31
0.0
  0
LINE
  5
61
  8
0
  6
CONTINUOUS
 62
     7
 10
-528.0753149258
 20
-3.3929210978
 30
0.0
 11
-528.0753149258
 21
296.6070908231
 31
0.0
  0
LINE
  5
62
  8
0
  6
CONTINUOUS
 62
     7
 10
-131.075315045
 20
-3.692911275
 30
0.0
 11
-132.0753170715
 21
-3.692911275
 31
0.0
  0
LINE
  5
63
  8
0
  6
CONTINUOUS
 62
     7
 10
-132.0753170715
 20
-3.692911275
 30
0.0
 11
-131.7753119932
 21
-3.3929210978
 31
0.0
  0
LINE
  5
64
  8
0
  6
CONTINUOUS
 62
     7
 10
-132.0753170715
 20
-7.0929092246
 30
0.0
 11
-119.9425234066
 21
-7.0929092246
 31
0.0
  0
LINE
  5
65
  8
0
  6
CONTINUOUS
 62
     7
 10
-120.1625092493
 20
-7.3929143029
 30
0.0
 11
-131.7753119932
 21
-7.3929143029
 31
0.0
  0
LINE
  5
66
  8
0
  6
CONTINUOUS
 62
     7
 10
-132.0753170715
 20
-7.0929092246
 30
0.0
 11
-131.7753119932
 21
-7.3929143029
 31
0.0
  0
LINE
  5
67
  8
0
  6
CONTINUOUS
 62
     7
 10
-132.0753170715
 20
-7.0929092246
 30
0.0
 11
-132.0753170715
 21
-3.692911275
 31
0.0
  0
LINE
  5
68
  8
0
  6
CONTINUOUS
 62
     7
 10
-89.9422390924
 20
-3.692911275
 30
0.0
 11
-117.0753164755
 21
-3.692911275
 31
0.0
  0
LINE
  5
69
  8
0
  6
CONTINUOUS
 62
     7
 10
-110.5760260092
 20
-3.3929210978
 30
0.0
 11
-90.162210034
 21
-3.3929210978
 31
0.0
  0
LINE
  5
6A
  8
0
  6
CONTINUOUS
 62
     7
 10
-119.9425234066
 20
-7.0929092246
 30
0.0
 11
-89.9422390924
 21
-7.0929092246
 31
0.0
  0
LINE
  5
6B
  8
0
  6
CONTINUOUS
 62
     7
 10
-90.162210034
 20
-7.3929143029
 30
0.0
 11
-120.1625092493
 21
-7.3929143029
 31
0.0
  0
LINE
  5
6C
  8
0
  6
CONTINUOUS
 62
     7
 10
-89.3753244148
 20
-3.3929210978
 30
0.0
 11
-89.0753193365
 21
-3.692911275
 31
0.0
  0
LINE
  5
6D
  8
0
  6
CONTINUOUS
 62
     7
 10
-89.0753193365
 20
-3.692911275
 30
0.0
 11
-89.9422390924
 21
-3.692911275
 31
0.0
  0
LINE
  5
6E
  8
0
  6
CONTINUOUS
 62
     7
 10
-90.162210034
 20
-3.3929210978
 30
0.0
 11
-89.3753244148
 21
-3.3929210978
 31
0.0
  0
LINE
  5
6F
  8
0
  6
CONTINUOUS
 62
     7
 10
-89.9422390924
 20
-7.0929092246
 30
0.0
 11
-89.0753193365
 21
-7.0929092246
 31
0.0
  0
LINE
  5
70
  8
0
  6
CONTINUOUS
 62
     7
 10
-89.0753193365
 20
-7.0929092246
 30
0.0
 11
-89.3753244148
 21
-7.3929143029
 31
0.0
  0
LINE
  5
71
  8
0
  6
CONTINUOUS
 62
     7
 10
-89.3753244148
 20
-7.3929143029
 30
0.0
 11
-90.162210034
 21
-7.3929143029
 31
0.0
  0
LINE
  5
72
  8
0
  6
CONTINUOUS
 62
     7
 10
-89.0753193365
 20
-3.692911275
 30
0.0
 11
-89.0753193365
 21
-7.0929092246
 31
0.0
  0
LINE
  5
73
  8
0
  6
CONTINUOUS
 62
     7
 10
-131.7753119932
 20
300.6070840282
 30
0.0
 11
-120.1625092493
 21
300.6070840282
 31
0.0
  0
LINE
  5
74
  8
0
  6
CONTINUOUS
 62
     7
 10
-119.9425234066
 20
300.3070789498
 30
0.0
 11
-132.0753170715
 21
300.3070789498
 31
0.0
  0
LINE
  5
75
  8
0
  6
CONTINUOUS
 62
     7
 10
-132.0753170715
 20
300.3070789498
 30
0.0
 11
-131.7753119932
 21
300.6070840282
 31
0.0
  0
LINE
  5
76
  8
0
  6
CONTINUOUS
 62
     7
 10
-132.0753170715
 20
296.9070810002
 30
0.0
 11
-119.9425234066
 21
296.9070810002
 31
0.0
  0
LINE
  5
77
  8
0
  6
CONTINUOUS
 62
     7
 10
-132.0753170715
 20
296.9070810002
 30
0.0
 11
-132.0753170715
 21
300.3070789498
 31
0.0
  0
LINE
  5
78
  8
0
  6
CONTINUOUS
 62
     7
 10
-132.0753170715
 20
296.9070810002
 30
0.0
 11
-131.7753119932
 21
296.6070908231
 31
0.0
  0
LINE
  5
79
  8
0
  6
CONTINUOUS
 62
     7
 10
-89.9422390924
 20
300.3070789498
 30
0.0
 11
-119.9425234066
 21
300.3070789498
 31
0.0
  0
LINE
  5
7A
  8
0
  6
CONTINUOUS
 62
     7
 10
-120.1625092493
 20
300.6070840282
 30
0.0
 11
-90.162210034
 21
300.6070840282
 31
0.0
  0
LINE
  5
7B
  8
0
  6
CONTINUOUS
 62
     7
 10
-119.9425234066
 20
296.9070810002
 30
0.0
 11
-89.9422390924
 21
296.9070810002
 31
0.0
  0
LINE
  5
7C
  8
0
  6
CONTINUOUS
 62
     7
 10
-90.162210034
 20
296.6070908231
 30
0.0
 11
-110.5760260092
 21
296.6070908231
 31
0.0
  0
LINE
  5
7D
  8
0
  6
CONTINUOUS
 62
     7
 10
-89.9422390924
 20
296.9070810002
 30
0.0
 11
-89.0753193365
 21
296.9070810002
 31
0.0
  0
LINE
  5
7E
  8
0
  6
CONTINUOUS
 62
     7
 10
-89.0753193365
 20
300.3070789498
 30
0.0
 11
-89.9422390924
 21
300.3070789498
 31
0.0
  0
LINE
  5
7F
  8
0
  6
CONTINUOUS
 62
     7
 10
-89.0753193365
 20
300.3070789498
 30
0.0
 11
-89.0753193365
 21
296.9070810002
 31
0.0
  0
LINE
  5
80
  8
0
  6
CONTINUOUS
 62
     7
 10
-89.0753193365
 20
296.9070810002
 30
0.0
 11
-89.3753244148
 21
296.6070908231
 31
0.0
  0
LINE
  5
81
  8
0
  6
CONTINUOUS
 62
     7
 10
-89.3753244148
 20
296.6070908231
 30
0.0
 11
-90.162210034
 21
296.6070908231
 31
0.0
  0
LINE
  5
82
  8
0
  6
CONTINUOUS
 62
     7
 10
-89.3753244148
 20
300.6070840282
 30
0.0
 11
-89.0753193365
 21
300.3070789498
 31
0.0
  0
LINE
  5
83
  8
0
  6
CONTINUOUS
 62
     7
 10
-90.162210034
 20
300.6070840282
 30
0.0
 11
-89.3753244148
 21
300.6070840282
 31
0.0
  0
LINE
  5
84
  8
0
  6
CONTINUOUS
 62
     7
 10
-486.3753242956
 20
-7.3929143029
 30
0.0
 11
-497.9881270395
 21
-7.3929143029
 31
0.0
  0
LINE
  5
85
  8
0
  6
CONTINUOUS
 62
     7
 10
-498.2081128822
 20
-7.0929092246
 30
0.0
 11
-486.0753192173
 21
-7.0929092246
 31
0.0
  0
LINE
  5
86
  8
0
  6
CONTINUOUS
 62
     7
 10
-486.0753192173
 20
-7.0929092246
 30
0.0
 11
-486.3753242956
 21
-7.3929143029
 31
0.0
  0
LINE
  5
87
  8
0
  6
CONTINUOUS
 62
     7
 10
-486.0753192173
 20
-3.692911275
 30
0.0
 11
-487.0753212439
 21
-3.692911275
 31
0.0
  0
LINE
  5
88
  8
0
  6
CONTINUOUS
 62
     7
 10
-486.0753192173
 20
-3.692911275
 30
0.0
 11
-486.3753242956
 21
-3.3929210978
 31
0.0
  0
LINE
  5
89
  8
0
  6
CONTINUOUS
 62
     7
 10
-486.0753192173
 20
-3.692911275
 30
0.0
 11
-486.0753192173
 21
-7.0929092246
 31
0.0
  0
LINE
  5
8A
  8
0
  6
CONTINUOUS
 62
     7
 10
-501.0753198133
 20
-3.692911275
 30
0.0
 11
-528.2083971964
 21
-3.692911275
 31
0.0
  0
LINE
  5
8B
  8
0
  6
CONTINUOUS
 62
     7
 10
-528.2083971964
 20
-7.0929092246
 30
0.0
 11
-498.2081128822
 21
-7.0929092246
 31
0.0
  0
LINE
  5
8C
  8
0
  6
CONTINUOUS
 62
     7
 10
-527.9884262548
 20
-3.3929210978
 30
0.0
 11
-507.5746102797
 21
-3.3929210978
 31
0.0
  0
LINE
  5
8D
  8
0
  6
CONTINUOUS
 62
     7
 10
-497.9881270395
 20
-7.3929143029
 30
0.0
 11
-527.9884262548
 21
-7.3929143029
 31
0.0
  0
LINE
  5
8E
  8
0
  6
CONTINUOUS
 62
     7
 10
-528.2083971964
 20
-3.692911275
 30
0.0
 11
-529.0753169523
 21
-3.692911275
 31
0.0
  0
LINE
  5
8F
  8
0
  6
CONTINUOUS
 62
     7
 10
-529.0753169523
 20
-7.0929092246
 30
0.0
 11
-528.2083971964
 21
-7.0929092246
 31
0.0
  0
LINE
  5
90
  8
0
  6
CONTINUOUS
 62
     7
 10
-529.0753169523
 20
-7.0929092246
 30
0.0
 11
-529.0753169523
 21
-3.692911275
 31
0.0
  0
LINE
  5
91
  8
0
  6
CONTINUOUS
 62
     7
 10
-529.0753169523
 20
-3.692911275
 30
0.0
 11
-528.775311874
 21
-3.3929210978
 31
0.0
  0
LINE
  5
92
  8
0
  6
CONTINUOUS
 62
     7
 10
-528.775311874
 20
-3.3929210978
 30
0.0
 11
-527.9884262548
 21
-3.3929210978
 31
0.0
  0
LINE
  5
93
  8
0
  6
CONTINUOUS
 62
     7
 10
-528.775311874
 20
-7.3929143029
 30
0.0
 11
-529.0753169523
 21
-7.0929092246
 31
0.0
  0
LINE
  5
94
  8
0
  6
CONTINUOUS
 62
     7
 10
-527.9884262548
 20
-7.3929143029
 30
0.0
 11
-528.775311874
 21
-7.3929143029
 31
0.0
  0
LINE
  5
95
  8
0
  6
CONTINUOUS
 62
     7
 10
-486.0753192173
 20
300.3070789498
 30
0.0
 11
-498.2081128822
 21
300.3070789498
 31
0.0
  0
LINE
  5
96
  8
0
  6
CONTINUOUS
 62
     7
 10
-497.9881270395
 20
300.6070840282
 30
0.0
 11
-486.3753242956
 21
300.6070840282
 31
0.0
  0
LINE
  5
97
  8
0
  6
CONTINUOUS
 62
     7
 10
-486.0753192173
 20
300.3070789498
 30
0.0
 11
-486.3753242956
 21
300.6070840282
 31
0.0
  0
LINE
  5
98
  8
0
  6
CONTINUOUS
 62
     7
 10
-486.0753192173
 20
300.3070789498
 30
0.0
 11
-486.0753192173
 21
296.9070810002
 31
0.0
  0
LINE
  5
99
  8
0
  6
CONTINUOUS
 62
     7
 10
-498.2081128822
 20
296.9070810002
 30
0.0
 11
-486.0753192173
 21
296.9070810002
 31
0.0
  0
LINE
  5
9A
  8
0
  6
CONTINUOUS
 62
     7
 10
-486.0753192173
 20
296.9070810002
 30
0.0
 11
-486.3753242956
 21
296.6070908231
 31
0.0
  0
LINE
  5
9B
  8
0
  6
CONTINUOUS
 62
     7
 10
-498.2081128822
 20
300.3070789498
 30
0.0
 11
-528.2083971964
 21
300.3070789498
 31
0.0
  0
LINE
  5
9C
  8
0
  6
CONTINUOUS
 62
     7
 10
-527.9884262548
 20
300.6070840282
 30
0.0
 11
-497.9881270395
 21
300.6070840282
 31
0.0
  0
LINE
  5
9D
  8
0
  6
CONTINUOUS
 62
     7
 10
-528.2083971964
 20
296.9070810002
 30
0.0
 11
-498.2081128822
 21
296.9070810002
 31
0.0
  0
LINE
  5
9E
  8
0
  6
CONTINUOUS
 62
     7
 10
-507.5746102797
 20
296.6070908231
 30
0.0
 11
-527.9884262548
 21
296.6070908231
 31
0.0
  0
LINE
  5
9F
  8
0
  6
CONTINUOUS
 62
     7
 10
-528.2083971964
 20
300.3070789498
 30
0.0
 11
-529.0753169523
 21
300.3070789498
 31
0.0
  0
LINE
  5
A0
  8
0
  6
CONTINUOUS
 62
     7
 10
-529.0753169523
 20
300.3070789498
 30
0.0
 11
-528.775311874
 21
300.6070840282
 31
0.0
  0
LINE
  5
A1
  8
0
  6
CONTINUOUS
 62
     7
 10
-528.775311874
 20
300.6070840282
 30
0.0
 11
-527.9884262548
 21
300.6070840282
 31
0.0
  0
LINE
  5
A2
  8
0
  6
CONTINUOUS
 62
     7
 10
-528.775311874
 20
296.6070908231
 30
0.0
 11
-529.0753169523
 21
296.9070810002
 31
0.0
  0
LINE
  5
A3
  8
0
  6
CONTINUOUS
 62
     7
 10
-529.0753169523
 20
296.9070810002
 30
0.0
 11
-528.2083971964
 21
296.9070810002
 31
0.0
  0
LINE
  5
A4
  8
0
  6
CONTINUOUS
 62
     7
 10
-527.9884262548
 20
296.6070908231
 30
0.0
 11
-528.775311874
 21
296.6070908231
 31
0.0
  0
LINE
  5
A5
  8
0
  6
CONTINUOUS
 62
     7
 10
-529.0753169523
 20
296.9070810002
 30
0.0
 11
-529.0753169523
 21
300.3070789498
 31
0.0
  0
ARC
  5
A6
  8
0
  6
CONTINUOUS
 62
     7
 10
-461.525318364
 20
146.6070848626
 30
0.0
 40
8.000000000000023
 50
190.8069228749
 51
349.1930771251
  0
LINE
  5
A7
  8
0
  6
CONTINUOUS
 62
     7
 10
-466.2950112091
 20
145.1070848496
 30
0.0
 11
-469.3834407793
 21
145.1070848496
 31
0.0
  0
LINE
  5
A8
  8
0
  6
CONTINUOUS
 62
     7
 10
-456.7556156383
 20
145.1070848496
 30
0.0
 11
-453.6672009693
 21
145.1070848496
 31
0.0
  0
ARC
  5
A9
  8
0
  6
CONTINUOUS
 62
     7
 10
-461.525318364
 20
146.6070848626
 30
0.0
 40
4.999999999999954
 50
197.4576031237
 51
342.5423968763
  0
LINE
  5
AA
  8
0
  6
CONTINUOUS
 62
     7
 10
-456.7556156383
 20
148.1070848757
 30
0.0
 11
-453.6672009693
 21
148.1070848757
 31
0.0
  0
LINE
  5
AB
  8
0
  6
CONTINUOUS
 62
     7
 10
-466.2950112091
 20
148.1070848757
 30
0.0
 11
-469.3834407793
 21
148.1070848757
 31
0.0
  0
ARC
  5
AC
  8
0
  6
CONTINUOUS
 62
     7
 10
-461.525318364
 20
146.6070848626
 30
0.0
 40
5.000000000000189
 50
17.4576031237
 51
162.5423968763
  0
ARC
  5
AD
  8
0
  6
CONTINUOUS
 62
     7
 10
-461.525318364
 20
146.6070848626
 30
0.0
 40
8.00000000000054
 50
10.8069228749
 51
169.1930771251
  0
CIRCLE
  5
AE
  8
0
  6
CONTINUOUS
 62
     7
 10
-461.525318364
 20
146.6070848626
 30
0.0
 40
2.5
  0
ARC
  5
AF
  8
0
  6
CONTINUOUS
 62
     7
 10
-461.525318364
 20
146.6070848626
 30
0.0
 40
8.00000000000063
 50
169.1930771251
 51
190.8069228749
  0
ARC
  5
B0
  8
0
  6
CONTINUOUS
 62
     7
 10
-461.525318364
 20
146.6070848626
 30
0.0
 40
8.000000000000016
 50
349.1930771251
 51
10.8069228749
  0
ARC
  5
B1
  8
0
  6
CONTINUOUS
 62
     7
 10
-461.525318364
 20
146.6070848626
 30
0.0
 40
12.24192993465001
 50
152.862078374
 51
207.1379513768
  0
ARC
  5
B2
  8
0
  6
CONTINUOUS
 62
     7
 10
-461.525318364
 20
146.6070848626
 30
0.0
 40
12.24192993625008
 50
332.8620780628
 51
27.137951024
  0
CIRCLE
  5
B3
  8
0
  6
CONTINUOUS
 62
     7
 10
-461.525318364
 20
146.6070848626
 30
0.0
 40
8.049999999999983
  0
ARC
  5
B4
  8
0
  6
CONTINUOUS
 62
     7
 10
-473.4928154113
 20
130.5485342567
 30
0.0
 40
2.770611808898291
 50
178.2666917091
 51
264.9843965998
  0
ARC
  5
B5
  8
0
  6
CONTINUOUS
 62
     7
 10
-473.5035508557
 20
162.6751754045
 30
0.0
 40
2.760187446183599
 50
94.8109237634
 51
181.9379879278
  0
ARC
  5
B6
  8
0
  6
CONTINUOUS
 62
     7
 10
-449.5578046975
 20
162.6656546986
 30
0.0
 40
2.770590760702212
 50
358.266280679
 51
84.9848076299
  0
ARC
  5
B7
  8
0
  6
CONTINUOUS
 62
     7
 10
-449.5470835741
 20
130.5389878169
 30
0.0
 40
2.760180351497926
 50
274.8107836972
 51
1.9381279939
  0
ARC
  5
B8
  8
0
  6
CONTINUOUS
 62
     7
 10
-461.5176956042
 20
146.6070876566
 30
0.0
 40
12.49319792881104
 50
332.8461209565
 51
27.1538790435
  0
ARC
  5
B9
  8
0
  6
CONTINUOUS
 62
     7
 10
-461.5327825154
 20
146.6070818358
 30
0.0
 40
12.49334362984937
 50
152.8464624845
 51
207.1535375155
  0
ARC
  5
BA
  8
0
  6
CONTINUOUS
 62
     7
 10
-461.525318364
 20
146.6070848626
 30
0.0
 40
12.50000000000004
 50
27.1379395953
 51
152.8620934681
  0
ARC
  5
BB
  8
0
  6
CONTINUOUS
 62
     7
 10
-461.525318364
 20
146.6070848626
 30
0.0
 40
12.50000000000002
 50
207.1379399383
 51
332.8620895856
  0
ARC
  5
BC
  8
0
  6
CONTINUOUS
 62
     7
 10
-476.3195653784
 20
162.1914268487
 30
0.0
 40
0.3946029923200147
 50
81.6350676262
 51
121.4266570838
  0
ARC
  5
BD
  8
0
  6
CONTINUOUS
 62
     7
 10
-476.3195671107
 20
131.022746068
 30
0.0
 40
0.394606401878451
 50
238.5739401733
 51
278.3651138032
  0
LINE
  5
BE
  8
0
  6
CONTINUOUS
 62
     7
 10
-476.5253140198
 20
130.6860230041
 30
0.0
 11
-476.5253140198
 21
162.5281448585
 31
0.0
  0
ARC
  5
BF
  8
0
  6
CONTINUOUS
 62
     7
 10
-446.7310766783
 20
131.0228014955
 30
0.0
 40
0.394660943002078
 50
261.6363499106
 51
301.4241039709
  0
ARC
  5
C0
  8
0
  6
CONTINUOUS
 62
     7
 10
-446.7310749455
 20
162.1913650391
 30
0.0
 40
0.3946643517257086
 50
58.5764931708
 51
98.3638315935
  0
LINE
  5
C1
  8
0
  6
CONTINUOUS
 62
     7
 10
-446.5253128277
 20
162.5281467212
 30
0.0
 11
-446.5253128277
 21
130.6860248667
 31
0.0
  0
ARC
  5
C2
  8
0
  6
CONTINUOUS
 62
     7
 10
-473.5142278318
 20
163.1894258898
 30
0.0
 40
3.011119732099905
 50
94.0556221855
 51
180.2704470245
  0
ARC
  5
C3
  8
0
  6
CONTINUOUS
 62
     7
 10
-473.4903089127
 20
162.6270888742
 30
0.0
 40
3.036617512689687
 50
94.4196375863
 51
181.8672348759
  0
LINE
  5
C4
  8
0
  6
CONTINUOUS
 62
     7
 10
-476.5253140198
 20
162.5281448585
 30
0.0
 11
-476.5253140198
 21
163.1752128822
 31
0.0
  0
ARC
  5
C5
  8
0
  6
CONTINUOUS
 62
     7
 10
-449.5364139168
 20
130.0247438355
 30
0.0
 40
3.011119732099905
 50
274.0556221855
 51
0.2704470245
  0
ARC
  5
C6
  8
0
  6
CONTINUOUS
 62
     7
 10
-449.5603436796
 20
130.5871039153
 30
0.0
 40
3.036642492438798
 50
274.4200883637
 51
1.8667840985
  0
LINE
  5
C7
  8
0
  6
CONTINUOUS
 62
     7
 10
-446.5253128277
 20
130.6860248667
 30
0.0
 11
-446.5253128277
 21
130.038956843
 31
0.0
  0
POLYLINE
  5
C8
  8
0
  6
CONTINUOUS
 62
     7
 66
     1
 10
0.0
 20
0.0
 30
0.0
  0
VERTEX
  5
4D0
  8
0
  6
CONTINUOUS
 62
     7
 10
-449.3234528767
 20
166.1930370254
 30
0.0
  0
VERTEX
  5
4D1
  8
0
  6
CONTINUOUS
 62
     7
 10
-449.3248088823
 20
165.9288170857
 30
0.0
  0
VERTEX
  5
4D2
  8
0
  6
CONTINUOUS
 62
     7
 10
-449.3262095915
 20
165.6546673847
 30
0.0
  0
SEQEND
  5
4D3
  8
0
  6
CONTINUOUS
 62
     7
  0
ARC
  5
C9
  8
0
  6
CONTINUOUS
 62
     7
 10
-449.5414610987
 20
163.1847628503
 30
0.0
 40
3.016163307418096
 50
359.819081523
 51
85.8550477302
  0
ARC
  5
CA
  8
0
  6
CONTINUOUS
 62
     7
 10
-449.5603431743
 20
162.6270705237
 30
0.0
 40
3.036642080228409
 50
358.1331618246
 51
85.577946625
  0
LINE
  5
CB
  8
0
  6
CONTINUOUS
 62
     7
 10
-446.5253128277
 20
163.1752389592
 30
0.0
 11
-446.5253128277
 21
162.5281467212
 31
0.0
  0
POLYLINE
  5
CC
  8
0
  6
CONTINUOUS
 62
     7
 66
     1
 10
0.0
 20
0.0
 30
0.0
  0
VERTEX
  5
4D4
  8
0
  6
CONTINUOUS
 62
     7
 10
-473.727188872
 20
127.0211326999
 30
0.0
  0
VERTEX
  5
4D5
  8
0
  6
CONTINUOUS
 62
     7
 10
-473.7258328663
 20
127.2853526396
 30
0.0
  0
VERTEX
  5
4D6
  8
0
  6
CONTINUOUS
 62
     7
 10
-473.724417256
 20
127.5595023406
 30
0.0
  0
SEQEND
  5
4D7
  8
0
  6
CONTINUOUS
 62
     7
  0
ARC
  5
CD
  8
0
  6
CONTINUOUS
 62
     7
 10
-473.5092208755
 20
130.0293546845
 30
0.0
 40
3.01610834621529
 50
179.818086781
 51
265.8557382189
  0
ARC
  5
CE
  8
0
  6
CONTINUOUS
 62
     7
 10
-473.490301761
 20
130.5870829977
 30
0.0
 40
3.036624529965097
 50
178.1328451292
 51
265.5782633204
  0
LINE
  5
CF
  8
0
  6
CONTINUOUS
 62
     7
 10
-476.5253140198
 20
130.038930766
 30
0.0
 11
-476.5253140198
 21
130.6860230041
 31
0.0
  0
ARC
  5
D0
  8
0
  6
CONTINUOUS
 62
     7
 10
-472.7620158493
 20
127.7189111278
 30
0.0
 40
0.9755134244803481
 50
175.9074500001
 51
189.4046670437
  0
ARC
  5
D1
  8
0
  6
CONTINUOUS
 62
     7
 10
-450.2881166198
 20
165.4953448075
 30
0.0
 40
0.975011603917731
 50
355.9002610031
 51
9.4044163129
  0
ARC
  5
D2
  8
0
  6
CONTINUOUS
 62
     7
 10
-461.525318364
 20
-13.3929151374
 30
0.0
 40
179.9999999999998
 50
86.1130450723
 51
93.8869556952
  0
ARC
  5
D3
  8
0
  6
CONTINUOUS
 62
     7
 10
-461.525318364
 20
306.6070848626
 30
0.0
 40
180.0000000011289
 50
266.1130449516
 51
273.8869556953
  0
POLYLINE
  5
D4
  8
0
  6
CONTINUOUS
 62
     7
 66
     1
 10
0.0
 20
0.0
 30
0.0
  0
VERTEX
  5
4D8
  8
0
  6
CONTINUOUS
 62
     7
 10
-507.0253236757
 20
1.6070890349
 30
0.0
  0
VERTEX
  5
4D9
  8
0
  6
CONTINUOUS
 62
     7
 10
-506.977923082
 20
1.821650855
 30
0.0
  0
VERTEX
  5
4DA
  8
0
  6
CONTINUOUS
 62
     7
 10
-506.8208350407
 20
1.9787388963
 30
0.0
  0
VERTEX
  5
4DB
  8
0
  6
CONTINUOUS
 62
     7
 10
-506.5416170822
 20
2.0749258918
 30
0.0
  0
VERTEX
  5
4DC
  8
0
  6
CONTINUOUS
 62
     7
 10
-506.1466320024
 20
2.1070825976
 30
0.0
  0
VERTEX
  5
4DD
  8
0
  6
CONTINUOUS
 62
     7
 10
-505.658127235
 20
2.0751047057
 30
0.0
  0
VERTEX
  5
4DE
  8
0
  6
CONTINUOUS
 62
     7
 10
-505.1153673397
 20
1.9791263265
 30
0.0
  0
VERTEX
  5
4DF
  8
0
  6
CONTINUOUS
 62
     7
 10
-504.5560820566
 20
1.8215018434
 30
0.0
  0
VERTEX
  5
4E0
  8
0
  6
CONTINUOUS
 62
     7
 10
-504.0253175961
 20
1.6070890349
 30
0.0
  0
SEQEND
  5
4E1
  8
0
  6
CONTINUOUS
 62
     7
  0
LINE
  5
D5
  8
0
  6
CONTINUOUS
 62
     7
 10
-507.0253236757
 20
291.6070806903
 30
0.0
 11
-507.0253236757
 21
1.6070890349
 31
0.0
  0
POLYLINE
  5
D6
  8
0
  6
CONTINUOUS
 62
     7
 66
     1
 10
0.0
 20
0.0
 30
0.0
  0
VERTEX
  5
4E2
  8
0
  6
CONTINUOUS
 62
     7
 10
-507.0253236757
 20
291.6070806903
 30
0.0
  0
VERTEX
  5
4E3
  8
0
  6
CONTINUOUS
 62
     7
 10
-506.977923082
 20
291.3925188703
 30
0.0
  0
VERTEX
  5
4E4
  8
0
  6
CONTINUOUS
 62
     7
 10
-506.8208350407
 20
291.235430829
 30
0.0
  0
VERTEX
  5
4E5
  8
0
  6
CONTINUOUS
 62
     7
 10
-506.5416170822
 20
291.1392438335
 30
0.0
  0
VERTEX
  5
4E6
  8
0
  6
CONTINUOUS
 62
     7
 10
-506.1466320024
 20
291.1070871276
 30
0.0
  0
VERTEX
  5
4E7
  8
0
  6
CONTINUOUS
 62
     7
 10
-505.658127235
 20
291.1390650195
 30
0.0
  0
VERTEX
  5
4E8
  8
0
  6
CONTINUOUS
 62
     7
 10
-505.1153673397
 20
291.2350433988
 30
0.0
  0
VERTEX
  5
4E9
  8
0
  6
CONTINUOUS
 62
     7
 10
-504.5560820566
 20
291.3926678819
 30
0.0
  0
VERTEX
  5
4EA
  8
0
  6
CONTINUOUS
 62
     7
 10
-504.0253175961
 20
291.6070806903
 30
0.0
  0
SEQEND
  5
4EB
  8
0
  6
CONTINUOUS
 62
     7
  0
ARC
  5
D7
  8
0
  6
CONTINUOUS
 62
     7
 10
-505.525318364
 20
-0.3929151374
 30
0.0
 40
2.500000000000067
 50
36.8698976458
 51
53.1301023542
  0
ARC
  5
D8
  8
0
  6
CONTINUOUS
 62
     7
 10
-505.525318364
 20
293.6070848626
 30
0.0
 40
2.5
 50
306.8698976458
 51
323.1301023542
  0
ARC
  5
D9
  8
0
  6
CONTINUOUS
 62
     7
 10
-111.525318364
 20
293.6070848626
 30
0.0
 40
2.500000000000023
 50
216.8698976458
 51
233.1301023542
  0
ARC
  5
DA
  8
0
  6
CONTINUOUS
 62
     7
 10
-111.525318364
 20
-0.3929151374
 30
0.0
 40
2.500000000000046
 50
126.8698976458
 51
143.1301023542
  0
POLYLINE
  5
DB
  8
0
  6
CONTINUOUS
 62
     7
 66
     1
 10
0.0
 20
0.0
 30
0.0
  0
VERTEX
  5
4EC
  8
0
  6
CONTINUOUS
 62
     7
 10
-113.5253234373
 20
1.1070805711
 30
0.0
  0
VERTEX
  5
4ED
  8
0
  6
CONTINUOUS
 62
     7
 10
-113.7398852573
 20
0.575898878
 30
0.0
  0
VERTEX
  5
4EE
  8
0
  6
CONTINUOUS
 62
     7
 10
-113.8969732986
 20
0.0184762401
 30
0.0
  0
VERTEX
  5
4EF
  8
0
  6
CONTINUOUS
 62
     7
 10
-113.9931602941
 20
-0.5263996201
 30
0.0
  0
VERTEX
  5
4F0
  8
0
  6
CONTINUOUS
 62
     7
 10
-114.025317
 20
-1.0142487365
 30
0.0
  0
VERTEX
  5
4F1
  8
0
  6
CONTINUOUS
 62
     7
 10
-113.9933242069
 20
-1.4096361476
 30
0.0
  0
VERTEX
  5
4F2
  8
0
  6
CONTINUOUS
 62
     7
 10
-113.8973607288
 20
-1.6878706294
 30
0.0
  0
VERTEX
  5
4F3
  8
0
  6
CONTINUOUS
 62
     7
 10
-113.7397362457
 20
-1.8455845195
 30
0.0
  0
VERTEX
  5
4F4
  8
0
  6
CONTINUOUS
 62
     7
 10
-113.5253234373
 20
-1.8929106074
 30
0.0
  0
SEQEND
  5
4F5
  8
0
  6
CONTINUOUS
 62
     7
  0
LINE
  5
DC
  8
0
  6
CONTINUOUS
 62
     7
 10
-503.5253240334
 20
-1.8929106074
 30
0.0
 11
-113.5253234373
 21
-1.8929106074
 31
0.0
  0
POLYLINE
  5
DD
  8
0
  6
CONTINUOUS
 62
     7
 66
     1
 10
0.0
 20
0.0
 30
0.0
  0
VERTEX
  5
4F6
  8
0
  6
CONTINUOUS
 62
     7
 10
-503.5253240334
 20
1.1070805711
 30
0.0
  0
VERTEX
  5
4F7
  8
0
  6
CONTINUOUS
 62
     7
 10
-503.3107473122
 20
0.575898878
 30
0.0
  0
VERTEX
  5
4F8
  8
0
  6
CONTINUOUS
 62
     7
 10
-503.153674172
 20
0.0184762401
 30
0.0
  0
VERTEX
  5
4F9
  8
0
  6
CONTINUOUS
 62
     7
 10
-503.0574722753
 20
-0.5263996201
 30
0.0
  0
VERTEX
  5
4FA
  8
0
  6
CONTINUOUS
 62
     7
 10
-503.0253155695
 20
-1.0142487365
 30
0.0
  0
VERTEX
  5
4FB
  8
0
  6
CONTINUOUS
 62
     7
 10
-503.0573083626
 20
-1.4096361476
 30
0.0
  0
VERTEX
  5
4FC
  8
0
  6
CONTINUOUS
 62
     7
 10
-503.1532867418
 20
-1.6878706294
 30
0.0
  0
VERTEX
  5
4FD
  8
0
  6
CONTINUOUS
 62
     7
 10
-503.3108963238
 20
-1.8455845195
 30
0.0
  0
VERTEX
  5
4FE
  8
0
  6
CONTINUOUS
 62
     7
 10
-503.5253240334
 20
-1.8929106074
 30
0.0
  0
SEQEND
  5
4FF
  8
0
  6
CONTINUOUS
 62
     7
  0
LINE
  5
DE
  8
0
  6
CONTINUOUS
 62
     7
 10
-503.5253240334
 20
-0.3929150182
 30
0.0
 11
-503.5253240334
 21
-1.8929106074
 31
0.0
  0
ARC
  5
DF
  8
0
  6
CONTINUOUS
 62
     7
 10
-503.4462884471
 20
0.0213321715
 30
0.0
 40
0.4217195252877327
 50
259.1981705129
 51
3.4099477539
  0
ARC
  5
E0
  8
0
  6
CONTINUOUS
 62
     7
 10
-505.0986890861
 20
1.6752371956
 30
0.0
 40
0.4320327462821931
 50
88.3126111523
 51
189.0756500464
  0
LINE
  5
E1
  8
0
  6
CONTINUOUS
 62
     7
 10
-507.0253236757
 20
1.6070890349
 30
0.0
 11
-505.5253131853
 21
1.6070890349
 31
0.0
  0
POLYLINE
  5
E2
  8
0
  6
CONTINUOUS
 62
     7
 66
     1
 10
0.0
 20
0.0
 30
0.0
  0
VERTEX
  5
500
  8
0
  6
CONTINUOUS
 62
     7
 10
-503.5253240334
 20
292.1070891542
 30
0.0
  0
VERTEX
  5
501
  8
0
  6
CONTINUOUS
 62
     7
 10
-503.3107473122
 20
292.6382708472
 30
0.0
  0
VERTEX
  5
502
  8
0
  6
CONTINUOUS
 62
     7
 10
-503.153674172
 20
293.1956934852
 30
0.0
  0
VERTEX
  5
503
  8
0
  6
CONTINUOUS
 62
     7
 10
-503.0574722753
 20
293.7405693454
 30
0.0
  0
VERTEX
  5
504
  8
0
  6
CONTINUOUS
 62
     7
 10
-503.0253155695
 20
294.2284184617
 30
0.0
  0
VERTEX
  5
505
  8
0
  6
CONTINUOUS
 62
     7
 10
-503.0573083626
 20
294.6238058728
 30
0.0
  0
VERTEX
  5
506
  8
0
  6
CONTINUOUS
 62
     7
 10
-503.1532867418
 20
294.9020403546
 30
0.0
  0
VERTEX
  5
507
  8
0
  6
CONTINUOUS
 62
     7
 10
-503.3108963238
 20
295.0597542447
 30
0.0
  0
VERTEX
  5
508
  8
0
  6
CONTINUOUS
 62
     7
 10
-503.5253240334
 20
295.1070803327
 30
0.0
  0
SEQEND
  5
509
  8
0
  6
CONTINUOUS
 62
     7
  0
LINE
  5
E3
  8
0
  6
CONTINUOUS
 62
     7
 10
-113.5253234373
 20
295.1070803327
 30
0.0
 11
-503.5253240334
 21
295.1070803327
 31
0.0
  0
POLYLINE
  5
E4
  8
0
  6
CONTINUOUS
 62
     7
 66
     1
 10
0.0
 20
0.0
 30
0.0
  0
VERTEX
  5
50A
  8
0
  6
CONTINUOUS
 62
     7
 10
-113.5253234373
 20
292.1070891542
 30
0.0
  0
VERTEX
  5
50B
  8
0
  6
CONTINUOUS
 62
     7
 10
-113.7398852573
 20
292.6382708472
 30
0.0
  0
VERTEX
  5
50C
  8
0
  6
CONTINUOUS
 62
     7
 10
-113.8969732986
 20
293.1956934852
 30
0.0
  0
VERTEX
  5
50D
  8
0
  6
CONTINUOUS
 62
     7
 10
-113.9931602941
 20
293.7405693454
 30
0.0
  0
VERTEX
  5
50E
  8
0
  6
CONTINUOUS
 62
     7
 10
-114.025317
 20
294.2284184617
 30
0.0
  0
VERTEX
  5
50F
  8
0
  6
CONTINUOUS
 62
     7
 10
-113.9933242069
 20
294.6238058728
 30
0.0
  0
VERTEX
  5
510
  8
0
  6
CONTINUOUS
 62
     7
 10
-113.8973607288
 20
294.9020403546
 30
0.0
  0
VERTEX
  5
511
  8
0
  6
CONTINUOUS
 62
     7
 10
-113.7397362457
 20
295.0597542447
 30
0.0
  0
VERTEX
  5
512
  8
0
  6
CONTINUOUS
 62
     7
 10
-113.5253234373
 20
295.1070803327
 30
0.0
  0
SEQEND
  5
513
  8
0
  6
CONTINUOUS
 62
     7
  0
ARC
  5
E5
  8
0
  6
CONTINUOUS
 62
     7
 10
-503.4462884471
 20
293.1928375538
 30
0.0
 40
0.4217195252877365
 50
356.5900522461
 51
100.8018294871
  0
LINE
  5
E6
  8
0
  6
CONTINUOUS
 62
     7
 10
-503.5253240334
 20
293.6070847434
 30
0.0
 11
-503.5253240334
 21
295.1070803327
 31
0.0
  0
POLYLINE
  5
E7
  8
0
  6
CONTINUOUS
 62
     7
 66
     1
 10
0.0
 20
0.0
 30
0.0
  0
VERTEX
  5
514
  8
0
  6
CONTINUOUS
 62
     7
 10
-110.0253237949
 20
291.6070806903
 30
0.0
  0
VERTEX
  5
515
  8
0
  6
CONTINUOUS
 62
     7
 10
-110.0727243887
 20
291.3925188703
 30
0.0
  0
VERTEX
  5
516
  8
0
  6
CONTINUOUS
 62
     7
 10
-110.2297975288
 20
291.235430829
 30
0.0
  0
VERTEX
  5
517
  8
0
  6
CONTINUOUS
 62
     7
 10
-110.5090154873
 20
291.1392438335
 30
0.0
  0
VERTEX
  5
518
  8
0
  6
CONTINUOUS
 62
     7
 10
-110.9040005671
 20
291.1070871276
 30
0.0
  0
VERTEX
  5
519
  8
0
  6
CONTINUOUS
 62
     7
 10
-111.3925053345
 20
291.1390650195
 30
0.0
  0
VERTEX
  5
51A
  8
0
  6
CONTINUOUS
 62
     7
 10
-111.9352652298
 20
291.2350433988
 30
0.0
  0
VERTEX
  5
51B
  8
0
  6
CONTINUOUS
 62
     7
 10
-112.494565414
 20
291.3926678819
 30
0.0
  0
VERTEX
  5
51C
  8
0
  6
CONTINUOUS
 62
     7
 10
-113.0253149734
 20
291.6070806903
 30
0.0
  0
SEQEND
  5
51D
  8
0
  6
CONTINUOUS
 62
     7
  0
ARC
  5
E8
  8
0
  6
CONTINUOUS
 62
     7
 10
-111.9519494398
 20
291.5389373844
 30
0.0
 40
0.4320378623754241
 50
268.3114443929
 51
9.0748896845
  0
LINE
  5
E9
  8
0
  6
CONTINUOUS
 62
     7
 10
-110.0253237949
 20
291.6070806903
 30
0.0
 11
-111.5253193842
 21
291.6070806903
 31
0.0
  0
LINE
  5
EA
  8
0
  6
CONTINUOUS
 62
     7
 10
-507.0253236757
 20
291.6070806903
 30
0.0
 11
-505.5253131853
 21
291.6070806903
 31
0.0
  0
ARC
  5
EB
  8
0
  6
CONTINUOUS
 62
     7
 10
-505.0986890861
 20
291.5389325296
 30
0.0
 40
0.4320327462821963
 50
170.9243499536
 51
271.6873888477
  0
LINE
  5
EC
  8
0
  6
CONTINUOUS
 62
     7
 10
-110.0253237949
 20
1.6070890349
 30
0.0
 11
-110.0253237949
 21
291.6070806903
 31
0.0
  0
POLYLINE
  5
ED
  8
0
  6
CONTINUOUS
 62
     7
 66
     1
 10
0.0
 20
0.0
 30
0.0
  0
VERTEX
  5
51E
  8
0
  6
CONTINUOUS
 62
     7
 10
-110.0253237949
 20
1.6070890349
 30
0.0
  0
VERTEX
  5
51F
  8
0
  6
CONTINUOUS
 62
     7
 10
-110.0727243887
 20
1.821650855
 30
0.0
  0
VERTEX
  5
520
  8
0
  6
CONTINUOUS
 62
     7
 10
-110.2297975288
 20
1.9787388963
 30
0.0
  0
VERTEX
  5
521
  8
0
  6
CONTINUOUS
 62
     7
 10
-110.5090154873
 20
2.0749258918
 30
0.0
  0
VERTEX
  5
522
  8
0
  6
CONTINUOUS
 62
     7
 10
-110.9040005671
 20
2.1070825976
 30
0.0
  0
VERTEX
  5
523
  8
0
  6
CONTINUOUS
 62
     7
 10
-111.3925053345
 20
2.0751047057
 30
0.0
  0
VERTEX
  5
524
  8
0
  6
CONTINUOUS
 62
     7
 10
-111.9352652298
 20
1.9791263265
 30
0.0
  0
VERTEX
  5
525
  8
0
  6
CONTINUOUS
 62
     7
 10
-112.494565414
 20
1.8215018434
 30
0.0
  0
VERTEX
  5
526
  8
0
  6
CONTINUOUS
 62
     7
 10
-113.0253149734
 20
1.6070890349
 30
0.0
  0
SEQEND
  5
527
  8
0
  6
CONTINUOUS
 62
     7
  0
LINE
  5
EE
  8
0
  6
CONTINUOUS
 62
     7
 10
-113.5253234373
 20
293.6070847434
 30
0.0
 11
-113.5253234373
 21
295.1070803327
 31
0.0
  0
ARC
  5
EF
  8
0
  6
CONTINUOUS
 62
     7
 10
-113.6043534827
 20
293.1928455261
 30
0.0
 40
0.4217106558341259
 50
79.1987069861
 51
183.411104637
  0
LINE
  5
F0
  8
0
  6
CONTINUOUS
 62
     7
 10
-110.0253237949
 20
1.6070890349
 30
0.0
 11
-111.5253193842
 21
1.6070890349
 31
0.0
  0
ARC
  5
F1
  8
0
  6
CONTINUOUS
 62
     7
 10
-111.9519494398
 20
1.6752323409
 30
0.0
 40
0.4320378623754224
 50
350.9251103155
 51
91.6885556071
  0
ARC
  5
F2
  8
0
  6
CONTINUOUS
 62
     7
 10
-113.6043534827
 20
0.0213241992
 30
0.0
 40
0.4217106558341245
 50
176.588895363
 51
280.8012930139
  0
LINE
  5
F3
  8
0
  6
CONTINUOUS
 62
     7
 10
-113.5253234373
 20
-0.3929150182
 30
0.0
 11
-113.5253234373
 21
-1.8929106074
 31
0.0
  0
LINE
  5
F4
  8
0
  6
CONTINUOUS
 62
     7
 10
-507.0253236757
 20
1.1070805711
 30
0.0
 11
-505.5253131853
 21
1.1070805711
 31
0.0
  0
LINE
  5
F5
  8
0
  6
CONTINUOUS
 62
     7
 10
-507.0253236757
 20
1.1070805711
 30
0.0
 11
-507.0253236757
 21
1.6070890349
 31
0.0
  0
LINE
  5
F6
  8
0
  6
CONTINUOUS
 62
     7
 10
-505.5253131853
 20
1.1070805711
 30
0.0
 11
-505.5253131853
 21
1.6070890349
 31
0.0
  0
LINE
  5
F7
  8
0
  6
CONTINUOUS
 62
     7
 10
-503.7575586306
 20
295.1070803327
 30
0.0
 11
-503.7575586306
 21
293.6070847434
 31
0.0
  0
LINE
  5
F8
  8
0
  6
CONTINUOUS
 62
     7
 10
-503.5253240334
 20
293.6070847434
 30
0.0
 11
-503.7575586306
 21
293.6070847434
 31
0.0
  0
LINE
  5
F9
  8
0
  6
CONTINUOUS
 62
     7
 10
-503.5253240334
 20
295.1070803327
 30
0.0
 11
-503.7575586306
 21
295.1070803327
 31
0.0
  0
LINE
  5
FA
  8
0
  6
CONTINUOUS
 62
     7
 10
-507.0253236757
 20
292.1070891542
 30
0.0
 11
-505.5253131853
 21
292.1070891542
 31
0.0
  0
LINE
  5
FB
  8
0
  6
CONTINUOUS
 62
     7
 10
-507.0253236757
 20
292.1070891542
 30
0.0
 11
-507.0253236757
 21
291.6070806903
 31
0.0
  0
LINE
  5
FC
  8
0
  6
CONTINUOUS
 62
     7
 10
-505.5253131853
 20
292.1070891542
 30
0.0
 11
-505.5253131853
 21
291.6070806903
 31
0.0
  0
LINE
  5
FD
  8
0
  6
CONTINUOUS
 62
     7
 10
-110.0253237949
 20
292.1070891542
 30
0.0
 11
-111.5253193842
 21
292.1070891542
 31
0.0
  0
LINE
  5
FE
  8
0
  6
CONTINUOUS
 62
     7
 10
-110.0253237949
 20
292.1070891542
 30
0.0
 11
-110.0253237949
 21
291.6070806903
 31
0.0
  0
LINE
  5
FF
  8
0
  6
CONTINUOUS
 62
     7
 10
-111.5253193842
 20
292.1070891542
 30
0.0
 11
-111.5253193842
 21
291.6070806903
 31
0.0
  0
LINE
  5
100
  8
0
  6
CONTINUOUS
 62
     7
 10
-113.2930888401
 20
293.6070847434
 30
0.0
 11
-113.2930888401
 21
295.1070803327
 31
0.0
  0
LINE
  5
101
  8
0
  6
CONTINUOUS
 62
     7
 10
-113.5253234373
 20
293.6070847434
 30
0.0
 11
-113.2930888401
 21
293.6070847434
 31
0.0
  0
LINE
  5
102
  8
0
  6
CONTINUOUS
 62
     7
 10
-113.5253234373
 20
295.1070803327
 30
0.0
 11
-113.2930888401
 21
295.1070803327
 31
0.0
  0
LINE
  5
103
  8
0
  6
CONTINUOUS
 62
     7
 10
-110.0253237949
 20
1.1070805711
 30
0.0
 11
-111.5253193842
 21
1.1070805711
 31
0.0
  0
LINE
  5
104
  8
0
  6
CONTINUOUS
 62
     7
 10
-110.0253237949
 20
1.1070805711
 30
0.0
 11
-110.0253237949
 21
1.6070890349
 31
0.0
  0
LINE
  5
105
  8
0
  6
CONTINUOUS
 62
     7
 10
-111.5253193842
 20
1.1070805711
 30
0.0
 11
-111.5253193842
 21
1.6070890349
 31
0.0
  0
LINE
  5
106
  8
0
  6
CONTINUOUS
 62
     7
 10
-503.5253240334
 20
-1.8929106074
 30
0.0
 11
-503.7575586306
 21
-1.8929106074
 31
0.0
  0
LINE
  5
107
  8
0
  6
CONTINUOUS
 62
     7
 10
-503.7575586306
 20
-0.3929150182
 30
0.0
 11
-503.7575586306
 21
-1.8929106074
 31
0.0
  0
LINE
  5
108
  8
0
  6
CONTINUOUS
 62
     7
 10
-503.5253240334
 20
-0.3929150182
 30
0.0
 11
-503.7575586306
 21
-0.3929150182
 31
0.0
  0
LINE
  5
109
  8
0
  6
CONTINUOUS
 62
     7
 10
-113.2930888401
 20
-1.8929106074
 30
0.0
 11
-113.2930888401
 21
-0.3929150182
 31
0.0
  0
LINE
  5
10A
  8
0
  6
CONTINUOUS
 62
     7
 10
-113.5253234373
 20
-1.8929106074
 30
0.0
 11
-113.2930888401
 21
-1.8929106074
 31
0.0
  0
LINE
  5
10B
  8
0
  6
CONTINUOUS
 62
     7
 10
-113.5253234373
 20
-0.3929150182
 30
0.0
 11
-113.2930888401
 21
-0.3929150182
 31
0.0
  0
LINE
  5
10C
  8
0
  6
CONTINUOUS
 62
     7
 10
-503.7575586306
 20
293.6070847434
 30
0.0
 11
-504.0253175961
 21
293.6070847434
 31
0.0
  0
LINE
  5
10D
  8
0
  6
CONTINUOUS
 62
     7
 10
-504.0253175961
 20
295.1070803327
 30
0.0
 11
-504.0253175961
 21
293.6070847434
 31
0.0
  0
LINE
  5
10E
  8
0
  6
CONTINUOUS
 62
     7
 10
-503.7575586306
 20
295.1070803327
 30
0.0
 11
-504.0253175961
 21
295.1070803327
 31
0.0
  0
LINE
  5
10F
  8
0
  6
CONTINUOUS
 62
     7
 10
-113.2930888401
 20
293.6070847434
 30
0.0
 11
-113.0253149734
 21
293.6070847434
 31
0.0
  0
LINE
  5
110
  8
0
  6
CONTINUOUS
 62
     7
 10
-113.0253149734
 20
295.1070803327
 30
0.0
 11
-113.0253149734
 21
293.6070847434
 31
0.0
  0
LINE
  5
111
  8
0
  6
CONTINUOUS
 62
     7
 10
-113.2930888401
 20
295.1070803327
 30
0.0
 11
-113.0253149734
 21
295.1070803327
 31
0.0
  0
LINE
  5
112
  8
0
  6
CONTINUOUS
 62
     7
 10
-503.7575586306
 20
-0.3929150182
 30
0.0
 11
-504.0253175961
 21
-0.3929150182
 31
0.0
  0
LINE
  5
113
  8
0
  6
CONTINUOUS
 62
     7
 10
-503.7575586306
 20
-1.8929106074
 30
0.0
 11
-504.0253175961
 21
-1.8929106074
 31
0.0
  0
LINE
  5
114
  8
0
  6
CONTINUOUS
 62
     7
 10
-504.0253175961
 20
-1.8929106074
 30
0.0
 11
-504.0253175961
 21
-0.3929150182
 31
0.0
  0
LINE
  5
115
  8
0
  6
CONTINUOUS
 62
     7
 10
-113.0253149734
 20
-1.8929106074
 30
0.0
 11
-113.0253149734
 21
-0.3929150182
 31
0.0
  0
LINE
  5
116
  8
0
  6
CONTINUOUS
 62
     7
 10
-113.2930888401
 20
-1.8929106074
 30
0.0
 11
-113.0253149734
 21
-1.8929106074
 31
0.0
  0
LINE
  5
117
  8
0
  6
CONTINUOUS
 62
     7
 10
-113.2930888401
 20
-0.3929150182
 30
0.0
 11
-113.0253149734
 21
-0.3929150182
 31
0.0
  0
ARC
  5
118
  8
0
  6
CONTINUOUS
 62
     7
 10
-504.0253192698
 20
1.1070937986
 30
0.0
 40
3.000004405997402
 50
180.000252626
 51
270.0000319654
  0
ARC
  5
119
  8
0
  6
CONTINUOUS
 62
     7
 10
-504.0253249414
 20
1.1070732258
 30
0.0
 40
1.499988243962424
 50
179.9997194276
 51
270.0002805724
  0
ARC
  5
11A
  8
0
  6
CONTINUOUS
 62
     7
 10
-504.0253192698
 20
292.1070759267
 30
0.0
 40
3.000004405997402
 50
89.9999680346
 51
179.999747374
  0
ARC
  5
11B
  8
0
  6
CONTINUOUS
 62
     7
 10
-504.0253249414
 20
292.1070964995
 30
0.0
 40
1.499988243962457
 50
89.9997194276
 51
180.0002805724
  0
ARC
  5
11C
  8
0
  6
CONTINUOUS
 62
     7
 10
-113.0253137438
 20
292.1070903838
 30
0.0
 40
1.499994359638343
 50
359.9999530319
 51
90.0000469681
  0
ARC
  5
11D
  8
0
  6
CONTINUOUS
 62
     7
 10
-113.0252979193
 20
292.1071062083
 30
0.0
 40
2.999974124416882
 50
359.999674287
 51
90.000325713
  0
ARC
  5
11E
  8
0
  6
CONTINUOUS
 62
     7
 10
-113.0252979193
 20
1.1070635169
 30
0.0
 40
2.999974124416883
 50
269.999674287
 51
0.000325713
  0
ARC
  5
11F
  8
0
  6
CONTINUOUS
 62
     7
 10
-113.0253137438
 20
1.1070793415
 30
0.0
 40
1.499994359638343
 50
269.9999530319
 51
0.0000469681
  0
LINE
  5
120
  8
0
  6
CONTINUOUS
 62
     7
 10
-487.0753212439
 20
-5.3929102498
 30
0.0
 11
-501.0753198133
 21
-5.3929102498
 31
0.0
  0
LINE
  5
121
  8
0
  6
CONTINUOUS
 62
     7
 10
-491.4772434698
 20
-3.3929210978
 30
0.0
 11
-496.6733975874
 21
-3.3929210978
 31
0.0
  0
LINE
  5
122
  8
0
  6
CONTINUOUS
 62
     7
 10
-121.4772387014
 20
-3.3929210978
 30
0.0
 11
-126.673392819
 21
-3.3929210978
 31
0.0
  0
LINE
  5
123
  8
0
  6
CONTINUOUS
 62
     7
 10
-117.0753164755
 20
-5.3929102498
 30
0.0
 11
-131.075315045
 21
-5.3929102498
 31
0.0
  0
LINE
  5
124
  8
0
  6
CONTINUOUS
 62
     7
 10
-113.5180963741
 20
1.1166620177
 30
0.0
 11
-112.0469345318
 21
-0.3491354066
 31
0.0
  0
LINE
  5
125
  8
0
  6
CONTINUOUS
 62
     7
 10
-505.3206755386
 20
0.3628420753
 30
0.0
 11
-504.0617211328
 21
1.621796481
 31
0.0
  0
LINE
  5
126
  8
0
  6
CONTINUOUS
 62
     7
 10
-506.5746082531
 20
-1.1666280108
 30
0.0
 11
-506.3303484188
 21
-0.7872742492
 31
0.0
  0
LINE
  5
127
  8
0
  6
CONTINUOUS
 62
     7
 10
-506.5746082531
 20
-1.1666280108
 30
0.0
 11
-506.5746082531
 21
-0.7797640639
 31
0.0
  0
ARC
  5
128
  8
0
  6
CONTINUOUS
 62
     7
 10
-533.8711626487
 20
9.4625742419
 30
0.0
 40
29.29303368378153
 50
333.96893162
 51
338.7241999763
  0
ARC
  5
129
  8
0
  6
CONTINUOUS
 62
     7
 10
-320.4179966826
 20
-93.8403250494
 30
0.0
 40
228.4818206063105
 50
23.3197820929
 51
23.8539685545
  0
LINE
  5
12A
  8
0
  6
CONTINUOUS
 62
     7
 10
-110.6009109484
 20
-3.3929210978
 30
0.0
 11
-121.4772387014
 21
-3.3929210978
 31
0.0
  0
LINE
  5
12B
  8
0
  6
CONTINUOUS
 62
     7
 10
-126.673392819
 20
-3.3929210978
 30
0.0
 11
-491.4772434698
 21
-3.3929210978
 31
0.0
  0
LINE
  5
12C
  8
0
  6
CONTINUOUS
 62
     7
 10
-496.6733975874
 20
-3.3929210978
 30
0.0
 11
-507.5497253405
 21
-3.3929210978
 31
0.0
  0
LINE
  5
12D
  8
0
  6
CONTINUOUS
 62
     7
 10
-505.343817042
 20
292.8061920327
 30
0.0
 11
-504.1071547733
 21
291.5740299148
 31
0.0
  0
ARC
  5
12E
  8
0
  6
CONTINUOUS
 62
     7
 10
-502.5746110377
 20
297.1052731206
 30
0.0
 40
4.999999999972939
 50
224.3979399628
 51
225.1044244628
  0
LINE
  5
12F
  8
0
  6
CONTINUOUS
 62
     7
 10
-113.5393901335
 20
292.1419131679
 30
0.0
 11
-112.0742185579
 21
293.6070847434
 31
0.0
  0
ARC
  5
130
  8
0
  6
CONTINUOUS
 62
     7
 10
-84.2794736402
 20
283.7515954834
 30
0.0
 40
29.29303368378155
 50
153.96893162
 51
158.7241999763
  0
POLYLINE
  5
131
  8
0
  6
CONTINUOUS
 62
     7
 66
     1
 10
0.0
 20
0.0
 30
0.0
  0
VERTEX
  5
528
  8
0
  6
CONTINUOUS
 62
     7
 10
-506.3454283939
 20
293.9828026218
 30
0.0
  0
VERTEX
  5
529
  8
0
  6
CONTINUOUS
 62
     7
 10
-506.6835804449
 20
294.6233886403
 30
0.0
  0
VERTEX
  5
52A
  8
0
  6
CONTINUOUS
 62
     7
 10
-507.0794595943
 20
295.5280083341
 30
0.0
  0
VERTEX
  5
52B
  8
0
  6
CONTINUOUS
 62
     7
 10
-507.3214991556
 20
296.206532709
 30
0.0
  0
VERTEX
  5
52C
  8
0
  6
CONTINUOUS
 62
     7
 10
-507.4373407827
 20
296.4881497544
 30
0.0
  0
VERTEX
  5
52D
  8
0
  6
CONTINUOUS
 62
     7
 10
-507.5497253405
 20
296.6070908231
 30
0.0
  0
SEQEND
  5
52E
  8
0
  6
CONTINUOUS
 62
     7
  0
LINE
  5
132
  8
0
  6
CONTINUOUS
 62
     7
 10
-110.6009109484
 20
296.6070908231
 30
0.0
 11
-507.5497253405
 21
296.6070908231
 31
0.0
  0
POLYLINE
  5
133
  8
0
  6
CONTINUOUS
 62
     7
 66
     1
 10
0.0
 20
0.0
 30
0.0
  0
VERTEX
  5
52F
  8
0
  6
CONTINUOUS
 62
     7
 10
-506.6742225157
 20
294.1063779515
 30
0.0
  0
VERTEX
  5
530
  8
0
  6
CONTINUOUS
 62
     7
 10
-506.6835804449
 20
294.1152441424
 30
0.0
  0
VERTEX
  5
531
  8
0
  6
CONTINUOUS
 62
     7
 10
-507.0794595943
 20
294.5675390882
 30
0.0
  0
VERTEX
  5
532
  8
0
  6
CONTINUOUS
 62
     7
 10
-507.3214991556
 20
294.9068087262
 30
0.0
  0
VERTEX
  5
533
  8
0
  6
CONTINUOUS
 62
     7
 10
-507.4373407827
 20
295.0476097983
 30
0.0
  0
VERTEX
  5
534
  8
0
  6
CONTINUOUS
 62
     7
 10
-507.5497253405
 20
295.1070803327
 30
0.0
  0
SEQEND
  5
535
  8
0
  6
CONTINUOUS
 62
     7
  0
LINE
  5
134
  8
0
  6
CONTINUOUS
 62
     7
 10
-507.5497253405
 20
296.6070908231
 30
0.0
 11
-507.5497253405
 21
295.1070803327
 31
0.0
  0
ARC
  5
135
  8
0
  6
CONTINUOUS
 62
     7
 10
-160.8063176517
 20
-45.1067616098
 30
0.0
 40
66.24212995295136
 50
40.7199271754
 51
41.4760789055
  0
LINE
  5
136
  8
0
  6
CONTINUOUS
 62
     7
 10
-110.6009109484
 20
-3.3929210978
 30
0.0
 11
-110.6009109484
 21
-1.8929106074
 31
0.0
  0
LINE
  5
137
  8
0
  6
CONTINUOUS
 62
     7
 10
-113.5589553581
 20
292.1903568429
 30
0.0
 11
-112.1191008554
 21
293.6354565543
 31
0.0
  0
LINE
  5
138
  8
0
  6
CONTINUOUS
 62
     7
 10
-112.0753212439
 20
-0.3940177041
 30
0.0
 11
-113.5400159822
 21
1.0706770343
 31
0.0
  0
LINE
  5
139
  8
0
  6
CONTINUOUS
 62
     7
 10
-109.0753151642
 20
-1.8673253137
 30
0.0
 11
-109.0753151642
 21
295.0814950389
 31
0.0
  0
ARC
  5
13A
  8
0
  6
CONTINUOUS
 62
     7
 10
-121.9285661711
 20
-28.183638578
 30
0.0
 40
29.28744449884136
 50
63.9684776141
 51
68.7246539822
  0
ARC
  5
13B
  8
0
  6
CONTINUOUS
 62
     7
 10
-21.314164973
 20
91.5079714339
 30
0.0
 40
221.6849092650172
 50
113.3210174074
 51
113.8491172101
  0
LINE
  5
13C
  8
0
  6
CONTINUOUS
 62
     7
 10
-504.0168686377
 20
1.6007262391
 30
0.0
 11
-505.2967591749
 21
0.3161716384
 31
0.0
  0
LINE
  5
13D
  8
0
  6
CONTINUOUS
 62
     7
 10
-505.3199155794
 20
292.8527879638
 30
0.0
 11
-504.0601416098
 21
291.5930139941
 31
0.0
  0
ARC
  5
13E
  8
0
  6
CONTINUOUS
 62
     7
 10
-496.2220701178
 20
321.3978083032
 30
0.0
 40
29.28744449884137
 50
243.9684776141
 51
248.7246539822
  0
LINE
  5
13F
  8
0
  6
CONTINUOUS
 62
     7
 10
-506.8490280376
 20
294.1063779515
 30
0.0
 11
-506.4522250162
 21
293.8508826417
 31
0.0
  0
POLYLINE
  5
140
  8
0
  6
CONTINUOUS
 62
     7
 66
     1
 10
0.0
 20
0.0
 30
0.0
  0
VERTEX
  5
536
  8
0
  6
CONTINUOUS
 62
     7
 10
-506.4369364248
 20
-0.6555926877
 30
0.0
  0
VERTEX
  5
537
  8
0
  6
CONTINUOUS
 62
     7
 10
-507.0916189419
 20
-1.0011804181
 30
0.0
  0
VERTEX
  5
538
  8
0
  6
CONTINUOUS
 62
     7
 10
-507.9962386356
 20
-1.3970446664
 30
0.0
  0
VERTEX
  5
539
  8
0
  6
CONTINUOUS
 62
     7
 10
-508.6747630106
 20
-1.6390842277
 30
0.0
  0
VERTEX
  5
53A
  8
0
  6
CONTINUOUS
 62
     7
 10
-508.956380056
 20
-1.7549258548
 30
0.0
  0
VERTEX
  5
53B
  8
0
  6
CONTINUOUS
 62
     7
 10
-509.0753211246
 20
-1.8673253137
 30
0.0
  0
SEQEND
  5
53C
  8
0
  6
CONTINUOUS
 62
     7
  0
LINE
  5
141
  8
0
  6
CONTINUOUS
 62
     7
 10
-509.0753211246
 20
-1.8673253137
 30
0.0
 11
-509.0753211246
 21
295.0814950389
 31
0.0
  0
POLYLINE
  5
142
  8
0
  6
CONTINUOUS
 62
     7
 66
     1
 10
0.0
 20
0.0
 30
0.0
  0
VERTEX
  5
53D
  8
0
  6
CONTINUOUS
 62
     7
 10
-506.5746082531
 20
-0.9918224889
 30
0.0
  0
VERTEX
  5
53E
  8
0
  6
CONTINUOUS
 62
     7
 10
-506.583474444
 20
-1.0011804181
 30
0.0
  0
VERTEX
  5
53F
  8
0
  6
CONTINUOUS
 62
     7
 10
-507.0357693897
 20
-1.3970446664
 30
0.0
  0
VERTEX
  5
540
  8
0
  6
CONTINUOUS
 62
     7
 10
-507.3750390278
 20
-1.6390842277
 30
0.0
  0
VERTEX
  5
541
  8
0
  6
CONTINUOUS
 62
     7
 10
-507.5158550011
 20
-1.7549258548
 30
0.0
  0
VERTEX
  5
542
  8
0
  6
CONTINUOUS
 62
     7
 10
-507.5753255354
 20
-1.8673253137
 30
0.0
  0
SEQEND
  5
543
  8
0
  6
CONTINUOUS
 62
     7
  0
LINE
  5
143
  8
0
  6
CONTINUOUS
 62
     7
 10
-509.0753211246
 20
-1.8673253137
 30
0.0
 11
-507.5753255354
 21
-1.8673253137
 31
0.0
  0
LINE
  5
144
  8
0
  6
CONTINUOUS
 62
     7
 10
-506.8490280376
 20
294.1063779515
 30
0.0
 11
-506.4621789919
 21
294.1063779515
 31
0.0
  0
ARC
  5
145
  8
0
  6
CONTINUOUS
 62
     7
 10
-64.4228284712
 20
241.5003094583
 30
0.0
 40
70.71771396925111
 50
130.7401666206
 51
131.4555903689
  0
LINE
  5
146
  8
0
  6
CONTINUOUS
 62
     7
 10
-109.0753151642
 20
295.0814950389
 30
0.0
 11
-110.5753107534
 21
295.0814950389
 31
0.0
  0
LINE
  5
147
  8
0
  6
CONTINUOUS
 62
     7
 10
-507.5497253405
 20
-1.8929106074
 30
0.0
 11
-507.5497253405
 21
-3.3929210978
 31
0.0
  0
ARC
  5
148
  8
0
  6
CONTINUOUS
 62
     7
 10
-517.1062819141
 20
7.462313961
 30
0.0
 40
13.3734064572607
 50
315.6099392932
 51
321.9532994547
  0
LINE
  5
149
  8
0
  6
CONTINUOUS
 62
     7
 10
-110.6009109484
 20
295.1070803327
 30
0.0
 11
-110.6009109484
 21
296.6070908231
 31
0.0
  0
ARC
  5
14A
  8
0
  6
CONTINUOUS
 62
     7
 10
-103.3448000134
 20
287.9634277208
 30
0.0
 40
10.18248096186372
 50
135.4474557009
 51
140.3719773354
  0
LINE
  5
14B
  8
0
  6
CONTINUOUS
 62
     7
 10
-507.5753255354
 20
295.0814950389
 30
0.0
 11
-509.0753211246
 21
295.0814950389
 31
0.0
  0
ARC
  5
14C
  8
0
  6
CONTINUOUS
 62
     7
 10
-498.2166292818
 20
304.6420147206
 30
0.0
 40
13.37866705437764
 50
225.6111876974
 51
231.9520510504
  0
ARC
  5
14D
  8
0
  6
CONTINUOUS
 62
     7
 10
-117.7082303224
 20
-9.1109904244
 30
0.0
 40
10.16608212701383
 50
45.4413514601
 51
50.4054856423
  0
LINE
  5
14E
  8
0
  6
CONTINUOUS
 62
     7
 10
-110.5753107534
 20
-1.8673253137
 30
0.0
 11
-109.0753151642
 21
-1.8673253137
 31
0.0
  0
LINE
  5
14F
  8
0
  6
CONTINUOUS
 62
     7
 10
-110.5760260092
 20
296.6070908231
 30
0.0
 11
-110.5760260092
 21
295.1070803327
 31
0.0
  0
LINE
  5
150
  8
0
  6
CONTINUOUS
 62
     7
 10
-110.6009109484
 20
295.1070803327
 30
0.0
 11
-110.5760260092
 21
295.1070803327
 31
0.0
  0
LINE
  5
151
  8
0
  6
CONTINUOUS
 62
     7
 10
-110.6009109484
 20
296.6070908231
 30
0.0
 11
-110.5760260092
 21
296.6070908231
 31
0.0
  0
LINE
  5
152
  8
0
  6
CONTINUOUS
 62
     7
 10
-507.5746102797
 20
296.6070908231
 30
0.0
 11
-507.5746102797
 21
295.1070803327
 31
0.0
  0
LINE
  5
153
  8
0
  6
CONTINUOUS
 62
     7
 10
-507.5746102797
 20
295.1070803327
 30
0.0
 11
-507.5497253405
 21
295.1070803327
 31
0.0
  0
LINE
  5
154
  8
0
  6
CONTINUOUS
 62
     7
 10
-507.5746102797
 20
296.6070908231
 30
0.0
 11
-507.5497253405
 21
296.6070908231
 31
0.0
  0
LINE
  5
155
  8
0
  6
CONTINUOUS
 62
     7
 10
-509.0753211246
 20
295.0814950389
 30
0.0
 11
-509.0753211246
 21
295.1063799781
 31
0.0
  0
LINE
  5
156
  8
0
  6
CONTINUOUS
 62
     7
 10
-509.0753211246
 20
295.1063799781
 30
0.0
 11
-507.5753255354
 21
295.1063799781
 31
0.0
  0
LINE
  5
157
  8
0
  6
CONTINUOUS
 62
     7
 10
-507.5753255354
 20
295.0814950389
 30
0.0
 11
-507.5753255354
 21
295.1063799781
 31
0.0
  0
LINE
  5
158
  8
0
  6
CONTINUOUS
 62
     7
 10
-507.5753255354
 20
-1.8922102529
 30
0.0
 11
-507.5753255354
 21
-1.8673253137
 31
0.0
  0
LINE
  5
159
  8
0
  6
CONTINUOUS
 62
     7
 10
-509.0753211246
 20
-1.8922102529
 30
0.0
 11
-507.5753255354
 21
-1.8922102529
 31
0.0
  0
LINE
  5
15A
  8
0
  6
CONTINUOUS
 62
     7
 10
-509.0753211246
 20
-1.8922102529
 30
0.0
 11
-509.0753211246
 21
-1.8673253137
 31
0.0
  0
LINE
  5
15B
  8
0
  6
CONTINUOUS
 62
     7
 10
-110.5760260092
 20
-3.3929210978
 30
0.0
 11
-110.5760260092
 21
-1.8929106074
 31
0.0
  0
LINE
  5
15C
  8
0
  6
CONTINUOUS
 62
     7
 10
-110.5760260092
 20
-3.3929210978
 30
0.0
 11
-110.6009109484
 21
-3.3929210978
 31
0.0
  0
LINE
  5
15D
  8
0
  6
CONTINUOUS
 62
     7
 10
-110.5760260092
 20
-1.8929106074
 30
0.0
 11
-110.6009109484
 21
-1.8929106074
 31
0.0
  0
LINE
  5
15E
  8
0
  6
CONTINUOUS
 62
     7
 10
-507.5746102797
 20
-3.3929210978
 30
0.0
 11
-507.5746102797
 21
-1.8929106074
 31
0.0
  0
LINE
  5
15F
  8
0
  6
CONTINUOUS
 62
     7
 10
-507.5746102797
 20
-3.3929210978
 30
0.0
 11
-507.5497253405
 21
-3.3929210978
 31
0.0
  0
LINE
  5
160
  8
0
  6
CONTINUOUS
 62
     7
 10
-507.5497253405
 20
-1.8929106074
 30
0.0
 11
-507.5746102797
 21
-1.8929106074
 31
0.0
  0
LINE
  5
161
  8
0
  6
CONTINUOUS
 62
     7
 10
-109.0753151642
 20
-1.8922102529
 30
0.0
 11
-110.5753107534
 21
-1.8922102529
 31
0.0
  0
LINE
  5
162
  8
0
  6
CONTINUOUS
 62
     7
 10
-109.0753151642
 20
-1.8922102529
 30
0.0
 11
-109.0753151642
 21
-1.8673253137
 31
0.0
  0
LINE
  5
163
  8
0
  6
CONTINUOUS
 62
     7
 10
-110.5753107534
 20
-1.8673253137
 30
0.0
 11
-110.5753107534
 21
-1.8922102529
 31
0.0
  0
LINE
  5
164
  8
0
  6
CONTINUOUS
 62
     7
 10
-109.0753151642
 20
295.1063799781
 30
0.0
 11
-110.5753107534
 21
295.1063799781
 31
0.0
  0
LINE
  5
165
  8
0
  6
CONTINUOUS
 62
     7
 10
-109.0753151642
 20
295.0814950389
 30
0.0
 11
-109.0753151642
 21
295.1063799781
 31
0.0
  0
LINE
  5
166
  8
0
  6
CONTINUOUS
 62
     7
 10
-110.5753107534
 20
295.1063799781
 30
0.0
 11
-110.5753107534
 21
295.0814950389
 31
0.0
  0
LINE
  5
167
  8
0
  6
CONTINUOUS
 62
     7
 10
-727.3190193533
 20
-3.3929210978
 30
0.0
 11
-727.6190169811
 21
-3.692911275
 31
0.0
  0
LINE
  5
168
  8
0
  6
CONTINUOUS
 62
     7
 10
-727.6190169811
 20
-7.0929092246
 30
0.0
 11
-727.3190193533
 21
-7.3929143029
 31
0.0
  0
LINE
  5
169
  8
0
  6
CONTINUOUS
 62
     7
 10
-727.6190169811
 20
-3.692911275
 30
0.0
 11
-727.6190169811
 21
-7.0929092246
 31
0.0
  0
LINE
  5
16A
  8
0
  6
CONTINUOUS
 62
     7
 10
-727.6190169811
 20
296.9070810002
 30
0.0
 11
-727.3190193533
 21
296.6070908231
 31
0.0
  0
LINE
  5
16B
  8
0
  6
CONTINUOUS
 62
     7
 10
-727.6190169811
 20
300.3070789498
 30
0.0
 11
-727.6190169811
 21
296.9070810002
 31
0.0
  0
LINE
  5
16C
  8
0
  6
CONTINUOUS
 62
     7
 10
-727.3190193533
 20
300.6070840282
 30
0.0
 11
-727.6190169811
 21
300.3070789498
 31
0.0
  0
ARC
  5
16D
  8
0
  6
CONTINUOUS
 62
     7
 10
-793.3190175686
 20
146.6070848626
 30
0.0
 40
89.50000000002004
 50
167.6878123258
 51
171.8046187659
  0
ARC
  5
16E
  8
0
  6
CONTINUOUS
 62
     7
 10
-793.3190175686
 20
146.6070848626
 30
0.0
 40
89.5000000000201
 50
188.1938926696
 51
192.3117800122
  0
ARC
  5
16F
  8
0
  6
CONTINUOUS
 62
     7
 10
-882.2024485529
 20
133.8218753321
 30
0.0
 40
0.2998274203617531
 50
5.6598437602
 51
90.4955197615
  0
ARC
  5
170
  8
0
  6
CONTINUOUS
 62
     7
 10
-793.3190175686
 20
146.6070848626
 30
0.0
 40
90.19999999999955
 50
185.4696070839
 51
187.799459856
  0
ARC
  5
171
  8
0
  6
CONTINUOUS
 62
     7
 10
-793.3190175686
 20
146.6070848626
 30
0.0
 40
90.19999999999952
 50
172.2005399977
 51
174.5303929161
  0
ARC
  5
172
  8
0
  6
CONTINUOUS
 62
     7
 10
-872.8190175686
 20
133.8504061543
 30
0.0
 40
33.00000000000001
 50
96.9620626911
 51
103.523892595
  0
ARC
  5
173
  8
0
  6
CONTINUOUS
 62
     7
 10
-872.8190175686
 20
159.3637635709
 30
0.0
 40
32.99999999999998
 50
256.4797637263
 51
263.0379373089
  0
ARC
  5
174
  8
0
  6
CONTINUOUS
 62
     7
 10
-880.4638979368
 20
127.5699473342
 30
0.0
 40
0.2999840820389925
 50
191.9519472169
 51
257.7246706265
  0
ARC
  5
175
  8
0
  6
CONTINUOUS
 62
     7
 10
-880.4638979368
 20
165.6442223911
 30
0.0
 40
0.2999840820389557
 50
102.2753293735
 51
168.0480527832
  0
ARC
  5
176
  8
0
  6
CONTINUOUS
 62
     7
 10
-882.3873621137
 20
158.8070848626
 30
0.0
 40
0.30000000000008
 50
90.0
 51
172.2023682146
  0
LINE
  5
177
  8
0
  6
CONTINUOUS
 62
     7
 10
-882.1745090842
 20
159.1070850489
 30
0.0
 11
-882.41493932
 21
159.1070850489
 31
0.0
  0
LINE
  5
178
  8
0
  6
CONTINUOUS
 62
     7
 10
-882.41493932
 20
134.1070846764
 30
0.0
 11
-882.1745090842
 21
134.1070846764
 31
0.0
  0
ARC
  5
179
  8
0
  6
CONTINUOUS
 62
     7
 10
-882.3873621137
 20
134.4070848626
 30
0.0
 40
0.3000000000000114
 50
187.7975877807
 51
270.0
  0
ARC
  5
17A
  8
0
  6
CONTINUOUS
 62
     7
 10
-882.6106045184
 20
155.1570848626
 30
0.0
 40
0.5000000000001602
 50
174.5304035697
 51
180.0
  0
ARC
  5
17B
  8
0
  6
CONTINUOUS
 62
     7
 10
-882.6106045184
 20
138.0570848626
 30
0.0
 40
0.5000000000001602
 50
180.0
 51
185.4695964303
  0
LINE
  5
17C
  8
0
  6
CONTINUOUS
 62
     7
 10
-883.1106000304
 20
155.1570852396
 30
0.0
 11
-883.1106000304
 21
138.0570844856
 31
0.0
  0
ARC
  5
17D
  8
0
  6
CONTINUOUS
 62
     7
 10
-882.1913455074
 20
159.385457853
 30
0.0
 40
0.2881608100719663
 50
273.4593571585
 51
355.4752077085
  0
LINE
  5
17E
  8
0
  6
CONTINUOUS
 62
     7
 10
-853.1190179943
 20
-3.3929210978
 30
0.0
 11
-853.1190179943
 21
-5.3929102498
 31
0.0
  0
LINE
  5
17F
  8
0
  6
CONTINUOUS
 62
     7
 10
-839.1190194249
 20
-5.3929102498
 30
0.0
 11
-839.1190194249
 21
-3.3929210978
 31
0.0
  0
LINE
  5
180
  8
0
  6
CONTINUOUS
 62
     7
 10
-841.6190170407
 20
-1.8929106074
 30
0.0
 11
-841.6190170407
 21
-1.8922102529
 31
0.0
  0
LINE
  5
181
  8
0
  6
CONTINUOUS
 62
     7
 10
-850.6190203785
 20
-1.8922102529
 30
0.0
 11
-850.6190203785
 21
-1.8929106074
 31
0.0
  0
LINE
  5
182
  8
0
  6
CONTINUOUS
 62
     7
 10
-857.6190196633
 20
34.6070814056
 30
0.0
 11
-857.8390204071
 21
34.6070814056
 31
0.0
  0
LINE
  5
183
  8
0
  6
CONTINUOUS
 62
     7
 10
-857.8390204071
 20
29.6070861739
 30
0.0
 11
-857.6190196633
 21
29.6070861739
 31
0.0
  0
LINE
  5
184
  8
0
  6
CONTINUOUS
 62
     7
 10
-857.8390204071
 20
34.6070814056
 30
0.0
 11
-858.2390122771
 21
34.207082085
 31
0.0
  0
LINE
  5
185
  8
0
  6
CONTINUOUS
 62
     7
 10
-858.2390122771
 20
30.0070854944
 30
0.0
 11
-857.8390204071
 21
29.6070861739
 31
0.0
  0
LINE
  5
186
  8
0
  6
CONTINUOUS
 62
     7
 10
-857.6190196633
 20
223.6070844454
 30
0.0
 11
-857.8390204071
 21
223.6070844454
 31
0.0
  0
LINE
  5
187
  8
0
  6
CONTINUOUS
 62
     7
 10
-857.8390204071
 20
218.6070817632
 30
0.0
 11
-857.6190196633
 21
218.6070817632
 31
0.0
  0
LINE
  5
188
  8
0
  6
CONTINUOUS
 62
     7
 10
-857.8390204071
 20
223.6070844454
 30
0.0
 11
-858.2390122771
 21
223.2070851249
 31
0.0
  0
LINE
  5
189
  8
0
  6
CONTINUOUS
 62
     7
 10
-858.2390122771
 20
219.0070885343
 30
0.0
 11
-857.8390204071
 21
218.6070817632
 31
0.0
  0
LINE
  5
18A
  8
0
  6
CONTINUOUS
 62
     7
 10
-857.6190196633
 20
74.6070879621
 30
0.0
 11
-857.8390204071
 21
74.6070879621
 31
0.0
  0
LINE
  5
18B
  8
0
  6
CONTINUOUS
 62
     7
 10
-857.8390204071
 20
69.6070852799
 30
0.0
 11
-857.6190196633
 21
69.6070852799
 31
0.0
  0
LINE
  5
18C
  8
0
  6
CONTINUOUS
 62
     7
 10
-857.8390204071
 20
74.6070879621
 30
0.0
 11
-858.2390122771
 21
74.207081191
 31
0.0
  0
LINE
  5
18D
  8
0
  6
CONTINUOUS
 62
     7
 10
-858.2390122771
 20
70.0070846004
 30
0.0
 11
-857.8390204071
 21
69.6070852799
 31
0.0
  0
LINE
  5
18E
  8
0
  6
CONTINUOUS
 62
     7
 10
-857.6190196633
 20
263.6070835513
 30
0.0
 11
-857.8390204071
 21
263.6070835513
 31
0.0
  0
LINE
  5
18F
  8
0
  6
CONTINUOUS
 62
     7
 10
-857.8390204071
 20
258.6070883197
 30
0.0
 11
-857.6190196633
 21
258.6070883197
 31
0.0
  0
LINE
  5
190
  8
0
  6
CONTINUOUS
 62
     7
 10
-857.8390204071
 20
263.6070835513
 30
0.0
 11
-858.2390122771
 21
263.2070842308
 31
0.0
  0
LINE
  5
191
  8
0
  6
CONTINUOUS
 62
     7
 10
-858.2390122771
 20
259.0070876402
 30
0.0
 11
-857.8390204071
 21
258.6070883197
 31
0.0
  0
LINE
  5
192
  8
0
  6
CONTINUOUS
 62
     7
 10
-701.7190181374
 20
295.1070803327
 30
0.0
 11
-701.745601809
 21
295.1063799781
 31
0.0
  0
LINE
  5
193
  8
0
  6
CONTINUOUS
 62
     7
 10
-726.7190166473
 20
295.1070803327
 30
0.0
 11
-726.7456003188
 21
295.1063799781
 31
0.0
  0
LINE
  5
194
  8
0
  6
CONTINUOUS
 62
     7
 10
-714.4924350738
 20
295.1063799781
 30
0.0
 11
-714.5190187454
 21
295.1070803327
 31
0.0
  0
LINE
  5
195
  8
0
  6
CONTINUOUS
 62
     7
 10
-714.5190187454
 20
-1.8929106074
 30
0.0
 11
-714.4924350738
 21
-1.8922102529
 31
0.0
  0
LINE
  5
196
  8
0
  6
CONTINUOUS
 62
     7
 10
-726.7456003188
 20
-1.8922102529
 30
0.0
 11
-726.7190166473
 21
-1.8929106074
 31
0.0
  0
LINE
  5
197
  8
0
  6
CONTINUOUS
 62
     7
 10
-701.745601809
 20
-1.8922102529
 30
0.0
 11
-701.7190181374
 21
-1.8929106074
 31
0.0
  0
LINE
  5
198
  8
0
  6
CONTINUOUS
 62
     7
 10
-652.6190177261
 20
296.6070908231
 30
0.0
 11
-652.6190177261
 21
-3.3929210978
 31
0.0
  0
LINE
  5
199
  8
0
  6
CONTINUOUS
 62
     7
 10
-692.6190186947
 20
-3.3929210978
 30
0.0
 11
-692.6190186947
 21
296.6070908231
 31
0.0
  0
LINE
  5
19A
  8
0
  6
CONTINUOUS
 62
     7
 10
-654.8690176293
 20
-7.0929092246
 30
0.0
 11
-651.6190175622
 21
-7.0929092246
 31
0.0
  0
LINE
  5
19B
  8
0
  6
CONTINUOUS
 62
     7
 10
-651.6190175622
 20
-3.692911275
 30
0.0
 11
-654.8690176293
 21
-3.692911275
 31
0.0
  0
LINE
  5
19C
  8
0
  6
CONTINUOUS
 62
     7
 10
-651.6190175622
 20
-3.692911275
 30
0.0
 11
-651.6190175622
 21
-7.0929092246
 31
0.0
  0
LINE
  5
19D
  8
0
  6
CONTINUOUS
 62
     7
 10
-654.8690176293
 20
-3.3929210978
 30
0.0
 11
-651.9190179839
 21
-3.3929210978
 31
0.0
  0
LINE
  5
19E
  8
0
  6
CONTINUOUS
 62
     7
 10
-651.9190179839
 20
-3.3929210978
 30
0.0
 11
-651.6190175622
 21
-3.692911275
 31
0.0
  0
LINE
  5
19F
  8
0
  6
CONTINUOUS
 62
     7
 10
-651.9190179839
 20
-7.3929143029
 30
0.0
 11
-654.8690176293
 21
-7.3929143029
 31
0.0
  0
LINE
  5
1A0
  8
0
  6
CONTINUOUS
 62
     7
 10
-651.9190179839
 20
-7.3929143029
 30
0.0
 11
-651.6190175622
 21
-7.0929092246
 31
0.0
  0
LINE
  5
1A1
  8
0
  6
CONTINUOUS
 62
     7
 10
-690.81680893
 20
-3.3929210978
 30
0.0
 11
-654.8690176293
 21
-3.3929210978
 31
0.0
  0
LINE
  5
1A2
  8
0
  6
CONTINUOUS
 62
     7
 10
-654.8690176293
 20
-3.692911275
 30
0.0
 11
-690.81680893
 21
-3.692911275
 31
0.0
  0
LINE
  5
1A3
  8
0
  6
CONTINUOUS
 62
     7
 10
-654.8690176293
 20
-7.3929143029
 30
0.0
 11
-690.81680893
 21
-7.3929143029
 31
0.0
  0
LINE
  5
1A4
  8
0
  6
CONTINUOUS
 62
     7
 10
-690.81680893
 20
-7.0929092246
 30
0.0
 11
-654.8690176293
 21
-7.0929092246
 31
0.0
  0
LINE
  5
1A5
  8
0
  6
CONTINUOUS
 62
     7
 10
-693.026656723
 20
-7.0929092246
 30
0.0
 11
-690.81680893
 21
-7.0929092246
 31
0.0
  0
LINE
  5
1A6
  8
0
  6
CONTINUOUS
 62
     7
 10
-690.81680893
 20
-7.3929143029
 30
0.0
 11
-692.8226710021
 21
-7.3929143029
 31
0.0
  0
LINE
  5
1A7
  8
0
  6
CONTINUOUS
 62
     7
 10
-692.8226710021
 20
-3.3929210978
 30
0.0
 11
-690.81680893
 21
-3.3929210978
 31
0.0
  0
LINE
  5
1A8
  8
0
  6
CONTINUOUS
 62
     7
 10
-690.81680893
 20
-3.692911275
 30
0.0
 11
-693.026656723
 21
-3.692911275
 31
0.0
  0
LINE
  5
1A9
  8
0
  6
CONTINUOUS
 62
     7
 10
-693.026656723
 20
-3.692911275
 30
0.0
 11
-725.3786907255
 21
-3.692911275
 31
0.0
  0
LINE
  5
1AA
  8
0
  6
CONTINUOUS
 62
     7
 10
-714.8367338538
 20
-3.3929210978
 30
0.0
 11
-692.8226710021
 21
-3.3929210978
 31
0.0
  0
LINE
  5
1AB
  8
0
  6
CONTINUOUS
 62
     7
 10
-725.3786907255
 20
-7.0929092246
 30
0.0
 11
-693.026656723
 21
-7.0929092246
 31
0.0
  0
LINE
  5
1AC
  8
0
  6
CONTINUOUS
 62
     7
 10
-692.8226710021
 20
-7.3929143029
 30
0.0
 11
-725.1747050046
 21
-7.3929143029
 31
0.0
  0
LINE
  5
1AD
  8
0
  6
CONTINUOUS
 62
     7
 10
-725.3786907255
 20
-3.692911275
 30
0.0
 11
-727.6190169811
 21
-3.692911275
 31
0.0
  0
LINE
  5
1AE
  8
0
  6
CONTINUOUS
 62
     7
 10
-727.6190169811
 20
-7.0929092246
 30
0.0
 11
-725.3786907255
 21
-7.0929092246
 31
0.0
  0
LINE
  5
1AF
  8
0
  6
CONTINUOUS
 62
     7
 10
-725.1747050046
 20
-7.3929143029
 30
0.0
 11
-727.3190193533
 21
-7.3929143029
 31
0.0
  0
LINE
  5
1B0
  8
0
  6
CONTINUOUS
 62
     7
 10
-651.9190179839
 20
296.6070908231
 30
0.0
 11
-654.8690176293
 21
296.6070908231
 31
0.0
  0
LINE
  5
1B1
  8
0
  6
CONTINUOUS
 62
     7
 10
-654.8690176293
 20
296.9070810002
 30
0.0
 11
-651.6190175622
 21
296.9070810002
 31
0.0
  0
LINE
  5
1B2
  8
0
  6
CONTINUOUS
 62
     7
 10
-651.9190179839
 20
296.6070908231
 30
0.0
 11
-651.6190175622
 21
296.9070810002
 31
0.0
  0
LINE
  5
1B3
  8
0
  6
CONTINUOUS
 62
     7
 10
-651.6190175622
 20
300.3070789498
 30
0.0
 11
-654.8690176293
 21
300.3070789498
 31
0.0
  0
LINE
  5
1B4
  8
0
  6
CONTINUOUS
 62
     7
 10
-651.6190175622
 20
300.3070789498
 30
0.0
 11
-651.6190175622
 21
296.9070810002
 31
0.0
  0
LINE
  5
1B5
  8
0
  6
CONTINUOUS
 62
     7
 10
-654.8690176293
 20
300.6070840282
 30
0.0
 11
-651.9190179839
 21
300.6070840282
 31
0.0
  0
LINE
  5
1B6
  8
0
  6
CONTINUOUS
 62
     7
 10
-651.9190179839
 20
300.6070840282
 30
0.0
 11
-651.6190175622
 21
300.3070789498
 31
0.0
  0
LINE
  5
1B7
  8
0
  6
CONTINUOUS
 62
     7
 10
-654.8690176293
 20
296.6070908231
 30
0.0
 11
-690.81680893
 21
296.6070908231
 31
0.0
  0
LINE
  5
1B8
  8
0
  6
CONTINUOUS
 62
     7
 10
-690.81680893
 20
296.9070810002
 30
0.0
 11
-654.8690176293
 21
296.9070810002
 31
0.0
  0
LINE
  5
1B9
  8
0
  6
CONTINUOUS
 62
     7
 10
-654.8690176293
 20
300.3070789498
 30
0.0
 11
-690.81680893
 21
300.3070789498
 31
0.0
  0
LINE
  5
1BA
  8
0
  6
CONTINUOUS
 62
     7
 10
-690.81680893
 20
300.6070840282
 30
0.0
 11
-654.8690176293
 21
300.6070840282
 31
0.0
  0
LINE
  5
1BB
  8
0
  6
CONTINUOUS
 62
     7
 10
-692.8226710021
 20
300.6070840282
 30
0.0
 11
-690.81680893
 21
300.6070840282
 31
0.0
  0
LINE
  5
1BC
  8
0
  6
CONTINUOUS
 62
     7
 10
-690.81680893
 20
300.3070789498
 30
0.0
 11
-693.026656723
 21
300.3070789498
 31
0.0
  0
LINE
  5
1BD
  8
0
  6
CONTINUOUS
 62
     7
 10
-693.026656723
 20
296.9070810002
 30
0.0
 11
-690.81680893
 21
296.9070810002
 31
0.0
  0
LINE
  5
1BE
  8
0
  6
CONTINUOUS
 62
     7
 10
-690.81680893
 20
296.6070908231
 30
0.0
 11
-692.8226710021
 21
296.6070908231
 31
0.0
  0
LINE
  5
1BF
  8
0
  6
CONTINUOUS
 62
     7
 10
-725.3786907255
 20
296.9070810002
 30
0.0
 11
-693.026656723
 21
296.9070810002
 31
0.0
  0
LINE
  5
1C0
  8
0
  6
CONTINUOUS
 62
     7
 10
-692.8226710021
 20
296.6070908231
 30
0.0
 11
-714.8367338538
 21
296.6070908231
 31
0.0
  0
LINE
  5
1C1
  8
0
  6
CONTINUOUS
 62
     7
 10
-693.026656723
 20
300.3070789498
 30
0.0
 11
-725.3786907255
 21
300.3070789498
 31
0.0
  0
LINE
  5
1C2
  8
0
  6
CONTINUOUS
 62
     7
 10
-725.1747050046
 20
300.6070840282
 30
0.0
 11
-692.8226710021
 21
300.6070840282
 31
0.0
  0
LINE
  5
1C3
  8
0
  6
CONTINUOUS
 62
     7
 10
-727.6190169811
 20
296.9070810002
 30
0.0
 11
-725.3786907255
 21
296.9070810002
 31
0.0
  0
LINE
  5
1C4
  8
0
  6
CONTINUOUS
 62
     7
 10
-725.3786907255
 20
300.3070789498
 30
0.0
 11
-727.6190169811
 21
300.3070789498
 31
0.0
  0
LINE
  5
1C5
  8
0
  6
CONTINUOUS
 62
     7
 10
-727.3190193533
 20
300.6070840282
 30
0.0
 11
-725.1747050046
 21
300.6070840282
 31
0.0
  0
POLYLINE
  5
1C6
  8
0
  6
CONTINUOUS
 62
     7
 66
     1
 10
0.0
 20
0.0
 30
0.0
  0
VERTEX
  5
544
  8
0
  6
CONTINUOUS
 62
     7
 10
-876.8190168499
 20
163.1752389592
 30
0.0
  0
VERTEX
  5
545
  8
0
  6
CONTINUOUS
 62
     7
 10
-878.7020914912
 20
162.859874509
 30
0.0
  0
VERTEX
  5
546
  8
0
  6
CONTINUOUS
 62
     7
 10
-880.1656686425
 20
162.5281467212
 30
0.0
  0
SEQEND
  5
547
  8
0
  6
CONTINUOUS
 62
     7
  0
LINE
  5
1C7
  8
0
  6
CONTINUOUS
 62
     7
 10
-876.8190168499
 20
161.6070845273
 30
0.0
 11
-878.8620554566
 21
161.6070845273
 31
0.0
  0
ARC
  5
1C8
  8
0
  6
CONTINUOUS
 62
     7
 10
-878.8620172668
 20
160.6071220527
 30
0.0
 40
0.9999615440998878
 50
90.0021881959
 51
170.7018156392
  0
ARC
  5
1C9
  8
0
  6
CONTINUOUS
 62
     7
 10
-793.3190175686
 20
146.6070848626
 30
0.0
 40
87.68108752478985
 50
170.7052868851
 51
189.2946613374
  0
ARC
  5
1CA
  8
0
  6
CONTINUOUS
 62
     7
 10
-878.8620022933
 20
132.6070677635
 30
0.0
 40
0.9999816342882737
 50
189.2946203141
 51
270.0003690724
  0
LINE
  5
1CB
  8
0
  6
CONTINUOUS
 62
     7
 10
-876.8190168499
 20
131.6070851979
 30
0.0
 11
-878.8619958519
 21
131.6070851979
 31
0.0
  0
LINE
  5
1CC
  8
0
  6
CONTINUOUS
 62
     7
 10
-876.8190168499
 20
130.038956843
 30
0.0
 11
-876.8190168499
 21
131.6070851979
 31
0.0
  0
POLYLINE
  5
1CD
  8
0
  6
CONTINUOUS
 62
     7
 66
     1
 10
0.0
 20
0.0
 30
0.0
  0
VERTEX
  5
548
  8
0
  6
CONTINUOUS
 62
     7
 10
-880.1656686425
 20
130.6860248667
 30
0.0
  0
VERTEX
  5
549
  8
0
  6
CONTINUOUS
 62
     7
 10
-878.2991491913
 20
130.2763919455
 30
0.0
  0
VERTEX
  5
54A
  8
0
  6
CONTINUOUS
 62
     7
 10
-876.8190168499
 20
130.038956843
 30
0.0
  0
SEQEND
  5
54B
  8
0
  6
CONTINUOUS
 62
     7
  0
LINE
  5
1CE
  8
0
  6
CONTINUOUS
 62
     7
 10
-877.8485976815
 20
161.6070845273
 30
0.0
 11
-877.8485976815
 21
160.6070852948
 31
0.0
  0
LINE
  5
1CF
  8
0
  6
CONTINUOUS
 62
     7
 10
-877.8485976815
 20
131.6070851979
 30
0.0
 11
-877.8485976815
 21
132.6070844305
 31
0.0
  0
POLYLINE
  5
1D0
  8
0
  6
CONTINUOUS
 62
     7
 66
     1
 10
0.0
 20
0.0
 30
0.0
  0
VERTEX
  5
54C
  8
0
  6
CONTINUOUS
 62
     7
 10
-876.8190168499
 20
166.1930370254
 30
0.0
  0
VERTEX
  5
54D
  8
0
  6
CONTINUOUS
 62
     7
 10
-878.5815261959
 20
165.9288170857
 30
0.0
  0
VERTEX
  5
54E
  8
0
  6
CONTINUOUS
 62
     7
 10
-879.9542956709
 20
165.6546673847
 30
0.0
  0
SEQEND
  5
54F
  8
0
  6
CONTINUOUS
 62
     7
  0
POLYLINE
  5
1D1
  8
0
  6
CONTINUOUS
 62
     7
 66
     1
 10
0.0
 20
0.0
 30
0.0
  0
VERTEX
  5
550
  8
0
  6
CONTINUOUS
 62
     7
 10
-880.1656686425
 20
162.5281467212
 30
0.0
  0
VERTEX
  5
551
  8
0
  6
CONTINUOUS
 62
     7
 10
-880.2187614798
 20
162.5378827674
 30
0.0
  0
VERTEX
  5
552
  8
0
  6
CONTINUOUS
 62
     7
 10
-880.2701406836
 20
162.5473003012
 30
0.0
  0
VERTEX
  5
553
  8
0
  6
CONTINUOUS
 62
     7
 10
-880.3181075215
 20
162.5560919863
 30
0.0
  0
VERTEX
  5
554
  8
0
  6
CONTINUOUS
 62
     7
 10
-880.3610824704
 20
162.563972838
 30
0.0
  0
VERTEX
  5
555
  8
0
  6
CONTINUOUS
 62
     7
 10
-880.3976797222
 20
162.5706820858
 30
0.0
  0
VERTEX
  5
556
  8
0
  6
CONTINUOUS
 62
     7
 10
-880.4267071842
 20
162.5760018003
 30
0.0
  0
VERTEX
  5
557
  8
0
  6
CONTINUOUS
 62
     7
 10
-880.4472111821
 20
162.5797606182
 30
0.0
  0
VERTEX
  5
558
  8
0
  6
CONTINUOUS
 62
     7
 10
-880.4585062622
 20
162.5818318796
 30
0.0
  0
SEQEND
  5
559
  8
0
  6
CONTINUOUS
 62
     7
  0
ARC
  5
1D2
  8
0
  6
CONTINUOUS
 62
     7
 10
-890.5197448628
 20
164.9986372414
 30
0.0
 40
10.34743786325348
 50
346.4929160934
 51
2.3650601821
  0
ARC
  5
1D3
  8
0
  6
CONTINUOUS
 62
     7
 10
-879.8871265489
 20
165.3613036555
 30
0.0
 40
0.3009514625548662
 50
102.8964205731
 51
167.6565558573
  0
ARC
  5
1D4
  8
0
  6
CONTINUOUS
 62
     7
 10
-889.6455042011
 20
128.300805988
 30
0.0
 40
9.47823675227781
 50
356.9017987782
 51
14.2402249463
  0
POLYLINE
  5
1D5
  8
0
  6
CONTINUOUS
 62
     7
 66
     1
 10
0.0
 20
0.0
 30
0.0
  0
VERTEX
  5
55A
  8
0
  6
CONTINUOUS
 62
     7
 10
-880.1656686425
 20
130.6860248667
 30
0.0
  0
VERTEX
  5
55B
  8
0
  6
CONTINUOUS
 62
     7
 10
-880.2187614798
 20
130.6762888205
 30
0.0
  0
VERTEX
  5
55C
  8
0
  6
CONTINUOUS
 62
     7
 10
-880.2701406836
 20
130.6668712867
 30
0.0
  0
VERTEX
  5
55D
  8
0
  6
CONTINUOUS
 62
     7
 10
-880.3181075215
 20
130.6580777389
 30
0.0
  0
VERTEX
  5
55E
  8
0
  6
CONTINUOUS
 62
     7
 10
-880.3610824704
 20
130.6501987499
 30
0.0
  0
VERTEX
  5
55F
  8
0
  6
CONTINUOUS
 62
     7
 10
-880.3976797222
 20
130.6434895021
 30
0.0
  0
VERTEX
  5
560
  8
0
  6
CONTINUOUS
 62
     7
 10
-880.4267071842
 20
130.6381679249
 30
0.0
  0
VERTEX
  5
561
  8
0
  6
CONTINUOUS
 62
     7
 10
-880.4472111821
 20
130.6344109696
 30
0.0
  0
VERTEX
  5
562
  8
0
  6
CONTINUOUS
 62
     7
 10
-880.4585062622
 20
130.6323378456
 30
0.0
  0
SEQEND
  5
563
  8
0
  6
CONTINUOUS
 62
     7
  0
LINE
  5
1D6
  8
0
  6
CONTINUOUS
 62
     7
 10
-881.9051556944
 20
133.849846862
 30
0.0
 11
-881.9073610663
 21
133.911100879
 31
0.0
  0
ARC
  5
1D7
  8
0
  6
CONTINUOUS
 62
     7
 10
-882.2020902608
 20
159.4070683056
 30
0.0
 40
0.300010265033838
 50
269.9998333312
 51
351.8086252301
  0
LINE
  5
1D8
  8
0
  6
CONTINUOUS
 62
     7
 10
-882.2020911335
 20
134.1070846764
 30
0.0
 11
-882.2036259531
 21
134.1482994256
 31
0.0
  0
LINE
  5
1D9
  8
0
  6
CONTINUOUS
 62
     7
 10
-882.6844268202
 20
141.0231242997
 30
0.0
 11
-882.6844268202
 21
152.1910510135
 31
0.0
  0
ARC
  5
1DA
  8
0
  6
CONTINUOUS
 62
     7
 10
-875.3190175686
 20
293.6070848626
 30
0.0
 40
2.500000000000727
 50
306.8698976459
 51
323.1301023542
  0
LINE
  5
1DB
  8
0
  6
CONTINUOUS
 62
     7
 10
-861.8190162539
 20
292.1070891542
 30
0.0
 11
-861.8190162539
 21
1.1070805711
 31
0.0
  0
ARC
  5
1DC
  8
0
  6
CONTINUOUS
 62
     7
 10
-875.3190175686
 20
-0.3929151374
 30
0.0
 40
2.500000000000034
 50
36.8698976458
 51
53.1301023542
  0
LINE
  5
1DD
  8
0
  6
CONTINUOUS
 62
     7
 10
-861.8190162539
 20
1.1070805711
 30
0.0
 11
-861.8190162539
 21
-1.8929106074
 31
0.0
  0
LINE
  5
1DE
  8
0
  6
CONTINUOUS
 62
     7
 10
-873.3190172076
 20
-1.8929106074
 30
0.0
 11
-861.8190162539
 21
-1.8929106074
 31
0.0
  0
POLYLINE
  5
1DF
  8
0
  6
CONTINUOUS
 62
     7
 66
     1
 10
0.0
 20
0.0
 30
0.0
  0
VERTEX
  5
564
  8
0
  6
CONTINUOUS
 62
     7
 10
-873.3190172076
 20
-1.8929106074
 30
0.0
  0
VERTEX
  5
565
  8
0
  6
CONTINUOUS
 62
     7
 10
-873.1044553875
 20
-1.8455100137
 30
0.0
  0
VERTEX
  5
566
  8
0
  6
CONTINUOUS
 62
     7
 10
-872.9473673462
 20
-1.6884368735
 30
0.0
  0
VERTEX
  5
567
  8
0
  6
CONTINUOUS
 62
     7
 10
-872.8511654496
 20
-1.4092040139
 30
0.0
  0
VERTEX
  5
568
  8
0
  6
CONTINUOUS
 62
     7
 10
-872.8190236449
 20
-1.0142338353
 30
0.0
  0
VERTEX
  5
569
  8
0
  6
CONTINUOUS
 62
     7
 10
-872.8510015368
 20
-0.5257290679
 30
0.0
  0
VERTEX
  5
56A
  8
0
  6
CONTINUOUS
 62
     7
 10
-872.946979916
 20
0.0170308274
 30
0.0
  0
VERTEX
  5
56B
  8
0
  6
CONTINUOUS
 62
     7
 10
-873.1046043991
 20
0.5763310117
 30
0.0
  0
VERTEX
  5
56C
  8
0
  6
CONTINUOUS
 62
     7
 10
-873.3190172076
 20
1.1070805711
 30
0.0
  0
SEQEND
  5
56D
  8
0
  6
CONTINUOUS
 62
     7
  0
POLYLINE
  5
1E0
  8
0
  6
CONTINUOUS
 62
     7
 66
     1
 10
0.0
 20
0.0
 30
0.0
  0
VERTEX
  5
56E
  8
0
  6
CONTINUOUS
 62
     7
 10
-873.8190107703
 20
1.6070890349
 30
0.0
  0
VERTEX
  5
56F
  8
0
  6
CONTINUOUS
 62
     7
 10
-874.3501924633
 20
1.821650855
 30
0.0
  0
VERTEX
  5
570
  8
0
  6
CONTINUOUS
 62
     7
 10
-874.9076151013
 20
1.9787388963
 30
0.0
  0
VERTEX
  5
571
  8
0
  6
CONTINUOUS
 62
     7
 10
-875.4524909615
 20
2.0749258918
 30
0.0
  0
VERTEX
  5
572
  8
0
  6
CONTINUOUS
 62
     7
 10
-875.9403400778
 20
2.1070825976
 30
0.0
  0
VERTEX
  5
573
  8
0
  6
CONTINUOUS
 62
     7
 10
-876.3357423901
 20
2.0751047057
 30
0.0
  0
VERTEX
  5
574
  8
0
  6
CONTINUOUS
 62
     7
 10
-876.6139768719
 20
1.9791263265
 30
0.0
  0
VERTEX
  5
575
  8
0
  6
CONTINUOUS
 62
     7
 10
-876.771690762
 20
1.8215018434
 30
0.0
  0
VERTEX
  5
576
  8
0
  6
CONTINUOUS
 62
     7
 10
-876.8190168499
 20
1.6070890349
 30
0.0
  0
SEQEND
  5
577
  8
0
  6
CONTINUOUS
 62
     7
  0
ARC
  5
1E1
  8
0
  6
CONTINUOUS
 62
     7
 10
-874.904793189
 20
1.6861288737
 30
0.0
 40
0.4217015431104765
 50
86.5873045338
 51
190.8028838431
  0
LINE
  5
1E2
  8
0
  6
CONTINUOUS
 62
     7
 10
-876.8190168499
 20
1.6070890349
 30
0.0
 11
-875.3190212607
 21
1.6070890349
 31
0.0
  0
LINE
  5
1E3
  8
0
  6
CONTINUOUS
 62
     7
 10
-873.3190172076
 20
-1.8929106074
 30
0.0
 11
-873.3190172076
 21
-0.3929150182
 31
0.0
  0
ARC
  5
1E4
  8
0
  6
CONTINUOUS
 62
     7
 10
-873.25086408
 20
0.0337038605
 30
0.0
 40
0.432028374535097
 50
260.9235902779
 51
1.6900756447
  0
LINE
  5
1E5
  8
0
  6
CONTINUOUS
 62
     7
 10
-876.8190168499
 20
1.6070890349
 30
0.0
 11
-876.8190168499
 21
291.6070806903
 31
0.0
  0
POLYLINE
  5
1E6
  8
0
  6
CONTINUOUS
 62
     7
 66
     1
 10
0.0
 20
0.0
 30
0.0
  0
VERTEX
  5
578
  8
0
  6
CONTINUOUS
 62
     7
 10
-873.8190107703
 20
291.6070806903
 30
0.0
  0
VERTEX
  5
579
  8
0
  6
CONTINUOUS
 62
     7
 10
-874.3501924633
 20
291.3925188703
 30
0.0
  0
VERTEX
  5
57A
  8
0
  6
CONTINUOUS
 62
     7
 10
-874.9076151013
 20
291.235430829
 30
0.0
  0
VERTEX
  5
57B
  8
0
  6
CONTINUOUS
 62
     7
 10
-875.4524909615
 20
291.1392438335
 30
0.0
  0
VERTEX
  5
57C
  8
0
  6
CONTINUOUS
 62
     7
 10
-875.9403400778
 20
291.1070871276
 30
0.0
  0
VERTEX
  5
57D
  8
0
  6
CONTINUOUS
 62
     7
 10
-876.3357423901
 20
291.1390650195
 30
0.0
  0
VERTEX
  5
57E
  8
0
  6
CONTINUOUS
 62
     7
 10
-876.6139768719
 20
291.2350433988
 30
0.0
  0
VERTEX
  5
57F
  8
0
  6
CONTINUOUS
 62
     7
 10
-876.771690762
 20
291.3926678819
 30
0.0
  0
VERTEX
  5
580
  8
0
  6
CONTINUOUS
 62
     7
 10
-876.8190168499
 20
291.6070806903
 30
0.0
  0
SEQEND
  5
581
  8
0
  6
CONTINUOUS
 62
     7
  0
POLYLINE
  5
1E7
  8
0
  6
CONTINUOUS
 62
     7
 66
     1
 10
0.0
 20
0.0
 30
0.0
  0
VERTEX
  5
582
  8
0
  6
CONTINUOUS
 62
     7
 10
-873.3190172076
 20
295.1070803327
 30
0.0
  0
VERTEX
  5
583
  8
0
  6
CONTINUOUS
 62
     7
 10
-873.1044553875
 20
295.0596797389
 30
0.0
  0
VERTEX
  5
584
  8
0
  6
CONTINUOUS
 62
     7
 10
-872.9473673462
 20
294.9026065988
 30
0.0
  0
VERTEX
  5
585
  8
0
  6
CONTINUOUS
 62
     7
 10
-872.8511654496
 20
294.6233737392
 30
0.0
  0
VERTEX
  5
586
  8
0
  6
CONTINUOUS
 62
     7
 10
-872.8190236449
 20
294.2284035606
 30
0.0
  0
VERTEX
  5
587
  8
0
  6
CONTINUOUS
 62
     7
 10
-872.8510015368
 20
293.7398987931
 30
0.0
  0
VERTEX
  5
588
  8
0
  6
CONTINUOUS
 62
     7
 10
-872.946979916
 20
293.1971388978
 30
0.0
  0
VERTEX
  5
589
  8
0
  6
CONTINUOUS
 62
     7
 10
-873.1046043991
 20
292.6378387136
 30
0.0
  0
VERTEX
  5
58A
  8
0
  6
CONTINUOUS
 62
     7
 10
-873.3190172076
 20
292.1070891542
 30
0.0
  0
SEQEND
  5
58B
  8
0
  6
CONTINUOUS
 62
     7
  0
LINE
  5
1E8
  8
0
  6
CONTINUOUS
 62
     7
 10
-861.8190162539
 20
295.1070803327
 30
0.0
 11
-873.3190172076
 21
295.1070803327
 31
0.0
  0
LINE
  5
1E9
  8
0
  6
CONTINUOUS
 62
     7
 10
-861.8190162539
 20
295.1070803327
 30
0.0
 11
-861.8190162539
 21
292.1070891542
 31
0.0
  0
ARC
  5
1EA
  8
0
  6
CONTINUOUS
 62
     7
 10
-873.25086408
 20
293.1804658648
 30
0.0
 40
0.4320283745350978
 50
358.3099243553
 51
99.0764097221
  0
LINE
  5
1EB
  8
0
  6
CONTINUOUS
 62
     7
 10
-873.3190172076
 20
295.1070803327
 30
0.0
 11
-873.3190172076
 21
293.6070847434
 31
0.0
  0
LINE
  5
1EC
  8
0
  6
CONTINUOUS
 62
     7
 10
-876.8190168499
 20
291.6070806903
 30
0.0
 11
-875.3190212607
 21
291.6070806903
 31
0.0
  0
ARC
  5
1ED
  8
0
  6
CONTINUOUS
 62
     7
 10
-874.904793189
 20
291.5280408515
 30
0.0
 40
0.4217015431104852
 50
169.1971161569
 51
273.4126954662
  0
LINE
  5
1EE
  8
0
  6
CONTINUOUS
 62
     7
 10
-873.5512518048
 20
-0.3929150182
 30
0.0
 11
-873.5512518048
 21
-1.8929106074
 31
0.0
  0
LINE
  5
1EF
  8
0
  6
CONTINUOUS
 62
     7
 10
-873.5512518048
 20
-0.3929150182
 30
0.0
 11
-873.3190172076
 21
-0.3929150182
 31
0.0
  0
LINE
  5
1F0
  8
0
  6
CONTINUOUS
 62
     7
 10
-873.5512518048
 20
-1.8929106074
 30
0.0
 11
-873.3190172076
 21
-1.8929106074
 31
0.0
  0
LINE
  5
1F1
  8
0
  6
CONTINUOUS
 62
     7
 10
-875.3190212607
 20
1.6070890349
 30
0.0
 11
-875.3190212607
 21
1.1070805711
 31
0.0
  0
LINE
  5
1F2
  8
0
  6
CONTINUOUS
 62
     7
 10
-875.3190212607
 20
1.1070805711
 30
0.0
 11
-876.8190168499
 21
1.1070805711
 31
0.0
  0
LINE
  5
1F3
  8
0
  6
CONTINUOUS
 62
     7
 10
-876.8190168499
 20
1.6070890349
 30
0.0
 11
-876.8190168499
 21
1.1070805711
 31
0.0
  0
LINE
  5
1F4
  8
0
  6
CONTINUOUS
 62
     7
 10
-875.3190212607
 20
292.1070891542
 30
0.0
 11
-876.8190168499
 21
292.1070891542
 31
0.0
  0
LINE
  5
1F5
  8
0
  6
CONTINUOUS
 62
     7
 10
-876.8190168499
 20
291.6070806903
 30
0.0
 11
-876.8190168499
 21
292.1070891542
 31
0.0
  0
LINE
  5
1F6
  8
0
  6
CONTINUOUS
 62
     7
 10
-875.3190212607
 20
291.6070806903
 30
0.0
 11
-875.3190212607
 21
292.1070891542
 31
0.0
  0
LINE
  5
1F7
  8
0
  6
CONTINUOUS
 62
     7
 10
-873.5512518048
 20
295.1070803327
 30
0.0
 11
-873.5512518048
 21
293.6070847434
 31
0.0
  0
LINE
  5
1F8
  8
0
  6
CONTINUOUS
 62
     7
 10
-873.5512518048
 20
293.6070847434
 30
0.0
 11
-873.3190172076
 21
293.6070847434
 31
0.0
  0
LINE
  5
1F9
  8
0
  6
CONTINUOUS
 62
     7
 10
-873.5512518048
 20
295.1070803327
 30
0.0
 11
-873.3190172076
 21
295.1070803327
 31
0.0
  0
LINE
  5
1FA
  8
0
  6
CONTINUOUS
 62
     7
 10
-873.8190107703
 20
-0.3929150182
 30
0.0
 11
-873.8190107703
 21
-1.8929106074
 31
0.0
  0
LINE
  5
1FB
  8
0
  6
CONTINUOUS
 62
     7
 10
-873.8190107703
 20
-0.3929150182
 30
0.0
 11
-873.5512518048
 21
-0.3929150182
 31
0.0
  0
LINE
  5
1FC
  8
0
  6
CONTINUOUS
 62
     7
 10
-873.8190107703
 20
-1.8929106074
 30
0.0
 11
-873.5512518048
 21
-1.8929106074
 31
0.0
  0
LINE
  5
1FD
  8
0
  6
CONTINUOUS
 62
     7
 10
-873.8190107703
 20
293.6070847434
 30
0.0
 11
-873.8190107703
 21
295.1070803327
 31
0.0
  0
LINE
  5
1FE
  8
0
  6
CONTINUOUS
 62
     7
 10
-873.8190107703
 20
293.6070847434
 30
0.0
 11
-873.5512518048
 21
293.6070847434
 31
0.0
  0
LINE
  5
1FF
  8
0
  6
CONTINUOUS
 62
     7
 10
-873.8190107703
 20
295.1070803327
 30
0.0
 11
-873.5512518048
 21
295.1070803327
 31
0.0
  0
ARC
  5
200
  8
0
  6
CONTINUOUS
 62
     7
 10
-873.8190269008
 20
1.1070793416
 30
0.0
 40
1.499994359829076
 50
179.9999530359
 51
270.0006161454
  0
ARC
  5
201
  8
0
  6
CONTINUOUS
 62
     7
 10
-873.8190342463
 20
1.1070719962
 30
0.0
 40
2.999982603686249
 50
179.9998362302
 51
270.0004483612
  0
ARC
  5
202
  8
0
  6
CONTINUOUS
 62
     7
 10
-873.8190269008
 20
292.1070903837
 30
0.0
 40
1.499994359829077
 50
89.9993838546
 51
180.0000469642
  0
ARC
  5
203
  8
0
  6
CONTINUOUS
 62
     7
 10
-873.8190342463
 20
292.1070977291
 30
0.0
 40
2.999982603686301
 50
89.9995516388
 51
180.0001637698
  0
ARC
  5
204
  8
0
  6
CONTINUOUS
 62
     7
 10
-875.8764183656
 20
295.8751882757
 30
0.0
 40
4.73810810074762
 50
279.1184165733
 51
295.7360246483
  0
LINE
  5
205
  8
0
  6
CONTINUOUS
 62
     7
 10
-832.3699258923
 20
295.1070803327
 30
0.0
 11
-832.3699258923
 21
295.1063799781
 31
0.0
  0
LINE
  5
206
  8
0
  6
CONTINUOUS
 62
     7
 10
-798.369916594
 20
295.1070803327
 30
0.0
 11
-798.4350495695
 21
295.1063799781
 31
0.0
  0
LINE
  5
207
  8
0
  6
CONTINUOUS
 62
     7
 10
-842.3699312567
 20
295.1063799781
 30
0.0
 11
-842.3699312567
 21
295.1070803327
 31
0.0
  0
LINE
  5
208
  8
0
  6
CONTINUOUS
 62
     7
 10
-852.6190244316
 20
-3.3929210978
 30
0.0
 11
-853.1190179943
 21
-3.3929210978
 31
0.0
  0
LINE
  5
209
  8
0
  6
CONTINUOUS
 62
     7
 10
-839.1190194249
 20
-5.3929102498
 30
0.0
 11
-853.1190179943
 21
-5.3929102498
 31
0.0
  0
LINE
  5
20A
  8
0
  6
CONTINUOUS
 62
     7
 10
-857.6190196633
 20
268.6070862335
 30
0.0
 11
-857.6190196633
 21
213.6070865316
 31
0.0
  0
LINE
  5
20B
  8
0
  6
CONTINUOUS
 62
     7
 10
-857.6190196633
 20
268.6070862335
 30
0.0
 11
-855.6190156102
 21
268.6070862335
 31
0.0
  0
LINE
  5
20C
  8
0
  6
CONTINUOUS
 62
     7
 10
-857.6190196633
 20
213.6070865316
 30
0.0
 11
-855.6190156102
 21
213.6070865316
 31
0.0
  0
LINE
  5
20D
  8
0
  6
CONTINUOUS
 62
     7
 10
-859.8973625063
 20
268.6070862335
 30
0.0
 11
-857.6190196633
 21
268.6070862335
 31
0.0
  0
LINE
  5
20E
  8
0
  6
CONTINUOUS
 62
     7
 10
-859.8973625063
 20
213.6070865316
 30
0.0
 11
-857.6190196633
 21
213.6070865316
 31
0.0
  0
LINE
  5
20F
  8
0
  6
CONTINUOUS
 62
     7
 10
-861.8190162539
 20
268.6070862335
 30
0.0
 11
-859.8973625063
 21
268.6070862335
 31
0.0
  0
LINE
  5
210
  8
0
  6
CONTINUOUS
 62
     7
 10
-861.8190162539
 20
213.6070865316
 30
0.0
 11
-859.8973625063
 21
213.6070865316
 31
0.0
  0
LINE
  5
211
  8
0
  6
CONTINUOUS
 62
     7
 10
-857.6190196633
 20
79.6070831937
 30
0.0
 11
-857.6190196633
 21
24.6070834917
 31
0.0
  0
LINE
  5
212
  8
0
  6
CONTINUOUS
 62
     7
 10
-857.6190196633
 20
79.6070831937
 30
0.0
 11
-855.6190156102
 21
79.6070831937
 31
0.0
  0
LINE
  5
213
  8
0
  6
CONTINUOUS
 62
     7
 10
-857.6190196633
 20
24.6070834917
 30
0.0
 11
-855.6190156102
 21
24.6070834917
 31
0.0
  0
LINE
  5
214
  8
0
  6
CONTINUOUS
 62
     7
 10
-859.8973625063
 20
79.6070831937
 30
0.0
 11
-857.6190196633
 21
79.6070831937
 31
0.0
  0
LINE
  5
215
  8
0
  6
CONTINUOUS
 62
     7
 10
-859.8973625063
 20
24.6070834917
 30
0.0
 11
-857.6190196633
 21
24.6070834917
 31
0.0
  0
LINE
  5
216
  8
0
  6
CONTINUOUS
 62
     7
 10
-861.8190162539
 20
79.6070831937
 30
0.0
 11
-859.8973625063
 21
79.6070831937
 31
0.0
  0
LINE
  5
217
  8
0
  6
CONTINUOUS
 62
     7
 10
-861.8190162539
 20
24.6070834917
 30
0.0
 11
-859.8973625063
 21
24.6070834917
 31
0.0
  0
ARC
  5
218
  8
0
  6
CONTINUOUS
 62
     7
 10
-852.1208297363
 20
290.1063777559
 30
0.0
 40
4.999999999972957
 50
90.0
 51
95.7183052343
  0
LINE
  5
219
  8
0
  6
CONTINUOUS
 62
     7
 10
-692.6190186947
 20
295.1063799781
 30
0.0
 11
-852.1208339094
 21
295.1063799781
 31
0.0
  0
LINE
  5
21A
  8
0
  6
CONTINUOUS
 62
     7
 10
-852.1208339094
 20
-1.8922102529
 30
0.0
 11
-692.6190186947
 21
-1.8922102529
 31
0.0
  0
ARC
  5
21B
  8
0
  6
CONTINUOUS
 62
     7
 10
-852.1208297363
 20
3.1077919694
 30
0.0
 40
5.000000000006448
 50
264.2816947658
 51
270.0
  0
ARC
  5
21C
  8
0
  6
CONTINUOUS
 62
     7
 10
-852.8130268671
 20
2.3514091147
 30
0.0
 40
4.223192763978377
 50
230.1789778611
 51
272.6329449098
  0
LINE
  5
21D
  8
0
  6
CONTINUOUS
 62
     7
 10
-855.5175238013
 20
-0.8922082263
 30
0.0
 11
-855.6190156102
 21
-0.3940177041
 31
0.0
  0
LINE
  5
21E
  8
0
  6
CONTINUOUS
 62
     7
 10
-855.6190156102
 20
-0.3491354066
 30
0.0
 11
-855.6190156102
 21
293.6788636369
 31
0.0
  0
POLYLINE
  5
21F
  8
0
  6
CONTINUOUS
 62
     7
 66
     1
 10
0.0
 20
0.0
 30
0.0
  0
VERTEX
  5
58C
  8
0
  6
CONTINUOUS
 62
     7
 10
-855.6190156102
 20
293.6788636369
 30
0.0
  0
VERTEX
  5
58D
  8
0
  6
CONTINUOUS
 62
     7
 10
-855.4416321873
 20
294.2153501433
 30
0.0
  0
VERTEX
  5
58E
  8
0
  6
CONTINUOUS
 62
     7
 10
-854.9233847021
 20
294.6112143916
 30
0.0
  0
VERTEX
  5
58F
  8
0
  6
CONTINUOUS
 62
     7
 10
-854.1166358351
 20
294.8532539529
 30
0.0
  0
VERTEX
  5
590
  8
0
  6
CONTINUOUS
 62
     7
 10
-853.4553670048
 20
294.96909558
 30
0.0
  0
VERTEX
  5
591
  8
0
  6
CONTINUOUS
 62
     7
 10
-852.6190244316
 20
295.0814950389
 30
0.0
  0
SEQEND
  5
592
  8
0
  6
CONTINUOUS
 62
     7
  0
LINE
  5
220
  8
0
  6
CONTINUOUS
 62
     7
 10
-852.6190244316
 20
295.1070803327
 30
0.0
 11
-852.6190244316
 21
296.6070908231
 31
0.0
  0
LINE
  5
221
  8
0
  6
CONTINUOUS
 62
     7
 10
-852.6190244316
 20
296.6070908231
 30
0.0
 11
-852.1208339094
 21
296.6070908231
 31
0.0
  0
LINE
  5
222
  8
0
  6
CONTINUOUS
 62
     7
 10
-852.6190244316
 20
295.1070803327
 30
0.0
 11
-852.1208339094
 21
295.1070803327
 31
0.0
  0
LINE
  5
223
  8
0
  6
CONTINUOUS
 62
     7
 10
-852.6190244316
 20
-3.3929210978
 30
0.0
 11
-852.6190244316
 21
-1.8929106074
 31
0.0
  0
LINE
  5
224
  8
0
  6
CONTINUOUS
 62
     7
 10
-852.1208339094
 20
-1.8929106074
 30
0.0
 11
-852.6190244316
 21
-1.8929106074
 31
0.0
  0
LINE
  5
225
  8
0
  6
CONTINUOUS
 62
     7
 10
-852.1208339094
 20
-3.3929210978
 30
0.0
 11
-852.6190244316
 21
-3.3929210978
 31
0.0
  0
LINE
  5
226
  8
0
  6
CONTINUOUS
 62
     7
 10
-852.1208339094
 20
296.6070908231
 30
0.0
 11
-714.8367338538
 21
296.6070908231
 31
0.0
  0
LINE
  5
227
  8
0
  6
CONTINUOUS
 62
     7
 10
-852.1208339094
 20
295.1070803327
 30
0.0
 11
-692.6190186947
 21
295.1070803327
 31
0.0
  0
LINE
  5
228
  8
0
  6
CONTINUOUS
 62
     7
 10
-692.6190186947
 20
-1.8929106074
 30
0.0
 11
-852.1208339094
 21
-1.8929106074
 31
0.0
  0
LINE
  5
229
  8
0
  6
CONTINUOUS
 62
     7
 10
-714.8367338538
 20
-3.3929210978
 30
0.0
 11
-852.1208339094
 21
-3.3929210978
 31
0.0
  0
POLYLINE
  5
22A
  8
0
  6
CONTINUOUS
 62
     7
 66
     1
 10
0.0
 20
0.0
 30
0.0
  0
VERTEX
  5
593
  8
0
  6
CONTINUOUS
 62
     7
 10
-852.6190244316
 20
295.1070803327
 30
0.0
  0
VERTEX
  5
594
  8
0
  6
CONTINUOUS
 62
     7
 10
-852.9681437373
 20
295.0658935231
 30
0.0
  0
VERTEX
  5
595
  8
0
  6
CONTINUOUS
 62
     7
 10
-853.1163655876
 20
295.0146633309
 30
0.0
  0
SEQEND
  5
596
  8
0
  6
CONTINUOUS
 62
     7
  0
ARC
  5
22B
  8
0
  6
CONTINUOUS
 62
     7
 10
-852.6190086509
 20
293.6070880238
 30
0.0
 40
3.000002799310781
 50
90.0003013901
 51
165.0543303044
  0
POLYLINE
  5
22C
  8
0
  6
CONTINUOUS
 62
     7
 66
     1
 10
0.0
 20
0.0
 30
0.0
  0
VERTEX
  5
597
  8
0
  6
CONTINUOUS
 62
     7
 10
-853.1137578844
 20
-1.8008363324
 30
0.0
  0
VERTEX
  5
598
  8
0
  6
CONTINUOUS
 62
     7
 10
-853.0371957182
 20
-1.8334400731
 30
0.0
  0
VERTEX
  5
599
  8
0
  6
CONTINUOUS
 62
     7
 10
-852.6190244316
 20
-1.8929106074
 30
0.0
  0
SEQEND
  5
59A
  8
0
  6
CONTINUOUS
 62
     7
  0
ARC
  5
22D
  8
0
  6
CONTINUOUS
 62
     7
 10
-852.6190116295
 20
-0.3929171172
 30
0.0
 40
3.000003980652702
 50
179.9999599112
 51
269.9997554975
  0
LINE
  5
22E
  8
0
  6
CONTINUOUS
 62
     7
 10
-855.5175387024
 20
294.3807977361
 30
0.0
 11
-855.6190156102
 21
293.6070847434
 31
0.0
  0
LINE
  5
22F
  8
0
  6
CONTINUOUS
 62
     7
 10
-855.6190156102
 20
-0.3929150182
 30
0.0
 11
-855.6190156102
 21
-0.3491354066
 31
0.0
  0
LINE
  5
230
  8
0
  6
CONTINUOUS
 62
     7
 10
-857.3277764677
 20
274.1227883023
 30
0.0
 11
-857.5365417361
 21
272.6373809499
 31
0.0
  0
LINE
  5
231
  8
0
  6
CONTINUOUS
 62
     7
 10
-857.3277764677
 20
274.1227883023
 30
0.0
 11
-861.8190162539
 21
274.7539865893
 31
0.0
  0
LINE
  5
232
  8
0
  6
CONTINUOUS
 62
     7
 10
-861.8190162539
 20
273.2392537517
 30
0.0
 11
-857.5365417361
 21
272.6373809499
 31
0.0
  0
LINE
  5
233
  8
0
  6
CONTINUOUS
 62
     7
 10
-861.8190162539
 20
18.2599860353
 30
0.0
 11
-857.3277764677
 21
18.8973981065
 31
0.0
  0
POLYLINE
  5
234
  8
0
  6
CONTINUOUS
 62
     7
 66
     1
 10
0.0
 20
0.0
 30
0.0
  0
VERTEX
  5
59B
  8
0
  6
CONTINUOUS
 62
     7
 10
-856.1368160605
 20
18.7396842164
 30
0.0
  0
VERTEX
  5
59C
  8
0
  6
CONTINUOUS
 62
     7
 10
-855.7545863747
 20
18.2291555327
 30
0.0
  0
VERTEX
  5
59D
  8
0
  6
CONTINUOUS
 62
     7
 10
-855.6190156102
 20
17.6059740705
 30
0.0
  0
SEQEND
  5
59E
  8
0
  6
CONTINUOUS
 62
     7
  0
POLYLINE
  5
235
  8
0
  6
CONTINUOUS
 62
     7
 66
     1
 10
0.0
 20
0.0
 30
0.0
  0
VERTEX
  5
59F
  8
0
  6
CONTINUOUS
 62
     7
 10
-855.6190156102
 20
275.6081956548
 30
0.0
  0
VERTEX
  5
5A0
  8
0
  6
CONTINUOUS
 62
     7
 10
-855.7545863747
 20
274.9850141925
 30
0.0
  0
VERTEX
  5
5A1
  8
0
  6
CONTINUOUS
 62
     7
 10
-856.1368160605
 20
274.4744855088
 30
0.0
  0
SEQEND
  5
5A2
  8
0
  6
CONTINUOUS
 62
     7
  0
POLYLINE
  5
236
  8
0
  6
CONTINUOUS
 62
     7
 66
     1
 10
0.0
 20
0.0
 30
0.0
  0
VERTEX
  5
5A3
  8
0
  6
CONTINUOUS
 62
     7
 10
-856.3424371838
 20
272.7176982087
 30
0.0
  0
VERTEX
  5
5A4
  8
0
  6
CONTINUOUS
 62
     7
 10
-856.2693618893
 20
272.7115738315
 30
0.0
  0
VERTEX
  5
5A5
  8
0
  6
CONTINUOUS
 62
     7
 10
-856.1368160605
 20
272.6997572106
 30
0.0
  0
SEQEND
  5
5A6
  8
0
  6
CONTINUOUS
 62
     7
  0
ARC
  5
237
  8
0
  6
CONTINUOUS
 62
     7
 10
-868.6323265216
 20
161.4589177148
 30
0.0
 40
142.9914005349179
 50
274.6183503062
 51
275.0671788829
  0
POLYLINE
  5
238
  8
0
  6
CONTINUOUS
 62
     7
 66
     1
 10
0.0
 20
0.0
 30
0.0
  0
VERTEX
  5
5A7
  8
0
  6
CONTINUOUS
 62
     7
 10
-855.6190156102
 20
17.6048713845
 30
0.0
  0
VERTEX
  5
5A8
  8
0
  6
CONTINUOUS
 62
     7
 10
-855.7545863747
 20
18.3563369435
 30
0.0
  0
VERTEX
  5
5A9
  8
0
  6
CONTINUOUS
 62
     7
 10
-856.1368160605
 20
19.1077876014
 30
0.0
  0
SEQEND
  5
5AA
  8
0
  6
CONTINUOUS
 62
     7
  0
ARC
  5
239
  8
0
  6
CONTINUOUS
 62
     7
 10
-861.7188931902
 20
47.2304257541
 30
0.0
 40
28.67128113199756
 50
278.8097405312
 51
281.2267480843
  0
ARC
  5
23A
  8
0
  6
CONTINUOUS
 62
     7
 10
-861.7278718375
 20
244.4349178734
 30
0.0
 40
28.72091070378033
 50
78.774642744
 51
81.1874782763
  0
LINE
  5
23B
  8
0
  6
CONTINUOUS
 62
     7
 10
-856.1368160605
 20
272.6063716334
 30
0.0
 11
-856.1368160605
 21
274.1063821239
 31
0.0
  0
POLYLINE
  5
23C
  8
0
  6
CONTINUOUS
 62
     7
 66
     1
 10
0.0
 20
0.0
 30
0.0
  0
VERTEX
  5
5AB
  8
0
  6
CONTINUOUS
 62
     7
 10
-856.1368160605
 20
274.1063821239
 30
0.0
  0
VERTEX
  5
5AC
  8
0
  6
CONTINUOUS
 62
     7
 10
-855.7545863747
 20
274.8605745954
 30
0.0
  0
VERTEX
  5
5AD
  8
0
  6
CONTINUOUS
 62
     7
 10
-855.6190156102
 20
275.614781968
 30
0.0
  0
SEQEND
  5
5AE
  8
0
  6
CONTINUOUS
 62
     7
  0
ARC
  5
23D
  8
0
  6
CONTINUOUS
 62
     7
 10
-857.0930018711
 20
275.1240728301
 30
0.0
 40
2.525938265101853
 50
259.8867668991
 51
292.243696219
  0
ARC
  5
23E
  8
0
  6
CONTINUOUS
 62
     7
 10
-857.1190205943
 20
275.6082104743
 30
0.0
 40
1.50001934779279
 50
262.0002495898
 51
310.9040755073
  0
POLYLINE
  5
23F
  8
0
  6
CONTINUOUS
 62
     7
 66
     1
 10
0.0
 20
0.0
 30
0.0
  0
VERTEX
  5
5AF
  8
0
  6
CONTINUOUS
 62
     7
 10
-856.6235177874
 20
19.0151917857
 30
0.0
  0
VERTEX
  5
5B0
  8
0
  6
CONTINUOUS
 62
     7
 10
-856.3991808056
 20
18.9219701213
 30
0.0
  0
VERTEX
  5
5B1
  8
0
  6
CONTINUOUS
 62
     7
 10
-856.1368160605
 20
18.7396842164
 30
0.0
  0
SEQEND
  5
5B2
  8
0
  6
CONTINUOUS
 62
     7
  0
POLYLINE
  5
240
  8
0
  6
CONTINUOUS
 62
     7
 66
     1
 10
0.0
 20
0.0
 30
0.0
  0
VERTEX
  5
5B3
  8
0
  6
CONTINUOUS
 62
     7
 10
-856.5389089941
 20
274.2341297788
 30
0.0
  0
VERTEX
  5
5B4
  8
0
  6
CONTINUOUS
 62
     7
 10
-856.8979375719
 20
274.2641854209
 30
0.0
  0
VERTEX
  5
5B5
  8
0
  6
CONTINUOUS
 62
     7
 10
-857.5365417361
 20
274.3167716188
 30
0.0
  0
SEQEND
  5
5B6
  8
0
  6
CONTINUOUS
 62
     7
  0
LINE
  5
241
  8
0
  6
CONTINUOUS
 62
     7
 10
-857.3277764677
 20
274.3167716188
 30
0.0
 11
-857.5365417361
 21
274.3167716188
 31
0.0
  0
LINE
  5
242
  8
0
  6
CONTINUOUS
 62
     7
 10
-857.1160309672
 20
274.2819029016
 30
0.0
 11
-857.3277764677
 21
274.3167716188
 31
0.0
  0
LINE
  5
243
  8
0
  6
CONTINUOUS
 62
     7
 10
-861.8190162539
 20
274.9245601815
 30
0.0
 11
-857.5365417361
 21
274.3167716188
 31
0.0
  0
LINE
  5
244
  8
0
  6
CONTINUOUS
 62
     7
 10
-861.8190162539
 20
274.95418369
 30
0.0
 11
-857.3277764677
 21
274.3167716188
 31
0.0
  0
LINE
  5
245
  8
0
  6
CONTINUOUS
 62
     7
 10
-855.6190156102
 20
-0.3940177041
 30
0.0
 11
-855.6190156102
 21
-0.4212868291
 31
0.0
  0
LINE
  5
246
  8
0
  6
CONTINUOUS
 62
     7
 10
-855.6190156102
 20
-0.4212868291
 30
0.0
 11
-855.6190156102
 21
-0.4646939116
 31
0.0
  0
LINE
  5
247
  8
0
  6
CONTINUOUS
 62
     7
 10
-857.8390204071
 20
34.6070814056
 30
0.0
 11
-857.8390204071
 21
29.6070861739
 31
0.0
  0
LINE
  5
248
  8
0
  6
CONTINUOUS
 62
     7
 10
-858.2390122771
 20
30.0070854944
 30
0.0
 11
-858.2390122771
 21
34.207082085
 31
0.0
  0
LINE
  5
249
  8
0
  6
CONTINUOUS
 62
     7
 10
-857.8390204071
 20
218.6070817632
 30
0.0
 11
-857.8390204071
 21
223.6070844454
 31
0.0
  0
LINE
  5
24A
  8
0
  6
CONTINUOUS
 62
     7
 10
-858.2390122771
 20
219.0070885343
 30
0.0
 11
-858.2390122771
 21
223.2070851249
 31
0.0
  0
LINE
  5
24B
  8
0
  6
CONTINUOUS
 62
     7
 10
-857.8390204071
 20
74.6070879621
 30
0.0
 11
-857.8390204071
 21
69.6070852799
 31
0.0
  0
LINE
  5
24C
  8
0
  6
CONTINUOUS
 62
     7
 10
-858.2390122771
 20
70.0070846004
 30
0.0
 11
-858.2390122771
 21
74.207081191
 31
0.0
  0
LINE
  5
24D
  8
0
  6
CONTINUOUS
 62
     7
 10
-857.8390204071
 20
263.6070835513
 30
0.0
 11
-857.8390204071
 21
258.6070883197
 31
0.0
  0
LINE
  5
24E
  8
0
  6
CONTINUOUS
 62
     7
 10
-858.2390122771
 20
259.0070876402
 30
0.0
 11
-858.2390122771
 21
263.2070842308
 31
0.0
  0
ARC
  5
24F
  8
0
  6
CONTINUOUS
 62
     7
 10
-1434.6205756451
 20
294.1070848626
 30
0.0
 40
2.0
 50
90.0
 51
180.0
  0
LINE
  5
250
  8
0
  6
CONTINUOUS
 62
     7
 10
-1039.6205702807
 20
296.1070823592
 30
0.0
 11
-1434.6205810095
 21
296.1070823592
 31
0.0
  0
ARC
  5
251
  8
0
  6
CONTINUOUS
 62
     7
 10
-1039.6205756451
 20
294.1070848626
 30
0.0
 40
2.0
 50
0.0
 51
90.0
  0
LINE
  5
252
  8
0
  6
CONTINUOUS
 62
     7
 10
-1434.6205810095
 20
-2.892912634
 30
0.0
 11
-1039.6205702807
 21
-2.892912634
 31
0.0
  0
ARC
  5
253
  8
0
  6
CONTINUOUS
 62
     7
 10
-1434.6205756451
 20
-0.8929151374
 30
0.0
 40
2.000000000000002
 50
180.0
 51
270.0
  0
LINE
  5
254
  8
0
  6
CONTINUOUS
 62
     7
 10
-1436.6205701615
 20
294.1070783061
 30
0.0
 11
-1436.6205701615
 21
-0.8929085809
 31
0.0
  0
ARC
  5
255
  8
0
  6
CONTINUOUS
 62
     7
 10
-1039.6205756451
 20
-0.8929151374
 30
0.0
 40
2.000000000000002
 50
270.0
 51
0.0
  0
LINE
  5
256
  8
0
  6
CONTINUOUS
 62
     7
 10
-1037.6205811287
 20
-0.8929085809
 30
0.0
 11
-1037.6205811287
 21
294.1070783061
 31
0.0
  0
LINE
  5
257
  8
0
  6
CONTINUOUS
 62
     7
 10
-1446.1205819632
 20
296.6070908231
 30
0.0
 11
-1446.1205819632
 21
-3.3929210978
 31
0.0
  0
LINE
  5
258
  8
0
  6
CONTINUOUS
 62
     7
 10
-1456.1205724265
 20
-3.3929210978
 30
0.0
 11
-1456.1205724265
 21
296.6070908231
 31
0.0
  0
LINE
  5
259
  8
0
  6
CONTINUOUS
 62
     7
 10
-1018.1205788638
 20
296.6070908231
 30
0.0
 11
-1018.1205788638
 21
-3.3929210978
 31
0.0
  0
LINE
  5
25A
  8
0
  6
CONTINUOUS
 62
     7
 10
-1028.120569327
 20
-3.3929210978
 30
0.0
 11
-1028.120569327
 21
296.6070908231
 31
0.0
  0
LINE
  5
25B
  8
0
  6
CONTINUOUS
 62
     7
 10
-1448.3705827977
 20
-3.3929210978
 30
0.0
 11
-1445.4205701138
 21
-3.3929210978
 31
0.0
  0
LINE
  5
25C
  8
0
  6
CONTINUOUS
 62
     7
 10
-1445.1205799366
 20
-3.692911275
 30
0.0
 11
-1445.4205701138
 21
-3.3929210978
 31
0.0
  0
LINE
  5
25D
  8
0
  6
CONTINUOUS
 62
     7
 10
-1445.1205799366
 20
-3.692911275
 30
0.0
 11
-1448.3705827977
 21
-3.692911275
 31
0.0
  0
LINE
  5
25E
  8
0
  6
CONTINUOUS
 62
     7
 10
-1448.3705827977
 20
-7.0929092246
 30
0.0
 11
-1445.1205799366
 21
-7.0929092246
 31
0.0
  0
LINE
  5
25F
  8
0
  6
CONTINUOUS
 62
     7
 10
-1445.1205799366
 20
-3.692911275
 30
0.0
 11
-1445.1205799366
 21
-7.0929092246
 31
0.0
  0
LINE
  5
260
  8
0
  6
CONTINUOUS
 62
     7
 10
-1453.870571592
 20
-3.3929210978
 30
0.0
 11
-1448.3705827977
 21
-3.3929210978
 31
0.0
  0
LINE
  5
261
  8
0
  6
CONTINUOUS
 62
     7
 10
-1448.3705827977
 20
-3.692911275
 30
0.0
 11
-1453.870571592
 21
-3.692911275
 31
0.0
  0
LINE
  5
262
  8
0
  6
CONTINUOUS
 62
     7
 10
-1453.870571592
 20
-7.0929092246
 30
0.0
 11
-1448.3705827977
 21
-7.0929092246
 31
0.0
  0
LINE
  5
263
  8
0
  6
CONTINUOUS
 62
     7
 10
-1445.4205701138
 20
-7.3929143029
 30
0.0
 11
-1448.3705827977
 21
-7.3929143029
 31
0.0
  0
LINE
  5
264
  8
0
  6
CONTINUOUS
 62
     7
 10
-1445.4205701138
 20
-7.3929143029
 30
0.0
 11
-1445.1205799366
 21
-7.0929092246
 31
0.0
  0
LINE
  5
265
  8
0
  6
CONTINUOUS
 62
     7
 10
-1448.3705827977
 20
-7.3929143029
 30
0.0
 11
-1453.870571592
 21
-7.3929143029
 31
0.0
  0
LINE
  5
266
  8
0
  6
CONTINUOUS
 62
     7
 10
-1457.120574453
 20
-7.0929092246
 30
0.0
 11
-1453.870571592
 21
-7.0929092246
 31
0.0
  0
LINE
  5
267
  8
0
  6
CONTINUOUS
 62
     7
 10
-1457.120574453
 20
-7.0929092246
 30
0.0
 11
-1457.120574453
 21
-3.692911275
 31
0.0
  0
LINE
  5
268
  8
0
  6
CONTINUOUS
 62
     7
 10
-1453.870571592
 20
-3.692911275
 30
0.0
 11
-1457.120574453
 21
-3.692911275
 31
0.0
  0
LINE
  5
269
  8
0
  6
CONTINUOUS
 62
     7
 10
-1456.8205693747
 20
-3.3929210978
 30
0.0
 11
-1453.870571592
 21
-3.3929210978
 31
0.0
  0
LINE
  5
26A
  8
0
  6
CONTINUOUS
 62
     7
 10
-1456.8205693747
 20
-3.3929210978
 30
0.0
 11
-1457.120574453
 21
-3.692911275
 31
0.0
  0
LINE
  5
26B
  8
0
  6
CONTINUOUS
 62
     7
 10
-1453.870571592
 20
-7.3929143029
 30
0.0
 11
-1456.8205693747
 21
-7.3929143029
 31
0.0
  0
LINE
  5
26C
  8
0
  6
CONTINUOUS
 62
     7
 10
-1456.8205693747
 20
-7.3929143029
 30
0.0
 11
-1457.120574453
 21
-7.0929092246
 31
0.0
  0
LINE
  5
26D
  8
0
  6
CONTINUOUS
 62
     7
 10
-1445.1205799366
 20
-7.0929092246
 30
0.0
 11
-1444.2536601807
 21
-7.0929092246
 31
0.0
  0
LINE
  5
26E
  8
0
  6
CONTINUOUS
 62
     7
 10
-1444.4736311222
 20
-7.3929143029
 30
0.0
 11
-1445.4205701138
 21
-7.3929143029
 31
0.0
  0
LINE
  5
26F
  8
0
  6
CONTINUOUS
 62
     7
 10
-1444.2536601807
 20
-3.692911275
 30
0.0
 11
-1445.1205799366
 21
-3.692911275
 31
0.0
  0
LINE
  5
270
  8
0
  6
CONTINUOUS
 62
     7
 10
-1445.4205701138
 20
-3.3929210978
 30
0.0
 11
-1444.4736311222
 21
-3.3929210978
 31
0.0
  0
LINE
  5
271
  8
0
  6
CONTINUOUS
 62
     7
 10
-1444.2536601807
 20
-7.0929092246
 30
0.0
 11
-1415.9877816225
 21
-7.0929092246
 31
0.0
  0
LINE
  5
272
  8
0
  6
CONTINUOUS
 62
     7
 10
-1415.9877816225
 20
-3.692911275
 30
0.0
 11
-1444.2536601807
 21
-3.692911275
 31
0.0
  0
LINE
  5
273
  8
0
  6
CONTINUOUS
 62
     7
 10
-1416.2077674653
 20
-7.3929143029
 30
0.0
 11
-1444.4736311222
 21
-7.3929143029
 31
0.0
  0
LINE
  5
274
  8
0
  6
CONTINUOUS
 62
     7
 10
-1444.4736311222
 20
-3.3929210978
 30
0.0
 11
-1435.6198677803
 21
-3.3929210978
 31
0.0
  0
LINE
  5
275
  8
0
  6
CONTINUOUS
 62
     7
 10
-1415.9877816225
 20
-7.0929092246
 30
0.0
 11
-1414.120576718
 21
-7.0929092246
 31
0.0
  0
LINE
  5
276
  8
0
  6
CONTINUOUS
 62
     7
 10
-1414.120576718
 20
-7.0929092246
 30
0.0
 11
-1414.4205817963
 21
-7.3929143029
 31
0.0
  0
LINE
  5
277
  8
0
  6
CONTINUOUS
 62
     7
 10
-1414.4205817963
 20
-7.3929143029
 30
0.0
 11
-1416.2077674653
 21
-7.3929143029
 31
0.0
  0
LINE
  5
278
  8
0
  6
CONTINUOUS
 62
     7
 10
-1414.120576718
 20
-3.692911275
 30
0.0
 11
-1415.9877816225
 21
-3.692911275
 31
0.0
  0
LINE
  5
279
  8
0
  6
CONTINUOUS
 62
     7
 10
-1414.120576718
 20
-3.692911275
 30
0.0
 11
-1414.4205817963
 21
-3.3929210978
 31
0.0
  0
LINE
  5
27A
  8
0
  6
CONTINUOUS
 62
     7
 10
-1414.120576718
 20
-3.692911275
 30
0.0
 11
-1414.120576718
 21
-7.0929092246
 31
0.0
  0
LINE
  5
27B
  8
0
  6
CONTINUOUS
 62
     7
 10
-1448.3705827977
 20
300.6070840282
 30
0.0
 11
-1445.4205701138
 21
300.6070840282
 31
0.0
  0
LINE
  5
27C
  8
0
  6
CONTINUOUS
 62
     7
 10
-1445.1205799366
 20
300.3070789498
 30
0.0
 11
-1445.4205701138
 21
300.6070840282
 31
0.0
  0
LINE
  5
27D
  8
0
  6
CONTINUOUS
 62
     7
 10
-1445.1205799366
 20
300.3070789498
 30
0.0
 11
-1448.3705827977
 21
300.3070789498
 31
0.0
  0
LINE
  5
27E
  8
0
  6
CONTINUOUS
 62
     7
 10
-1448.3705827977
 20
296.9070810002
 30
0.0
 11
-1445.1205799366
 21
296.9070810002
 31
0.0
  0
LINE
  5
27F
  8
0
  6
CONTINUOUS
 62
     7
 10
-1445.1205799366
 20
300.3070789498
 30
0.0
 11
-1445.1205799366
 21
296.9070810002
 31
0.0
  0
LINE
  5
280
  8
0
  6
CONTINUOUS
 62
     7
 10
-1453.870571592
 20
296.9070810002
 30
0.0
 11
-1448.3705827977
 21
296.9070810002
 31
0.0
  0
LINE
  5
281
  8
0
  6
CONTINUOUS
 62
     7
 10
-1448.3705827977
 20
300.3070789498
 30
0.0
 11
-1453.870571592
 21
300.3070789498
 31
0.0
  0
LINE
  5
282
  8
0
  6
CONTINUOUS
 62
     7
 10
-1453.870571592
 20
300.6070840282
 30
0.0
 11
-1448.3705827977
 21
300.6070840282
 31
0.0
  0
LINE
  5
283
  8
0
  6
CONTINUOUS
 62
     7
 10
-1445.4205701138
 20
296.6070908231
 30
0.0
 11
-1448.3705827977
 21
296.6070908231
 31
0.0
  0
LINE
  5
284
  8
0
  6
CONTINUOUS
 62
     7
 10
-1445.4205701138
 20
296.6070908231
 30
0.0
 11
-1445.1205799366
 21
296.9070810002
 31
0.0
  0
LINE
  5
285
  8
0
  6
CONTINUOUS
 62
     7
 10
-1448.3705827977
 20
296.6070908231
 30
0.0
 11
-1453.870571592
 21
296.6070908231
 31
0.0
  0
LINE
  5
286
  8
0
  6
CONTINUOUS
 62
     7
 10
-1456.8205693747
 20
300.6070840282
 30
0.0
 11
-1453.870571592
 21
300.6070840282
 31
0.0
  0
LINE
  5
287
  8
0
  6
CONTINUOUS
 62
     7
 10
-1453.870571592
 20
300.3070789498
 30
0.0
 11
-1457.120574453
 21
300.3070789498
 31
0.0
  0
LINE
  5
288
  8
0
  6
CONTINUOUS
 62
     7
 10
-1456.8205693747
 20
300.6070840282
 30
0.0
 11
-1457.120574453
 21
300.3070789498
 31
0.0
  0
LINE
  5
289
  8
0
  6
CONTINUOUS
 62
     7
 10
-1457.120574453
 20
296.9070810002
 30
0.0
 11
-1453.870571592
 21
296.9070810002
 31
0.0
  0
LINE
  5
28A
  8
0
  6
CONTINUOUS
 62
     7
 10
-1457.120574453
 20
296.9070810002
 30
0.0
 11
-1457.120574453
 21
300.3070789498
 31
0.0
  0
LINE
  5
28B
  8
0
  6
CONTINUOUS
 62
     7
 10
-1453.870571592
 20
296.6070908231
 30
0.0
 11
-1456.8205693747
 21
296.6070908231
 31
0.0
  0
LINE
  5
28C
  8
0
  6
CONTINUOUS
 62
     7
 10
-1456.8205693747
 20
296.6070908231
 30
0.0
 11
-1457.120574453
 21
296.9070810002
 31
0.0
  0
LINE
  5
28D
  8
0
  6
CONTINUOUS
 62
     7
 10
-1445.1205799366
 20
296.9070810002
 30
0.0
 11
-1444.2536601807
 21
296.9070810002
 31
0.0
  0
LINE
  5
28E
  8
0
  6
CONTINUOUS
 62
     7
 10
-1444.4736311222
 20
296.6070908231
 30
0.0
 11
-1445.4205701138
 21
296.6070908231
 31
0.0
  0
LINE
  5
28F
  8
0
  6
CONTINUOUS
 62
     7
 10
-1444.2536601807
 20
300.3070789498
 30
0.0
 11
-1445.1205799366
 21
300.3070789498
 31
0.0
  0
LINE
  5
290
  8
0
  6
CONTINUOUS
 62
     7
 10
-1445.4205701138
 20
300.6070840282
 30
0.0
 11
-1444.4736311222
 21
300.6070840282
 31
0.0
  0
LINE
  5
291
  8
0
  6
CONTINUOUS
 62
     7
 10
-1415.9877816225
 20
300.3070789498
 30
0.0
 11
-1444.2536601807
 21
300.3070789498
 31
0.0
  0
LINE
  5
292
  8
0
  6
CONTINUOUS
 62
     7
 10
-1444.4736311222
 20
300.6070840282
 30
0.0
 11
-1416.2077674653
 21
300.6070840282
 31
0.0
  0
LINE
  5
293
  8
0
  6
CONTINUOUS
 62
     7
 10
-1444.2536601807
 20
296.9070810002
 30
0.0
 11
-1415.9877816225
 21
296.9070810002
 31
0.0
  0
LINE
  5
294
  8
0
  6
CONTINUOUS
 62
     7
 10
-1435.6198677803
 20
296.6070908231
 30
0.0
 11
-1444.4736311222
 21
296.6070908231
 31
0.0
  0
LINE
  5
295
  8
0
  6
CONTINUOUS
 62
     7
 10
-1415.9877816225
 20
296.9070810002
 30
0.0
 11
-1414.120576718
 21
296.9070810002
 31
0.0
  0
LINE
  5
296
  8
0
  6
CONTINUOUS
 62
     7
 10
-1414.120576718
 20
296.9070810002
 30
0.0
 11
-1414.4205817963
 21
296.6070908231
 31
0.0
  0
LINE
  5
297
  8
0
  6
CONTINUOUS
 62
     7
 10
-1414.120576718
 20
300.3070789498
 30
0.0
 11
-1415.9877816225
 21
300.3070789498
 31
0.0
  0
LINE
  5
298
  8
0
  6
CONTINUOUS
 62
     7
 10
-1414.120576718
 20
300.3070789498
 30
0.0
 11
-1414.4205817963
 21
300.6070840282
 31
0.0
  0
LINE
  5
299
  8
0
  6
CONTINUOUS
 62
     7
 10
-1416.2077674653
 20
300.6070840282
 30
0.0
 11
-1414.4205817963
 21
300.6070840282
 31
0.0
  0
LINE
  5
29A
  8
0
  6
CONTINUOUS
 62
     7
 10
-1414.120576718
 20
300.3070789498
 30
0.0
 11
-1414.120576718
 21
296.9070810002
 31
0.0
  0
LINE
  5
29B
  8
0
  6
CONTINUOUS
 62
     7
 10
-1017.1205768372
 20
-3.692911275
 30
0.0
 11
-1020.3705796982
 21
-3.692911275
 31
0.0
  0
LINE
  5
29C
  8
0
  6
CONTINUOUS
 62
     7
 10
-1017.1205768372
 20
-3.692911275
 30
0.0
 11
-1017.1205768372
 21
-7.0929092246
 31
0.0
  0
LINE
  5
29D
  8
0
  6
CONTINUOUS
 62
     7
 10
-1020.3705796982
 20
-7.0929092246
 30
0.0
 11
-1017.1205768372
 21
-7.0929092246
 31
0.0
  0
LINE
  5
29E
  8
0
  6
CONTINUOUS
 62
     7
 10
-1017.4205819155
 20
-7.3929143029
 30
0.0
 11
-1020.3705796982
 21
-7.3929143029
 31
0.0
  0
LINE
  5
29F
  8
0
  6
CONTINUOUS
 62
     7
 10
-1017.4205819155
 20
-7.3929143029
 30
0.0
 11
-1017.1205768372
 21
-7.0929092246
 31
0.0
  0
LINE
  5
2A0
  8
0
  6
CONTINUOUS
 62
     7
 10
-1020.3705796982
 20
-3.692911275
 30
0.0
 11
-1025.8705684925
 21
-3.692911275
 31
0.0
  0
LINE
  5
2A1
  8
0
  6
CONTINUOUS
 62
     7
 10
-1025.8705684925
 20
-7.0929092246
 30
0.0
 11
-1020.3705796982
 21
-7.0929092246
 31
0.0
  0
LINE
  5
2A2
  8
0
  6
CONTINUOUS
 62
     7
 10
-1020.3705796982
 20
-7.3929143029
 30
0.0
 11
-1025.8705684925
 21
-7.3929143029
 31
0.0
  0
LINE
  5
2A3
  8
0
  6
CONTINUOUS
 62
     7
 10
-1020.3705796982
 20
-3.3929210978
 30
0.0
 11
-1017.4205819155
 21
-3.3929210978
 31
0.0
  0
LINE
  5
2A4
  8
0
  6
CONTINUOUS
 62
     7
 10
-1017.4205819155
 20
-3.3929210978
 30
0.0
 11
-1017.1205768372
 21
-3.692911275
 31
0.0
  0
LINE
  5
2A5
  8
0
  6
CONTINUOUS
 62
     7
 10
-1025.8705684925
 20
-3.3929210978
 30
0.0
 11
-1020.3705796982
 21
-3.3929210978
 31
0.0
  0
LINE
  5
2A6
  8
0
  6
CONTINUOUS
 62
     7
 10
-1025.8705684925
 20
-3.692911275
 30
0.0
 11
-1029.1205713536
 21
-3.692911275
 31
0.0
  0
LINE
  5
2A7
  8
0
  6
CONTINUOUS
 62
     7
 10
-1029.1205713536
 20
-7.0929092246
 30
0.0
 11
-1025.8705684925
 21
-7.0929092246
 31
0.0
  0
LINE
  5
2A8
  8
0
  6
CONTINUOUS
 62
     7
 10
-1029.1205713536
 20
-7.0929092246
 30
0.0
 11
-1029.1205713536
 21
-3.692911275
 31
0.0
  0
LINE
  5
2A9
  8
0
  6
CONTINUOUS
 62
     7
 10
-1025.8705684925
 20
-7.3929143029
 30
0.0
 11
-1028.8205811764
 21
-7.3929143029
 31
0.0
  0
LINE
  5
2AA
  8
0
  6
CONTINUOUS
 62
     7
 10
-1029.1205713536
 20
-7.0929092246
 30
0.0
 11
-1028.8205811764
 21
-7.3929143029
 31
0.0
  0
LINE
  5
2AB
  8
0
  6
CONTINUOUS
 62
     7
 10
-1028.8205811764
 20
-3.3929210978
 30
0.0
 11
-1025.8705684925
 21
-3.3929210978
 31
0.0
  0
LINE
  5
2AC
  8
0
  6
CONTINUOUS
 62
     7
 10
-1028.8205811764
 20
-3.3929210978
 30
0.0
 11
-1029.1205713536
 21
-3.692911275
 31
0.0
  0
LINE
  5
2AD
  8
0
  6
CONTINUOUS
 62
     7
 10
-1029.1205713536
 20
-3.692911275
 30
0.0
 11
-1029.9874911095
 21
-3.692911275
 31
0.0
  0
LINE
  5
2AE
  8
0
  6
CONTINUOUS
 62
     7
 10
-1029.767520168
 20
-3.3929210978
 30
0.0
 11
-1028.8205811764
 21
-3.3929210978
 31
0.0
  0
LINE
  5
2AF
  8
0
  6
CONTINUOUS
 62
     7
 10
-1029.9874911095
 20
-7.0929092246
 30
0.0
 11
-1029.1205713536
 21
-7.0929092246
 31
0.0
  0
LINE
  5
2B0
  8
0
  6
CONTINUOUS
 62
     7
 10
-1028.8205811764
 20
-7.3929143029
 30
0.0
 11
-1029.767520168
 21
-7.3929143029
 31
0.0
  0
LINE
  5
2B1
  8
0
  6
CONTINUOUS
 62
     7
 10
-1058.2533696677
 20
-7.0929092246
 30
0.0
 11
-1029.9874911095
 21
-7.0929092246
 31
0.0
  0
LINE
  5
2B2
  8
0
  6
CONTINUOUS
 62
     7
 10
-1029.767520168
 20
-7.3929143029
 30
0.0
 11
-1058.033383825
 21
-7.3929143029
 31
0.0
  0
LINE
  5
2B3
  8
0
  6
CONTINUOUS
 62
     7
 10
-1029.9874911095
 20
-3.692911275
 30
0.0
 11
-1058.2533696677
 21
-3.692911275
 31
0.0
  0
LINE
  5
2B4
  8
0
  6
CONTINUOUS
 62
     7
 10
-1038.6212835099
 20
-3.3929210978
 30
0.0
 11
-1029.767520168
 21
-3.3929210978
 31
0.0
  0
LINE
  5
2B5
  8
0
  6
CONTINUOUS
 62
     7
 10
-1060.1205745722
 20
-7.0929092246
 30
0.0
 11
-1058.2533696677
 21
-7.0929092246
 31
0.0
  0
LINE
  5
2B6
  8
0
  6
CONTINUOUS
 62
     7
 10
-1060.1205745722
 20
-7.0929092246
 30
0.0
 11
-1059.8205694939
 21
-7.3929143029
 31
0.0
  0
LINE
  5
2B7
  8
0
  6
CONTINUOUS
 62
     7
 10
-1058.033383825
 20
-7.3929143029
 30
0.0
 11
-1059.8205694939
 21
-7.3929143029
 31
0.0
  0
LINE
  5
2B8
  8
0
  6
CONTINUOUS
 62
     7
 10
-1058.2533696677
 20
-3.692911275
 30
0.0
 11
-1060.1205745722
 21
-3.692911275
 31
0.0
  0
LINE
  5
2B9
  8
0
  6
CONTINUOUS
 62
     7
 10
-1060.1205745722
 20
-7.0929092246
 30
0.0
 11
-1060.1205745722
 21
-3.692911275
 31
0.0
  0
LINE
  5
2BA
  8
0
  6
CONTINUOUS
 62
     7
 10
-1060.1205745722
 20
-3.692911275
 30
0.0
 11
-1059.8205694939
 21
-3.3929210978
 31
0.0
  0
LINE
  5
2BB
  8
0
  6
CONTINUOUS
 62
     7
 10
-1017.1205768372
 20
300.3070789498
 30
0.0
 11
-1020.3705796982
 21
300.3070789498
 31
0.0
  0
LINE
  5
2BC
  8
0
  6
CONTINUOUS
 62
     7
 10
-1017.1205768372
 20
300.3070789498
 30
0.0
 11
-1017.1205768372
 21
296.9070810002
 31
0.0
  0
LINE
  5
2BD
  8
0
  6
CONTINUOUS
 62
     7
 10
-1020.3705796982
 20
296.9070810002
 30
0.0
 11
-1017.1205768372
 21
296.9070810002
 31
0.0
  0
LINE
  5
2BE
  8
0
  6
CONTINUOUS
 62
     7
 10
-1017.4205819155
 20
296.6070908231
 30
0.0
 11
-1020.3705796982
 21
296.6070908231
 31
0.0
  0
LINE
  5
2BF
  8
0
  6
CONTINUOUS
 62
     7
 10
-1017.4205819155
 20
296.6070908231
 30
0.0
 11
-1017.1205768372
 21
296.9070810002
 31
0.0
  0
LINE
  5
2C0
  8
0
  6
CONTINUOUS
 62
     7
 10
-1020.3705796982
 20
300.3070789498
 30
0.0
 11
-1025.8705684925
 21
300.3070789498
 31
0.0
  0
LINE
  5
2C1
  8
0
  6
CONTINUOUS
 62
     7
 10
-1025.8705684925
 20
296.9070810002
 30
0.0
 11
-1020.3705796982
 21
296.9070810002
 31
0.0
  0
LINE
  5
2C2
  8
0
  6
CONTINUOUS
 62
     7
 10
-1020.3705796982
 20
296.6070908231
 30
0.0
 11
-1025.8705684925
 21
296.6070908231
 31
0.0
  0
LINE
  5
2C3
  8
0
  6
CONTINUOUS
 62
     7
 10
-1020.3705796982
 20
300.6070840282
 30
0.0
 11
-1017.4205819155
 21
300.6070840282
 31
0.0
  0
LINE
  5
2C4
  8
0
  6
CONTINUOUS
 62
     7
 10
-1017.4205819155
 20
300.6070840282
 30
0.0
 11
-1017.1205768372
 21
300.3070789498
 31
0.0
  0
LINE
  5
2C5
  8
0
  6
CONTINUOUS
 62
     7
 10
-1025.8705684925
 20
300.6070840282
 30
0.0
 11
-1020.3705796982
 21
300.6070840282
 31
0.0
  0
LINE
  5
2C6
  8
0
  6
CONTINUOUS
 62
     7
 10
-1025.8705684925
 20
300.3070789498
 30
0.0
 11
-1029.1205713536
 21
300.3070789498
 31
0.0
  0
LINE
  5
2C7
  8
0
  6
CONTINUOUS
 62
     7
 10
-1029.1205713536
 20
296.9070810002
 30
0.0
 11
-1025.8705684925
 21
296.9070810002
 31
0.0
  0
LINE
  5
2C8
  8
0
  6
CONTINUOUS
 62
     7
 10
-1029.1205713536
 20
296.9070810002
 30
0.0
 11
-1029.1205713536
 21
300.3070789498
 31
0.0
  0
LINE
  5
2C9
  8
0
  6
CONTINUOUS
 62
     7
 10
-1025.8705684925
 20
296.6070908231
 30
0.0
 11
-1028.8205811764
 21
296.6070908231
 31
0.0
  0
LINE
  5
2CA
  8
0
  6
CONTINUOUS
 62
     7
 10
-1029.1205713536
 20
296.9070810002
 30
0.0
 11
-1028.8205811764
 21
296.6070908231
 31
0.0
  0
LINE
  5
2CB
  8
0
  6
CONTINUOUS
 62
     7
 10
-1028.8205811764
 20
300.6070840282
 30
0.0
 11
-1025.8705684925
 21
300.6070840282
 31
0.0
  0
LINE
  5
2CC
  8
0
  6
CONTINUOUS
 62
     7
 10
-1028.8205811764
 20
300.6070840282
 30
0.0
 11
-1029.1205713536
 21
300.3070789498
 31
0.0
  0
LINE
  5
2CD
  8
0
  6
CONTINUOUS
 62
     7
 10
-1029.1205713536
 20
300.3070789498
 30
0.0
 11
-1029.9874911095
 21
300.3070789498
 31
0.0
  0
LINE
  5
2CE
  8
0
  6
CONTINUOUS
 62
     7
 10
-1029.767520168
 20
300.6070840282
 30
0.0
 11
-1028.8205811764
 21
300.6070840282
 31
0.0
  0
LINE
  5
2CF
  8
0
  6
CONTINUOUS
 62
     7
 10
-1029.9874911095
 20
296.9070810002
 30
0.0
 11
-1029.1205713536
 21
296.9070810002
 31
0.0
  0
LINE
  5
2D0
  8
0
  6
CONTINUOUS
 62
     7
 10
-1028.8205811764
 20
296.6070908231
 30
0.0
 11
-1029.767520168
 21
296.6070908231
 31
0.0
  0
LINE
  5
2D1
  8
0
  6
CONTINUOUS
 62
     7
 10
-1029.9874911095
 20
300.3070789498
 30
0.0
 11
-1058.2533696677
 21
300.3070789498
 31
0.0
  0
LINE
  5
2D2
  8
0
  6
CONTINUOUS
 62
     7
 10
-1058.033383825
 20
300.6070840282
 30
0.0
 11
-1029.767520168
 21
300.6070840282
 31
0.0
  0
LINE
  5
2D3
  8
0
  6
CONTINUOUS
 62
     7
 10
-1058.2533696677
 20
296.9070810002
 30
0.0
 11
-1029.9874911095
 21
296.9070810002
 31
0.0
  0
LINE
  5
2D4
  8
0
  6
CONTINUOUS
 62
     7
 10
-1029.767520168
 20
296.6070908231
 30
0.0
 11
-1038.6212835099
 21
296.6070908231
 31
0.0
  0
LINE
  5
2D5
  8
0
  6
CONTINUOUS
 62
     7
 10
-1060.1205745722
 20
296.9070810002
 30
0.0
 11
-1058.2533696677
 21
296.9070810002
 31
0.0
  0
LINE
  5
2D6
  8
0
  6
CONTINUOUS
 62
     7
 10
-1060.1205745722
 20
296.9070810002
 30
0.0
 11
-1059.8205694939
 21
296.6070908231
 31
0.0
  0
LINE
  5
2D7
  8
0
  6
CONTINUOUS
 62
     7
 10
-1058.2533696677
 20
300.3070789498
 30
0.0
 11
-1060.1205745722
 21
300.3070789498
 31
0.0
  0
LINE
  5
2D8
  8
0
  6
CONTINUOUS
 62
     7
 10
-1060.1205745722
 20
296.9070810002
 30
0.0
 11
-1060.1205745722
 21
300.3070789498
 31
0.0
  0
LINE
  5
2D9
  8
0
  6
CONTINUOUS
 62
     7
 10
-1060.1205745722
 20
300.3070789498
 30
0.0
 11
-1059.8205694939
 21
300.6070840282
 31
0.0
  0
LINE
  5
2DA
  8
0
  6
CONTINUOUS
 62
     7
 10
-1059.8205694939
 20
300.6070840282
 30
0.0
 11
-1058.033383825
 21
300.6070840282
 31
0.0
  0
POLYLINE
  5
2DB
  8
0
  6
CONTINUOUS
 62
     7
 66
     1
 10
0.0
 20
0.0
 30
0.0
  0
VERTEX
  5
5B7
  8
0
  6
CONTINUOUS
 62
     7
 10
-1037.1205726649
 20
295.1063799781
 30
0.0
  0
VERTEX
  5
5B8
  8
0
  6
CONTINUOUS
 62
     7
 10
-1037.166155317
 20
295.0835961026
 30
0.0
  0
VERTEX
  5
5B9
  8
0
  6
CONTINUOUS
 62
     7
 10
-1037.3015025641
 20
295.015959732
 30
0.0
  0
VERTEX
  5
5BA
  8
0
  6
CONTINUOUS
 62
     7
 10
-1037.5225016858
 20
294.9055123252
 30
0.0
  0
VERTEX
  5
5BB
  8
0
  6
CONTINUOUS
 62
     7
 10
-1037.7427557494
 20
294.7954374475
 30
0.0
  0
SEQEND
  5
5BC
  8
0
  6
CONTINUOUS
 62
     7
  0
LINE
  5
2DC
  8
0
  6
CONTINUOUS
 62
     7
 10
-1037.8881165768
 20
295.1063799781
 30
0.0
 11
-1037.1205726649
 21
295.1063799781
 31
0.0
  0
POLYLINE
  5
2DD
  8
0
  6
CONTINUOUS
 62
     7
 66
     1
 10
0.0
 20
0.0
 30
0.0
  0
VERTEX
  5
5BD
  8
0
  6
CONTINUOUS
 62
     7
 10
-1037.7427557494
 20
-1.5812677222
 30
0.0
  0
VERTEX
  5
5BE
  8
0
  6
CONTINUOUS
 62
     7
 10
-1037.5225016858
 20
-1.6913426
 30
0.0
  0
VERTEX
  5
5BF
  8
0
  6
CONTINUOUS
 62
     7
 10
-1037.3015025641
 20
-1.8017900067
 30
0.0
  0
VERTEX
  5
5C0
  8
0
  6
CONTINUOUS
 62
     7
 10
-1037.166155317
 20
-1.8694263774
 30
0.0
  0
VERTEX
  5
5C1
  8
0
  6
CONTINUOUS
 62
     7
 10
-1037.1205726649
 20
-1.8922102529
 30
0.0
  0
SEQEND
  5
5C2
  8
0
  6
CONTINUOUS
 62
     7
  0
LINE
  5
2DE
  8
0
  6
CONTINUOUS
 62
     7
 10
-1037.8881165768
 20
-1.8922102529
 30
0.0
 11
-1037.1205726649
 21
-1.8922102529
 31
0.0
  0
LINE
  5
2DF
  8
0
  6
CONTINUOUS
 62
     7
 10
-1037.1205726649
 20
295.1063799781
 30
0.0
 11
-1037.1205726649
 21
-1.8922102529
 31
0.0
  0
POLYLINE
  5
2E0
  8
0
  6
CONTINUOUS
 62
     7
 66
     1
 10
0.0
 20
0.0
 30
0.0
  0
VERTEX
  5
5C3
  8
0
  6
CONTINUOUS
 62
     7
 10
-1038.6212835099
 20
-3.3929210978
 30
0.0
  0
VERTEX
  5
5C4
  8
0
  6
CONTINUOUS
 62
     7
 10
-1038.6440673853
 20
-3.3473384458
 30
0.0
  0
VERTEX
  5
5C5
  8
0
  6
CONTINUOUS
 62
     7
 10
-1038.711703756
 20
-3.2119911986
 30
0.0
  0
VERTEX
  5
5C6
  8
0
  6
CONTINUOUS
 62
     7
 10
-1038.8221511628
 20
-2.990992077
 30
0.0
  0
VERTEX
  5
5C7
  8
0
  6
CONTINUOUS
 62
     7
 10
-1038.9322260405
 20
-2.7707231122
 30
0.0
  0
SEQEND
  5
5C8
  8
0
  6
CONTINUOUS
 62
     7
  0
LINE
  5
2E1
  8
0
  6
CONTINUOUS
 62
     7
 10
-1038.6212835099
 20
-2.6253771859
 30
0.0
 11
-1038.6212835099
 21
-3.3929210978
 31
0.0
  0
POLYLINE
  5
2E2
  8
0
  6
CONTINUOUS
 62
     7
 66
     1
 10
0.0
 20
0.0
 30
0.0
  0
VERTEX
  5
5C9
  8
0
  6
CONTINUOUS
 62
     7
 10
-1435.6198677803
 20
296.6070908231
 30
0.0
  0
VERTEX
  5
5CA
  8
0
  6
CONTINUOUS
 62
     7
 10
-1435.5970839049
 20
296.561508171
 30
0.0
  0
VERTEX
  5
5CB
  8
0
  6
CONTINUOUS
 62
     7
 10
-1435.5294475342
 20
296.4261609239
 30
0.0
  0
VERTEX
  5
5CC
  8
0
  6
CONTINUOUS
 62
     7
 10
-1435.4190001275
 20
296.2051618022
 30
0.0
  0
VERTEX
  5
5CD
  8
0
  6
CONTINUOUS
 62
     7
 10
-1435.3089252497
 20
295.9848928374
 30
0.0
  0
SEQEND
  5
5CE
  8
0
  6
CONTINUOUS
 62
     7
  0
LINE
  5
2E3
  8
0
  6
CONTINUOUS
 62
     7
 10
-1435.6198677803
 20
296.6070908231
 30
0.0
 11
-1038.6212835099
 21
296.6070908231
 31
0.0
  0
POLYLINE
  5
2E4
  8
0
  6
CONTINUOUS
 62
     7
 66
     1
 10
0.0
 20
0.0
 30
0.0
  0
VERTEX
  5
5CF
  8
0
  6
CONTINUOUS
 62
     7
 10
-1038.9322260405
 20
295.9848928374
 30
0.0
  0
VERTEX
  5
5D0
  8
0
  6
CONTINUOUS
 62
     7
 10
-1038.8221511628
 20
296.2051618022
 30
0.0
  0
VERTEX
  5
5D1
  8
0
  6
CONTINUOUS
 62
     7
 10
-1038.711703756
 20
296.4261609239
 30
0.0
  0
VERTEX
  5
5D2
  8
0
  6
CONTINUOUS
 62
     7
 10
-1038.6440673853
 20
296.561508171
 30
0.0
  0
VERTEX
  5
5D3
  8
0
  6
CONTINUOUS
 62
     7
 10
-1038.6212835099
 20
296.6070908231
 30
0.0
  0
SEQEND
  5
5D4
  8
0
  6
CONTINUOUS
 62
     7
  0
LINE
  5
2E5
  8
0
  6
CONTINUOUS
 62
     7
 10
-1038.6212835099
 20
-3.3929210978
 30
0.0
 11
-1435.6198677803
 21
-3.3929210978
 31
0.0
  0
POLYLINE
  5
2E6
  8
0
  6
CONTINUOUS
 62
     7
 66
     1
 10
0.0
 20
0.0
 30
0.0
  0
VERTEX
  5
5D5
  8
0
  6
CONTINUOUS
 62
     7
 10
-1435.3089252497
 20
-2.7707231122
 30
0.0
  0
VERTEX
  5
5D6
  8
0
  6
CONTINUOUS
 62
     7
 10
-1435.4190001275
 20
-2.990992077
 30
0.0
  0
VERTEX
  5
5D7
  8
0
  6
CONTINUOUS
 62
     7
 10
-1435.5294475342
 20
-3.2119911986
 30
0.0
  0
VERTEX
  5
5D8
  8
0
  6
CONTINUOUS
 62
     7
 10
-1435.5970839049
 20
-3.3473384458
 30
0.0
  0
VERTEX
  5
5D9
  8
0
  6
CONTINUOUS
 62
     7
 10
-1435.6198677803
 20
-3.3929210978
 30
0.0
  0
SEQEND
  5
5DA
  8
0
  6
CONTINUOUS
 62
     7
  0
LINE
  5
2E7
  8
0
  6
CONTINUOUS
 62
     7
 10
-1038.6212835099
 20
295.8395469112
 30
0.0
 11
-1038.6212835099
 21
296.6070908231
 31
0.0
  0
POLYLINE
  5
2E8
  8
0
  6
CONTINUOUS
 62
     7
 66
     1
 10
0.0
 20
0.0
 30
0.0
  0
VERTEX
  5
5DB
  8
0
  6
CONTINUOUS
 62
     7
 10
-1437.1205786253
 20
-1.8922102529
 30
0.0
  0
VERTEX
  5
5DC
  8
0
  6
CONTINUOUS
 62
     7
 10
-1437.0749959732
 20
-1.8694263774
 30
0.0
  0
VERTEX
  5
5DD
  8
0
  6
CONTINUOUS
 62
     7
 10
-1436.9396487261
 20
-1.8017900067
 30
0.0
  0
VERTEX
  5
5DE
  8
0
  6
CONTINUOUS
 62
     7
 10
-1436.7186496045
 20
-1.6913426
 30
0.0
  0
VERTEX
  5
5DF
  8
0
  6
CONTINUOUS
 62
     7
 10
-1436.4983955409
 20
-1.5812677222
 30
0.0
  0
SEQEND
  5
5E0
  8
0
  6
CONTINUOUS
 62
     7
  0
LINE
  5
2E9
  8
0
  6
CONTINUOUS
 62
     7
 10
-1437.1205786253
 20
-1.8922102529
 30
0.0
 11
-1437.1205786253
 21
295.1063799781
 31
0.0
  0
POLYLINE
  5
2EA
  8
0
  6
CONTINUOUS
 62
     7
 66
     1
 10
0.0
 20
0.0
 30
0.0
  0
VERTEX
  5
5E1
  8
0
  6
CONTINUOUS
 62
     7
 10
-1436.4983955409
 20
294.7954374475
 30
0.0
  0
VERTEX
  5
5E2
  8
0
  6
CONTINUOUS
 62
     7
 10
-1436.7186496045
 20
294.9055123252
 30
0.0
  0
VERTEX
  5
5E3
  8
0
  6
CONTINUOUS
 62
     7
 10
-1436.9396487261
 20
295.015959732
 30
0.0
  0
VERTEX
  5
5E4
  8
0
  6
CONTINUOUS
 62
     7
 10
-1437.0749959732
 20
295.0835961026
 30
0.0
  0
VERTEX
  5
5E5
  8
0
  6
CONTINUOUS
 62
     7
 10
-1437.1205786253
 20
295.1063799781
 30
0.0
  0
SEQEND
  5
5E6
  8
0
  6
CONTINUOUS
 62
     7
  0
LINE
  5
2EB
  8
0
  6
CONTINUOUS
 62
     7
 10
-1436.3530347134
 20
295.1063799781
 30
0.0
 11
-1437.1205786253
 21
295.1063799781
 31
0.0
  0
LINE
  5
2EC
  8
0
  6
CONTINUOUS
 62
     7
 10
-1435.6198677803
 20
295.8395469112
 30
0.0
 11
-1435.6198677803
 21
296.6070908231
 31
0.0
  0
LINE
  5
2ED
  8
0
  6
CONTINUOUS
 62
     7
 10
-1435.6198677803
 20
-2.6253771859
 30
0.0
 11
-1435.6198677803
 21
-3.3929210978
 31
0.0
  0
LINE
  5
2EE
  8
0
  6
CONTINUOUS
 62
     7
 10
-1436.3530347134
 20
-1.8922102529
 30
0.0
 11
-1437.1205786253
 21
-1.8922102529
 31
0.0
  0
ARC
  5
2EF
  8
0
  6
CONTINUOUS
 62
     7
 10
-1084.6705754255
 20
569.2393946186
 30
0.0
 40
120.0000000000277
 50
276.1072898503
 51
277.0541313733
  0
ARC
  5
2F0
  8
0
  6
CONTINUOUS
 62
     7
 10
-1084.6705754255
 20
569.2393946186
 30
0.0
 40
120.0000000000275
 50
262.9458686267
 51
263.8915999146
  0
ARC
  5
2F1
  8
0
  6
CONTINUOUS
 62
     7
 10
-1069.9705754255
 20
450.4454553792
 30
0.0
 40
0.3000000000022618
 50
277.0541278521
 51
359.9999856569
  0
ARC
  5
2F2
  8
0
  6
CONTINUOUS
 62
     7
 10
-1099.3705754255
 20
450.4454553792
 30
0.0
 40
0.3000000000021775
 50
180.0000143431
 51
262.945872148
  0
ARC
  5
2F3
  8
0
  6
CONTINUOUS
 62
     7
 10
-1097.4705576431
 20
449.6223031371
 30
0.0
 40
0.2999988297466286
 50
359.5408809042
 51
84.3761543881
  0
ARC
  5
2F4
  8
0
  6
CONTINUOUS
 62
     7
 10
-1071.8705967714
 20
449.622310855
 30
0.0
 40
0.2999903078444455
 50
95.6223584577
 51
180.4606062501
  0
ARC
  5
2F5
  8
0
  6
CONTINUOUS
 62
     7
 10
-1084.6705754255
 20
538.7393946186
 30
0.0
 40
90.19999999999983
 50
275.4696070839
 51
277.8002470321
  0
ARC
  5
2F6
  8
0
  6
CONTINUOUS
 62
     7
 10
-1084.6705754255
 20
538.7393946186
 30
0.0
 40
90.19999999999965
 50
262.1997529669
 51
264.5303929161
  0
ARC
  5
2F7
  8
0
  6
CONTINUOUS
 62
     7
 10
-1093.2205754255
 20
449.4478076689
 30
0.0
 40
0.5000000000000524
 50
264.5304035696
 51
270.0
  0
ARC
  5
2F8
  8
0
  6
CONTINUOUS
 62
     7
 10
-1076.1205754255
 20
449.4478076689
 30
0.0
 40
0.5000000000000308
 50
270.0
 51
275.4695964303
  0
LINE
  5
2F9
  8
0
  6
CONTINUOUS
 62
     7
 10
-1093.2205686356
 20
448.9478121569
 30
0.0
 11
-1076.1205771948
 21
448.9478121569
 31
0.0
  0
ARC
  5
2FA
  8
0
  6
CONTINUOUS
 62
     7
 10
-1072.4685979706
 20
449.6713400249
 30
0.0
 40
0.3000183935546789
 50
272.6640663483
 51
355.7612977051
  0
ARC
  5
2FB
  8
0
  6
CONTINUOUS
 62
     7
 10
-1096.8725732131
 20
449.6713132173
 30
0.0
 40
0.2999911292589198
 50
184.2339541747
 51
267.337689781
  0
LINE
  5
2FC
  8
0
  6
CONTINUOUS
 62
     7
 10
-1055.8705696846
 20
476.4393965771
 30
0.0
 11
-1055.8705696846
 21
475.4393945505
 31
0.0
  0
LINE
  5
2FD
  8
0
  6
CONTINUOUS
 62
     7
 10
-1045.8705792214
 20
475.4393945505
 30
0.0
 11
-1045.8705792214
 21
476.4393965771
 31
0.0
  0
LINE
  5
2FE
  8
0
  6
CONTINUOUS
 62
     7
 10
-1038.6205682541
 20
515.1893894245
 30
0.0
 11
-1038.6212835099
 21
515.1893894245
 31
0.0
  0
LINE
  5
2FF
  8
0
  6
CONTINUOUS
 62
     7
 10
-1038.6212835099
 20
507.6893965771
 30
0.0
 11
-1038.6205682541
 21
507.6893965771
 31
0.0
  0
LINE
  5
300
  8
0
  6
CONTINUOUS
 62
     7
 10
-1435.6205830361
 20
507.6893965771
 30
0.0
 11
-1435.6198677803
 21
507.6893965771
 31
0.0
  0
LINE
  5
301
  8
0
  6
CONTINUOUS
 62
     7
 10
-1435.6198677803
 20
515.1893894245
 30
0.0
 11
-1435.6205830361
 21
515.1893894245
 31
0.0
  0
LINE
  5
302
  8
0
  6
CONTINUOUS
 62
     7
 10
-1425.870574453
 20
474.439392524
 30
0.0
 11
-1425.870574453
 21
474.2193917801
 31
0.0
  0
LINE
  5
303
  8
0
  6
CONTINUOUS
 62
     7
 10
-1420.8705792214
 20
474.2193917801
 30
0.0
 11
-1420.8705792214
 21
474.439392524
 31
0.0
  0
LINE
  5
304
  8
0
  6
CONTINUOUS
 62
     7
 10
-1425.870574453
 20
474.2193917801
 30
0.0
 11
-1425.4705825831
 21
473.8193999102
 31
0.0
  0
LINE
  5
305
  8
0
  6
CONTINUOUS
 62
     7
 10
-1421.2705710913
 20
473.8193999102
 30
0.0
 11
-1420.8705792214
 21
474.2193917801
 31
0.0
  0
LINE
  5
306
  8
0
  6
CONTINUOUS
 62
     7
 10
-1435.1205745722
 20
667.4393942404
 30
0.0
 11
-1435.1205745722
 21
666.2678213207
 31
0.0
  0
LINE
  5
307
  8
0
  6
CONTINUOUS
 62
     7
 10
-1039.120576718
 20
667.4393942404
 30
0.0
 11
-1039.120576718
 21
666.2678213207
 31
0.0
  0
LINE
  5
308
  8
0
  6
CONTINUOUS
 62
     7
 10
-1434.6205810095
 20
670.4393943829
 30
0.0
 11
-1039.6205702807
 21
670.4393943829
 31
0.0
  0
LINE
  5
309
  8
0
  6
CONTINUOUS
 62
     7
 10
-1434.6205810095
 20
667.4393942404
 30
0.0
 11
-1039.6205702807
 21
667.4393942404
 31
0.0
  0
LINE
  5
30A
  8
0
  6
CONTINUOUS
 62
     7
 10
-1436.6205701615
 20
667.4393942404
 30
0.0
 11
-1436.6205701615
 21
670.4393943829
 31
0.0
  0
LINE
  5
30B
  8
0
  6
CONTINUOUS
 62
     7
 10
-1436.6205701615
 20
670.4393943829
 30
0.0
 11
-1434.6205810095
 21
670.4393943829
 31
0.0
  0
LINE
  5
30C
  8
0
  6
CONTINUOUS
 62
     7
 10
-1434.6205810095
 20
667.4393942404
 30
0.0
 11
-1436.6205701615
 21
667.4393942404
 31
0.0
  0
LINE
  5
30D
  8
0
  6
CONTINUOUS
 62
     7
 10
-1037.6205811287
 20
670.4393943829
 30
0.0
 11
-1037.6205811287
 21
667.4393942404
 31
0.0
  0
LINE
  5
30E
  8
0
  6
CONTINUOUS
 62
     7
 10
-1039.6205702807
 20
670.4393943829
 30
0.0
 11
-1037.6205811287
 21
670.4393943829
 31
0.0
  0
LINE
  5
30F
  8
0
  6
CONTINUOUS
 62
     7
 10
-1037.6205811287
 20
667.4393942404
 30
0.0
 11
-1039.6205702807
 21
667.4393942404
 31
0.0
  0
CIRCLE
  5
310
  8
0
  6
CONTINUOUS
 62
     7
 10
-1053.1205756451
 20
611.4393941929
 30
0.0
 40
3.750000000000124
  0
CIRCLE
  5
311
  8
0
  6
CONTINUOUS
 62
     7
 10
-1421.1205756451
 20
611.4393941929
 30
0.0
 40
3.750000000000283
  0
CIRCLE
  5
312
  8
0
  6
CONTINUOUS
 62
     7
 10
-1053.1205756451
 20
636.4393941929
 30
0.0
 40
3.750000000000038
  0
CIRCLE
  5
313
  8
0
  6
CONTINUOUS
 62
     7
 10
-1421.1205756451
 20
636.4393941929
 30
0.0
 40
3.750000000000096
  0
CIRCLE
  5
314
  8
0
  6
CONTINUOUS
 62
     7
 10
-1451.1205756451
 20
674.7393941929
 30
0.0
 40
3.059999999999789
  0
CIRCLE
  5
315
  8
0
  6
CONTINUOUS
 62
     7
 10
-1451.1205756451
 20
644.1393941929
 30
0.0
 40
3.059999999999837
  0
CIRCLE
  5
316
  8
0
  6
CONTINUOUS
 62
     7
 10
-1023.1205756451
 20
674.7393941929
 30
0.0
 40
3.060000000000039
  0
CIRCLE
  5
317
  8
0
  6
CONTINUOUS
 62
     7
 10
-1023.1205756451
 20
644.1393941929
 30
0.0
 40
3.060000000000075
  0
CIRCLE
  5
318
  8
0
  6
CONTINUOUS
 62
     7
 10
-1421.1205756451
 20
611.4393941929
 30
0.0
 40
3.200000000000045
  0
CIRCLE
  5
319
  8
0
  6
CONTINUOUS
 62
     7
 10
-1421.1205756451
 20
636.4393941929
 30
0.0
 40
3.200000000000045
  0
CIRCLE
  5
31A
  8
0
  6
CONTINUOUS
 62
     7
 10
-1451.1205756451
 20
674.7393941929
 30
0.0
 40
2.249999999999886
  0
CIRCLE
  5
31B
  8
0
  6
CONTINUOUS
 62
     7
 10
-1451.1205756451
 20
644.1393941929
 30
0.0
 40
2.25
  0
ARC
  5
31C
  8
0
  6
CONTINUOUS
 62
     7
 10
-1448.3705756451
 20
677.1893941929
 30
0.0
 40
2.949999999999932
 50
0.0
 51
90.0
  0
LINE
  5
31D
  8
0
  6
CONTINUOUS
 62
     7
 10
-1445.4205701138
 20
672.4215873574
 30
0.0
 11
-1445.4205701138
 21
677.189394558
 31
0.0
  0
ARC
  5
31E
  8
0
  6
CONTINUOUS
 62
     7
 10
-1441.8705756451
 20
672.421587578
 30
0.0
 40
3.550000000000182
 50
180.0
 51
222.84
  0
LINE
  5
31F
  8
0
  6
CONTINUOUS
 62
     7
 10
-1416.2077674653
 20
639.5261070748
 30
0.0
 11
-1444.4736311222
 21
670.0077531451
 31
0.0
  0
ARC
  5
320
  8
0
  6
CONTINUOUS
 62
     7
 10
-1421.1205756451
 20
634.9704192612
 30
0.0
 40
6.700000000000045
 50
0.0
 51
42.84
  0
LINE
  5
321
  8
0
  6
CONTINUOUS
 62
     7
 10
-1414.4205817963
 20
611.4393944909
 30
0.0
 11
-1414.4205817963
 21
634.9704179038
 31
0.0
  0
ARC
  5
322
  8
0
  6
CONTINUOUS
 62
     7
 10
-1421.1205756451
 20
611.4393941929
 30
0.0
 40
6.700000000000052
 50
222.84
 51
0.0
  0
LINE
  5
323
  8
0
  6
CONTINUOUS
 62
     7
 10
-1456.0336837555
 20
639.2357411851
 30
0.0
 11
-1426.0333845402
 21
606.8837071826
 31
0.0
  0
ARC
  5
324
  8
0
  6
CONTINUOUS
 62
     7
 10
-1453.8705756451
 20
641.241603025
 30
0.0
 40
2.949999999999889
 50
180.0
 51
222.84
  0
LINE
  5
325
  8
0
  6
CONTINUOUS
 62
     7
 10
-1456.8205693747
 20
677.189394558
 30
0.0
 11
-1456.8205693747
 21
641.2416032572
 31
0.0
  0
ARC
  5
326
  8
0
  6
CONTINUOUS
 62
     7
 10
-1453.8705756451
 20
677.1893941929
 30
0.0
 40
2.949999999999818
 50
90.0
 51
180.0
  0
LINE
  5
327
  8
0
  6
CONTINUOUS
 62
     7
 10
-1448.3705827977
 20
680.1393942033
 30
0.0
 11
-1453.870571592
 21
680.1393942033
 31
0.0
  0
ARC
  5
328
  8
0
  6
CONTINUOUS
 62
     7
 10
-1421.1205756451
 20
611.4393941929
 30
0.0
 40
7.000000000000086
 50
222.84
 51
0.0
  0
LINE
  5
329
  8
0
  6
CONTINUOUS
 62
     7
 10
-1426.2533703829
 20
606.6797214617
 30
0.0
 11
-1456.2536546971
 21
639.0317554643
 31
0.0
  0
LINE
  5
32A
  8
0
  6
CONTINUOUS
 62
     7
 10
-1414.120576718
 20
634.9704179038
 30
0.0
 11
-1414.120576718
 21
611.4393944909
 31
0.0
  0
ARC
  5
32B
  8
0
  6
CONTINUOUS
 62
     7
 10
-1421.1205756451
 20
634.9704192612
 30
0.0
 40
7.000000000000086
 50
0.0
 51
42.84
  0
LINE
  5
32C
  8
0
  6
CONTINUOUS
 62
     7
 10
-1444.2536601807
 20
670.2117390988
 30
0.0
 11
-1415.9877816225
 21
639.7300927957
 31
0.0
  0
LINE
  5
32D
  8
0
  6
CONTINUOUS
 62
     7
 10
-1457.120574453
 20
641.2416032572
 30
0.0
 11
-1457.120574453
 21
677.189394558
 31
0.0
  0
ARC
  5
32E
  8
0
  6
CONTINUOUS
 62
     7
 10
-1453.8705756451
 20
641.241603025
 30
0.0
 40
3.25
 50
180.0
 51
222.84
  0
ARC
  5
32F
  8
0
  6
CONTINUOUS
 62
     7
 10
-1441.8705756451
 20
672.421587578
 30
0.0
 40
3.25
 50
180.0
 51
222.84
  0
ARC
  5
330
  8
0
  6
CONTINUOUS
 62
     7
 10
-1448.3705756451
 20
677.1893941929
 30
0.0
 40
3.250000000000227
 50
0.0
 51
90.0
  0
LINE
  5
331
  8
0
  6
CONTINUOUS
 62
     7
 10
-1445.1205799366
 20
677.189394558
 30
0.0
 11
-1445.1205799366
 21
672.4215873574
 31
0.0
  0
ARC
  5
332
  8
0
  6
CONTINUOUS
 62
     7
 10
-1453.8705756451
 20
677.1893941929
 30
0.0
 40
3.25
 50
90.0
 51
180.0
  0
LINE
  5
333
  8
0
  6
CONTINUOUS
 62
     7
 10
-1453.870571592
 20
680.439394625
 30
0.0
 11
-1448.3705827977
 21
680.439394625
 31
0.0
  0
LINE
  5
334
  8
0
  6
CONTINUOUS
 62
     7
 10
-1048.20776675
 20
606.8837071826
 30
0.0
 11
-1018.2074675347
 21
639.2357411851
 31
0.0
  0
LINE
  5
335
  8
0
  6
CONTINUOUS
 62
     7
 10
-1017.9874965931
 20
639.0317554643
 30
0.0
 11
-1047.9877809073
 21
606.6797214617
 31
0.0
  0
ARC
  5
336
  8
0
  6
CONTINUOUS
 62
     7
 10
-1053.1205756451
 20
611.4393941929
 30
0.0
 40
6.700000000000052
 50
180.0
 51
317.16
  0
ARC
  5
337
  8
0
  6
CONTINUOUS
 62
     7
 10
-1053.1205756451
 20
611.4393941929
 30
0.0
 40
6.999999999999997
 50
180.0
 51
317.16
  0
CIRCLE
  5
338
  8
0
  6
CONTINUOUS
 62
     7
 10
-1053.1205756451
 20
611.4393941929
 30
0.0
 40
3.200000000000045
  0
CIRCLE
  5
339
  8
0
  6
CONTINUOUS
 62
     7
 10
-1053.1205756451
 20
636.4393941929
 30
0.0
 40
3.200000000000045
  0
CIRCLE
  5
33A
  8
0
  6
CONTINUOUS
 62
     7
 10
-1023.1205756451
 20
674.7393941929
 30
0.0
 40
2.249999999999886
  0
CIRCLE
  5
33B
  8
0
  6
CONTINUOUS
 62
     7
 10
-1023.1205756451
 20
644.1393941929
 30
0.0
 40
2.25
  0
ARC
  5
33C
  8
0
  6
CONTINUOUS
 62
     7
 10
-1020.3705756451
 20
677.1893941929
 30
0.0
 40
2.950000000000045
 50
0.0
 51
90.0
  0
LINE
  5
33D
  8
0
  6
CONTINUOUS
 62
     7
 10
-1017.4205819155
 20
641.2416032572
 30
0.0
 11
-1017.4205819155
 21
677.189394558
 31
0.0
  0
ARC
  5
33E
  8
0
  6
CONTINUOUS
 62
     7
 10
-1020.3705756451
 20
641.241603025
 30
0.0
 40
2.950000000000045
 50
317.16
 51
0.0
  0
LINE
  5
33F
  8
0
  6
CONTINUOUS
 62
     7
 10
-1059.8205694939
 20
634.9704179038
 30
0.0
 11
-1059.8205694939
 21
611.4393944909
 31
0.0
  0
ARC
  5
340
  8
0
  6
CONTINUOUS
 62
     7
 10
-1053.1205756451
 20
634.9704192612
 30
0.0
 40
6.699999999999886
 50
137.16
 51
180.0
  0
LINE
  5
341
  8
0
  6
CONTINUOUS
 62
     7
 10
-1029.767520168
 20
670.0077531451
 30
0.0
 11
-1058.033383825
 21
639.5261070748
 31
0.0
  0
ARC
  5
342
  8
0
  6
CONTINUOUS
 62
     7
 10
-1032.3705756451
 20
672.421587578
 30
0.0
 40
3.549999999999957
 50
317.16
 51
0.0
  0
LINE
  5
343
  8
0
  6
CONTINUOUS
 62
     7
 10
-1028.8205811764
 20
677.189394558
 30
0.0
 11
-1028.8205811764
 21
672.4215873574
 31
0.0
  0
ARC
  5
344
  8
0
  6
CONTINUOUS
 62
     7
 10
-1025.8705756451
 20
677.1893941929
 30
0.0
 40
2.950000000000045
 50
90.0
 51
180.0
  0
LINE
  5
345
  8
0
  6
CONTINUOUS
 62
     7
 10
-1020.3705796982
 20
680.1393942033
 30
0.0
 11
-1025.8705684925
 21
680.1393942033
 31
0.0
  0
LINE
  5
346
  8
0
  6
CONTINUOUS
 62
     7
 10
-1060.1205745722
 20
611.4393944909
 30
0.0
 11
-1060.1205745722
 21
634.9704179038
 31
0.0
  0
ARC
  5
347
  8
0
  6
CONTINUOUS
 62
     7
 10
-1053.1205756451
 20
634.9704192612
 30
0.0
 40
6.999999999999997
 50
137.16
 51
180.0
  0
LINE
  5
348
  8
0
  6
CONTINUOUS
 62
     7
 10
-1017.1205768372
 20
677.189394558
 30
0.0
 11
-1017.1205768372
 21
641.2416032572
 31
0.0
  0
ARC
  5
349
  8
0
  6
CONTINUOUS
 62
     7
 10
-1020.3705756451
 20
641.241603025
 30
0.0
 40
3.25
 50
317.16
 51
0.0
  0
LINE
  5
34A
  8
0
  6
CONTINUOUS
 62
     7
 10
-1058.2533696677
 20
639.7300927957
 30
0.0
 11
-1029.9874911095
 21
670.2117390988
 31
0.0
  0
ARC
  5
34B
  8
0
  6
CONTINUOUS
 62
     7
 10
-1032.3705756451
 20
672.421587578
 30
0.0
 40
3.250000000000167
 50
317.16
 51
0.0
  0
LINE
  5
34C
  8
0
  6
CONTINUOUS
 62
     7
 10
-1029.1205713536
 20
672.4215873574
 30
0.0
 11
-1029.1205713536
 21
677.189394558
 31
0.0
  0
ARC
  5
34D
  8
0
  6
CONTINUOUS
 62
     7
 10
-1020.3705756451
 20
677.1893941929
 30
0.0
 40
3.25
 50
0.0
 51
90.0
  0
ARC
  5
34E
  8
0
  6
CONTINUOUS
 62
     7
 10
-1025.8705756451
 20
677.1893941929
 30
0.0
 40
3.25
 50
90.0
 51
180.0
  0
LINE
  5
34F
  8
0
  6
CONTINUOUS
 62
     7
 10
-1025.8705684925
 20
680.439394625
 30
0.0
 11
-1020.3705796982
 21
680.439394625
 31
0.0
  0
POLYLINE
  5
350
  8
0
  6
CONTINUOUS
 62
     7
 66
     1
 10
0.0
 20
0.0
 30
0.0
  0
VERTEX
  5
5E7
  8
0
  6
CONTINUOUS
 62
     7
 10
-1072.4687049176
 20
455.2393953373
 30
0.0
  0
VERTEX
  5
5E8
  8
0
  6
CONTINUOUS
 62
     7
 10
-1072.4700609232
 20
453.4768859913
 30
0.0
  0
VERTEX
  5
5E9
  8
0
  6
CONTINUOUS
 62
     7
 10
-1072.4714765335
 20
452.1041165163
 30
0.0
  0
SEQEND
  5
5EA
  8
0
  6
CONTINUOUS
 62
     7
  0
LINE
  5
351
  8
0
  6
CONTINUOUS
 62
     7
 10
-1099.6705809618
 20
451.8927435448
 30
0.0
 11
-1099.6705809618
 21
455.2393953373
 31
0.0
  0
LINE
  5
352
  8
0
  6
CONTINUOUS
 62
     7
 10
-1099.6705809618
 20
451.8927435448
 30
0.0
 11
-1099.5884010579
 21
451.9935797026
 31
0.0
  0
LINE
  5
353
  8
0
  6
CONTINUOUS
 62
     7
 10
-1069.6705797697
 20
455.2393953373
 30
0.0
 11
-1069.6705797697
 21
451.8927435448
 31
0.0
  0
LINE
  5
354
  8
0
  6
CONTINUOUS
 62
     7
 10
-1069.7527745749
 20
451.9935797026
 30
0.0
 11
-1069.6705797697
 21
451.8927435448
 31
0.0
  0
ARC
  5
355
  8
0
  6
CONTINUOUS
 62
     7
 10
-1074.3464599081
 20
451.902630543
 30
0.0
 40
1.88577815561421
 50
359.230084286
 51
6.1334755327
  0
POLYLINE
  5
356
  8
0
  6
CONTINUOUS
 62
     7
 66
     1
 10
0.0
 20
0.0
 30
0.0
  0
VERTEX
  5
5EB
  8
0
  6
CONTINUOUS
 62
     7
 10
-1072.4608520056
 20
451.8772910406
 30
0.0
  0
VERTEX
  5
5EC
  8
0
  6
CONTINUOUS
 62
     7
 10
-1071.4685985829
 20
451.9303540756
 30
0.0
  0
VERTEX
  5
5ED
  8
0
  6
CONTINUOUS
 62
     7
 10
-1070.6866303469
 20
451.8976013233
 30
0.0
  0
VERTEX
  5
5EE
  8
0
  6
CONTINUOUS
 62
     7
 10
-1070.2278533961
 20
451.8148551752
 30
0.0
  0
VERTEX
  5
5EF
  8
0
  6
CONTINUOUS
 62
     7
 10
-1069.9889579798
 20
451.7025451233
 30
0.0
  0
VERTEX
  5
5F0
  8
0
  6
CONTINUOUS
 62
     7
 10
-1069.9337342764
 20
451.599905925
 30
0.0
  0
SEQEND
  5
5F1
  8
0
  6
CONTINUOUS
 62
     7
  0
POLYLINE
  5
357
  8
0
  6
CONTINUOUS
 62
     7
 66
     1
 10
0.0
 20
0.0
 30
0.0
  0
VERTEX
  5
5F2
  8
0
  6
CONTINUOUS
 62
     7
 10
-1099.407411554
 20
451.599905925
 30
0.0
  0
VERTEX
  5
5F3
  8
0
  6
CONTINUOUS
 62
     7
 10
-1099.3693539883
 20
451.6860048344
 30
0.0
  0
VERTEX
  5
5F4
  8
0
  6
CONTINUOUS
 62
     7
 10
-1099.213189819
 20
451.78091033
 30
0.0
  0
VERTEX
  5
5F5
  8
0
  6
CONTINUOUS
 62
     7
 10
-1098.853222468
 20
451.8713454773
 30
0.0
  0
VERTEX
  5
5F6
  8
0
  6
CONTINUOUS
 62
     7
 10
-1098.3579525734
 20
451.9206236174
 30
0.0
  0
VERTEX
  5
5F7
  8
0
  6
CONTINUOUS
 62
     7
 10
-1097.6700404669
 20
451.9265840818
 30
0.0
  0
VERTEX
  5
5F8
  8
0
  6
CONTINUOUS
 62
     7
 10
-1096.8802938248
 20
451.8772910406
 30
0.0
  0
SEQEND
  5
5F9
  8
0
  6
CONTINUOUS
 62
     7
  0
ARC
  5
358
  8
0
  6
CONTINUOUS
 62
     7
 10
-1069.9674044234
 20
451.8948220425
 30
0.0
 40
0.2968319308564383
 50
276.513175477
 51
359.5987961217
  0
ARC
  5
359
  8
0
  6
CONTINUOUS
 62
     7
 10
-1099.3737418458
 20
451.8948367526
 30
0.0
 40
0.2968464962852457
 50
180.4040235356
 51
263.4872307237
  0
LINE
  5
35A
  8
0
  6
CONTINUOUS
 62
     7
 10
-1069.6705797697
 20
451.8927435448
 30
0.0
 11
-1069.6705797697
 21
450.4454533627
 31
0.0
  0
LINE
  5
35B
  8
0
  6
CONTINUOUS
 62
     7
 10
-1099.6705809618
 20
450.4454533627
 30
0.0
 11
-1099.6705809618
 21
451.8927435448
 31
0.0
  0
LINE
  5
35C
  8
0
  6
CONTINUOUS
 62
     7
 10
-1073.7774441029
 20
449.3738214542
 30
0.0
 11
-1095.5637166287
 21
449.3738214542
 31
0.0
  0
LINE
  5
35D
  8
0
  6
CONTINUOUS
 62
     7
 10
-1072.4286505963
 20
449.373985367
 30
0.0
 11
-1073.7763563181
 21
449.373985367
 31
0.0
  0
LINE
  5
35E
  8
0
  6
CONTINUOUS
 62
     7
 10
-1095.5648044135
 20
449.373985367
 30
0.0
 11
-1096.9125101353
 21
449.373985367
 31
0.0
  0
LINE
  5
35F
  8
0
  6
CONTINUOUS
 62
     7
 10
-1432.6705703522
 20
458.239401417
 30
0.0
 11
-1432.6705703522
 21
456.789905863
 31
0.0
  0
ARC
  5
360
  8
0
  6
CONTINUOUS
 62
     7
 10
-1432.1705754255
 20
459.2393946186
 30
0.0
 40
2.49999999999997
 50
185.5744582287
 51
258.4630409672
  0
LINE
  5
361
  8
0
  6
CONTINUOUS
 62
     7
 10
-1042.6705697562
 20
455.2393953373
 30
0.0
 11
-1432.6705703522
 21
455.2393953373
 31
0.0
  0
POLYLINE
  5
362
  8
0
  6
CONTINUOUS
 62
     7
 66
     1
 10
0.0
 20
0.0
 30
0.0
  0
VERTEX
  5
5FA
  8
0
  6
CONTINUOUS
 62
     7
 10
-1432.6705703522
 20
455.2393953373
 30
0.0
  0
VERTEX
  5
5FB
  8
0
  6
CONTINUOUS
 62
     7
 10
-1432.4560085322
 20
455.2867959311
 30
0.0
  0
VERTEX
  5
5FC
  8
0
  6
CONTINUOUS
 62
     7
 10
-1432.2989204909
 20
455.4438690712
 30
0.0
  0
VERTEX
  5
5FD
  8
0
  6
CONTINUOUS
 62
     7
 10
-1432.2027334954
 20
455.7231019308
 30
0.0
  0
VERTEX
  5
5FE
  8
0
  6
CONTINUOUS
 62
     7
 10
-1432.1705767895
 20
456.1180870106
 30
0.0
  0
VERTEX
  5
5FF
  8
0
  6
CONTINUOUS
 62
     7
 10
-1432.2025695826
 20
456.6065768768
 30
0.0
  0
VERTEX
  5
600
  8
0
  6
CONTINUOUS
 62
     7
 10
-1432.2985330607
 20
457.1493367722
 30
0.0
  0
VERTEX
  5
601
  8
0
  6
CONTINUOUS
 62
     7
 10
-1432.4561575438
 20
457.7086369564
 30
0.0
  0
VERTEX
  5
602
  8
0
  6
CONTINUOUS
 62
     7
 10
-1432.6705703522
 20
458.239401417
 30
0.0
  0
SEQEND
  5
603
  8
0
  6
CONTINUOUS
 62
     7
  0
POLYLINE
  5
363
  8
0
  6
CONTINUOUS
 62
     7
 66
     1
 10
0.0
 20
0.0
 30
0.0
  0
VERTEX
  5
604
  8
0
  6
CONTINUOUS
 62
     7
 10
-1042.6705697562
 20
455.2393953373
 30
0.0
  0
VERTEX
  5
605
  8
0
  6
CONTINUOUS
 62
     7
 10
-1042.8851464774
 20
455.2867959311
 30
0.0
  0
VERTEX
  5
606
  8
0
  6
CONTINUOUS
 62
     7
 10
-1043.0422196175
 20
455.4438690712
 30
0.0
  0
VERTEX
  5
607
  8
0
  6
CONTINUOUS
 62
     7
 10
-1043.1384215142
 20
455.7231019308
 30
0.0
  0
VERTEX
  5
608
  8
0
  6
CONTINUOUS
 62
     7
 10
-1043.17057822
 20
456.1180870106
 30
0.0
  0
VERTEX
  5
609
  8
0
  6
CONTINUOUS
 62
     7
 10
-1043.1385854269
 20
456.6065768768
 30
0.0
  0
VERTEX
  5
60A
  8
0
  6
CONTINUOUS
 62
     7
 10
-1043.0426070477
 20
457.1493367722
 30
0.0
  0
VERTEX
  5
60B
  8
0
  6
CONTINUOUS
 62
     7
 10
-1042.8849974657
 20
457.7086369564
 30
0.0
  0
VERTEX
  5
60C
  8
0
  6
CONTINUOUS
 62
     7
 10
-1042.6705697562
 20
458.239401417
 30
0.0
  0
SEQEND
  5
60D
  8
0
  6
CONTINUOUS
 62
     7
  0
ARC
  5
364
  8
0
  6
CONTINUOUS
 62
     7
 10
-1434.6705754255
 20
456.7393946186
 30
0.0
 40
2.5000000000001
 50
36.8698976458
 51
45.0
  0
LINE
  5
365
  8
0
  6
CONTINUOUS
 62
     7
 10
-1432.9028049494
 20
458.5071603825
 30
0.0
 11
-1427.9205719019
 21
463.4893934299
 31
0.0
  0
LINE
  5
366
  8
0
  6
CONTINUOUS
 62
     7
 10
-1427.9205719019
 20
463.4893934299
 30
0.0
 11
-1421.1705693985
 21
463.4893934299
 31
0.0
  0
LINE
  5
367
  8
0
  6
CONTINUOUS
 62
     7
 10
-1421.1705693985
 20
463.4893934299
 30
0.0
 11
-1421.1705693985
 21
470.2393959333
 31
0.0
  0
LINE
  5
368
  8
0
  6
CONTINUOUS
 62
     7
 10
-1421.1705693985
 20
470.2393959333
 30
0.0
 11
-1054.1705707098
 21
470.2393959333
 31
0.0
  0
LINE
  5
369
  8
0
  6
CONTINUOUS
 62
     7
 10
-1054.1705707098
 20
463.4893934299
 30
0.0
 11
-1054.1705707098
 21
470.2393959333
 31
0.0
  0
LINE
  5
36A
  8
0
  6
CONTINUOUS
 62
     7
 10
-1047.4205682064
 20
463.4893934299
 30
0.0
 11
-1054.1705707098
 21
463.4893934299
 31
0.0
  0
LINE
  5
36B
  8
0
  6
CONTINUOUS
 62
     7
 10
-1042.438335159
 20
458.5071603825
 30
0.0
 11
-1047.4205682064
 21
463.4893934299
 31
0.0
  0
ARC
  5
36C
  8
0
  6
CONTINUOUS
 62
     7
 10
-1040.6705754255
 20
456.7393946186
 30
0.0
 40
2.499999999999966
 50
135.0
 51
143.1301023542
  0
ARC
  5
36D
  8
0
  6
CONTINUOUS
 62
     7
 10
-1042.7387097617
 20
457.1660393849
 30
0.0
 40
0.4320555142430018
 50
178.3139548834
 51
279.0740725651
  0
LINE
  5
36E
  8
0
  6
CONTINUOUS
 62
     7
 10
-1042.6705697562
 20
456.7393909265
 30
0.0
 11
-1042.6705697562
 21
455.2393953373
 31
0.0
  0
LINE
  5
36F
  8
0
  6
CONTINUOUS
 62
     7
 10
-1039.1705701138
 20
470.2393959333
 30
0.0
 11
-1039.1705701138
 21
458.7393949797
 31
0.0
  0
POLYLINE
  5
370
  8
0
  6
CONTINUOUS
 62
     7
 66
     1
 10
0.0
 20
0.0
 30
0.0
  0
VERTEX
  5
60E
  8
0
  6
CONTINUOUS
 62
     7
 10
-1042.1705761935
 20
458.7393949797
 30
0.0
  0
VERTEX
  5
60F
  8
0
  6
CONTINUOUS
 62
     7
 10
-1041.6393945004
 20
458.9539567997
 30
0.0
  0
VERTEX
  5
610
  8
0
  6
CONTINUOUS
 62
     7
 10
-1041.0819718625
 20
459.111044841
 30
0.0
  0
VERTEX
  5
611
  8
0
  6
CONTINUOUS
 62
     7
 10
-1040.5370960022
 20
459.2072467377
 30
0.0
  0
VERTEX
  5
612
  8
0
  6
CONTINUOUS
 62
     7
 10
-1040.0492468859
 20
459.2393885424
 30
0.0
  0
VERTEX
  5
613
  8
0
  6
CONTINUOUS
 62
     7
 10
-1039.6538445736
 20
459.2074106504
 30
0.0
  0
VERTEX
  5
614
  8
0
  6
CONTINUOUS
 62
     7
 10
-1039.375624993
 20
459.1114322712
 30
0.0
  0
VERTEX
  5
615
  8
0
  6
CONTINUOUS
 62
     7
 10
-1039.2178962017
 20
458.9538077881
 30
0.0
  0
VERTEX
  5
616
  8
0
  6
CONTINUOUS
 62
     7
 10
-1039.1705701138
 20
458.7393949797
 30
0.0
  0
SEQEND
  5
617
  8
0
  6
CONTINUOUS
 62
     7
  0
LINE
  5
371
  8
0
  6
CONTINUOUS
 62
     7
 10
-1042.1705761935
 20
470.2393959333
 30
0.0
 11
-1039.1705701138
 21
470.2393959333
 31
0.0
  0
LINE
  5
372
  8
0
  6
CONTINUOUS
 62
     7
 10
-1039.1705701138
 20
458.7393949797
 30
0.0
 11
-1040.6705806042
 21
458.7393949797
 31
0.0
  0
ARC
  5
373
  8
0
  6
CONTINUOUS
 62
     7
 10
-1041.08480707
 20
458.8184354815
 30
0.0
 40
0.4217000899530223
 50
349.1969867623
 51
93.4108976257
  0
LINE
  5
374
  8
0
  6
CONTINUOUS
 62
     7
 10
-1054.1705707098
 20
470.2393959333
 30
0.0
 11
-1042.1705761935
 21
470.2393959333
 31
0.0
  0
ARC
  5
375
  8
0
  6
CONTINUOUS
 62
     7
 10
-1040.6705754255
 20
456.7393946186
 30
0.0
 40
2.500000000000091
 50
126.8698976458
 51
135.0
  0
LINE
  5
376
  8
0
  6
CONTINUOUS
 62
     7
 10
-1432.6705703522
 20
456.7393909265
 30
0.0
 11
-1432.6705703522
 21
455.2393953373
 31
0.0
  0
ARC
  5
377
  8
0
  6
CONTINUOUS
 62
     7
 10
-1432.6024421588
 20
457.1660381802
 30
0.0
 40
0.4320524618949172
 50
260.9274490646
 51
1.6862168579
  0
LINE
  5
378
  8
0
  6
CONTINUOUS
 62
     7
 10
-1433.1705788161
 20
470.2393959333
 30
0.0
 11
-1421.1705693985
 21
470.2393959333
 31
0.0
  0
ARC
  5
379
  8
0
  6
CONTINUOUS
 62
     7
 10
-1434.6705754255
 20
456.7393946186
 30
0.0
 40
2.500000000000182
 50
45.0
 51
53.1301023542
  0
LINE
  5
37A
  8
0
  6
CONTINUOUS
 62
     7
 10
-1436.1705699946
 20
458.7393949797
 30
0.0
 11
-1436.1705699946
 21
470.2393959333
 31
0.0
  0
LINE
  5
37B
  8
0
  6
CONTINUOUS
 62
     7
 10
-1436.1705699946
 20
470.2393959333
 30
0.0
 11
-1433.1705788161
 21
470.2393959333
 31
0.0
  0
POLYLINE
  5
37C
  8
0
  6
CONTINUOUS
 62
     7
 66
     1
 10
0.0
 20
0.0
 30
0.0
  0
VERTEX
  5
618
  8
0
  6
CONTINUOUS
 62
     7
 10
-1433.1705788161
 20
458.7393949797
 30
0.0
  0
VERTEX
  5
619
  8
0
  6
CONTINUOUS
 62
     7
 10
-1433.7017605092
 20
458.9539567997
 30
0.0
  0
VERTEX
  5
61A
  8
0
  6
CONTINUOUS
 62
     7
 10
-1434.2591831471
 20
459.111044841
 30
0.0
  0
VERTEX
  5
61B
  8
0
  6
CONTINUOUS
 62
     7
 10
-1434.8040590073
 20
459.2072467377
 30
0.0
  0
VERTEX
  5
61C
  8
0
  6
CONTINUOUS
 62
     7
 10
-1435.2919081236
 20
459.2393885424
 30
0.0
  0
VERTEX
  5
61D
  8
0
  6
CONTINUOUS
 62
     7
 10
-1435.6872955347
 20
459.2074106504
 30
0.0
  0
VERTEX
  5
61E
  8
0
  6
CONTINUOUS
 62
     7
 10
-1435.9655300166
 20
459.1114322712
 30
0.0
  0
VERTEX
  5
61F
  8
0
  6
CONTINUOUS
 62
     7
 10
-1436.1232588078
 20
458.9538077881
 30
0.0
  0
VERTEX
  5
620
  8
0
  6
CONTINUOUS
 62
     7
 10
-1436.1705699946
 20
458.7393949797
 30
0.0
  0
SEQEND
  5
621
  8
0
  6
CONTINUOUS
 62
     7
  0
ARC
  5
37D
  8
0
  6
CONTINUOUS
 62
     7
 10
-1434.2563463337
 20
458.8184348184
 30
0.0
 40
0.4217015431107883
 50
86.5873045338
 51
190.8028838431
  0
LINE
  5
37E
  8
0
  6
CONTINUOUS
 62
     7
 10
-1436.1705699946
 20
458.7393949797
 30
0.0
 11
-1434.6705744053
 21
458.7393949797
 31
0.0
  0
LINE
  5
37F
  8
0
  6
CONTINUOUS
 62
     7
 10
-1042.1705761935
 20
455.2393953373
 30
0.0
 11
-1042.1705761935
 21
456.7393909265
 31
0.0
  0
LINE
  5
380
  8
0
  6
CONTINUOUS
 62
     7
 10
-1042.1705761935
 20
455.2393953373
 30
0.0
 11
-1042.6705697562
 21
455.2393953373
 31
0.0
  0
LINE
  5
381
  8
0
  6
CONTINUOUS
 62
     7
 10
-1042.1705761935
 20
456.7393909265
 30
0.0
 11
-1042.6705697562
 21
456.7393909265
 31
0.0
  0
LINE
  5
382
  8
0
  6
CONTINUOUS
 62
     7
 10
-1039.1705701138
 20
458.239401417
 30
0.0
 11
-1040.6705806042
 21
458.239401417
 31
0.0
  0
LINE
  5
383
  8
0
  6
CONTINUOUS
 62
     7
 10
-1039.1705701138
 20
458.7393949797
 30
0.0
 11
-1039.1705701138
 21
458.239401417
 31
0.0
  0
LINE
  5
384
  8
0
  6
CONTINUOUS
 62
     7
 10
-1040.6705806042
 20
458.7393949797
 30
0.0
 11
-1040.6705806042
 21
458.239401417
 31
0.0
  0
LINE
  5
385
  8
0
  6
CONTINUOUS
 62
     7
 10
-1433.1705788161
 20
455.2393953373
 30
0.0
 11
-1433.1705788161
 21
456.7393909265
 31
0.0
  0
LINE
  5
386
  8
0
  6
CONTINUOUS
 62
     7
 10
-1433.1705788161
 20
455.2393953373
 30
0.0
 11
-1432.6705703522
 21
455.2393953373
 31
0.0
  0
LINE
  5
387
  8
0
  6
CONTINUOUS
 62
     7
 10
-1433.1705788161
 20
456.7393909265
 30
0.0
 11
-1432.6705703522
 21
456.7393909265
 31
0.0
  0
LINE
  5
388
  8
0
  6
CONTINUOUS
 62
     7
 10
-1434.6705744053
 20
458.7393949797
 30
0.0
 11
-1434.6705744053
 21
458.239401417
 31
0.0
  0
LINE
  5
389
  8
0
  6
CONTINUOUS
 62
     7
 10
-1436.1705699946
 20
458.239401417
 30
0.0
 11
-1434.6705744053
 21
458.239401417
 31
0.0
  0
LINE
  5
38A
  8
0
  6
CONTINUOUS
 62
     7
 10
-1436.1705699946
 20
458.7393949797
 30
0.0
 11
-1436.1705699946
 21
458.239401417
 31
0.0
  0
ARC
  5
38B
  8
0
  6
CONTINUOUS
 62
     7
 10
-1042.1705891358
 20
458.2394143592
 30
0.0
 40
3.000019021984265
 50
270.0002471778
 51
359.9997528222
  0
ARC
  5
38C
  8
0
  6
CONTINUOUS
 62
     7
 10
-1042.1705749639
 20
458.2393852863
 30
0.0
 40
1.499994359800431
 50
269.9999530347
 51
0.0006161465
  0
ARC
  5
38D
  8
0
  6
CONTINUOUS
 62
     7
 10
-1433.1705715662
 20
458.2393937657
 30
0.0
 40
1.500002839161158
 50
179.9997077434
 51
269.9997230753
  0
ARC
  5
38E
  8
0
  6
CONTINUOUS
 62
     7
 10
-1433.1705812752
 20
458.2393840567
 30
0.0
 40
2.99998871942328
 50
179.9996684424
 51
270.0000469663
  0
LINE
  5
38F
  8
0
  6
CONTINUOUS
 62
     7
 10
-1051.6649851586
 20
475.4393945505
 30
0.0
 11
-1055.8705696846
 21
475.4393945505
 31
0.0
  0
LINE
  5
390
  8
0
  6
CONTINUOUS
 62
     7
 10
-1045.8705792214
 20
475.4393945505
 30
0.0
 11
-1051.6649851586
 21
475.4393945505
 31
0.0
  0
CIRCLE
  5
391
  8
0
  6
CONTINUOUS
 62
     7
 10
-1052.1205756451
 20
485.9393941929
 30
0.0
 40
6.999999999999994
  0
CIRCLE
  5
392
  8
0
  6
CONTINUOUS
 62
     7
 10
-1422.1205756451
 20
485.9393941929
 30
0.0
 40
6.999999999999957
  0
LINE
  5
393
  8
0
  6
CONTINUOUS
 62
     7
 10
-1417.621187308
 20
470.2393959333
 30
0.0
 11
-1417.3511186625
 21
472.1610496809
 31
0.0
  0
ARC
  5
394
  8
0
  6
CONTINUOUS
 62
     7
 10
-1419.3316479768
 20
472.439394193
 30
0.0
 40
2.000000082123563
 50
352.0000011903
 51
89.9999999999
  0
LINE
  5
395
  8
0
  6
CONTINUOUS
 62
     7
 10
-1419.3316468979
 20
474.439392524
 30
0.0
 11
-1428.3705720688
 21
474.439392524
 31
0.0
  0
LINE
  5
396
  8
0
  6
CONTINUOUS
 62
     7
 10
-1428.3705720688
 20
474.439392524
 30
0.0
 11
-1428.3705720688
 21
476.4393965771
 31
0.0
  0
ARC
  5
397
  8
0
  6
CONTINUOUS
 62
     7
 10
-1419.3316479768
 20
472.439394193
 30
0.0
 40
4.0
 50
352.0000011904
 51
90.0000000001
  0
LINE
  5
398
  8
0
  6
CONTINUOUS
 62
     7
 10
-1415.3705755259
 20
471.8826959898
 30
0.0
 11
-1415.6015286232
 21
470.2393959333
 31
0.0
  0
ARC
  5
399
  8
0
  6
CONTINUOUS
 62
     7
 10
-1042.8649028774
 20
479.2453853202
 30
0.0
 40
4.223192763978235
 50
320.1789778611
 51
2.6329449098
  0
LINE
  5
39A
  8
0
  6
CONTINUOUS
 62
     7
 10
-1039.6212855364
 20
476.5408734848
 30
0.0
 11
-1040.1194760586
 21
476.4393965771
 31
0.0
  0
LINE
  5
39B
  8
0
  6
CONTINUOUS
 62
     7
 10
-1434.1923514391
 20
476.4393965771
 30
0.0
 11
-1040.1643583561
 21
476.4393965771
 31
0.0
  0
POLYLINE
  5
39C
  8
0
  6
CONTINUOUS
 62
     7
 66
     1
 10
0.0
 20
0.0
 30
0.0
  0
VERTEX
  5
622
  8
0
  6
CONTINUOUS
 62
     7
 10
-1434.1923514391
 20
476.4393965771
 30
0.0
  0
VERTEX
  5
623
  8
0
  6
CONTINUOUS
 62
     7
 10
-1434.7288379456
 20
476.6167799999
 30
0.0
  0
VERTEX
  5
624
  8
0
  6
CONTINUOUS
 62
     7
 10
-1435.124717095
 20
477.1350274851
 30
0.0
  0
VERTEX
  5
625
  8
0
  6
CONTINUOUS
 62
     7
 10
-1435.3667566563
 20
477.9417763521
 30
0.0
  0
VERTEX
  5
626
  8
0
  6
CONTINUOUS
 62
     7
 10
-1435.4825982834
 20
478.6030451824
 30
0.0
  0
VERTEX
  5
627
  8
0
  6
CONTINUOUS
 62
     7
 10
-1435.5949828412
 20
479.4393877556
 30
0.0
  0
SEQEND
  5
628
  8
0
  6
CONTINUOUS
 62
     7
  0
ARC
  5
39D
  8
0
  6
CONTINUOUS
 62
     7
 10
-1430.6198685384
 20
479.9375824509
 30
0.0
 40
4.999999999973302
 50
180.0
 51
185.7183052343
  0
LINE
  5
39E
  8
0
  6
CONTINUOUS
 62
     7
 10
-1435.6198677803
 20
663.4393941668
 30
0.0
 11
-1435.6198677803
 21
660.9011443389
 31
0.0
  0
LINE
  5
39F
  8
0
  6
CONTINUOUS
 62
     7
 10
-1435.6198677803
 20
616.780473577
 30
0.0
 11
-1435.6198677803
 21
479.9375782778
 31
0.0
  0
LINE
  5
3A0
  8
0
  6
CONTINUOUS
 62
     7
 10
-1038.6212835099
 20
479.9375782778
 30
0.0
 11
-1038.6212835099
 21
616.780473577
 31
0.0
  0
LINE
  5
3A1
  8
0
  6
CONTINUOUS
 62
     7
 10
-1038.6212835099
 20
660.9011443389
 30
0.0
 11
-1038.6212835099
 21
663.4393941668
 31
0.0
  0
ARC
  5
3A2
  8
0
  6
CONTINUOUS
 62
     7
 10
-1043.6212827518
 20
479.9375824509
 30
0.0
 40
5.00000000000656
 50
354.2816947658
 51
0.0
  0
POLYLINE
  5
3A3
  8
0
  6
CONTINUOUS
 62
     7
 66
     1
 10
0.0
 20
0.0
 30
0.0
  0
VERTEX
  5
629
  8
0
  6
CONTINUOUS
 62
     7
 10
-1038.6212835099
 20
663.4393941668
 30
0.0
  0
VERTEX
  5
62A
  8
0
  6
CONTINUOUS
 62
     7
 10
-1038.6440673853
 20
663.9603387621
 30
0.0
  0
VERTEX
  5
62B
  8
0
  6
CONTINUOUS
 62
     7
 10
-1038.711703756
 20
664.465454599
 30
0.0
  0
VERTEX
  5
62C
  8
0
  6
CONTINUOUS
 62
     7
 10
-1038.8221511628
 20
664.9393941798
 30
0.0
  0
VERTEX
  5
62D
  8
0
  6
CONTINUOUS
 62
     7
 10
-1038.9720568444
 20
665.3677570458
 30
0.0
  0
VERTEX
  5
62E
  8
0
  6
CONTINUOUS
 62
     7
 10
-1039.1568461443
 20
665.7375274982
 30
0.0
  0
VERTEX
  5
62F
  8
0
  6
CONTINUOUS
 62
     7
 10
-1039.3709311272
 20
666.0374704107
 30
0.0
  0
VERTEX
  5
630
  8
0
  6
CONTINUOUS
 62
     7
 10
-1039.6077850844
 20
666.2584720498
 30
0.0
  0
VERTEX
  5
631
  8
0
  6
CONTINUOUS
 62
     7
 10
-1039.8602256562
 20
666.3938174525
 30
0.0
  0
VERTEX
  5
632
  8
0
  6
CONTINUOUS
 62
     7
 10
-1040.1205787445
 20
666.4393941929
 30
0.0
  0
SEQEND
  5
633
  8
0
  6
CONTINUOUS
 62
     7
  0
POLYLINE
  5
3A4
  8
0
  6
CONTINUOUS
 62
     7
 66
     1
 10
0.0
 20
0.0
 30
0.0
  0
VERTEX
  5
634
  8
0
  6
CONTINUOUS
 62
     7
 10
-1434.1205725457
 20
666.4393941929
 30
0.0
  0
VERTEX
  5
635
  8
0
  6
CONTINUOUS
 62
     7
 10
-1434.380925634
 20
666.3938174525
 30
0.0
  0
VERTEX
  5
636
  8
0
  6
CONTINUOUS
 62
     7
 10
-1434.6333662058
 20
666.2584720498
 30
0.0
  0
VERTEX
  5
637
  8
0
  6
CONTINUOUS
 62
     7
 10
-1434.870220163
 20
666.0374704107
 30
0.0
  0
VERTEX
  5
638
  8
0
  6
CONTINUOUS
 62
     7
 10
-1435.0843051459
 20
665.7375274982
 30
0.0
  0
VERTEX
  5
639
  8
0
  6
CONTINUOUS
 62
     7
 10
-1435.2690944458
 20
665.3677570458
 30
0.0
  0
VERTEX
  5
63A
  8
0
  6
CONTINUOUS
 62
     7
 10
-1435.4190001275
 20
664.9393941798
 30
0.0
  0
VERTEX
  5
63B
  8
0
  6
CONTINUOUS
 62
     7
 10
-1435.5294475342
 20
664.465454599
 30
0.0
  0
VERTEX
  5
63C
  8
0
  6
CONTINUOUS
 62
     7
 10
-1435.5970839049
 20
663.9603387621
 30
0.0
  0
VERTEX
  5
63D
  8
0
  6
CONTINUOUS
 62
     7
 10
-1435.6198677803
 20
663.4393941668
 30
0.0
  0
SEQEND
  5
63E
  8
0
  6
CONTINUOUS
 62
     7
  0
LINE
  5
3A5
  8
0
  6
CONTINUOUS
 62
     7
 10
-1040.1205787445
 20
666.4393941929
 30
0.0
 11
-1045.1484391476
 21
666.4393941929
 31
0.0
  0
LINE
  5
3A6
  8
0
  6
CONTINUOUS
 62
     7
 10
-1429.0927121426
 20
666.4393941929
 30
0.0
 11
-1434.1205725457
 21
666.4393941929
 31
0.0
  0
LINE
  5
3A7
  8
0
  6
CONTINUOUS
 62
     7
 10
-1437.1205786253
 20
479.9375782778
 30
0.0
 11
-1437.1205786253
 21
479.4393877556
 31
0.0
  0
LINE
  5
3A8
  8
0
  6
CONTINUOUS
 62
     7
 10
-1435.6205830361
 20
479.4393877556
 30
0.0
 11
-1435.6205830361
 21
479.9375782778
 31
0.0
  0
LINE
  5
3A9
  8
0
  6
CONTINUOUS
 62
     7
 10
-1435.6205830361
 20
479.4393877556
 30
0.0
 11
-1437.1205786253
 21
479.4393877556
 31
0.0
  0
LINE
  5
3AA
  8
0
  6
CONTINUOUS
 62
     7
 10
-1037.1205726649
 20
479.9375782778
 30
0.0
 11
-1037.1205726649
 21
479.4393877556
 31
0.0
  0
LINE
  5
3AB
  8
0
  6
CONTINUOUS
 62
     7
 10
-1037.1205726649
 20
479.4393877556
 30
0.0
 11
-1038.6205682541
 21
479.4393877556
 31
0.0
  0
LINE
  5
3AC
  8
0
  6
CONTINUOUS
 62
     7
 10
-1038.6205682541
 20
479.9375782778
 30
0.0
 11
-1038.6205682541
 21
479.4393877556
 31
0.0
  0
LINE
  5
3AD
  8
0
  6
CONTINUOUS
 62
     7
 10
-1435.6205830361
 20
479.9375782778
 30
0.0
 11
-1435.6205830361
 21
616.7812335362
 31
0.0
  0
LINE
  5
3AE
  8
0
  6
CONTINUOUS
 62
     7
 10
-1435.6205830361
 20
660.9019066264
 30
0.0
 11
-1435.6205830361
 21
663.4393941668
 31
0.0
  0
LINE
  5
3AF
  8
0
  6
CONTINUOUS
 62
     7
 10
-1437.1205786253
 20
479.9375782778
 30
0.0
 11
-1437.1205786253
 21
618.398821639
 31
0.0
  0
LINE
  5
3B0
  8
0
  6
CONTINUOUS
 62
     7
 10
-1437.1205786253
 20
662.5194928666
 30
0.0
 11
-1437.1205786253
 21
663.4393941668
 31
0.0
  0
ARC
  5
3B1
  8
0
  6
CONTINUOUS
 62
     7
 10
-1434.1205639613
 20
663.4393795288
 30
0.0
 40
3.00001466410437
 50
90.0001639491
 51
179.9997204359
  0
LINE
  5
3B2
  8
0
  6
CONTINUOUS
 62
     7
 10
-1037.1205726649
 20
663.4393941668
 30
0.0
 11
-1037.1205726649
 21
662.5194928666
 31
0.0
  0
LINE
  5
3B3
  8
0
  6
CONTINUOUS
 62
     7
 10
-1037.1205726649
 20
618.398821639
 30
0.0
 11
-1037.1205726649
 21
479.9375782778
 31
0.0
  0
LINE
  5
3B4
  8
0
  6
CONTINUOUS
 62
     7
 10
-1038.6205682541
 20
663.4393941668
 30
0.0
 11
-1038.6205682541
 21
660.9019066264
 31
0.0
  0
LINE
  5
3B5
  8
0
  6
CONTINUOUS
 62
     7
 10
-1038.6205682541
 20
616.7812335362
 30
0.0
 11
-1038.6205682541
 21
479.9375782778
 31
0.0
  0
ARC
  5
3B6
  8
0
  6
CONTINUOUS
 62
     7
 10
-1040.1205871366
 20
663.4393797211
 30
0.0
 40
3.000014471762398
 50
0.0002758907
 51
89.9998397244
  0
POLYLINE
  5
3B7
  8
0
  6
CONTINUOUS
 62
     7
 66
     1
 10
0.0
 20
0.0
 30
0.0
  0
VERTEX
  5
63F
  8
0
  6
CONTINUOUS
 62
     7
 10
-1435.6205830361
 20
479.4393877556
 30
0.0
  0
VERTEX
  5
640
  8
0
  6
CONTINUOUS
 62
     7
 10
-1435.5793813254
 20
479.09026845
 30
0.0
  0
VERTEX
  5
641
  8
0
  6
CONTINUOUS
 62
     7
 10
-1435.5281511332
 20
478.9420465996
 30
0.0
  0
SEQEND
  5
642
  8
0
  6
CONTINUOUS
 62
     7
  0
ARC
  5
3B8
  8
0
  6
CONTINUOUS
 62
     7
 10
-1434.1205904153
 20
479.4393923305
 30
0.0
 40
2.999988209998569
 50
180.0000873758
 51
255.0545443187
  0
POLYLINE
  5
3B9
  8
0
  6
CONTINUOUS
 62
     7
 66
     1
 10
0.0
 20
0.0
 30
0.0
  0
VERTEX
  5
643
  8
0
  6
CONTINUOUS
 62
     7
 10
-1038.7126425291
 20
478.9446543028
 30
0.0
  0
VERTEX
  5
644
  8
0
  6
CONTINUOUS
 62
     7
 10
-1038.6800387885
 20
479.021216469
 30
0.0
  0
VERTEX
  5
645
  8
0
  6
CONTINUOUS
 62
     7
 10
-1038.6205682541
 20
479.4393877556
 30
0.0
  0
SEQEND
  5
646
  8
0
  6
CONTINUOUS
 62
     7
  0
ARC
  5
3BA
  8
0
  6
CONTINUOUS
 62
     7
 10
-1040.1205766455
 20
479.4394005577
 30
0.0
 40
3.000003980652588
 50
269.9999599112
 51
359.9997554975
  0
LINE
  5
3BB
  8
0
  6
CONTINUOUS
 62
     7
 10
-1434.8942855383
 20
476.540888386
 30
0.0
 11
-1434.1205725457
 21
476.4393965771
 31
0.0
  0
LINE
  5
3BC
  8
0
  6
CONTINUOUS
 62
     7
 10
-1040.1643583561
 20
476.4393965771
 30
0.0
 11
-1040.1205787445
 21
476.4393965771
 31
0.0
  0
LINE
  5
3BD
  8
0
  6
CONTINUOUS
 62
     7
 10
-1414.6362761046
 20
474.7306357195
 30
0.0
 11
-1413.1508836533
 21
474.5218704512
 31
0.0
  0
LINE
  5
3BE
  8
0
  6
CONTINUOUS
 62
     7
 10
-1415.2674743916
 20
470.2393959333
 30
0.0
 11
-1414.6362761046
 21
474.7306357195
 31
0.0
  0
LINE
  5
3BF
  8
0
  6
CONTINUOUS
 62
     7
 10
-1413.7527415539
 20
470.2393959333
 30
0.0
 11
-1413.1508836533
 21
474.5218704512
 31
0.0
  0
LINE
  5
3C0
  8
0
  6
CONTINUOUS
 62
     7
 10
-1059.410876968
 20
474.7306357195
 30
0.0
 11
-1058.773479798
 21
470.2393959333
 31
0.0
  0
POLYLINE
  5
3C1
  8
0
  6
CONTINUOUS
 62
     7
 66
     1
 10
0.0
 20
0.0
 30
0.0
  0
VERTEX
  5
647
  8
0
  6
CONTINUOUS
 62
     7
 10
-1059.253163078
 20
475.9215961267
 30
0.0
  0
VERTEX
  5
648
  8
0
  6
CONTINUOUS
 62
     7
 10
-1058.7426492955
 20
476.3038258125
 30
0.0
  0
VERTEX
  5
649
  8
0
  6
CONTINUOUS
 62
     7
 10
-1058.1194678332
 20
476.4393965771
 30
0.0
  0
SEQEND
  5
64A
  8
0
  6
CONTINUOUS
 62
     7
  0
POLYLINE
  5
3C2
  8
0
  6
CONTINUOUS
 62
     7
 66
     1
 10
0.0
 20
0.0
 30
0.0
  0
VERTEX
  5
64B
  8
0
  6
CONTINUOUS
 62
     7
 10
-1416.121683457
 20
476.4393965771
 30
0.0
  0
VERTEX
  5
64C
  8
0
  6
CONTINUOUS
 62
     7
 10
-1415.4985019947
 20
476.3038258125
 30
0.0
  0
VERTEX
  5
64D
  8
0
  6
CONTINUOUS
 62
     7
 10
-1414.9879882122
 20
475.9215961267
 30
0.0
  0
SEQEND
  5
64E
  8
0
  6
CONTINUOUS
 62
     7
  0
POLYLINE
  5
3C3
  8
0
  6
CONTINUOUS
 62
     7
 66
     1
 10
0.0
 20
0.0
 30
0.0
  0
VERTEX
  5
64F
  8
0
  6
CONTINUOUS
 62
     7
 10
-1413.231186011
 20
475.7159750034
 30
0.0
  0
VERTEX
  5
650
  8
0
  6
CONTINUOUS
 62
     7
 10
-1413.2250765349
 20
475.7890502979
 30
0.0
  0
VERTEX
  5
651
  8
0
  6
CONTINUOUS
 62
     7
 10
-1413.2132599141
 20
475.9215961267
 30
0.0
  0
SEQEND
  5
652
  8
0
  6
CONTINUOUS
 62
     7
  0
ARC
  5
3C4
  8
0
  6
CONTINUOUS
 62
     7
 10
-1201.9724114775
 20
463.4260856657
 30
0.0
 40
142.9914005349178
 50
4.6183503062
 51
5.0671788829
  0
POLYLINE
  5
3C5
  8
0
  6
CONTINUOUS
 62
     7
 66
     1
 10
0.0
 20
0.0
 30
0.0
  0
VERTEX
  5
653
  8
0
  6
CONTINUOUS
 62
     7
 10
-1058.1183651473
 20
476.4393965771
 30
0.0
  0
VERTEX
  5
654
  8
0
  6
CONTINUOUS
 62
     7
 10
-1058.8698307063
 20
476.3038258125
 30
0.0
  0
VERTEX
  5
655
  8
0
  6
CONTINUOUS
 62
     7
 10
-1059.6212813641
 20
475.9215961267
 30
0.0
  0
SEQEND
  5
656
  8
0
  6
CONTINUOUS
 62
     7
  0
ARC
  5
3C6
  8
0
  6
CONTINUOUS
 62
     7
 10
-1087.7927351241
 20
470.3305403497
 30
0.0
 40
28.72091070378017
 50
8.8125217237
 51
11.225357256
  0
ARC
  5
3C7
  8
0
  6
CONTINUOUS
 62
     7
 10
-1384.9482011335
 20
470.3308566944
 30
0.0
 40
28.72106436876861
 50
168.775346968
 51
171.1881644166
  0
LINE
  5
3C8
  8
0
  6
CONTINUOUS
 62
     7
 10
-1413.1198743369
 20
475.9215961267
 30
0.0
 11
-1414.6198699261
 21
475.9215961267
 31
0.0
  0
POLYLINE
  5
3C9
  8
0
  6
CONTINUOUS
 62
     7
 66
     1
 10
0.0
 20
0.0
 30
0.0
  0
VERTEX
  5
657
  8
0
  6
CONTINUOUS
 62
     7
 10
-1414.6198699261
 20
475.9215961267
 30
0.0
  0
VERTEX
  5
658
  8
0
  6
CONTINUOUS
 62
     7
 10
-1415.3740772988
 20
476.3038258125
 30
0.0
  0
VERTEX
  5
659
  8
0
  6
CONTINUOUS
 62
     7
 10
-1416.1282697703
 20
476.4393965771
 30
0.0
  0
SEQEND
  5
65A
  8
0
  6
CONTINUOUS
 62
     7
  0
ARC
  5
3CA
  8
0
  6
CONTINUOUS
 62
     7
 10
-1415.6376314201
 20
474.965429268
 30
0.0
 40
2.525996611197238
 50
349.8865662948
 51
22.2426905257
  0
ARC
  5
3CB
  8
0
  6
CONTINUOUS
 62
     7
 10
-1416.1216206298
 20
474.9394003384
 30
0.0
 40
1.499943673803086
 50
351.9995059972
 51
40.9061378494
  0
POLYLINE
  5
3CC
  8
0
  6
CONTINUOUS
 62
     7
 66
     1
 10
0.0
 20
0.0
 30
0.0
  0
VERTEX
  5
65B
  8
0
  6
CONTINUOUS
 62
     7
 10
-1059.5286855484
 20
475.4348943998
 30
0.0
  0
VERTEX
  5
65C
  8
0
  6
CONTINUOUS
 62
     7
 10
-1059.435463884
 20
475.6592313816
 30
0.0
  0
VERTEX
  5
65D
  8
0
  6
CONTINUOUS
 62
     7
 10
-1059.253163078
 20
475.9215961267
 30
0.0
  0
SEQEND
  5
65E
  8
0
  6
CONTINUOUS
 62
     7
  0
POLYLINE
  5
3CD
  8
0
  6
CONTINUOUS
 62
     7
 66
     1
 10
0.0
 20
0.0
 30
0.0
  0
VERTEX
  5
65F
  8
0
  6
CONTINUOUS
 62
     7
 10
-1414.7476324822
 20
475.5195031931
 30
0.0
  0
VERTEX
  5
660
  8
0
  6
CONTINUOUS
 62
     7
 10
-1414.7776732232
 20
475.1604746153
 30
0.0
  0
VERTEX
  5
661
  8
0
  6
CONTINUOUS
 62
     7
 10
-1414.8302743222
 20
474.5218704512
 30
0.0
  0
SEQEND
  5
662
  8
0
  6
CONTINUOUS
 62
     7
  0
LINE
  5
3CE
  8
0
  6
CONTINUOUS
 62
     7
 10
-1414.8302743222
 20
474.7306357195
 30
0.0
 11
-1414.8302743222
 21
474.5218704512
 31
0.0
  0
LINE
  5
3CF
  8
0
  6
CONTINUOUS
 62
     7
 10
-1414.7953907038
 20
474.9423812201
 30
0.0
 11
-1414.8302743222
 21
474.7306357195
 31
0.0
  0
LINE
  5
3D0
  8
0
  6
CONTINUOUS
 62
     7
 10
-1415.4380479838
 20
470.2393959333
 30
0.0
 11
-1414.8302743222
 21
474.5218704512
 31
0.0
  0
LINE
  5
3D1
  8
0
  6
CONTINUOUS
 62
     7
 10
-1414.8302743222
 20
474.7306357195
 30
0.0
 11
-1415.4676714922
 21
470.2393959333
 31
0.0
  0
LINE
  5
3D2
  8
0
  6
CONTINUOUS
 62
     7
 10
-1040.0921920325
 20
476.4393965771
 30
0.0
 11
-1040.1194760586
 21
476.4393965771
 31
0.0
  0
LINE
  5
3D3
  8
0
  6
CONTINUOUS
 62
     7
 10
-1040.0487998511
 20
476.4393965771
 30
0.0
 11
-1040.0921920325
 21
476.4393965771
 31
0.0
  0
LINE
  5
3D4
  8
0
  6
CONTINUOUS
 62
     7
 10
-1423.3705768372
 20
474.2193917801
 30
0.0
 11
-1420.8705792214
 21
474.2193917801
 31
0.0
  0
LINE
  5
3D5
  8
0
  6
CONTINUOUS
 62
     7
 10
-1425.870574453
 20
474.2193917801
 30
0.0
 11
-1423.3705768372
 21
474.2193917801
 31
0.0
  0
LINE
  5
3D6
  8
0
  6
CONTINUOUS
 62
     7
 10
-1423.3705768372
 20
473.8193999102
 30
0.0
 11
-1425.4705825831
 21
473.8193999102
 31
0.0
  0
LINE
  5
3D7
  8
0
  6
CONTINUOUS
 62
     7
 10
-1421.2705710913
 20
473.8193999102
 30
0.0
 11
-1423.3705768372
 21
473.8193999102
 31
0.0
  0
ARC
  5
3D8
  8
0
  6
CONTINUOUS
 62
     7
 10
-1084.6705754255
 20
-285.6267644022
 30
0.0
 40
120.0000000000275
 50
96.1072772981
 51
97.0541313733
  0
ARC
  5
3D9
  8
0
  6
CONTINUOUS
 62
     7
 10
-1084.6705754255
 20
-285.6267644022
 30
0.0
 40
120.0000000000276
 50
82.9458686267
 51
83.8915872211
  0
ARC
  5
3DA
  8
0
  6
CONTINUOUS
 62
     7
 10
-1099.3705754255
 20
-166.8328251629
 30
0.0
 40
0.3000000000021493
 50
97.0541278521
 51
179.9999856569
  0
ARC
  5
3DB
  8
0
  6
CONTINUOUS
 62
     7
 10
-1069.9705754255
 20
-166.8328251629
 30
0.0
 40
0.3000000000022336
 50
0.0000143431
 51
82.9458721479
  0
ARC
  5
3DC
  8
0
  6
CONTINUOUS
 62
     7
 10
-1071.8705967714
 20
-166.0096806386
 30
0.0
 40
0.2999903078444459
 50
179.5393937499
 51
264.3776415423
  0
ARC
  5
3DD
  8
0
  6
CONTINUOUS
 62
     7
 10
-1097.4705576431
 20
-166.0096729207
 30
0.0
 40
0.2999988297466003
 50
275.6238456119
 51
0.4591190958
  0
ARC
  5
3DE
  8
0
  6
CONTINUOUS
 62
     7
 10
-1084.6705754255
 20
-255.1267644022
 30
0.0
 40
90.19999999999972
 50
82.1997529679
 51
84.5303929161
  0
ARC
  5
3DF
  8
0
  6
CONTINUOUS
 62
     7
 10
-1084.6705754255
 20
-255.1267644022
 30
0.0
 40
90.19999999999956
 50
95.4696070839
 51
97.8002470331
  0
ARC
  5
3E0
  8
0
  6
CONTINUOUS
 62
     7
 10
-1076.1205754255
 20
-165.8351774525
 30
0.0
 40
0.5000000000000591
 50
84.5304035697
 51
90.0
  0
ARC
  5
3E1
  8
0
  6
CONTINUOUS
 62
     7
 10
-1093.2205754255
 20
-165.8351774525
 30
0.0
 40
0.5000000000000807
 50
90.0
 51
95.4695964304
  0
LINE
  5
3E2
  8
0
  6
CONTINUOUS
 62
     7
 10
-1076.1205771948
 20
-165.3351819405
 30
0.0
 11
-1093.2205686356
 21
-165.3351819405
 31
0.0
  0
ARC
  5
3E3
  8
0
  6
CONTINUOUS
 62
     7
 10
-1096.8725732131
 20
-166.058683001
 30
0.0
 40
0.2999911292586951
 50
92.662310219
 51
175.7660458253
  0
ARC
  5
3E4
  8
0
  6
CONTINUOUS
 62
     7
 10
-1072.4685979706
 20
-166.0587098086
 30
0.0
 40
0.3000183935547073
 50
4.2387022949
 51
87.3359336517
  0
LINE
  5
3E5
  8
0
  6
CONTINUOUS
 62
     7
 10
-1045.8705792214
 20
-192.8267663607
 30
0.0
 11
-1045.8705792214
 21
-191.8267643341
 31
0.0
  0
LINE
  5
3E6
  8
0
  6
CONTINUOUS
 62
     7
 10
-1055.8705696846
 20
-191.8267643341
 30
0.0
 11
-1055.8705696846
 21
-192.8267663607
 31
0.0
  0
LINE
  5
3E7
  8
0
  6
CONTINUOUS
 62
     7
 10
-1038.6205682541
 20
-224.0767663607
 30
0.0
 11
-1038.6212835099
 21
-224.0767663607
 31
0.0
  0
LINE
  5
3E8
  8
0
  6
CONTINUOUS
 62
     7
 10
-1038.6212835099
 20
-231.5767592081
 30
0.0
 11
-1038.6205682541
 21
-231.5767592081
 31
0.0
  0
LINE
  5
3E9
  8
0
  6
CONTINUOUS
 62
     7
 10
-1435.6205830361
 20
-231.5767592081
 30
0.0
 11
-1435.6198677803
 21
-231.5767592081
 31
0.0
  0
LINE
  5
3EA
  8
0
  6
CONTINUOUS
 62
     7
 10
-1435.6198677803
 20
-224.0767663607
 30
0.0
 11
-1435.6205830361
 21
-224.0767663607
 31
0.0
  0
LINE
  5
3EB
  8
0
  6
CONTINUOUS
 62
     7
 10
-1420.8705792214
 20
-190.6067615637
 30
0.0
 11
-1421.2705710913
 21
-190.2067696938
 31
0.0
  0
LINE
  5
3EC
  8
0
  6
CONTINUOUS
 62
     7
 10
-1425.4705825831
 20
-190.2067696938
 30
0.0
 11
-1425.870574453
 21
-190.6067615637
 31
0.0
  0
LINE
  5
3ED
  8
0
  6
CONTINUOUS
 62
     7
 10
-1420.8705792214
 20
-190.8267623076
 30
0.0
 11
-1420.8705792214
 21
-190.6067615637
 31
0.0
  0
LINE
  5
3EE
  8
0
  6
CONTINUOUS
 62
     7
 10
-1425.870574453
 20
-190.6067615637
 30
0.0
 11
-1425.870574453
 21
-190.8267623076
 31
0.0
  0
LINE
  5
3EF
  8
0
  6
CONTINUOUS
 62
     7
 10
-1039.120576718
 20
-383.826764024
 30
0.0
 11
-1039.120576718
 21
-382.6551911043
 31
0.0
  0
LINE
  5
3F0
  8
0
  6
CONTINUOUS
 62
     7
 10
-1435.1205745722
 20
-383.826764024
 30
0.0
 11
-1435.1205745722
 21
-382.6551911043
 31
0.0
  0
LINE
  5
3F1
  8
0
  6
CONTINUOUS
 62
     7
 10
-1037.6205811287
 20
-383.826764024
 30
0.0
 11
-1037.6205811287
 21
-386.8267641665
 31
0.0
  0
LINE
  5
3F2
  8
0
  6
CONTINUOUS
 62
     7
 10
-1037.6205811287
 20
-386.8267641665
 30
0.0
 11
-1039.6205702807
 21
-386.8267641665
 31
0.0
  0
LINE
  5
3F3
  8
0
  6
CONTINUOUS
 62
     7
 10
-1039.6205702807
 20
-383.826764024
 30
0.0
 11
-1037.6205811287
 21
-383.826764024
 31
0.0
  0
LINE
  5
3F4
  8
0
  6
CONTINUOUS
 62
     7
 10
-1039.6205702807
 20
-386.8267641665
 30
0.0
 11
-1434.6205810095
 21
-386.8267641665
 31
0.0
  0
LINE
  5
3F5
  8
0
  6
CONTINUOUS
 62
     7
 10
-1039.6205702807
 20
-383.826764024
 30
0.0
 11
-1434.6205810095
 21
-383.826764024
 31
0.0
  0
LINE
  5
3F6
  8
0
  6
CONTINUOUS
 62
     7
 10
-1436.6205701615
 20
-386.8267641665
 30
0.0
 11
-1436.6205701615
 21
-383.826764024
 31
0.0
  0
LINE
  5
3F7
  8
0
  6
CONTINUOUS
 62
     7
 10
-1434.6205810095
 20
-386.8267641665
 30
0.0
 11
-1436.6205701615
 21
-386.8267641665
 31
0.0
  0
LINE
  5
3F8
  8
0
  6
CONTINUOUS
 62
     7
 10
-1436.6205701615
 20
-383.826764024
 30
0.0
 11
-1434.6205810095
 21
-383.826764024
 31
0.0
  0
CIRCLE
  5
3F9
  8
0
  6
CONTINUOUS
 62
     7
 10
-1053.1205756451
 20
-327.8267639765
 30
0.0
 40
3.750000000000084
  0
CIRCLE
  5
3FA
  8
0
  6
CONTINUOUS
 62
     7
 10
-1421.1205756451
 20
-327.8267639765
 30
0.0
 40
3.750000000000355
  0
CIRCLE
  5
3FB
  8
0
  6
CONTINUOUS
 62
     7
 10
-1421.1205756451
 20
-352.8267639765
 30
0.0
 40
3.750000000000245
  0
CIRCLE
  5
3FC
  8
0
  6
CONTINUOUS
 62
     7
 10
-1053.1205756451
 20
-352.8267639765
 30
0.0
 40
3.750000000000087
  0
CIRCLE
  5
3FD
  8
0
  6
CONTINUOUS
 62
     7
 10
-1451.1205756451
 20
-391.1267639765
 30
0.0
 40
3.059999999999916
  0
CIRCLE
  5
3FE
  8
0
  6
CONTINUOUS
 62
     7
 10
-1023.1205756451
 20
-360.5267639765
 30
0.0
 40
3.060000000000068
  0
CIRCLE
  5
3FF
  8
0
  6
CONTINUOUS
 62
     7
 10
-1023.1205756451
 20
-391.1267639765
 30
0.0
 40
3.060000000000053
  0
CIRCLE
  5
400
  8
0
  6
CONTINUOUS
 62
     7
 10
-1451.1205756451
 20
-360.5267639765
 30
0.0
 40
3.059999999999949
  0
ARC
  5
401
  8
0
  6
CONTINUOUS
 62
     7
 10
-1421.1205756451
 20
-327.8267639765
 30
0.0
 40
6.700000000000052
 50
0.0
 51
137.16
  0
ARC
  5
402
  8
0
  6
CONTINUOUS
 62
     7
 10
-1421.1205756451
 20
-327.8267639765
 30
0.0
 40
7.000000000000125
 50
0.0
 51
137.16
  0
LINE
  5
403
  8
0
  6
CONTINUOUS
 62
     7
 10
-1426.0333845402
 20
-323.2710769662
 30
0.0
 11
-1456.0336837555
 21
-355.6231109688
 31
0.0
  0
LINE
  5
404
  8
0
  6
CONTINUOUS
 62
     7
 10
-1456.2536546971
 20
-355.4191252479
 30
0.0
 11
-1426.2533703829
 21
-323.0670912454
 31
0.0
  0
CIRCLE
  5
405
  8
0
  6
CONTINUOUS
 62
     7
 10
-1421.1205756451
 20
-327.8267639765
 30
0.0
 40
3.199999999999989
  0
CIRCLE
  5
406
  8
0
  6
CONTINUOUS
 62
     7
 10
-1421.1205756451
 20
-352.8267639765
 30
0.0
 40
3.199999999999989
  0
CIRCLE
  5
407
  8
0
  6
CONTINUOUS
 62
     7
 10
-1451.1205756451
 20
-391.1267639765
 30
0.0
 40
2.250000000000057
  0
CIRCLE
  5
408
  8
0
  6
CONTINUOUS
 62
     7
 10
-1451.1205756451
 20
-360.5267639765
 30
0.0
 40
2.249999999999943
  0
ARC
  5
409
  8
0
  6
CONTINUOUS
 62
     7
 10
-1453.8705756451
 20
-393.5767639765
 30
0.0
 40
2.950000000000045
 50
180.0
 51
270.0
  0
LINE
  5
40A
  8
0
  6
CONTINUOUS
 62
     7
 10
-1456.8205693747
 20
-357.6289730409
 30
0.0
 11
-1456.8205693747
 21
-393.5767643416
 31
0.0
  0
ARC
  5
40B
  8
0
  6
CONTINUOUS
 62
     7
 10
-1453.8705756451
 20
-357.6289728086
 30
0.0
 40
2.950000000000094
 50
137.16
 51
180.0
  0
LINE
  5
40C
  8
0
  6
CONTINUOUS
 62
     7
 10
-1414.4205817963
 20
-351.3577876875
 30
0.0
 11
-1414.4205817963
 21
-327.8267642745
 31
0.0
  0
ARC
  5
40D
  8
0
  6
CONTINUOUS
 62
     7
 10
-1421.1205756451
 20
-351.3577890448
 30
0.0
 40
6.700000000000045
 50
317.16
 51
0.0
  0
LINE
  5
40E
  8
0
  6
CONTINUOUS
 62
     7
 10
-1444.4736311222
 20
-386.3951229287
 30
0.0
 11
-1416.2077674653
 21
-355.9134768584
 31
0.0
  0
ARC
  5
40F
  8
0
  6
CONTINUOUS
 62
     7
 10
-1441.8705756451
 20
-388.8089573616
 30
0.0
 40
3.550000000000182
 50
137.16
 51
180.0
  0
LINE
  5
410
  8
0
  6
CONTINUOUS
 62
     7
 10
-1445.4205701138
 20
-393.5767643416
 30
0.0
 11
-1445.4205701138
 21
-388.808957141
 31
0.0
  0
ARC
  5
411
  8
0
  6
CONTINUOUS
 62
     7
 10
-1448.3705756451
 20
-393.5767639765
 30
0.0
 40
2.950000000000045
 50
270.0
 51
0.0
  0
LINE
  5
412
  8
0
  6
CONTINUOUS
 62
     7
 10
-1453.870571592
 20
-396.5267639869
 30
0.0
 11
-1448.3705827977
 21
-396.5267639869
 31
0.0
  0
LINE
  5
413
  8
0
  6
CONTINUOUS
 62
     7
 10
-1414.120576718
 20
-327.8267642745
 30
0.0
 11
-1414.120576718
 21
-351.3577876875
 31
0.0
  0
ARC
  5
414
  8
0
  6
CONTINUOUS
 62
     7
 10
-1421.1205756451
 20
-351.3577890448
 30
0.0
 40
7.000000000000086
 50
317.16
 51
0.0
  0
LINE
  5
415
  8
0
  6
CONTINUOUS
 62
     7
 10
-1457.120574453
 20
-393.5767643416
 30
0.0
 11
-1457.120574453
 21
-357.6289730409
 31
0.0
  0
LINE
  5
416
  8
0
  6
CONTINUOUS
 62
     7
 10
-1415.9877816225
 20
-356.1174625793
 30
0.0
 11
-1444.2536601807
 21
-386.5991088824
 31
0.0
  0
ARC
  5
417
  8
0
  6
CONTINUOUS
 62
     7
 10
-1453.8705756451
 20
-357.6289728086
 30
0.0
 40
3.25
 50
137.16
 51
180.0
  0
ARC
  5
418
  8
0
  6
CONTINUOUS
 62
     7
 10
-1441.8705756451
 20
-388.8089573616
 30
0.0
 40
3.250000000000039
 50
137.16
 51
180.0
  0
LINE
  5
419
  8
0
  6
CONTINUOUS
 62
     7
 10
-1445.1205799366
 20
-388.808957141
 30
0.0
 11
-1445.1205799366
 21
-393.5767643416
 31
0.0
  0
ARC
  5
41A
  8
0
  6
CONTINUOUS
 62
     7
 10
-1453.8705756451
 20
-393.5767639765
 30
0.0
 40
3.250000000000057
 50
180.0
 51
270.0
  0
ARC
  5
41B
  8
0
  6
CONTINUOUS
 62
     7
 10
-1448.3705756451
 20
-393.5767639765
 30
0.0
 40
3.250000000000227
 50
270.0
 51
0.0
  0
LINE
  5
41C
  8
0
  6
CONTINUOUS
 62
     7
 10
-1448.3705827977
 20
-396.8267644086
 30
0.0
 11
-1453.870571592
 21
-396.8267644086
 31
0.0
  0
CIRCLE
  5
41D
  8
0
  6
CONTINUOUS
 62
     7
 10
-1053.1205756451
 20
-327.8267639765
 30
0.0
 40
3.199999999999989
  0
CIRCLE
  5
41E
  8
0
  6
CONTINUOUS
 62
     7
 10
-1053.1205756451
 20
-352.8267639765
 30
0.0
 40
3.199999999999989
  0
CIRCLE
  5
41F
  8
0
  6
CONTINUOUS
 62
     7
 10
-1023.1205756451
 20
-391.1267639765
 30
0.0
 40
2.250000000000057
  0
CIRCLE
  5
420
  8
0
  6
CONTINUOUS
 62
     7
 10
-1023.1205756451
 20
-360.5267639765
 30
0.0
 40
2.249999999999943
  0
ARC
  5
421
  8
0
  6
CONTINUOUS
 62
     7
 10
-1025.8705756451
 20
-393.5767639765
 30
0.0
 40
2.949999999999989
 50
180.0
 51
270.0
  0
LINE
  5
422
  8
0
  6
CONTINUOUS
 62
     7
 10
-1028.8205811764
 20
-388.808957141
 30
0.0
 11
-1028.8205811764
 21
-393.5767643416
 31
0.0
  0
ARC
  5
423
  8
0
  6
CONTINUOUS
 62
     7
 10
-1032.3705756451
 20
-388.8089573616
 30
0.0
 40
3.550000000000073
 50
0.0
 51
42.84
  0
LINE
  5
424
  8
0
  6
CONTINUOUS
 62
     7
 10
-1058.033383825
 20
-355.9134768584
 30
0.0
 11
-1029.767520168
 21
-386.3951229287
 31
0.0
  0
ARC
  5
425
  8
0
  6
CONTINUOUS
 62
     7
 10
-1053.1205756451
 20
-351.3577890448
 30
0.0
 40
6.699999999999818
 50
180.0
 51
222.84
  0
LINE
  5
426
  8
0
  6
CONTINUOUS
 62
     7
 10
-1059.8205694939
 20
-327.8267642745
 30
0.0
 11
-1059.8205694939
 21
-351.3577876875
 31
0.0
  0
ARC
  5
427
  8
0
  6
CONTINUOUS
 62
     7
 10
-1053.1205756451
 20
-327.8267639765
 30
0.0
 40
6.700000000000052
 50
42.84
 51
180.0
  0
LINE
  5
428
  8
0
  6
CONTINUOUS
 62
     7
 10
-1018.2074675347
 20
-355.6231109688
 30
0.0
 11
-1048.20776675
 21
-323.2710769662
 31
0.0
  0
ARC
  5
429
  8
0
  6
CONTINUOUS
 62
     7
 10
-1020.3705756451
 20
-357.6289728086
 30
0.0
 40
2.950000000000045
 50
0.0
 51
42.84
  0
LINE
  5
42A
  8
0
  6
CONTINUOUS
 62
     7
 10
-1017.4205819155
 20
-393.5767643416
 30
0.0
 11
-1017.4205819155
 21
-357.6289730409
 31
0.0
  0
ARC
  5
42B
  8
0
  6
CONTINUOUS
 62
     7
 10
-1020.3705756451
 20
-393.5767639765
 30
0.0
 40
2.949999999999932
 50
270.0
 51
0.0
  0
LINE
  5
42C
  8
0
  6
CONTINUOUS
 62
     7
 10
-1025.8705684925
 20
-396.5267639869
 30
0.0
 11
-1020.3705796982
 21
-396.5267639869
 31
0.0
  0
ARC
  5
42D
  8
0
  6
CONTINUOUS
 62
     7
 10
-1053.1205756451
 20
-327.8267639765
 30
0.0
 40
6.999999999999958
 50
42.84
 51
180.0
  0
LINE
  5
42E
  8
0
  6
CONTINUOUS
 62
     7
 10
-1047.9877809073
 20
-323.0670912454
 30
0.0
 11
-1017.9874965931
 21
-355.4191252479
 31
0.0
  0
LINE
  5
42F
  8
0
  6
CONTINUOUS
 62
     7
 10
-1060.1205745722
 20
-351.3577876875
 30
0.0
 11
-1060.1205745722
 21
-327.8267642745
 31
0.0
  0
ARC
  5
430
  8
0
  6
CONTINUOUS
 62
     7
 10
-1053.1205756451
 20
-351.3577890448
 30
0.0
 40
6.99999999999992
 50
180.0
 51
222.84
  0
LINE
  5
431
  8
0
  6
CONTINUOUS
 62
     7
 10
-1029.9874911095
 20
-386.5991088824
 30
0.0
 11
-1058.2533696677
 21
-356.1174625793
 31
0.0
  0
LINE
  5
432
  8
0
  6
CONTINUOUS
 62
     7
 10
-1017.1205768372
 20
-357.6289730409
 30
0.0
 11
-1017.1205768372
 21
-393.5767643416
 31
0.0
  0
ARC
  5
433
  8
0
  6
CONTINUOUS
 62
     7
 10
-1020.3705756451
 20
-357.6289728086
 30
0.0
 40
3.25
 50
0.0
 51
42.84
  0
ARC
  5
434
  8
0
  6
CONTINUOUS
 62
     7
 10
-1032.3705756451
 20
-388.8089573616
 30
0.0
 40
3.250000000000206
 50
0.0
 51
42.84
  0
ARC
  5
435
  8
0
  6
CONTINUOUS
 62
     7
 10
-1025.8705756451
 20
-393.5767639765
 30
0.0
 40
3.250000000000057
 50
180.0
 51
270.0
  0
LINE
  5
436
  8
0
  6
CONTINUOUS
 62
     7
 10
-1029.1205713536
 20
-393.5767643416
 30
0.0
 11
-1029.1205713536
 21
-388.808957141
 31
0.0
  0
ARC
  5
437
  8
0
  6
CONTINUOUS
 62
     7
 10
-1020.3705756451
 20
-393.5767639765
 30
0.0
 40
3.250000000000057
 50
270.0
 51
0.0
  0
LINE
  5
438
  8
0
  6
CONTINUOUS
 62
     7
 10
-1020.3705796982
 20
-396.8267644086
 30
0.0
 11
-1025.8705684925
 21
-396.8267644086
 31
0.0
  0
POLYLINE
  5
439
  8
0
  6
CONTINUOUS
 62
     7
 66
     1
 10
0.0
 20
0.0
 30
0.0
  0
VERTEX
  5
663
  8
0
  6
CONTINUOUS
 62
     7
 10
-1096.8724409129
 20
-171.6267651209
 30
0.0
  0
VERTEX
  5
664
  8
0
  6
CONTINUOUS
 62
     7
 10
-1096.8710849072
 20
-169.8642557749
 30
0.0
  0
VERTEX
  5
665
  8
0
  6
CONTINUOUS
 62
     7
 10
-1096.869684198
 20
-168.4914862999
 30
0.0
  0
SEQEND
  5
666
  8
0
  6
CONTINUOUS
 62
     7
  0
LINE
  5
43A
  8
0
  6
CONTINUOUS
 62
     7
 10
-1069.6705797697
 20
-168.2801133284
 30
0.0
 11
-1069.6705797697
 21
-171.6267651209
 31
0.0
  0
LINE
  5
43B
  8
0
  6
CONTINUOUS
 62
     7
 10
-1069.6705797697
 20
-168.2801133284
 30
0.0
 11
-1069.7527447726
 21
-168.3809494862
 31
0.0
  0
LINE
  5
43C
  8
0
  6
CONTINUOUS
 62
     7
 10
-1099.6705809618
 20
-171.6267651209
 30
0.0
 11
-1099.6705809618
 21
-168.2801133284
 31
0.0
  0
LINE
  5
43D
  8
0
  6
CONTINUOUS
 62
     7
 10
-1099.5883861567
 20
-168.3809494862
 30
0.0
 11
-1099.6705809618
 21
-168.2801133284
 31
0.0
  0
ARC
  5
43E
  8
0
  6
CONTINUOUS
 62
     7
 10
-1094.9978268864
 20
-168.2902704197
 30
0.0
 40
1.882641130302936
 50
179.2205806145
 51
186.1354676388
  0
POLYLINE
  5
43F
  8
0
  6
CONTINUOUS
 62
     7
 66
     1
 10
0.0
 20
0.0
 30
0.0
  0
VERTEX
  5
667
  8
0
  6
CONTINUOUS
 62
     7
 10
-1069.9337342764
 20
-167.9872757086
 30
0.0
  0
VERTEX
  5
668
  8
0
  6
CONTINUOUS
 62
     7
 10
-1069.9717918421
 20
-168.073374618
 30
0.0
  0
VERTEX
  5
669
  8
0
  6
CONTINUOUS
 62
     7
 10
-1070.1279560114
 20
-168.1682801136
 30
0.0
  0
VERTEX
  5
66A
  8
0
  6
CONTINUOUS
 62
     7
 10
-1070.4879233624
 20
-168.2587152609
 30
0.0
  0
VERTEX
  5
66B
  8
0
  6
CONTINUOUS
 62
     7
 10
-1070.9832081582
 20
-168.307993401
 30
0.0
  0
VERTEX
  5
66C
  8
0
  6
CONTINUOUS
 62
     7
 10
-1071.6711202647
 20
-168.3139538655
 30
0.0
  0
VERTEX
  5
66D
  8
0
  6
CONTINUOUS
 62
     7
 10
-1072.4608520056
 20
-168.2646608242
 30
0.0
  0
SEQEND
  5
66E
  8
0
  6
CONTINUOUS
 62
     7
  0
POLYLINE
  5
440
  8
0
  6
CONTINUOUS
 62
     7
 66
     1
 10
0.0
 20
0.0
 30
0.0
  0
VERTEX
  5
66F
  8
0
  6
CONTINUOUS
 62
     7
 10
-1096.8802938248
 20
-168.2646608242
 30
0.0
  0
VERTEX
  5
670
  8
0
  6
CONTINUOUS
 62
     7
 10
-1097.8725621487
 20
-168.3177238593
 30
0.0
  0
VERTEX
  5
671
  8
0
  6
CONTINUOUS
 62
     7
 10
-1098.6545154835
 20
-168.2849711069
 30
0.0
  0
VERTEX
  5
672
  8
0
  6
CONTINUOUS
 62
     7
 10
-1099.1133073355
 20
-168.2022249588
 30
0.0
  0
VERTEX
  5
673
  8
0
  6
CONTINUOUS
 62
     7
 10
-1099.3521878506
 20
-168.0899149069
 30
0.0
  0
VERTEX
  5
674
  8
0
  6
CONTINUOUS
 62
     7
 10
-1099.407411554
 20
-167.9872757086
 30
0.0
  0
SEQEND
  5
675
  8
0
  6
CONTINUOUS
 62
     7
  0
ARC
  5
441
  8
0
  6
CONTINUOUS
 62
     7
 10
-1099.3737418458
 20
-168.2822065363
 30
0.0
 40
0.2968464962852461
 50
96.5127692763
 51
179.5959764644
  0
ARC
  5
442
  8
0
  6
CONTINUOUS
 62
     7
 10
-1069.9674044234
 20
-168.2821918261
 30
0.0
 40
0.2968319308564403
 50
0.4012038783
 51
83.486824523
  0
LINE
  5
443
  8
0
  6
CONTINUOUS
 62
     7
 10
-1099.6705809618
 20
-168.2801133284
 30
0.0
 11
-1099.6705809618
 21
-166.8328231463
 31
0.0
  0
LINE
  5
444
  8
0
  6
CONTINUOUS
 62
     7
 10
-1069.6705797697
 20
-166.8328231463
 30
0.0
 11
-1069.6705797697
 21
-168.2801133284
 31
0.0
  0
LINE
  5
445
  8
0
  6
CONTINUOUS
 62
     7
 10
-1095.5637166287
 20
-165.7611912379
 30
0.0
 11
-1073.7774441029
 21
-165.7611912379
 31
0.0
  0
LINE
  5
446
  8
0
  6
CONTINUOUS
 62
     7
 10
-1073.776341417
 20
-165.7613551506
 30
0.0
 11
-1072.4286505963
 21
-165.7613551506
 31
0.0
  0
LINE
  5
447
  8
0
  6
CONTINUOUS
 62
     7
 10
-1096.9125101353
 20
-165.7613551506
 30
0.0
 11
-1095.5648044135
 21
-165.7613551506
 31
0.0
  0
LINE
  5
448
  8
0
  6
CONTINUOUS
 62
     7
 10
-1432.6705703522
 20
-174.6267712006
 30
0.0
 11
-1432.6705703522
 21
-173.1772756466
 31
0.0
  0
ARC
  5
449
  8
0
  6
CONTINUOUS
 62
     7
 10
-1432.1705754255
 20
-175.6267644022
 30
0.0
 40
2.500000000000036
 50
101.5369590328
 51
180.0000000001
  0
LINE
  5
44A
  8
0
  6
CONTINUOUS
 62
     7
 10
-1432.6705703522
 20
-171.6267651209
 30
0.0
 11
-1042.6705697562
 21
-171.6267651209
 31
0.0
  0
POLYLINE
  5
44B
  8
0
  6
CONTINUOUS
 62
     7
 66
     1
 10
0.0
 20
0.0
 30
0.0
  0
VERTEX
  5
676
  8
0
  6
CONTINUOUS
 62
     7
 10
-1042.6705697562
 20
-171.6267651209
 30
0.0
  0
VERTEX
  5
677
  8
0
  6
CONTINUOUS
 62
     7
 10
-1042.8851464774
 20
-171.6741657147
 30
0.0
  0
VERTEX
  5
678
  8
0
  6
CONTINUOUS
 62
     7
 10
-1043.0422196175
 20
-171.8312388548
 30
0.0
  0
VERTEX
  5
679
  8
0
  6
CONTINUOUS
 62
     7
 10
-1043.1384215142
 20
-172.1104717144
 30
0.0
  0
VERTEX
  5
67A
  8
0
  6
CONTINUOUS
 62
     7
 10
-1043.17057822
 20
-172.5054567942
 30
0.0
  0
VERTEX
  5
67B
  8
0
  6
CONTINUOUS
 62
     7
 10
-1043.1385854269
 20
-172.9939466605
 30
0.0
  0
VERTEX
  5
67C
  8
0
  6
CONTINUOUS
 62
     7
 10
-1043.0426070477
 20
-173.5367065558
 30
0.0
  0
VERTEX
  5
67D
  8
0
  6
CONTINUOUS
 62
     7
 10
-1042.8849974657
 20
-174.09600674
 30
0.0
  0
VERTEX
  5
67E
  8
0
  6
CONTINUOUS
 62
     7
 10
-1042.6705697562
 20
-174.6267712006
 30
0.0
  0
SEQEND
  5
67F
  8
0
  6
CONTINUOUS
 62
     7
  0
POLYLINE
  5
44C
  8
0
  6
CONTINUOUS
 62
     7
 66
     1
 10
0.0
 20
0.0
 30
0.0
  0
VERTEX
  5
680
  8
0
  6
CONTINUOUS
 62
     7
 10
-1432.6705703522
 20
-171.6267651209
 30
0.0
  0
VERTEX
  5
681
  8
0
  6
CONTINUOUS
 62
     7
 10
-1432.4560085322
 20
-171.6741657147
 30
0.0
  0
VERTEX
  5
682
  8
0
  6
CONTINUOUS
 62
     7
 10
-1432.2989204909
 20
-171.8312388548
 30
0.0
  0
VERTEX
  5
683
  8
0
  6
CONTINUOUS
 62
     7
 10
-1432.2027334954
 20
-172.1104717144
 30
0.0
  0
VERTEX
  5
684
  8
0
  6
CONTINUOUS
 62
     7
 10
-1432.1705767895
 20
-172.5054567942
 30
0.0
  0
VERTEX
  5
685
  8
0
  6
CONTINUOUS
 62
     7
 10
-1432.2025695826
 20
-172.9939466605
 30
0.0
  0
VERTEX
  5
686
  8
0
  6
CONTINUOUS
 62
     7
 10
-1432.2985330607
 20
-173.5367065558
 30
0.0
  0
VERTEX
  5
687
  8
0
  6
CONTINUOUS
 62
     7
 10
-1432.4561575438
 20
-174.09600674
 30
0.0
  0
VERTEX
  5
688
  8
0
  6
CONTINUOUS
 62
     7
 10
-1432.6705703522
 20
-174.6267712006
 30
0.0
  0
SEQEND
  5
689
  8
0
  6
CONTINUOUS
 62
     7
  0
ARC
  5
44D
  8
0
  6
CONTINUOUS
 62
     7
 10
-1432.6024421588
 20
-173.5534079639
 30
0.0
 40
0.4320524618949453
 50
358.3137831421
 51
99.0725509354
  0
LINE
  5
44E
  8
0
  6
CONTINUOUS
 62
     7
 10
-1432.6705703522
 20
-173.1267607102
 30
0.0
 11
-1432.6705703522
 21
-171.6267651209
 31
0.0
  0
ARC
  5
44F
  8
0
  6
CONTINUOUS
 62
     7
 10
-1040.6705754255
 20
-173.1267644022
 30
0.0
 40
2.500000000000034
 50
216.8698976458
 51
225.0
  0
LINE
  5
450
  8
0
  6
CONTINUOUS
 62
     7
 10
-1042.438335159
 20
-174.8945301661
 30
0.0
 11
-1047.4205682064
 21
-179.8767632136
 31
0.0
  0
LINE
  5
451
  8
0
  6
CONTINUOUS
 62
     7
 10
-1047.4205682064
 20
-179.8767632136
 30
0.0
 11
-1054.1705707098
 21
-179.8767632136
 31
0.0
  0
LINE
  5
452
  8
0
  6
CONTINUOUS
 62
     7
 10
-1054.1705707098
 20
-179.8767632136
 30
0.0
 11
-1054.1705707098
 21
-186.626765717
 31
0.0
  0
LINE
  5
453
  8
0
  6
CONTINUOUS
 62
     7
 10
-1054.1705707098
 20
-186.626765717
 30
0.0
 11
-1421.1705693985
 21
-186.626765717
 31
0.0
  0
LINE
  5
454
  8
0
  6
CONTINUOUS
 62
     7
 10
-1421.1705693985
 20
-179.8767632136
 30
0.0
 11
-1421.1705693985
 21
-186.626765717
 31
0.0
  0
LINE
  5
455
  8
0
  6
CONTINUOUS
 62
     7
 10
-1427.9205719019
 20
-179.8767632136
 30
0.0
 11
-1421.1705693985
 21
-179.8767632136
 31
0.0
  0
LINE
  5
456
  8
0
  6
CONTINUOUS
 62
     7
 10
-1432.9028049494
 20
-174.8945301661
 30
0.0
 11
-1427.9205719019
 21
-179.8767632136
 31
0.0
  0
ARC
  5
457
  8
0
  6
CONTINUOUS
 62
     7
 10
-1434.6705754255
 20
-173.1267644022
 30
0.0
 40
2.500000000000141
 50
315.0
 51
323.1301023542
  0
POLYLINE
  5
458
  8
0
  6
CONTINUOUS
 62
     7
 66
     1
 10
0.0
 20
0.0
 30
0.0
  0
VERTEX
  5
68A
  8
0
  6
CONTINUOUS
 62
     7
 10
-1433.1705788161
 20
-175.1267647633
 30
0.0
  0
VERTEX
  5
68B
  8
0
  6
CONTINUOUS
 62
     7
 10
-1433.7017605092
 20
-175.3413265833
 30
0.0
  0
VERTEX
  5
68C
  8
0
  6
CONTINUOUS
 62
     7
 10
-1434.2591831471
 20
-175.4984146246
 30
0.0
  0
VERTEX
  5
68D
  8
0
  6
CONTINUOUS
 62
     7
 10
-1434.8040590073
 20
-175.5946165213
 30
0.0
  0
VERTEX
  5
68E
  8
0
  6
CONTINUOUS
 62
     7
 10
-1435.2919081236
 20
-175.626758326
 30
0.0
  0
VERTEX
  5
68F
  8
0
  6
CONTINUOUS
 62
     7
 10
-1435.6872955347
 20
-175.5947804341
 30
0.0
  0
VERTEX
  5
690
  8
0
  6
CONTINUOUS
 62
     7
 10
-1435.9655300166
 20
-175.4988020548
 30
0.0
  0
VERTEX
  5
691
  8
0
  6
CONTINUOUS
 62
     7
 10
-1436.1232588078
 20
-175.3411775717
 30
0.0
  0
VERTEX
  5
692
  8
0
  6
CONTINUOUS
 62
     7
 10
-1436.1705699946
 20
-175.1267647633
 30
0.0
  0
SEQEND
  5
693
  8
0
  6
CONTINUOUS
 62
     7
  0
LINE
  5
459
  8
0
  6
CONTINUOUS
 62
     7
 10
-1436.1705699946
 20
-175.1267647633
 30
0.0
 11
-1434.6705744053
 21
-175.1267647633
 31
0.0
  0
ARC
  5
45A
  8
0
  6
CONTINUOUS
 62
     7
 10
-1434.2563463337
 20
-175.2058046021
 30
0.0
 40
0.4217015431108096
 50
169.1971161569
 51
273.4126954662
  0
LINE
  5
45B
  8
0
  6
CONTINUOUS
 62
     7
 10
-1421.1705693985
 20
-186.626765717
 30
0.0
 11
-1433.1705788161
 21
-186.626765717
 31
0.0
  0
ARC
  5
45C
  8
0
  6
CONTINUOUS
 62
     7
 10
-1434.6705754255
 20
-173.1267644022
 30
0.0
 40
2.500000000000141
 50
306.8698976458
 51
315.0
  0
LINE
  5
45D
  8
0
  6
CONTINUOUS
 62
     7
 10
-1436.1705699946
 20
-186.626765717
 30
0.0
 11
-1436.1705699946
 21
-175.1267647633
 31
0.0
  0
LINE
  5
45E
  8
0
  6
CONTINUOUS
 62
     7
 10
-1433.1705788161
 20
-186.626765717
 30
0.0
 11
-1436.1705699946
 21
-186.626765717
 31
0.0
  0
LINE
  5
45F
  8
0
  6
CONTINUOUS
 62
     7
 10
-1042.6705697562
 20
-173.1267607102
 30
0.0
 11
-1042.6705697562
 21
-171.6267651209
 31
0.0
  0
ARC
  5
460
  8
0
  6
CONTINUOUS
 62
     7
 10
-1042.7387097617
 20
-173.5534091686
 30
0.0
 40
0.4320555142429993
 50
80.9259274349
 51
181.6860451166
  0
LINE
  5
461
  8
0
  6
CONTINUOUS
 62
     7
 10
-1039.1705701138
 20
-175.1267647633
 30
0.0
 11
-1039.1705701138
 21
-186.626765717
 31
0.0
  0
LINE
  5
462
  8
0
  6
CONTINUOUS
 62
     7
 10
-1039.1705701138
 20
-186.626765717
 30
0.0
 11
-1042.1705761935
 21
-186.626765717
 31
0.0
  0
POLYLINE
  5
463
  8
0
  6
CONTINUOUS
 62
     7
 66
     1
 10
0.0
 20
0.0
 30
0.0
  0
VERTEX
  5
694
  8
0
  6
CONTINUOUS
 62
     7
 10
-1042.1705761935
 20
-175.1267647633
 30
0.0
  0
VERTEX
  5
695
  8
0
  6
CONTINUOUS
 62
     7
 10
-1041.6393945004
 20
-175.3413265833
 30
0.0
  0
VERTEX
  5
696
  8
0
  6
CONTINUOUS
 62
     7
 10
-1041.0819718625
 20
-175.4984146246
 30
0.0
  0
VERTEX
  5
697
  8
0
  6
CONTINUOUS
 62
     7
 10
-1040.5370960022
 20
-175.5946165213
 30
0.0
  0
VERTEX
  5
698
  8
0
  6
CONTINUOUS
 62
     7
 10
-1040.0492468859
 20
-175.626758326
 30
0.0
  0
VERTEX
  5
699
  8
0
  6
CONTINUOUS
 62
     7
 10
-1039.6538445736
 20
-175.5947804341
 30
0.0
  0
VERTEX
  5
69A
  8
0
  6
CONTINUOUS
 62
     7
 10
-1039.375624993
 20
-175.4988020548
 30
0.0
  0
VERTEX
  5
69B
  8
0
  6
CONTINUOUS
 62
     7
 10
-1039.2178962017
 20
-175.3411775717
 30
0.0
  0
VERTEX
  5
69C
  8
0
  6
CONTINUOUS
 62
     7
 10
-1039.1705701138
 20
-175.1267647633
 30
0.0
  0
SEQEND
  5
69D
  8
0
  6
CONTINUOUS
 62
     7
  0
LINE
  5
464
  8
0
  6
CONTINUOUS
 62
     7
 10
-1042.1705761935
 20
-186.626765717
 30
0.0
 11
-1054.1705707098
 21
-186.626765717
 31
0.0
  0
ARC
  5
465
  8
0
  6
CONTINUOUS
 62
     7
 10
-1040.6705754255
 20
-173.1267644022
 30
0.0
 40
2.5
 50
225.0
 51
233.1301023542
  0
ARC
  5
466
  8
0
  6
CONTINUOUS
 62
     7
 10
-1041.08480707
 20
-175.2058052652
 30
0.0
 40
0.4217000899529371
 50
266.5891023743
 51
10.8030132377
  0
LINE
  5
467
  8
0
  6
CONTINUOUS
 62
     7
 10
-1039.1705701138
 20
-175.1267647633
 30
0.0
 11
-1040.6705806042
 21
-175.1267647633
 31
0.0
  0
LINE
  5
468
  8
0
  6
CONTINUOUS
 62
     7
 10
-1433.1705788161
 20
-173.1267607102
 30
0.0
 11
-1432.6705703522
 21
-173.1267607102
 31
0.0
  0
LINE
  5
469
  8
0
  6
CONTINUOUS
 62
     7
 10
-1433.1705788161
 20
-171.6267651209
 30
0.0
 11
-1433.1705788161
 21
-173.1267607102
 31
0.0
  0
LINE
  5
46A
  8
0
  6
CONTINUOUS
 62
     7
 10
-1433.1705788161
 20
-171.6267651209
 30
0.0
 11
-1432.6705703522
 21
-171.6267651209
 31
0.0
  0
LINE
  5
46B
  8
0
  6
CONTINUOUS
 62
     7
 10
-1436.1705699946
 20
-174.6267712006
 30
0.0
 11
-1434.6705744053
 21
-174.6267712006
 31
0.0
  0
LINE
  5
46C
  8
0
  6
CONTINUOUS
 62
     7
 10
-1434.6705744053
 20
-175.1267647633
 30
0.0
 11
-1434.6705744053
 21
-174.6267712006
 31
0.0
  0
LINE
  5
46D
  8
0
  6
CONTINUOUS
 62
     7
 10
-1436.1705699946
 20
-175.1267647633
 30
0.0
 11
-1436.1705699946
 21
-174.6267712006
 31
0.0
  0
LINE
  5
46E
  8
0
  6
CONTINUOUS
 62
     7
 10
-1042.1705761935
 20
-171.6267651209
 30
0.0
 11
-1042.1705761935
 21
-173.1267607102
 31
0.0
  0
LINE
  5
46F
  8
0
  6
CONTINUOUS
 62
     7
 10
-1042.1705761935
 20
-173.1267607102
 30
0.0
 11
-1042.6705697562
 21
-173.1267607102
 31
0.0
  0
LINE
  5
470
  8
0
  6
CONTINUOUS
 62
     7
 10
-1042.1705761935
 20
-171.6267651209
 30
0.0
 11
-1042.6705697562
 21
-171.6267651209
 31
0.0
  0
LINE
  5
471
  8
0
  6
CONTINUOUS
 62
     7
 10
-1039.1705701138
 20
-174.6267712006
 30
0.0
 11
-1040.6705806042
 21
-174.6267712006
 31
0.0
  0
LINE
  5
472
  8
0
  6
CONTINUOUS
 62
     7
 10
-1039.1705701138
 20
-175.1267647633
 30
0.0
 11
-1039.1705701138
 21
-174.6267712006
 31
0.0
  0
LINE
  5
473
  8
0
  6
CONTINUOUS
 62
     7
 10
-1040.6705806042
 20
-175.1267647633
 30
0.0
 11
-1040.6705806042
 21
-174.6267712006
 31
0.0
  0
ARC
  5
474
  8
0
  6
CONTINUOUS
 62
     7
 10
-1433.1705812752
 20
-174.6267538403
 30
0.0
 40
2.99998871942328
 50
89.9999530337
 51
180.0003315576
  0
ARC
  5
475
  8
0
  6
CONTINUOUS
 62
     7
 10
-1433.1705715662
 20
-174.6267635493
 30
0.0
 40
1.500002839161158
 50
90.0002769247
 51
180.0002922566
  0
ARC
  5
476
  8
0
  6
CONTINUOUS
 62
     7
 10
-1042.1705749639
 20
-174.62675507
 30
0.0
 40
1.49999435980046
 50
359.9993838535
 51
90.0000469653
  0
ARC
  5
477
  8
0
  6
CONTINUOUS
 62
     7
 10
-1042.1705891358
 20
-174.6267841429
 30
0.0
 40
3.00001902198435
 50
0.0002471778
 51
89.9997528222
  0
LINE
  5
478
  8
0
  6
CONTINUOUS
 62
     7
 10
-1053.0031839396
 20
-191.8267643341
 30
0.0
 11
-1045.8705792214
 21
-191.8267643341
 31
0.0
  0
LINE
  5
479
  8
0
  6
CONTINUOUS
 62
     7
 10
-1055.8705696846
 20
-191.8267643341
 30
0.0
 11
-1053.0031839396
 21
-191.8267643341
 31
0.0
  0
LINE
  5
47A
  8
0
  6
CONTINUOUS
 62
     7
 10
-1415.3705755259
 20
-188.2700657734
 30
0.0
 11
-1415.6015286232
 21
-186.626765717
 31
0.0
  0
ARC
  5
47B
  8
0
  6
CONTINUOUS
 62
     7
 10
-1419.3316479768
 20
-188.8267639767
 30
0.0
 40
4.000000000000114
 50
269.9999999999
 51
7.9999988096
  0
LINE
  5
47C
  8
0
  6
CONTINUOUS
 62
     7
 10
-1428.3705720688
 20
-190.8267623076
 30
0.0
 11
-1428.3705720688
 21
-192.8267663607
 31
0.0
  0
LINE
  5
47D
  8
0
  6
CONTINUOUS
 62
     7
 10
-1419.3316468979
 20
-190.8267623076
 30
0.0
 11
-1428.3705720688
 21
-190.8267623076
 31
0.0
  0
ARC
  5
47E
  8
0
  6
CONTINUOUS
 62
     7
 10
-1419.3316479768
 20
-188.8267639767
 30
0.0
 40
2.00000008212362
 50
269.9999999998
 51
7.9999988096
  0
LINE
  5
47F
  8
0
  6
CONTINUOUS
 62
     7
 10
-1417.621187308
 20
-186.626765717
 30
0.0
 11
-1417.3511186625
 21
-188.5484194645
 31
0.0
  0
ARC
  5
480
  8
0
  6
CONTINUOUS
 62
     7
 10
-1431.3762484128
 20
-195.6327551038
 30
0.0
 40
4.223192763978388
 50
140.1789778611
 51
182.6329449098
  0
LINE
  5
481
  8
0
  6
CONTINUOUS
 62
     7
 10
-1434.6198657538
 20
-192.9282432684
 30
0.0
 11
-1434.1216752316
 21
-192.8267663607
 31
0.0
  0
LINE
  5
482
  8
0
  6
CONTINUOUS
 62
     7
 10
-1434.0767929341
 20
-192.8267663607
 30
0.0
 11
-1040.0487998511
 21
-192.8267663607
 31
0.0
  0
POLYLINE
  5
483
  8
0
  6
CONTINUOUS
 62
     7
 66
     1
 10
0.0
 20
0.0
 30
0.0
  0
VERTEX
  5
69E
  8
0
  6
CONTINUOUS
 62
     7
 10
-1040.0487998511
 20
-192.8267663607
 30
0.0
  0
VERTEX
  5
69F
  8
0
  6
CONTINUOUS
 62
     7
 10
-1039.5123133446
 20
-193.0041497836
 30
0.0
  0
VERTEX
  5
6A0
  8
0
  6
CONTINUOUS
 62
     7
 10
-1039.1164341952
 20
-193.5223972687
 30
0.0
  0
VERTEX
  5
6A1
  8
0
  6
CONTINUOUS
 62
     7
 10
-1038.8743946339
 20
-194.3291461357
 30
0.0
  0
VERTEX
  5
6A2
  8
0
  6
CONTINUOUS
 62
     7
 10
-1038.7585530068
 20
-194.990414966
 30
0.0
  0
VERTEX
  5
6A3
  8
0
  6
CONTINUOUS
 62
     7
 10
-1038.6461684491
 20
-195.8267575392
 30
0.0
  0
SEQEND
  5
6A4
  8
0
  6
CONTINUOUS
 62
     7
  0
LINE
  5
484
  8
0
  6
CONTINUOUS
 62
     7
 10
-1038.6212835099
 20
-379.8267639504
 30
0.0
 11
-1038.6212835099
 21
-377.2885141225
 31
0.0
  0
LINE
  5
485
  8
0
  6
CONTINUOUS
 62
     7
 10
-1038.6212835099
 20
-333.1678433606
 30
0.0
 11
-1038.6212835099
 21
-196.3249480614
 31
0.0
  0
LINE
  5
486
  8
0
  6
CONTINUOUS
 62
     7
 10
-1435.6198677803
 20
-196.3249480614
 30
0.0
 11
-1435.6198677803
 21
-333.1678433606
 31
0.0
  0
LINE
  5
487
  8
0
  6
CONTINUOUS
 62
     7
 10
-1435.6198677803
 20
-377.2885141225
 30
0.0
 11
-1435.6198677803
 21
-379.8267639504
 31
0.0
  0
ARC
  5
488
  8
0
  6
CONTINUOUS
 62
     7
 10
-1430.6198685384
 20
-196.3249522345
 30
0.0
 40
5.000000000006594
 50
174.2816947658
 51
180.0
  0
CIRCLE
  5
489
  8
0
  6
CONTINUOUS
 62
     7
 10
-1237.1205756451
 20
-288.0758581055
 30
0.0
 40
25.25
  0
LINE
  5
48A
  8
0
  6
CONTINUOUS
 62
     7
 10
-1265.5295854445
 20
-311.8886759767
 30
0.0
 11
-1269.4186711694
 21
-315.777759839
 31
0.0
  0
ARC
  5
48B
  8
0
  6
CONTINUOUS
 62
     7
 10
-1267.1205756451
 20
-318.0758581055
 30
0.0
 40
3.249999999999946
 50
135.0
 51
315.0
  0
LINE
  5
48C
  8
0
  6
CONTINUOUS
 62
     7
 10
-1264.8224787797
 20
-320.373955954
 30
0.0
 11
-1260.9333911921
 21
-316.4848646411
 31
0.0
  0
ARC
  5
48D
  8
0
  6
CONTINUOUS
 62
     7
 10
-1263.2314883486
 20
-314.186770809
 30
0.0
 40
3.250000000000067
 50
315.0
 51
135.0
  0
LINE
  5
48E
  8
0
  6
CONTINUOUS
 62
     7
 10
-1269.4186711694
 20
-260.3739535698
 30
0.0
 11
-1265.5295854445
 21
-264.2630448827
 31
0.0
  0
ARC
  5
48F
  8
0
  6
CONTINUOUS
 62
     7
 10
-1263.2314883486
 20
-261.964945402
 30
0.0
 40
3.250000000000107
 50
225.0
 51
45.0
  0
LINE
  5
490
  8
0
  6
CONTINUOUS
 62
     7
 10
-1260.9333911921
 20
-259.6668487677
 30
0.0
 11
-1264.8224787797
 21
-255.7777649054
 31
0.0
  0
ARC
  5
491
  8
0
  6
CONTINUOUS
 62
     7
 10
-1267.1205756451
 20
-258.0758581055
 30
0.0
 40
3.250000000000267
 50
45.0
 51
225.0
  0
LINE
  5
492
  8
0
  6
CONTINUOUS
 62
     7
 10
-1204.8224801208
 20
-315.777759839
 30
0.0
 11
-1208.7115658457
 21
-311.8886759767
 31
0.0
  0
ARC
  5
493
  8
0
  6
CONTINUOUS
 62
     7
 10
-1211.0096629416
 20
-314.186770809
 30
0.0
 40
3.250000000000107
 50
45.0
 51
225.0
  0
LINE
  5
494
  8
0
  6
CONTINUOUS
 62
     7
 10
-1213.3077600981
 20
-316.4848646411
 30
0.0
 11
-1209.4186725105
 21
-320.373955954
 31
0.0
  0
ARC
  5
495
  8
0
  6
CONTINUOUS
 62
     7
 10
-1207.1205756451
 20
-318.0758581055
 30
0.0
 40
3.250000000000107
 50
225.0
 51
45.0
  0
LINE
  5
496
  8
0
  6
CONTINUOUS
 62
     7
 10
-1208.7115658457
 20
-264.2630448827
 30
0.0
 11
-1204.8224801208
 21
-260.3739535698
 31
0.0
  0
ARC
  5
497
  8
0
  6
CONTINUOUS
 62
     7
 10
-1207.1205756451
 20
-258.0758581055
 30
0.0
 40
3.250000000000127
 50
315.0
 51
135.0
  0
LINE
  5
498
  8
0
  6
CONTINUOUS
 62
     7
 10
-1209.4186725105
 20
-255.7777649054
 30
0.0
 11
-1213.3077600981
 21
-259.6668487677
 31
0.0
  0
ARC
  5
499
  8
0
  6
CONTINUOUS
 62
     7
 10
-1211.0096629416
 20
-261.964945402
 30
0.0
 40
3.250000000000388
 50
135.0
 51
315.0
  0
ARC
  5
49A
  8
0
  6
CONTINUOUS
 62
     7
 10
-1043.6212827518
 20
-196.3249522345
 30
0.0
 40
4.99999999997285
 50
0.0
 51
5.7183052343
  0
POLYLINE
  5
49B
  8
0
  6
CONTINUOUS
 62
     7
 66
     1
 10
0.0
 20
0.0
 30
0.0
  0
VERTEX
  5
6A5
  8
0
  6
CONTINUOUS
 62
     7
 10
-1040.1205787445
 20
-382.8267639765
 30
0.0
  0
VERTEX
  5
6A6
  8
0
  6
CONTINUOUS
 62
     7
 10
-1039.8602256562
 20
-382.7811872361
 30
0.0
  0
VERTEX
  5
6A7
  8
0
  6
CONTINUOUS
 62
     7
 10
-1039.6077850844
 20
-382.6458418335
 30
0.0
  0
VERTEX
  5
6A8
  8
0
  6
CONTINUOUS
 62
     7
 10
-1039.3709311272
 20
-382.4248401943
 30
0.0
  0
VERTEX
  5
6A9
  8
0
  6
CONTINUOUS
 62
     7
 10
-1039.1568461443
 20
-382.1248972818
 30
0.0
  0
VERTEX
  5
6AA
  8
0
  6
CONTINUOUS
 62
     7
 10
-1038.9720568444
 20
-381.7551268294
 30
0.0
  0
VERTEX
  5
6AB
  8
0
  6
CONTINUOUS
 62
     7
 10
-1038.8221511628
 20
-381.3267639635
 30
0.0
  0
VERTEX
  5
6AC
  8
0
  6
CONTINUOUS
 62
     7
 10
-1038.711703756
 20
-380.8528243826
 30
0.0
  0
VERTEX
  5
6AD
  8
0
  6
CONTINUOUS
 62
     7
 10
-1038.6440673853
 20
-380.3477085458
 30
0.0
  0
VERTEX
  5
6AE
  8
0
  6
CONTINUOUS
 62
     7
 10
-1038.6212835099
 20
-379.8267639504
 30
0.0
  0
SEQEND
  5
6AF
  8
0
  6
CONTINUOUS
 62
     7
  0
POLYLINE
  5
49C
  8
0
  6
CONTINUOUS
 62
     7
 66
     1
 10
0.0
 20
0.0
 30
0.0
  0
VERTEX
  5
6B0
  8
0
  6
CONTINUOUS
 62
     7
 10
-1435.6198677803
 20
-379.8267639504
 30
0.0
  0
VERTEX
  5
6B1
  8
0
  6
CONTINUOUS
 62
     7
 10
-1435.5970839049
 20
-380.3477085458
 30
0.0
  0
VERTEX
  5
6B2
  8
0
  6
CONTINUOUS
 62
     7
 10
-1435.5294475342
 20
-380.8528243826
 30
0.0
  0
VERTEX
  5
6B3
  8
0
  6
CONTINUOUS
 62
     7
 10
-1435.4190001275
 20
-381.3267639635
 30
0.0
  0
VERTEX
  5
6B4
  8
0
  6
CONTINUOUS
 62
     7
 10
-1435.2690944458
 20
-381.7551268294
 30
0.0
  0
VERTEX
  5
6B5
  8
0
  6
CONTINUOUS
 62
     7
 10
-1435.0843051459
 20
-382.1248972818
 30
0.0
  0
VERTEX
  5
6B6
  8
0
  6
CONTINUOUS
 62
     7
 10
-1434.870220163
 20
-382.4248401943
 30
0.0
  0
VERTEX
  5
6B7
  8
0
  6
CONTINUOUS
 62
     7
 10
-1434.6333662058
 20
-382.6458418335
 30
0.0
  0
VERTEX
  5
6B8
  8
0
  6
CONTINUOUS
 62
     7
 10
-1434.380925634
 20
-382.7811872361
 30
0.0
  0
VERTEX
  5
6B9
  8
0
  6
CONTINUOUS
 62
     7
 10
-1434.1205725457
 20
-382.8267639765
 30
0.0
  0
SEQEND
  5
6BA
  8
0
  6
CONTINUOUS
 62
     7
  0
LINE
  5
49D
  8
0
  6
CONTINUOUS
 62
     7
 10
-1434.1205725457
 20
-382.8267639765
 30
0.0
 11
-1429.0927121426
 21
-382.8267639765
 31
0.0
  0
LINE
  5
49E
  8
0
  6
CONTINUOUS
 62
     7
 10
-1045.1484391476
 20
-382.8267639765
 30
0.0
 11
-1040.1205787445
 21
-382.8267639765
 31
0.0
  0
LINE
  5
49F
  8
0
  6
CONTINUOUS
 62
     7
 10
-1037.1205726649
 20
-195.8267575392
 30
0.0
 11
-1037.1205726649
 21
-196.3249480614
 31
0.0
  0
LINE
  5
4A0
  8
0
  6
CONTINUOUS
 62
     7
 10
-1038.6205682541
 20
-195.8267575392
 30
0.0
 11
-1038.6205682541
 21
-196.3249480614
 31
0.0
  0
LINE
  5
4A1
  8
0
  6
CONTINUOUS
 62
     7
 10
-1038.6205682541
 20
-195.8267575392
 30
0.0
 11
-1037.1205726649
 21
-195.8267575392
 31
0.0
  0
LINE
  5
4A2
  8
0
  6
CONTINUOUS
 62
     7
 10
-1437.1205786253
 20
-195.8267575392
 30
0.0
 11
-1435.6205830361
 21
-195.8267575392
 31
0.0
  0
LINE
  5
4A3
  8
0
  6
CONTINUOUS
 62
     7
 10
-1435.6205830361
 20
-196.3249480614
 30
0.0
 11
-1435.6205830361
 21
-195.8267575392
 31
0.0
  0
LINE
  5
4A4
  8
0
  6
CONTINUOUS
 62
     7
 10
-1437.1205786253
 20
-195.8267575392
 30
0.0
 11
-1437.1205786253
 21
-196.3249480614
 31
0.0
  0
LINE
  5
4A5
  8
0
  6
CONTINUOUS
 62
     7
 10
-1435.6205830361
 20
-379.8267639504
 30
0.0
 11
-1435.6205830361
 21
-377.28927641
 31
0.0
  0
LINE
  5
4A6
  8
0
  6
CONTINUOUS
 62
     7
 10
-1435.6205830361
 20
-333.1686033198
 30
0.0
 11
-1435.6205830361
 21
-196.3249480614
 31
0.0
  0
LINE
  5
4A7
  8
0
  6
CONTINUOUS
 62
     7
 10
-1437.1205786253
 20
-379.8267639504
 30
0.0
 11
-1437.1205786253
 21
-378.9068626502
 31
0.0
  0
LINE
  5
4A8
  8
0
  6
CONTINUOUS
 62
     7
 10
-1437.1205786253
 20
-334.7861914226
 30
0.0
 11
-1437.1205786253
 21
-196.3249480614
 31
0.0
  0
ARC
  5
4A9
  8
0
  6
CONTINUOUS
 62
     7
 10
-1434.1205641536
 20
-379.8267495048
 30
0.0
 40
3.000014471762588
 50
180.0002758907
 51
269.9998397243
  0
LINE
  5
4AA
  8
0
  6
CONTINUOUS
 62
     7
 10
-1038.6205682541
 20
-196.3249480614
 30
0.0
 11
-1038.6205682541
 21
-333.1686033198
 31
0.0
  0
LINE
  5
4AB
  8
0
  6
CONTINUOUS
 62
     7
 10
-1038.6205682541
 20
-377.28927641
 30
0.0
 11
-1038.6205682541
 21
-379.8267639504
 31
0.0
  0
LINE
  5
4AC
  8
0
  6
CONTINUOUS
 62
     7
 10
-1037.1205726649
 20
-196.3249480614
 30
0.0
 11
-1037.1205726649
 21
-334.7861914226
 31
0.0
  0
LINE
  5
4AD
  8
0
  6
CONTINUOUS
 62
     7
 10
-1037.1205726649
 20
-378.9068626502
 30
0.0
 11
-1037.1205726649
 21
-379.8267639504
 31
0.0
  0
ARC
  5
4AE
  8
0
  6
CONTINUOUS
 62
     7
 10
-1040.1205873289
 20
-379.8267493124
 30
0.0
 40
3.000014664104132
 50
270.0001639491
 51
359.9997204359
  0
POLYLINE
  5
4AF
  8
0
  6
CONTINUOUS
 62
     7
 66
     1
 10
0.0
 20
0.0
 30
0.0
  0
VERTEX
  5
6BB
  8
0
  6
CONTINUOUS
 62
     7
 10
-1038.6205682541
 20
-195.8267575392
 30
0.0
  0
VERTEX
  5
6BC
  8
0
  6
CONTINUOUS
 62
     7
 10
-1038.6617699648
 20
-195.4776382336
 30
0.0
  0
VERTEX
  5
6BD
  8
0
  6
CONTINUOUS
 62
     7
 10
-1038.713000157
 20
-195.3294163832
 30
0.0
  0
SEQEND
  5
6BE
  8
0
  6
CONTINUOUS
 62
     7
  0
ARC
  5
4B0
  8
0
  6
CONTINUOUS
 62
     7
 10
-1040.1205608749
 20
-195.8267621142
 30
0.0
 40
2.999988209998212
 50
0.0000873758
 51
75.0545443187
  0
ARC
  5
4B1
  8
0
  6
CONTINUOUS
 62
     7
 10
-1434.1205746447
 20
-195.8267703414
 30
0.0
 40
3.000003980652795
 50
89.9999599112
 51
179.9997554975
  0
POLYLINE
  5
4B2
  8
0
  6
CONTINUOUS
 62
     7
 66
     1
 10
0.0
 20
0.0
 30
0.0
  0
VERTEX
  5
6BF
  8
0
  6
CONTINUOUS
 62
     7
 10
-1435.5285087611
 20
-195.3320240864
 30
0.0
  0
VERTEX
  5
6C0
  8
0
  6
CONTINUOUS
 62
     7
 10
-1435.5611125018
 20
-195.4085862526
 30
0.0
  0
VERTEX
  5
6C1
  8
0
  6
CONTINUOUS
 62
     7
 10
-1435.6205830361
 20
-195.8267575392
 30
0.0
  0
SEQEND
  5
6C2
  8
0
  6
CONTINUOUS
 62
     7
  0
LINE
  5
4B3
  8
0
  6
CONTINUOUS
 62
     7
 10
-1039.3468657519
 20
-192.9282432684
 30
0.0
 11
-1040.1205787445
 21
-192.8267663607
 31
0.0
  0
LINE
  5
4B4
  8
0
  6
CONTINUOUS
 62
     7
 10
-1434.0767929341
 20
-192.8267663607
 30
0.0
 11
-1434.1205725457
 21
-192.8267663607
 31
0.0
  0
LINE
  5
4B5
  8
0
  6
CONTINUOUS
 62
     7
 10
-1058.9736768986
 20
-186.626765717
 30
0.0
 11
-1059.6048751856
 21
-191.1180055031
 31
0.0
  0
LINE
  5
4B6
  8
0
  6
CONTINUOUS
 62
     7
 10
-1059.6048751856
 20
-191.1180055031
 30
0.0
 11
-1061.0902676369
 21
-190.9092402348
 31
0.0
  0
LINE
  5
4B7
  8
0
  6
CONTINUOUS
 62
     7
 10
-1060.4884097363
 20
-186.626765717
 30
0.0
 11
-1061.0902676369
 21
-190.9092402348
 31
0.0
  0
LINE
  5
4B8
  8
0
  6
CONTINUOUS
 62
     7
 10
-1414.8302743222
 20
-191.1180055031
 30
0.0
 11
-1415.4676714922
 21
-186.626765717
 31
0.0
  0
POLYLINE
  5
4B9
  8
0
  6
CONTINUOUS
 62
     7
 66
     1
 10
0.0
 20
0.0
 30
0.0
  0
VERTEX
  5
6C3
  8
0
  6
CONTINUOUS
 62
     7
 10
-1414.9879882122
 20
-192.3089659104
 30
0.0
  0
VERTEX
  5
6C4
  8
0
  6
CONTINUOUS
 62
     7
 10
-1415.4985019947
 20
-192.6911955962
 30
0.0
  0
VERTEX
  5
6C5
  8
0
  6
CONTINUOUS
 62
     7
 10
-1416.121683457
 20
-192.8267663607
 30
0.0
  0
SEQEND
  5
6C6
  8
0
  6
CONTINUOUS
 62
     7
  0
POLYLINE
  5
4BA
  8
0
  6
CONTINUOUS
 62
     7
 66
     1
 10
0.0
 20
0.0
 30
0.0
  0
VERTEX
  5
6C7
  8
0
  6
CONTINUOUS
 62
     7
 10
-1058.1194678332
 20
-192.8267663607
 30
0.0
  0
VERTEX
  5
6C8
  8
0
  6
CONTINUOUS
 62
     7
 10
-1058.7426492955
 20
-192.6911955962
 30
0.0
  0
VERTEX
  5
6C9
  8
0
  6
CONTINUOUS
 62
     7
 10
-1059.253163078
 20
-192.3089659104
 30
0.0
  0
SEQEND
  5
6CA
  8
0
  6
CONTINUOUS
 62
     7
  0
POLYLINE
  5
4BB
  8
0
  6
CONTINUOUS
 62
     7
 66
     1
 10
0.0
 20
0.0
 30
0.0
  0
VERTEX
  5
6CB
  8
0
  6
CONTINUOUS
 62
     7
 10
-1416.122786143
 20
-192.8267663607
 30
0.0
  0
VERTEX
  5
6CC
  8
0
  6
CONTINUOUS
 62
     7
 10
-1415.371320584
 20
-192.6911955962
 30
0.0
  0
VERTEX
  5
6CD
  8
0
  6
CONTINUOUS
 62
     7
 10
-1414.6198699261
 20
-192.3089659104
 30
0.0
  0
SEQEND
  5
6CE
  8
0
  6
CONTINUOUS
 62
     7
  0
ARC
  5
4BC
  8
0
  6
CONTINUOUS
 62
     7
 10
-1386.4484161661
 20
-186.7179101334
 30
0.0
 40
28.72091070378038
 50
188.8125217237
 51
191.225357256
  0
ARC
  5
4BD
  8
0
  6
CONTINUOUS
 62
     7
 10
-1089.2929501567
 20
-186.718226478
 30
0.0
 40
28.72106436876794
 50
348.775346968
 51
351.1881644166
  0
LINE
  5
4BE
  8
0
  6
CONTINUOUS
 62
     7
 10
-1061.1212769534
 20
-192.3089659104
 30
0.0
 11
-1059.6212813641
 21
-192.3089659104
 31
0.0
  0
POLYLINE
  5
4BF
  8
0
  6
CONTINUOUS
 62
     7
 66
     1
 10
0.0
 20
0.0
 30
0.0
  0
VERTEX
  5
6CF
  8
0
  6
CONTINUOUS
 62
     7
 10
-1059.6212813641
 20
-192.3089659104
 30
0.0
  0
VERTEX
  5
6D0
  8
0
  6
CONTINUOUS
 62
     7
 10
-1058.8670739914
 20
-192.6911955962
 30
0.0
  0
VERTEX
  5
6D1
  8
0
  6
CONTINUOUS
 62
     7
 10
-1058.1128815199
 20
-192.8267663607
 30
0.0
  0
SEQEND
  5
6D2
  8
0
  6
CONTINUOUS
 62
     7
  0
POLYLINE
  5
4C0
  8
0
  6
CONTINUOUS
 62
     7
 66
     1
 10
0.0
 20
0.0
 30
0.0
  0
VERTEX
  5
6D3
  8
0
  6
CONTINUOUS
 62
     7
 10
-1061.0099652792
 20
-192.1033447871
 30
0.0
  0
VERTEX
  5
6D4
  8
0
  6
CONTINUOUS
 62
     7
 10
-1061.0160747553
 20
-192.1764200816
 30
0.0
  0
VERTEX
  5
6D5
  8
0
  6
CONTINUOUS
 62
     7
 10
-1061.0278913762
 20
-192.3089659104
 30
0.0
  0
SEQEND
  5
6D6
  8
0
  6
CONTINUOUS
 62
     7
  0
ARC
  5
4C1
  8
0
  6
CONTINUOUS
 62
     7
 10
-1272.2687398127
 20
-179.8134554493
 30
0.0
 40
142.9914005349183
 50
184.6183503062
 51
185.0671788829
  0
ARC
  5
4C2
  8
0
  6
CONTINUOUS
 62
     7
 10
-1058.1195306605
 20
-191.3267701221
 30
0.0
 40
1.499943673803254
 50
171.9995059972
 51
220.9061378494
  0
ARC
  5
4C3
  8
0
  6
CONTINUOUS
 62
     7
 10
-1058.6035198701
 20
-191.3527990516
 30
0.0
 40
2.525996611197648
 50
169.8865662948
 51
202.2426905256
  0
POLYLINE
  5
4C4
  8
0
  6
CONTINUOUS
 62
     7
 66
     1
 10
0.0
 20
0.0
 30
0.0
  0
VERTEX
  5
6D7
  8
0
  6
CONTINUOUS
 62
     7
 10
-1414.7476324822
 20
-191.9068729767
 30
0.0
  0
VERTEX
  5
6D8
  8
0
  6
CONTINUOUS
 62
     7
 10
-1414.8056874062
 20
-192.0466011652
 30
0.0
  0
VERTEX
  5
6D9
  8
0
  6
CONTINUOUS
 62
     7
 10
-1414.9879882122
 20
-192.3089659104
 30
0.0
  0
SEQEND
  5
6DA
  8
0
  6
CONTINUOUS
 62
     7
  0
POLYLINE
  5
4C5
  8
0
  6
CONTINUOUS
 62
     7
 66
     1
 10
0.0
 20
0.0
 30
0.0
  0
VERTEX
  5
6DB
  8
0
  6
CONTINUOUS
 62
     7
 10
-1059.493518808
 20
-191.9068729767
 30
0.0
  0
VERTEX
  5
6DC
  8
0
  6
CONTINUOUS
 62
     7
 10
-1059.4634780671
 20
-191.5478443989
 30
0.0
  0
VERTEX
  5
6DD
  8
0
  6
CONTINUOUS
 62
     7
 10
-1059.410876968
 20
-190.9092402348
 30
0.0
  0
SEQEND
  5
6DE
  8
0
  6
CONTINUOUS
 62
     7
  0
LINE
  5
4C6
  8
0
  6
CONTINUOUS
 62
     7
 10
-1059.410876968
 20
-191.1180055031
 30
0.0
 11
-1059.410876968
 21
-190.9092402348
 31
0.0
  0
LINE
  5
4C7
  8
0
  6
CONTINUOUS
 62
     7
 10
-1059.4457605864
 20
-191.3297510037
 30
0.0
 11
-1059.410876968
 21
-191.1180055031
 31
0.0
  0
LINE
  5
4C8
  8
0
  6
CONTINUOUS
 62
     7
 10
-1058.8031033064
 20
-186.626765717
 30
0.0
 11
-1059.410876968
 21
-190.9092402348
 31
0.0
  0
LINE
  5
4C9
  8
0
  6
CONTINUOUS
 62
     7
 10
-1059.410876968
 20
-191.1180055031
 30
0.0
 11
-1058.773479798
 21
-186.626765717
 31
0.0
  0
LINE
  5
4CA
  8
0
  6
CONTINUOUS
 62
     7
 10
-1434.1216752316
 20
-192.8267663607
 30
0.0
 11
-1434.1489592577
 21
-192.8267663607
 31
0.0
  0
LINE
  5
4CB
  8
0
  6
CONTINUOUS
 62
     7
 10
-1434.1923514391
 20
-192.8267663607
 30
0.0
 11
-1434.1489592577
 21
-192.8267663607
 31
0.0
  0
LINE
  5
4CC
  8
0
  6
CONTINUOUS
 62
     7
 10
-1422.9863056923
 20
-190.2067696938
 30
0.0
 11
-1421.2705710913
 21
-190.2067696938
 31
0.0
  0
LINE
  5
4CD
  8
0
  6
CONTINUOUS
 62
     7
 10
-1425.4705825831
 20
-190.2067696938
 30
0.0
 11
-1422.9863056923
 21
-190.2067696938
 31
0.0
  0
LINE
  5
4CE
  8
0
  6
CONTINUOUS
 62
     7
 10
-1422.9131111885
 20
-190.6067615637
 30
0.0
 11
-1425.870574453
 21
-190.6067615637
 31
0.0
  0
LINE
  5
4CF
  8
0
  6
CONTINUOUS
 62
     7
 10
-1420.8705792214
 20
-190.6067615637
 30
0.0
 11
-1422.9131111885
 21
-190.6067615637
 31
0.0
  0
ENDSEC
  0
EOF
