  0
SECTION
  2
HEADER
  9
$ACADVER
  1
AC1009
  9
$DWGCODEPAGE
  3
ansi_1252
  9
$INSBASE
 10
0.0
 20
0.0
 30
0.0
  9
$EXTMIN
 10
0.0
 20
0.0
 30
0.0
  9
$EXTMAX
 10
420.0
 20
297.0
 30
0.0
  9
$LIMMIN
 10
0.0
 20
0.0
  9
$LIMMAX
 10
420.0
 20
297.0
  9
$ORTHOMODE
 70
     0
  9
$REGENMODE
 70
     1
  9
$FILLMODE
 70
     1
  9
$QTEXTMODE
 70
     0
  9
$MIRRTEXT
 70
     1
  9
$DRAGMODE
 70
     2
  9
$LTSCALE
 40
1.0
  9
$OSMODE
 70
    37
  9
$ATTMODE
 70
     1
  9
$TEXTSIZE
 40
4.8380952381
  9
$TRACEWID
 40
1.0
  9
$TEXTSTYLE
  7
STANDARD
  9
$CLAYER
  8
0
  9
$CELTYPE
  6
BYLAYER
  9
$CECOLOR
 62
   256
  9
$DIMSCALE
 40
1.0
  9
$DIMASZ
 40
3.5
  9
$DIMEXO
 40
1.0
  9
$DIMDLI
 40
3.75
  9
$DIMRND
 40
0.0
  9
$DIMDLE
 40
0.0
  9
$DIMEXE
 40
1.0
  9
$DIMTP
 40
0.0
  9
$DIMTM
 40
0.0
  9
$DIMTXT
 40
4.0317460317
  9
$DIMCEN
 40
2.5
  9
$DIMTSZ
 40
0.0
  9
$DIMTOL
 70
     0
  9
$DIMLIM
 70
     0
  9
$DIMTIH
 70
     1
  9
$DIMTOH
 70
     1
  9
$DIMSE1
 70
     0
  9
$DIMSE2
 70
     0
  9
$DIMTAD
 70
     1
  9
$DIMZIN
 70
     0
  9
$DIMBLK
  1

  9
$DIMASO
 70
     1
  9
$DIMSHO
 70
     1
  9
$DIMPOST
  1

  9
$DIMAPOST
  1

  9
$DIMALT
 70
     0
  9
$DIMALTD
 70
     3
  9
$DIMALTF
 40
0.0393700787
  9
$DIMLFAC
 40
1.0
  9
$DIMTOFL
 70
     1
  9
$DIMTVP
 40
0.0
  9
$DIMTIX
 70
     0
  9
$DIMSOXD
 70
     0
  9
$DIMSAH
 70
     0
  9
$DIMBLK1
  1

  9
$DIMBLK2
  1

  9
$DIMSTYLE
  2
ISO-25
  9
$DIMCLRD
 70
     0
  9
$DIMCLRE
 70
     0
  9
$DIMCLRT
 70
     0
  9
$DIMTFAC
 40
1.0
  9
$DIMGAP
 40
1.524
  9
$LUNITS
 70
     2
  9
$LUPREC
 70
     2
  9
$SKETCHINC
 40
1.0
  9
$FILLETRAD
 40
10.0
  9
$AUNITS
 70
     0
  9
$AUPREC
 70
     2
  9
$MENU
  1
.
  9
$ELEVATION
 40
0.0
  9
$PELEVATION
 40
0.0
  9
$THICKNESS
 40
0.0
  9
$LIMCHECK
 70
     0
  9
$CHAMFERA
 40
10.0
  9
$CHAMFERB
 40
10.0
  9
$SKPOLY
 70
     0
  9
$TDCREATE
 40
2455889.559857963
  9
$TDUPDATE
 40
2455889.559857975
  9
$TDINDWG
 40
0.0000000116
  9
$TDUSRTIMER
 40
0.0000000116
  9
$USRTIMER
 70
     1
  9
$ANGBASE
 50
0.0
  9
$ANGDIR
 70
     0
  9
$PDMODE
 70
     0
  9
$PDSIZE
 40
-1.0
  9
$PLINEWID
 40
0.0
  9
$COORDS
 70
     1
  9
$SPLFRAME
 70
     0
  9
$SPLINETYPE
 70
     6
  9
$SPLINESEGS
 70
     8
  9
$ATTDIA
 70
     0
  9
$ATTREQ
 70
     1
  9
$HANDLING
 70
     1
  9
$HANDSEED
  5
6EB
  9
$SURFTAB1
 70
     6
  9
$SURFTAB2
 70
     6
  9
$SURFTYPE
 70
     6
  9
$SURFU
 70
     6
  9
$SURFV
 70
     6
  9
$UCSNAME
  2

  9
$UCSORG
 10
0.0
 20
0.0
 30
0.0
  9
$UCSXDIR
 10
1.0
 20
0.0
 30
0.0
  9
$UCSYDIR
 10
0.0
 20
1.0
 30
0.0
  9
$PUCSNAME
  2

  9
$PUCSORG
 10
0.0
 20
0.0
 30
0.0
  9
$PUCSXDIR
 10
1.0
 20
0.0
 30
0.0
  9
$PUCSYDIR
 10
0.0
 20
1.0
 30
0.0
  9
$USERI1
 70
     0
  9
$USERI2
 70
     0
  9
$USERI3
 70
     0
  9
$USERI4
 70
     0
  9
$USERI5
 70
     0
  9
$USERR1
 40
0.0
  9
$USERR2
 40
0.0
  9
$USERR3
 40
0.0
  9
$USERR4
 40
0.0
  9
$USERR5
 40
0.0
  9
$WORLDVIEW
 70
     1
  9
$SHADEDGE
 70
     3
  9
$SHADEDIF
 70
    70
  9
$TILEMODE
 70
     1
  9
$MAXACTVP
 70
    64
  9
$PLIMCHECK
 70
     0
  9
$PEXTMIN
 10
1.0000000000E+20
 20
1.0000000000E+20
 30
1.0000000000E+20
  9
$PEXTMAX
 10
-1.0000000000E+20
 20
-1.0000000000E+20
 30
-1.0000000000E+20
  9
$PLIMMIN
 10
0.0
 20
0.0
  9
$PLIMMAX
 10
420.0
 20
297.0
  9
$UNITMODE
 70
     0
  9
$VISRETAIN
 70
     1
  9
$PLINEGEN
 70
     0
  9
$PSLTSCALE
 70
     1
  0
ENDSEC
  0
SECTION
  2
TABLES
  0
TABLE
  2
VPORT
 70
     1
  0
VPORT
  2
*ACTIVE
 70
     0
 10
0.0
 20
0.0
 11
1.0
 21
1.0
 12
210.0
 22
148.5
 13
0.0
 23
0.0
 14
10.0
 24
10.0
 15
10.0
 25
10.0
 16
0.0
 26
0.0
 36
1.0
 17
0.0
 27
0.0
 37
0.0
 40
297.0
 41
1.4141414141
 42
50.0
 43
0.0
 44
0.0
 50
0.0
 51
0.0
 71
     0
 72
  2000
 73
     1
 74
     3
 75
     0
 76
     0
 77
     0
 78
     0
  0
ENDTAB
  0
TABLE
  2
LTYPE
 70
     6
  0
LTYPE
  2
CONTINUOUS
 70
     0
  3
Solid line
 72
    65
 73
     0
 40
0.0
  0
LTYPE
  2
HIDDEN
 70
     0
  3
Hidden __ __ __ __ __ __ __ __ __ __ __ __ __ __
 72
    65
 73
     2
 40
1.905
 49
1.27
 49
-0.635
  0
LTYPE
  2
PHANTOM
 70
     0
  3
Phantom ______  __  __  ______  __  __  ______
 72
    65
 73
     6
 40
12.7
 49
6.35
 49
-1.27
 49
1.27
 49
-1.27
 49
1.27
 49
-1.27
  0
LTYPE
  2
CENTER
 70
     0
  3
Center ____ _ ____ _ ____ _ ____ _ ____ _ ____
 72
    65
 73
     4
 40
10.16
 49
6.35
 49
-1.27
 49
1.27
 49
-1.27
  0
LTYPE
  2
CENTERX2
 70
     0
  3
Center (2x) ________  __  ________  __  _____
 72
    65
 73
     4
 40
20.32
 49
12.7
 49
-2.54
 49
2.54
 49
-2.54
  0
LTYPE
  2
DOT2
 70
     0
  3
Dot (.5x) ........................................
 72
    65
 73
     2
 40
0.635
 49
0.0
 49
-0.635
  0
ENDTAB
  0
TABLE
  2
LAYER
 70
     8
  0
LAYER
  2
0
 70
     0
 62
     7
  6
CONTINUOUS
  0
LAYER
  2
SLD-0
 70
     0
 62
     7
  6
CONTINUOUS
  0
LAYER
  2
AM_BOR
 70
     0
 62
     7
  6
CONTINUOUS
  0
LAYER
  2
BIEGLINIE__ZU_
 70
     0
 62
     8
  6
CONTINUOUS
  0
LAYER
  2
BIEGELINIE__WEG_
 70
     0
 62
     8
  6
HIDDEN
  0
LAYER
  2
BIEGELINIE__ZU_
 70
     0
 62
     8
  6
CONTINUOUS
  0
LAYER
  2
LAYER0
 70
     0
 62
     7
  6
CONTINUOUS
  0
LAYER
  2
CK_LEVEL_1
 70
     0
 62
     7
  6
CONTINUOUS
  0
ENDTAB
  0
TABLE
  2
STYLE
 70
     1
  0
STYLE
  2
STANDARD
 70
     0
 40
0.0
 41
1.0
 50
0.0
 71
     0
 42
2.5
  3
txt
  4

  0
ENDTAB
  0
TABLE
  2
VIEW
 70
     0
  0
ENDTAB
  0
TABLE
  2
UCS
 70
     0
  0
ENDTAB
  0
TABLE
  2
APPID
 70
     1
  0
APPID
  2
ACAD
 70
     0
  0
ENDTAB
  0
TABLE
  2
DIMSTYLE
 70
     1
  0
DIMSTYLE
  2
ISO-25
 70
     0
  3

  4

  5

  6

  7

 40
1.0
 41
2.5
 42
0.625
 43
3.75
 44
1.25
 45
0.0
 46
0.0
 47
0.0
 48
0.0
140
2.5
141
2.5
142
0.0
143
0.0393700787
144
1.0
145
0.0
146
1.0
147
0.625
 71
     0
 72
     0
 73
     0
 74
     0
 75
     0
 76
     0
 77
     1
 78
     8
170
     0
171
     3
172
     1
173
     0
174
     0
175
     0
176
     0
177
     0
178
     0
  0
ENDTAB
  0
ENDSEC
  0
SECTION
  2
BLOCKS
  0
BLOCK
  8
0
  2
$MODEL_SPACE
 70
     0
 10
0.0
 20
0.0
 30
0.0
  3
$MODEL_SPACE
  1

  0
ENDBLK
  5
21
  8
0
  0
BLOCK
 67
     1
  8
0
  2
$PAPER_SPACE
 70
     0
 10
0.0
 20
0.0
 30
0.0
  3
$PAPER_SPACE
  1

  0
ENDBLK
  5
1D
 67
     1
  8
0
  0
BLOCK
  8
0
  2
ERDUNG1
 70
     0
 10
0.0
 20
0.0
 30
0.0
  3
ERDUNG1
  1

  0
CIRCLE
  5
4E
  8
CK_LEVEL_1
  6
CONTINUOUS
 62
     7
 10
8.75
 20
8.75
 30
0.0
 40
8.749999999999998
  0
LINE
  5
4F
  8
CK_LEVEL_1
  6
CONTINUOUS
 62
     7
 10
8.75
 20
3.75
 30
0.0
 11
9.918893
 21
3.75
 31
0.0
  0
LINE
  5
50
  8
CK_LEVEL_1
  6
CONTINUOUS
 62
     7
 10
8.75
 20
3.75
 30
0.0
 11
7.581107
 21
3.75
 31
0.0
  0
LINE
  5
51
  8
CK_LEVEL_1
  6
CONTINUOUS
 62
     7
 10
8.75
 20
6.25
 30
0.0
 11
11.019622
 21
6.25
 31
0.0
  0
LINE
  5
52
  8
CK_LEVEL_1
  6
CONTINUOUS
 62
     7
 10
8.75
 20
8.75
 30
0.0
 11
12.815547
 21
8.75
 31
0.0
  0
LINE
  5
53
  8
CK_LEVEL_1
  6
CONTINUOUS
 62
     7
 10
8.75
 20
6.25
 30
0.0
 11
6.480378
 21
6.25
 31
0.0
  0
LINE
  5
54
  8
CK_LEVEL_1
  6
CONTINUOUS
 62
     7
 10
8.75
 20
8.75
 30
0.0
 11
4.684453
 21
8.75
 31
0.0
  0
LINE
  5
55
  8
CK_LEVEL_1
  6
CONTINUOUS
 62
     7
 10
8.75
 20
8.75
 30
0.0
 11
8.75
 21
16.692861
 31
0.0
  0
ENDBLK
  5
4D
  8
0
  0
ENDSEC
  0
SECTION
  2
ENTITIES
  0
LINE
  5
56
  8
0
  6
CONTINUOUS
 62
     7
 10
-489.4330051918
 20
-50.5356280123
 30
0.0
 11
-489.4330051918
 21
-52.5356320655
 31
0.0
  0
LINE
  5
57
  8
0
  6
CONTINUOUS
 62
     7
 10
-475.4330066223
 20
-52.5356320655
 30
0.0
 11
-475.4330066223
 21
-50.5356280123
 31
0.0
  0
LINE
  5
58
  8
0
  6
CONTINUOUS
 62
     7
 10
-119.4330004235
 20
-50.5356280123
 30
0.0
 11
-119.4330004235
 21
-52.5356320655
 31
0.0
  0
LINE
  5
59
  8
0
  6
CONTINUOUS
 62
     7
 10
-105.433001854
 20
-52.5356320655
 30
0.0
 11
-105.433001854
 21
-50.5356280123
 31
0.0
  0
ARC
  5
5A
  8
0
  6
CONTINUOUS
 62
     7
 10
-99.9330035229
 20
346.9643749679
 30
0.0
 40
2.000000000000007
 50
29.9766118519
 51
60.0233881479
  0
ARC
  5
5B
  8
0
  6
CONTINUOUS
 62
     7
 10
-494.9330035229
 20
346.9643749679
 30
0.0
 40
2.000000000000054
 50
119.9766118531
 51
150.0233881466
  0
ARC
  5
5C
  8
0
  6
CONTINUOUS
 62
     7
 10
-99.9330035229
 20
-48.0356250321
 30
0.0
 40
2.00000000000001
 50
299.9766118532
 51
330.0233881466
  0
ARC
  5
5D
  8
0
  6
CONTINUOUS
 62
     7
 10
-494.9330035229
 20
-48.0356250321
 30
0.0
 40
2.000000000000015
 50
209.9766118518
 51
240.0233881479
  0
LINE
  5
5E
  8
0
  6
CONTINUOUS
 62
     7
 10
-88.4329972048
 20
-50.5356280123
 30
0.0
 11
-88.4329972048
 21
349.4643779481
 31
0.0
  0
LINE
  5
5F
  8
0
  6
CONTINUOUS
 62
     7
 10
-78.4330067416
 20
349.4643779481
 30
0.0
 11
-78.4330067416
 21
-50.5356280123
 31
0.0
  0
LINE
  5
60
  8
0
  6
CONTINUOUS
 62
     7
 10
-506.433009841
 20
349.4643779481
 30
0.0
 11
-506.433009841
 21
-50.5356280123
 31
0.0
  0
LINE
  5
61
  8
0
  6
CONTINUOUS
 62
     7
 10
-516.4330003043
 20
-50.5356280123
 30
0.0
 11
-516.4330003043
 21
349.4643779481
 31
0.0
  0
ARC
  5
62
  8
0
  6
CONTINUOUS
 62
     7
 10
-493.8830037425
 20
-47.5356250321
 30
0.0
 40
2.500000000000034
 50
36.8698976458
 51
53.1301023542
  0
ARC
  5
63
  8
0
  6
CONTINUOUS
 62
     7
 10
-493.8830037425
 20
346.4643749679
 30
0.0
 40
2.500000000000057
 50
306.8698976458
 51
323.1301023542
  0
ARC
  5
64
  8
0
  6
CONTINUOUS
 62
     7
 10
-99.8830037425
 20
346.4643749679
 30
0.0
 40
2.500000000000057
 50
216.8698976458
 51
233.1301023542
  0
ARC
  5
65
  8
0
  6
CONTINUOUS
 62
     7
 10
-99.8830037425
 20
-47.5356250321
 30
0.0
 40
2.500000000000045
 50
126.8698976458
 51
143.1301023542
  0
POLYLINE
  5
66
  8
0
  6
CONTINUOUS
 62
     7
 66
     1
 10
0.0
 20
0.0
 30
0.0
  0
VERTEX
  5
4D0
  8
0
  6
CONTINUOUS
 62
     7
 10
-491.8830094118
 20
344.9643762792
 30
0.0
  0
VERTEX
  5
4D1
  8
0
  6
CONTINUOUS
 62
     7
 10
-491.6684326907
 20
345.4955579723
 30
0.0
  0
VERTEX
  5
4D2
  8
0
  6
CONTINUOUS
 62
     7
 10
-491.5113595505
 20
346.0529806102
 30
0.0
  0
VERTEX
  5
4D3
  8
0
  6
CONTINUOUS
 62
     7
 10
-491.4151576538
 20
346.5978564704
 30
0.0
  0
VERTEX
  5
4D4
  8
0
  6
CONTINUOUS
 62
     7
 10
-491.383000948
 20
347.0857055867
 30
0.0
  0
VERTEX
  5
4D5
  8
0
  6
CONTINUOUS
 62
     7
 10
-491.4149937411
 20
347.481107899
 30
0.0
  0
VERTEX
  5
4D6
  8
0
  6
CONTINUOUS
 62
     7
 10
-491.5109721203
 20
347.7593274797
 30
0.0
  0
VERTEX
  5
4D7
  8
0
  6
CONTINUOUS
 62
     7
 10
-491.6685817023
 20
347.9170562709
 30
0.0
  0
VERTEX
  5
4D8
  8
0
  6
CONTINUOUS
 62
     7
 10
-491.8830094118
 20
347.9643823589
 30
0.0
  0
SEQEND
  5
4D9
  8
0
  6
CONTINUOUS
 62
     7
  0
LINE
  5
67
  8
0
  6
CONTINUOUS
 62
     7
 10
-101.8830088158
 20
347.9643823589
 30
0.0
 11
-491.8830094118
 21
347.9643823589
 31
0.0
  0
POLYLINE
  5
68
  8
0
  6
CONTINUOUS
 62
     7
 66
     1
 10
0.0
 20
0.0
 30
0.0
  0
VERTEX
  5
4DA
  8
0
  6
CONTINUOUS
 62
     7
 10
-101.8830088158
 20
344.9643762792
 30
0.0
  0
VERTEX
  5
4DB
  8
0
  6
CONTINUOUS
 62
     7
 10
-102.0975706358
 20
345.4955579723
 30
0.0
  0
VERTEX
  5
4DC
  8
0
  6
CONTINUOUS
 62
     7
 10
-102.2546586771
 20
346.0529806102
 30
0.0
  0
VERTEX
  5
4DD
  8
0
  6
CONTINUOUS
 62
     7
 10
-102.3508456726
 20
346.5978564704
 30
0.0
  0
VERTEX
  5
4DE
  8
0
  6
CONTINUOUS
 62
     7
 10
-102.3830023785
 20
347.0857055867
 30
0.0
  0
VERTEX
  5
4DF
  8
0
  6
CONTINUOUS
 62
     7
 10
-102.3510095854
 20
347.481107899
 30
0.0
  0
VERTEX
  5
4E0
  8
0
  6
CONTINUOUS
 62
     7
 10
-102.2550461073
 20
347.7593274797
 30
0.0
  0
VERTEX
  5
4E1
  8
0
  6
CONTINUOUS
 62
     7
 10
-102.0974216242
 20
347.9170562709
 30
0.0
  0
VERTEX
  5
4E2
  8
0
  6
CONTINUOUS
 62
     7
 10
-101.8830088158
 20
347.9643823589
 30
0.0
  0
SEQEND
  5
4E3
  8
0
  6
CONTINUOUS
 62
     7
  0
ARC
  5
69
  8
0
  6
CONTINUOUS
 62
     7
 10
-491.8039731631
 20
346.0501262835
 30
0.0
 40
0.4217180732433066
 50
356.5918501944
 51
100.8019587666
  0
LINE
  5
6A
  8
0
  6
CONTINUOUS
 62
     7
 10
-491.8830094118
 20
346.4643718684
 30
0.0
 11
-491.8830094118
 21
347.9643823589
 31
0.0
  0
POLYLINE
  5
6B
  8
0
  6
CONTINUOUS
 62
     7
 66
     1
 10
0.0
 20
0.0
 30
0.0
  0
VERTEX
  5
4E4
  8
0
  6
CONTINUOUS
 62
     7
 10
-495.3830090542
 20
-45.5356178796
 30
0.0
  0
VERTEX
  5
4E5
  8
0
  6
CONTINUOUS
 62
     7
 10
-495.3356084605
 20
-45.3210560595
 30
0.0
  0
VERTEX
  5
4E6
  8
0
  6
CONTINUOUS
 62
     7
 10
-495.1785204192
 20
-45.1639680182
 30
0.0
  0
VERTEX
  5
4E7
  8
0
  6
CONTINUOUS
 62
     7
 10
-494.8993024607
 20
-45.0677810227
 30
0.0
  0
VERTEX
  5
4E8
  8
0
  6
CONTINUOUS
 62
     7
 10
-494.5043173809
 20
-45.0356243169
 30
0.0
  0
VERTEX
  5
4E9
  8
0
  6
CONTINUOUS
 62
     7
 10
-494.0158126135
 20
-45.0676171099
 30
0.0
  0
VERTEX
  5
4EA
  8
0
  6
CONTINUOUS
 62
     7
 10
-493.4730527182
 20
-45.163580588
 30
0.0
  0
VERTEX
  5
4EB
  8
0
  6
CONTINUOUS
 62
     7
 10
-492.9137674351
 20
-45.3212050711
 30
0.0
  0
VERTEX
  5
4EC
  8
0
  6
CONTINUOUS
 62
     7
 10
-492.3830029745
 20
-45.5356178796
 30
0.0
  0
SEQEND
  5
4ED
  8
0
  6
CONTINUOUS
 62
     7
  0
LINE
  5
6C
  8
0
  6
CONTINUOUS
 62
     7
 10
-495.3830090542
 20
344.4643678153
 30
0.0
 11
-495.3830090542
 21
-45.5356178796
 31
0.0
  0
POLYLINE
  5
6D
  8
0
  6
CONTINUOUS
 62
     7
 66
     1
 10
0.0
 20
0.0
 30
0.0
  0
VERTEX
  5
4EE
  8
0
  6
CONTINUOUS
 62
     7
 10
-495.3830090542
 20
344.4643678153
 30
0.0
  0
VERTEX
  5
4EF
  8
0
  6
CONTINUOUS
 62
     7
 10
-495.3356084605
 20
344.2498059953
 30
0.0
  0
VERTEX
  5
4F0
  8
0
  6
CONTINUOUS
 62
     7
 10
-495.1785204192
 20
344.092717954
 30
0.0
  0
VERTEX
  5
4F1
  8
0
  6
CONTINUOUS
 62
     7
 10
-494.8993024607
 20
343.9965309585
 30
0.0
  0
VERTEX
  5
4F2
  8
0
  6
CONTINUOUS
 62
     7
 10
-494.5043173809
 20
343.9643742526
 30
0.0
  0
VERTEX
  5
4F3
  8
0
  6
CONTINUOUS
 62
     7
 10
-494.0158126135
 20
343.9963670457
 30
0.0
  0
VERTEX
  5
4F4
  8
0
  6
CONTINUOUS
 62
     7
 10
-493.4730527182
 20
344.0923305238
 30
0.0
  0
VERTEX
  5
4F5
  8
0
  6
CONTINUOUS
 62
     7
 10
-492.9137674351
 20
344.2499550069
 30
0.0
  0
VERTEX
  5
4F6
  8
0
  6
CONTINUOUS
 62
     7
 10
-492.3830029745
 20
344.4643678153
 30
0.0
  0
SEQEND
  5
4F7
  8
0
  6
CONTINUOUS
 62
     7
  0
LINE
  5
6E
  8
0
  6
CONTINUOUS
 62
     7
 10
-495.3830090542
 20
344.4643678153
 30
0.0
 11
-493.8829985638
 21
344.4643678153
 31
0.0
  0
ARC
  5
6F
  8
0
  6
CONTINUOUS
 62
     7
 10
-493.4563744646
 20
344.3962196547
 30
0.0
 40
0.4320327462821963
 50
170.9243499536
 51
271.6873888477
  0
POLYLINE
  5
70
  8
0
  6
CONTINUOUS
 62
     7
 66
     1
 10
0.0
 20
0.0
 30
0.0
  0
VERTEX
  5
4F8
  8
0
  6
CONTINUOUS
 62
     7
 10
-98.3830091734
 20
344.4643678153
 30
0.0
  0
VERTEX
  5
4F9
  8
0
  6
CONTINUOUS
 62
     7
 10
-98.4304097672
 20
344.2498059953
 30
0.0
  0
VERTEX
  5
4FA
  8
0
  6
CONTINUOUS
 62
     7
 10
-98.5874829073
 20
344.092717954
 30
0.0
  0
VERTEX
  5
4FB
  8
0
  6
CONTINUOUS
 62
     7
 10
-98.8667008658
 20
343.9965309585
 30
0.0
  0
VERTEX
  5
4FC
  8
0
  6
CONTINUOUS
 62
     7
 10
-99.2616859455
 20
343.9643742526
 30
0.0
  0
VERTEX
  5
4FD
  8
0
  6
CONTINUOUS
 62
     7
 10
-99.750190713
 20
343.9963670457
 30
0.0
  0
VERTEX
  5
4FE
  8
0
  6
CONTINUOUS
 62
     7
 10
-100.2929506083
 20
344.0923305238
 30
0.0
  0
VERTEX
  5
4FF
  8
0
  6
CONTINUOUS
 62
     7
 10
-100.8522507925
 20
344.2499550069
 30
0.0
  0
VERTEX
  5
500
  8
0
  6
CONTINUOUS
 62
     7
 10
-101.3830003519
 20
344.4643678153
 30
0.0
  0
SEQEND
  5
501
  8
0
  6
CONTINUOUS
 62
     7
  0
ARC
  5
71
  8
0
  6
CONTINUOUS
 62
     7
 10
-100.3096348183
 20
344.3962245094
 30
0.0
 40
0.4320378623754653
 50
268.3114443929
 51
9.0748896845
  0
LINE
  5
72
  8
0
  6
CONTINUOUS
 62
     7
 10
-98.3830091734
 20
344.4643678153
 30
0.0
 11
-99.8830047627
 21
344.4643678153
 31
0.0
  0
LINE
  5
73
  8
0
  6
CONTINUOUS
 62
     7
 10
-101.8830088158
 20
346.4643718684
 30
0.0
 11
-101.8830088158
 21
347.9643823589
 31
0.0
  0
ARC
  5
74
  8
0
  6
CONTINUOUS
 62
     7
 10
-101.9620395238
 20
346.0501342561
 30
0.0
 40
0.4217092034267435
 50
79.1985776801
 51
183.4093067078
  0
LINE
  5
75
  8
0
  6
CONTINUOUS
 62
     7
 10
-98.3830091734
 20
-45.5356178796
 30
0.0
 11
-98.3830091734
 21
344.4643678153
 31
0.0
  0
POLYLINE
  5
76
  8
0
  6
CONTINUOUS
 62
     7
 66
     1
 10
0.0
 20
0.0
 30
0.0
  0
VERTEX
  5
502
  8
0
  6
CONTINUOUS
 62
     7
 10
-98.3830091734
 20
-45.5356178796
 30
0.0
  0
VERTEX
  5
503
  8
0
  6
CONTINUOUS
 62
     7
 10
-98.4304097672
 20
-45.3210560595
 30
0.0
  0
VERTEX
  5
504
  8
0
  6
CONTINUOUS
 62
     7
 10
-98.5874829073
 20
-45.1639680182
 30
0.0
  0
VERTEX
  5
505
  8
0
  6
CONTINUOUS
 62
     7
 10
-98.8667008658
 20
-45.0677810227
 30
0.0
  0
VERTEX
  5
506
  8
0
  6
CONTINUOUS
 62
     7
 10
-99.2616859455
 20
-45.0356243169
 30
0.0
  0
VERTEX
  5
507
  8
0
  6
CONTINUOUS
 62
     7
 10
-99.750190713
 20
-45.0676171099
 30
0.0
  0
VERTEX
  5
508
  8
0
  6
CONTINUOUS
 62
     7
 10
-100.2929506083
 20
-45.163580588
 30
0.0
  0
VERTEX
  5
509
  8
0
  6
CONTINUOUS
 62
     7
 10
-100.8522507925
 20
-45.3212050711
 30
0.0
  0
VERTEX
  5
50A
  8
0
  6
CONTINUOUS
 62
     7
 10
-101.3830003519
 20
-45.5356178796
 30
0.0
  0
SEQEND
  5
50B
  8
0
  6
CONTINUOUS
 62
     7
  0
POLYLINE
  5
77
  8
0
  6
CONTINUOUS
 62
     7
 66
     1
 10
0.0
 20
0.0
 30
0.0
  0
VERTEX
  5
50C
  8
0
  6
CONTINUOUS
 62
     7
 10
-101.8830088158
 20
-46.0356263434
 30
0.0
  0
VERTEX
  5
50D
  8
0
  6
CONTINUOUS
 62
     7
 10
-102.0975706358
 20
-46.5668080365
 30
0.0
  0
VERTEX
  5
50E
  8
0
  6
CONTINUOUS
 62
     7
 10
-102.2546586771
 20
-47.1242306744
 30
0.0
  0
VERTEX
  5
50F
  8
0
  6
CONTINUOUS
 62
     7
 10
-102.3508456726
 20
-47.6691065346
 30
0.0
  0
VERTEX
  5
510
  8
0
  6
CONTINUOUS
 62
     7
 10
-102.3830023785
 20
-48.156955651
 30
0.0
  0
VERTEX
  5
511
  8
0
  6
CONTINUOUS
 62
     7
 10
-102.3510095854
 20
-48.5523579633
 30
0.0
  0
VERTEX
  5
512
  8
0
  6
CONTINUOUS
 62
     7
 10
-102.2550461073
 20
-48.8305775439
 30
0.0
  0
VERTEX
  5
513
  8
0
  6
CONTINUOUS
 62
     7
 10
-102.0974216242
 20
-48.9883063351
 30
0.0
  0
VERTEX
  5
514
  8
0
  6
CONTINUOUS
 62
     7
 10
-101.8830088158
 20
-49.0356324231
 30
0.0
  0
SEQEND
  5
515
  8
0
  6
CONTINUOUS
 62
     7
  0
LINE
  5
78
  8
0
  6
CONTINUOUS
 62
     7
 10
-491.8830094118
 20
-49.0356324231
 30
0.0
 11
-101.8830088158
 21
-49.0356324231
 31
0.0
  0
POLYLINE
  5
79
  8
0
  6
CONTINUOUS
 62
     7
 66
     1
 10
0.0
 20
0.0
 30
0.0
  0
VERTEX
  5
516
  8
0
  6
CONTINUOUS
 62
     7
 10
-491.8830094118
 20
-46.0356263434
 30
0.0
  0
VERTEX
  5
517
  8
0
  6
CONTINUOUS
 62
     7
 10
-491.6684326907
 20
-46.5668080365
 30
0.0
  0
VERTEX
  5
518
  8
0
  6
CONTINUOUS
 62
     7
 10
-491.5113595505
 20
-47.1242306744
 30
0.0
  0
VERTEX
  5
519
  8
0
  6
CONTINUOUS
 62
     7
 10
-491.4151576538
 20
-47.6691065346
 30
0.0
  0
VERTEX
  5
51A
  8
0
  6
CONTINUOUS
 62
     7
 10
-491.383000948
 20
-48.156955651
 30
0.0
  0
VERTEX
  5
51B
  8
0
  6
CONTINUOUS
 62
     7
 10
-491.4149937411
 20
-48.5523579633
 30
0.0
  0
VERTEX
  5
51C
  8
0
  6
CONTINUOUS
 62
     7
 10
-491.5109721203
 20
-48.8305775439
 30
0.0
  0
VERTEX
  5
51D
  8
0
  6
CONTINUOUS
 62
     7
 10
-491.6685817023
 20
-48.9883063351
 30
0.0
  0
VERTEX
  5
51E
  8
0
  6
CONTINUOUS
 62
     7
 10
-491.8830094118
 20
-49.0356324231
 30
0.0
  0
SEQEND
  5
51F
  8
0
  6
CONTINUOUS
 62
     7
  0
LINE
  5
7A
  8
0
  6
CONTINUOUS
 62
     7
 10
-491.8830094118
 20
-47.5356219327
 30
0.0
 11
-491.8830094118
 21
-49.0356324231
 31
0.0
  0
ARC
  5
7B
  8
0
  6
CONTINUOUS
 62
     7
 10
-491.8039731631
 20
-47.1213763477
 30
0.0
 40
0.4217180732433045
 50
259.1980412334
 51
3.4081498056
  0
ARC
  5
7C
  8
0
  6
CONTINUOUS
 62
     7
 10
-493.4563744646
 20
-45.4674697189
 30
0.0
 40
0.432032746282193
 50
88.3126111523
 51
189.0756500464
  0
LINE
  5
7D
  8
0
  6
CONTINUOUS
 62
     7
 10
-495.3830090542
 20
-45.5356178796
 30
0.0
 11
-493.8829985638
 21
-45.5356178796
 31
0.0
  0
LINE
  5
7E
  8
0
  6
CONTINUOUS
 62
     7
 10
-98.3830091734
 20
-45.5356178796
 30
0.0
 11
-99.8830047627
 21
-45.5356178796
 31
0.0
  0
ARC
  5
7F
  8
0
  6
CONTINUOUS
 62
     7
 10
-100.3096348183
 20
-45.4674745736
 30
0.0
 40
0.4320378623754226
 50
350.9251103155
 51
91.6885556071
  0
ARC
  5
80
  8
0
  6
CONTINUOUS
 62
     7
 10
-101.9620395238
 20
-47.1213843204
 30
0.0
 40
0.4217092034267439
 50
176.5906932922
 51
280.8014223199
  0
LINE
  5
81
  8
0
  6
CONTINUOUS
 62
     7
 10
-101.8830088158
 20
-47.5356219327
 30
0.0
 11
-101.8830088158
 21
-49.0356324231
 31
0.0
  0
LINE
  5
82
  8
0
  6
CONTINUOUS
 62
     7
 10
-492.115244009
 20
347.9643823589
 30
0.0
 11
-492.115244009
 21
346.4643718684
 31
0.0
  0
LINE
  5
83
  8
0
  6
CONTINUOUS
 62
     7
 10
-491.8830094118
 20
346.4643718684
 30
0.0
 11
-492.115244009
 21
346.4643718684
 31
0.0
  0
LINE
  5
84
  8
0
  6
CONTINUOUS
 62
     7
 10
-491.8830094118
 20
347.9643823589
 30
0.0
 11
-492.115244009
 21
347.9643823589
 31
0.0
  0
LINE
  5
85
  8
0
  6
CONTINUOUS
 62
     7
 10
-495.3830090542
 20
344.9643762792
 30
0.0
 11
-493.8829985638
 21
344.9643762792
 31
0.0
  0
LINE
  5
86
  8
0
  6
CONTINUOUS
 62
     7
 10
-495.3830090542
 20
344.9643762792
 30
0.0
 11
-495.3830090542
 21
344.4643678153
 31
0.0
  0
LINE
  5
87
  8
0
  6
CONTINUOUS
 62
     7
 10
-493.8829985638
 20
344.9643762792
 30
0.0
 11
-493.8829985638
 21
344.4643678153
 31
0.0
  0
LINE
  5
88
  8
0
  6
CONTINUOUS
 62
     7
 10
-98.3830091734
 20
344.9643762792
 30
0.0
 11
-99.8830047627
 21
344.9643762792
 31
0.0
  0
LINE
  5
89
  8
0
  6
CONTINUOUS
 62
     7
 10
-98.3830091734
 20
344.9643762792
 30
0.0
 11
-98.3830091734
 21
344.4643678153
 31
0.0
  0
LINE
  5
8A
  8
0
  6
CONTINUOUS
 62
     7
 10
-99.8830047627
 20
344.9643762792
 30
0.0
 11
-99.8830047627
 21
344.4643678153
 31
0.0
  0
LINE
  5
8B
  8
0
  6
CONTINUOUS
 62
     7
 10
-101.6507742186
 20
346.4643718684
 30
0.0
 11
-101.6507742186
 21
347.9643823589
 31
0.0
  0
LINE
  5
8C
  8
0
  6
CONTINUOUS
 62
     7
 10
-101.8830088158
 20
346.4643718684
 30
0.0
 11
-101.6507742186
 21
346.4643718684
 31
0.0
  0
LINE
  5
8D
  8
0
  6
CONTINUOUS
 62
     7
 10
-101.8830088158
 20
347.9643823589
 30
0.0
 11
-101.6507742186
 21
347.9643823589
 31
0.0
  0
LINE
  5
8E
  8
0
  6
CONTINUOUS
 62
     7
 10
-495.3830090542
 20
-46.0356263434
 30
0.0
 11
-493.8829985638
 21
-46.0356263434
 31
0.0
  0
LINE
  5
8F
  8
0
  6
CONTINUOUS
 62
     7
 10
-495.3830090542
 20
-46.0356263434
 30
0.0
 11
-495.3830090542
 21
-45.5356178796
 31
0.0
  0
LINE
  5
90
  8
0
  6
CONTINUOUS
 62
     7
 10
-493.8829985638
 20
-46.0356263434
 30
0.0
 11
-493.8829985638
 21
-45.5356178796
 31
0.0
  0
LINE
  5
91
  8
0
  6
CONTINUOUS
 62
     7
 10
-491.8830094118
 20
-49.0356324231
 30
0.0
 11
-492.115244009
 21
-49.0356324231
 31
0.0
  0
LINE
  5
92
  8
0
  6
CONTINUOUS
 62
     7
 10
-492.115244009
 20
-47.5356219327
 30
0.0
 11
-492.115244009
 21
-49.0356324231
 31
0.0
  0
LINE
  5
93
  8
0
  6
CONTINUOUS
 62
     7
 10
-491.8830094118
 20
-47.5356219327
 30
0.0
 11
-492.115244009
 21
-47.5356219327
 31
0.0
  0
LINE
  5
94
  8
0
  6
CONTINUOUS
 62
     7
 10
-101.6507742186
 20
-49.0356324231
 30
0.0
 11
-101.6507742186
 21
-47.5356219327
 31
0.0
  0
LINE
  5
95
  8
0
  6
CONTINUOUS
 62
     7
 10
-101.8830088158
 20
-49.0356324231
 30
0.0
 11
-101.6507742186
 21
-49.0356324231
 31
0.0
  0
LINE
  5
96
  8
0
  6
CONTINUOUS
 62
     7
 10
-101.8830088158
 20
-47.5356219327
 30
0.0
 11
-101.6507742186
 21
-47.5356219327
 31
0.0
  0
LINE
  5
97
  8
0
  6
CONTINUOUS
 62
     7
 10
-98.3830091734
 20
-46.0356263434
 30
0.0
 11
-99.8830047627
 21
-46.0356263434
 31
0.0
  0
LINE
  5
98
  8
0
  6
CONTINUOUS
 62
     7
 10
-98.3830091734
 20
-46.0356263434
 30
0.0
 11
-98.3830091734
 21
-45.5356178796
 31
0.0
  0
LINE
  5
99
  8
0
  6
CONTINUOUS
 62
     7
 10
-99.8830047627
 20
-46.0356263434
 30
0.0
 11
-99.8830047627
 21
-45.5356178796
 31
0.0
  0
LINE
  5
9A
  8
0
  6
CONTINUOUS
 62
     7
 10
-492.115244009
 20
346.4643718684
 30
0.0
 11
-492.3830029745
 21
346.4643718684
 31
0.0
  0
LINE
  5
9B
  8
0
  6
CONTINUOUS
 62
     7
 10
-492.3830029745
 20
347.9643823589
 30
0.0
 11
-492.3830029745
 21
346.4643718684
 31
0.0
  0
LINE
  5
9C
  8
0
  6
CONTINUOUS
 62
     7
 10
-492.115244009
 20
347.9643823589
 30
0.0
 11
-492.3830029745
 21
347.9643823589
 31
0.0
  0
LINE
  5
9D
  8
0
  6
CONTINUOUS
 62
     7
 10
-101.6507742186
 20
346.4643718684
 30
0.0
 11
-101.3830003519
 21
346.4643718684
 31
0.0
  0
LINE
  5
9E
  8
0
  6
CONTINUOUS
 62
     7
 10
-101.6507742186
 20
347.9643823589
 30
0.0
 11
-101.3830003519
 21
347.9643823589
 31
0.0
  0
LINE
  5
9F
  8
0
  6
CONTINUOUS
 62
     7
 10
-101.3830003519
 20
347.9643823589
 30
0.0
 11
-101.3830003519
 21
346.4643718684
 31
0.0
  0
LINE
  5
A0
  8
0
  6
CONTINUOUS
 62
     7
 10
-492.115244009
 20
-49.0356324231
 30
0.0
 11
-492.3830029745
 21
-49.0356324231
 31
0.0
  0
LINE
  5
A1
  8
0
  6
CONTINUOUS
 62
     7
 10
-492.3830029745
 20
-49.0356324231
 30
0.0
 11
-492.3830029745
 21
-47.5356219327
 31
0.0
  0
LINE
  5
A2
  8
0
  6
CONTINUOUS
 62
     7
 10
-492.115244009
 20
-47.5356219327
 30
0.0
 11
-492.3830029745
 21
-47.5356219327
 31
0.0
  0
LINE
  5
A3
  8
0
  6
CONTINUOUS
 62
     7
 10
-101.3830003519
 20
-49.0356324231
 30
0.0
 11
-101.3830003519
 21
-47.5356219327
 31
0.0
  0
LINE
  5
A4
  8
0
  6
CONTINUOUS
 62
     7
 10
-101.6507742186
 20
-49.0356324231
 30
0.0
 11
-101.3830003519
 21
-49.0356324231
 31
0.0
  0
LINE
  5
A5
  8
0
  6
CONTINUOUS
 62
     7
 10
-101.6507742186
 20
-47.5356219327
 30
0.0
 11
-101.3830003519
 21
-47.5356219327
 31
0.0
  0
ARC
  5
A6
  8
0
  6
CONTINUOUS
 62
     7
 10
-492.3829743455
 20
344.9643476502
 30
0.0
 40
3.000034708838093
 50
90.0005467678
 51
179.9994532322
  0
ARC
  5
A7
  8
0
  6
CONTINUOUS
 62
     7
 10
-492.3830103199
 20
344.9643836245
 30
0.0
 40
1.499988243962457
 50
89.9997194276
 51
180.0002805724
  0
ARC
  5
A8
  8
0
  6
CONTINUOUS
 62
     7
 10
-101.3830136001
 20
344.9643779322
 30
0.0
 40
3.000004426724829
 50
359.9999684305
 51
89.9997469782
  0
ARC
  5
A9
  8
0
  6
CONTINUOUS
 62
     7
 10
-101.3829991223
 20
344.9643775088
 30
0.0
 40
1.499994359638343
 50
359.9999530319
 51
90.0000469681
  0
ARC
  5
AA
  8
0
  6
CONTINUOUS
 62
     7
 10
-492.3829743455
 20
-46.0355977144
 30
0.0
 40
3.000034708838086
 50
180.0005467678
 51
269.9994532322
  0
ARC
  5
AB
  8
0
  6
CONTINUOUS
 62
     7
 10
-492.3830103199
 20
-46.0356336887
 30
0.0
 40
1.499988243962457
 50
179.9997194276
 51
270.0002805724
  0
ARC
  5
AC
  8
0
  6
CONTINUOUS
 62
     7
 10
-101.3829991223
 20
-46.035627573
 30
0.0
 40
1.499994359638343
 50
269.9999530319
 51
0.0000469681
  0
ARC
  5
AD
  8
0
  6
CONTINUOUS
 62
     7
 10
-101.3830136001
 20
-46.0356279964
 30
0.0
 40
3.000004426724835
 50
270.0002530218
 51
0.0000315695
  0
LINE
  5
AE
  8
0
  6
CONTINUOUS
 62
     7
 10
-474.4330045958
 20
-50.8356181895
 30
0.0
 11
-475.4330066223
 21
-50.8356181895
 31
0.0
  0
LINE
  5
AF
  8
0
  6
CONTINUOUS
 62
     7
 10
-474.4330045958
 20
-50.8356181895
 30
0.0
 11
-474.4330045958
 21
-54.2356310403
 31
0.0
  0
LINE
  5
B0
  8
0
  6
CONTINUOUS
 62
     7
 10
-486.5657982607
 20
-54.2356310403
 30
0.0
 11
-474.4330045958
 21
-54.2356310403
 31
0.0
  0
LINE
  5
B1
  8
0
  6
CONTINUOUS
 62
     7
 10
-474.7330096741
 20
-54.5356212174
 30
0.0
 11
-486.345812418
 21
-54.5356212174
 31
0.0
  0
LINE
  5
B2
  8
0
  6
CONTINUOUS
 62
     7
 10
-474.4330045958
 20
-54.2356310403
 30
0.0
 11
-474.7330096741
 21
-54.5356212174
 31
0.0
  0
LINE
  5
B3
  8
0
  6
CONTINUOUS
 62
     7
 10
-474.4330045958
 20
-50.8356181895
 30
0.0
 11
-474.7330096741
 21
-50.5356280123
 31
0.0
  0
LINE
  5
B4
  8
0
  6
CONTINUOUS
 62
     7
 10
-489.4330051918
 20
-50.8356181895
 30
0.0
 11
-516.5660825749
 21
-50.8356181895
 31
0.0
  0
LINE
  5
B5
  8
0
  6
CONTINUOUS
 62
     7
 10
-516.5660825749
 20
-54.2356310403
 30
0.0
 11
-486.5657982607
 21
-54.2356310403
 31
0.0
  0
LINE
  5
B6
  8
0
  6
CONTINUOUS
 62
     7
 10
-486.345812418
 20
-54.5356212174
 30
0.0
 11
-516.3461116333
 21
-54.5356212174
 31
0.0
  0
LINE
  5
B7
  8
0
  6
CONTINUOUS
 62
     7
 10
-516.3461116333
 20
-50.5356280123
 30
0.0
 11
-495.9322956581
 21
-50.5356280123
 31
0.0
  0
LINE
  5
B8
  8
0
  6
CONTINUOUS
 62
     7
 10
-517.1329972525
 20
-54.5356212174
 30
0.0
 11
-517.4330023308
 21
-54.2356310403
 31
0.0
  0
LINE
  5
B9
  8
0
  6
CONTINUOUS
 62
     7
 10
-517.4330023308
 20
-54.2356310403
 30
0.0
 11
-516.5660825749
 21
-54.2356310403
 31
0.0
  0
LINE
  5
BA
  8
0
  6
CONTINUOUS
 62
     7
 10
-516.3461116333
 20
-54.5356212174
 30
0.0
 11
-517.1329972525
 21
-54.5356212174
 31
0.0
  0
LINE
  5
BB
  8
0
  6
CONTINUOUS
 62
     7
 10
-516.5660825749
 20
-50.8356181895
 30
0.0
 11
-517.4330023308
 21
-50.8356181895
 31
0.0
  0
LINE
  5
BC
  8
0
  6
CONTINUOUS
 62
     7
 10
-517.4330023308
 20
-54.2356310403
 30
0.0
 11
-517.4330023308
 21
-50.8356181895
 31
0.0
  0
LINE
  5
BD
  8
0
  6
CONTINUOUS
 62
     7
 10
-517.4330023308
 20
-50.8356181895
 30
0.0
 11
-517.1329972525
 21
-50.5356280123
 31
0.0
  0
LINE
  5
BE
  8
0
  6
CONTINUOUS
 62
     7
 10
-517.1329972525
 20
-50.5356280123
 30
0.0
 11
-516.3461116333
 21
-50.5356280123
 31
0.0
  0
LINE
  5
BF
  8
0
  6
CONTINUOUS
 62
     7
 10
-120.43300245
 20
349.7643681253
 30
0.0
 11
-108.3002087851
 21
349.7643681253
 31
0.0
  0
LINE
  5
C0
  8
0
  6
CONTINUOUS
 62
     7
 10
-120.43300245
 20
349.7643681253
 30
0.0
 11
-120.43300245
 21
353.164380976
 31
0.0
  0
LINE
  5
C1
  8
0
  6
CONTINUOUS
 62
     7
 10
-108.3002087851
 20
353.164380976
 30
0.0
 11
-120.43300245
 21
353.164380976
 31
0.0
  0
LINE
  5
C2
  8
0
  6
CONTINUOUS
 62
     7
 10
-120.43300245
 20
349.7643681253
 30
0.0
 11
-120.1329973717
 21
349.4643779481
 31
0.0
  0
LINE
  5
C3
  8
0
  6
CONTINUOUS
 62
     7
 10
-120.1329973717
 20
353.4643711532
 30
0.0
 11
-108.5201946278
 21
353.4643711532
 31
0.0
  0
LINE
  5
C4
  8
0
  6
CONTINUOUS
 62
     7
 10
-120.43300245
 20
353.164380976
 30
0.0
 11
-120.1329973717
 21
353.4643711532
 31
0.0
  0
LINE
  5
C5
  8
0
  6
CONTINUOUS
 62
     7
 10
-78.2999244709
 20
353.164380976
 30
0.0
 11
-108.3002087851
 21
353.164380976
 31
0.0
  0
LINE
  5
C6
  8
0
  6
CONTINUOUS
 62
     7
 10
-108.5201946278
 20
353.4643711532
 30
0.0
 11
-78.5198954125
 21
353.4643711532
 31
0.0
  0
LINE
  5
C7
  8
0
  6
CONTINUOUS
 62
     7
 10
-108.3002087851
 20
349.7643681253
 30
0.0
 11
-78.2999244709
 21
349.7643681253
 31
0.0
  0
LINE
  5
C8
  8
0
  6
CONTINUOUS
 62
     7
 10
-78.5198954125
 20
349.4643779481
 30
0.0
 11
-98.9337113877
 21
349.4643779481
 31
0.0
  0
LINE
  5
C9
  8
0
  6
CONTINUOUS
 62
     7
 10
-78.2999244709
 20
349.7643681253
 30
0.0
 11
-77.433004715
 21
349.7643681253
 31
0.0
  0
LINE
  5
CA
  8
0
  6
CONTINUOUS
 62
     7
 10
-77.433004715
 20
353.164380976
 30
0.0
 11
-78.2999244709
 21
353.164380976
 31
0.0
  0
LINE
  5
CB
  8
0
  6
CONTINUOUS
 62
     7
 10
-77.433004715
 20
353.164380976
 30
0.0
 11
-77.433004715
 21
349.7643681253
 31
0.0
  0
LINE
  5
CC
  8
0
  6
CONTINUOUS
 62
     7
 10
-77.7330097933
 20
353.4643711532
 30
0.0
 11
-77.433004715
 21
353.164380976
 31
0.0
  0
LINE
  5
CD
  8
0
  6
CONTINUOUS
 62
     7
 10
-78.5198954125
 20
353.4643711532
 30
0.0
 11
-77.7330097933
 21
353.4643711532
 31
0.0
  0
LINE
  5
CE
  8
0
  6
CONTINUOUS
 62
     7
 10
-77.433004715
 20
349.7643681253
 30
0.0
 11
-77.7330097933
 21
349.4643779481
 31
0.0
  0
LINE
  5
CF
  8
0
  6
CONTINUOUS
 62
     7
 10
-77.7330097933
 20
349.4643779481
 30
0.0
 11
-78.5198954125
 21
349.4643779481
 31
0.0
  0
LINE
  5
D0
  8
0
  6
CONTINUOUS
 62
     7
 10
-120.43300245
 20
-54.2356310403
 30
0.0
 11
-108.3002087851
 21
-54.2356310403
 31
0.0
  0
LINE
  5
D1
  8
0
  6
CONTINUOUS
 62
     7
 10
-108.5201946278
 20
-54.5356212174
 30
0.0
 11
-120.1329973717
 21
-54.5356212174
 31
0.0
  0
LINE
  5
D2
  8
0
  6
CONTINUOUS
 62
     7
 10
-120.43300245
 20
-54.2356310403
 30
0.0
 11
-120.1329973717
 21
-54.5356212174
 31
0.0
  0
LINE
  5
D3
  8
0
  6
CONTINUOUS
 62
     7
 10
-120.43300245
 20
-54.2356310403
 30
0.0
 11
-120.43300245
 21
-50.8356181895
 31
0.0
  0
LINE
  5
D4
  8
0
  6
CONTINUOUS
 62
     7
 10
-119.4330004235
 20
-50.8356181895
 30
0.0
 11
-120.43300245
 21
-50.8356181895
 31
0.0
  0
LINE
  5
D5
  8
0
  6
CONTINUOUS
 62
     7
 10
-120.43300245
 20
-50.8356181895
 30
0.0
 11
-120.1329973717
 21
-50.5356280123
 31
0.0
  0
LINE
  5
D6
  8
0
  6
CONTINUOUS
 62
     7
 10
-108.3002087851
 20
-54.2356310403
 30
0.0
 11
-78.2999244709
 21
-54.2356310403
 31
0.0
  0
LINE
  5
D7
  8
0
  6
CONTINUOUS
 62
     7
 10
-78.5198954125
 20
-54.5356212174
 30
0.0
 11
-108.5201946278
 21
-54.5356212174
 31
0.0
  0
LINE
  5
D8
  8
0
  6
CONTINUOUS
 62
     7
 10
-78.2999244709
 20
-50.8356181895
 30
0.0
 11
-105.433001854
 21
-50.8356181895
 31
0.0
  0
LINE
  5
D9
  8
0
  6
CONTINUOUS
 62
     7
 10
-98.9337113877
 20
-50.5356280123
 30
0.0
 11
-78.5198954125
 21
-50.5356280123
 31
0.0
  0
LINE
  5
DA
  8
0
  6
CONTINUOUS
 62
     7
 10
-78.2999244709
 20
-54.2356310403
 30
0.0
 11
-77.433004715
 21
-54.2356310403
 31
0.0
  0
LINE
  5
DB
  8
0
  6
CONTINUOUS
 62
     7
 10
-77.433004715
 20
-50.8356181895
 30
0.0
 11
-78.2999244709
 21
-50.8356181895
 31
0.0
  0
LINE
  5
DC
  8
0
  6
CONTINUOUS
 62
     7
 10
-77.433004715
 20
-50.8356181895
 30
0.0
 11
-77.433004715
 21
-54.2356310403
 31
0.0
  0
LINE
  5
DD
  8
0
  6
CONTINUOUS
 62
     7
 10
-77.7330097933
 20
-50.5356280123
 30
0.0
 11
-77.433004715
 21
-50.8356181895
 31
0.0
  0
LINE
  5
DE
  8
0
  6
CONTINUOUS
 62
     7
 10
-78.5198954125
 20
-50.5356280123
 30
0.0
 11
-77.7330097933
 21
-50.5356280123
 31
0.0
  0
LINE
  5
DF
  8
0
  6
CONTINUOUS
 62
     7
 10
-77.433004715
 20
-54.2356310403
 30
0.0
 11
-77.7330097933
 21
-54.5356212174
 31
0.0
  0
LINE
  5
E0
  8
0
  6
CONTINUOUS
 62
     7
 10
-77.7330097933
 20
-54.5356212174
 30
0.0
 11
-78.5198954125
 21
-54.5356212174
 31
0.0
  0
LINE
  5
E1
  8
0
  6
CONTINUOUS
 62
     7
 10
-474.4330045958
 20
353.164380976
 30
0.0
 11
-486.5657982607
 21
353.164380976
 31
0.0
  0
LINE
  5
E2
  8
0
  6
CONTINUOUS
 62
     7
 10
-474.4330045958
 20
353.164380976
 30
0.0
 11
-474.4330045958
 21
349.7643681253
 31
0.0
  0
LINE
  5
E3
  8
0
  6
CONTINUOUS
 62
     7
 10
-486.5657982607
 20
349.7643681253
 30
0.0
 11
-474.4330045958
 21
349.7643681253
 31
0.0
  0
LINE
  5
E4
  8
0
  6
CONTINUOUS
 62
     7
 10
-474.4330045958
 20
349.7643681253
 30
0.0
 11
-474.7330096741
 21
349.4643779481
 31
0.0
  0
LINE
  5
E5
  8
0
  6
CONTINUOUS
 62
     7
 10
-486.345812418
 20
353.4643711532
 30
0.0
 11
-474.7330096741
 21
353.4643711532
 31
0.0
  0
LINE
  5
E6
  8
0
  6
CONTINUOUS
 62
     7
 10
-474.4330045958
 20
353.164380976
 30
0.0
 11
-474.7330096741
 21
353.4643711532
 31
0.0
  0
LINE
  5
E7
  8
0
  6
CONTINUOUS
 62
     7
 10
-486.5657982607
 20
353.164380976
 30
0.0
 11
-516.5660825749
 21
353.164380976
 31
0.0
  0
LINE
  5
E8
  8
0
  6
CONTINUOUS
 62
     7
 10
-516.5660825749
 20
349.7643681253
 30
0.0
 11
-486.5657982607
 21
349.7643681253
 31
0.0
  0
LINE
  5
E9
  8
0
  6
CONTINUOUS
 62
     7
 10
-516.3461116333
 20
353.4643711532
 30
0.0
 11
-486.345812418
 21
353.4643711532
 31
0.0
  0
LINE
  5
EA
  8
0
  6
CONTINUOUS
 62
     7
 10
-495.9322956581
 20
349.4643779481
 30
0.0
 11
-516.3461116333
 21
349.4643779481
 31
0.0
  0
LINE
  5
EB
  8
0
  6
CONTINUOUS
 62
     7
 10
-516.5660825749
 20
353.164380976
 30
0.0
 11
-517.4330023308
 21
353.164380976
 31
0.0
  0
LINE
  5
EC
  8
0
  6
CONTINUOUS
 62
     7
 10
-517.4330023308
 20
349.7643681253
 30
0.0
 11
-516.5660825749
 21
349.7643681253
 31
0.0
  0
LINE
  5
ED
  8
0
  6
CONTINUOUS
 62
     7
 10
-517.4330023308
 20
349.7643681253
 30
0.0
 11
-517.4330023308
 21
353.164380976
 31
0.0
  0
LINE
  5
EE
  8
0
  6
CONTINUOUS
 62
     7
 10
-517.1329972525
 20
349.4643779481
 30
0.0
 11
-517.4330023308
 21
349.7643681253
 31
0.0
  0
LINE
  5
EF
  8
0
  6
CONTINUOUS
 62
     7
 10
-516.3461116333
 20
349.4643779481
 30
0.0
 11
-517.1329972525
 21
349.4643779481
 31
0.0
  0
LINE
  5
F0
  8
0
  6
CONTINUOUS
 62
     7
 10
-517.4330023308
 20
353.164380976
 30
0.0
 11
-517.1329972525
 21
353.4643711532
 31
0.0
  0
LINE
  5
F1
  8
0
  6
CONTINUOUS
 62
     7
 10
-517.1329972525
 20
353.4643711532
 30
0.0
 11
-516.3461116333
 21
353.4643711532
 31
0.0
  0
ARC
  5
F2
  8
0
  6
CONTINUOUS
 62
     7
 10
-449.8830037425
 20
149.4643749679
 30
0.0
 40
8.000000000000018
 50
190.8069228749
 51
349.1930771251
  0
LINE
  5
F3
  8
0
  6
CONTINUOUS
 62
     7
 10
-454.6526965876
 20
147.9643749548
 30
0.0
 11
-457.7411261578
 21
147.9643749548
 31
0.0
  0
ARC
  5
F4
  8
0
  6
CONTINUOUS
 62
     7
 10
-449.8830037425
 20
149.4643749679
 30
0.0
 40
4.999999999999946
 50
197.4576031237
 51
342.5423968763
  0
LINE
  5
F5
  8
0
  6
CONTINUOUS
 62
     7
 10
-445.1133010168
 20
147.9643749548
 30
0.0
 11
-442.0248863478
 21
147.9643749548
 31
0.0
  0
LINE
  5
F6
  8
0
  6
CONTINUOUS
 62
     7
 10
-445.1133010168
 20
150.9643749809
 30
0.0
 11
-442.0248863478
 21
150.9643749809
 31
0.0
  0
ARC
  5
F7
  8
0
  6
CONTINUOUS
 62
     7
 10
-449.8830037425
 20
149.4643749679
 30
0.0
 40
5.000000000000198
 50
17.4576031237
 51
162.5423968763
  0
LINE
  5
F8
  8
0
  6
CONTINUOUS
 62
     7
 10
-454.6526965876
 20
150.9643749809
 30
0.0
 11
-457.7411261578
 21
150.9643749809
 31
0.0
  0
ARC
  5
F9
  8
0
  6
CONTINUOUS
 62
     7
 10
-449.8830037425
 20
149.4643749679
 30
0.0
 40
8.00000000000054
 50
10.8069228749
 51
169.1930771251
  0
CIRCLE
  5
FA
  8
0
  6
CONTINUOUS
 62
     7
 10
-449.8830037425
 20
149.4643749679
 30
0.0
 40
2.5
  0
ARC
  5
FB
  8
0
  6
CONTINUOUS
 62
     7
 10
-449.8830037425
 20
149.4643749679
 30
0.0
 40
8.000000000000636
 50
169.1930771251
 51
190.8069228749
  0
ARC
  5
FC
  8
0
  6
CONTINUOUS
 62
     7
 10
-449.8830037425
 20
149.4643749679
 30
0.0
 40
8.000000000000016
 50
349.1930771251
 51
10.8069228749
  0
ARC
  5
FD
  8
0
  6
CONTINUOUS
 62
     7
 10
-449.8830037425
 20
149.4643749679
 30
0.0
 40
12.24192993465
 50
152.862078374
 51
207.1379513768
  0
ARC
  5
FE
  8
0
  6
CONTINUOUS
 62
     7
 10
-449.8830037425
 20
149.4643749679
 30
0.0
 40
12.24192993625003
 50
332.8620780628
 51
27.137951024
  0
CIRCLE
  5
FF
  8
0
  6
CONTINUOUS
 62
     7
 10
-449.8830037425
 20
149.4643749679
 30
0.0
 40
8.049999999999955
  0
ARC
  5
100
  8
0
  6
CONTINUOUS
 62
     7
 10
-461.8505007898
 20
133.4058243619
 30
0.0
 40
2.770611808898331
 50
178.2666917091
 51
264.9843965998
  0
ARC
  5
101
  8
0
  6
CONTINUOUS
 62
     7
 10
-461.8612362342
 20
165.5324655098
 30
0.0
 40
2.760187446183529
 50
94.8109237633
 51
181.9379879278
  0
ARC
  5
102
  8
0
  6
CONTINUOUS
 62
     7
 10
-437.915490076
 20
165.5229448038
 30
0.0
 40
2.770590760702249
 50
358.266280679
 51
84.9848076298
  0
ARC
  5
103
  8
0
  6
CONTINUOUS
 62
     7
 10
-437.9047689525
 20
133.3962779222
 30
0.0
 40
2.760180351497869
 50
274.8107836972
 51
1.9381279939
  0
ARC
  5
104
  8
0
  6
CONTINUOUS
 62
     7
 10
-449.8753809827
 20
149.4643777619
 30
0.0
 40
12.49319792881109
 50
332.8461209565
 51
27.1538790435
  0
ARC
  5
105
  8
0
  6
CONTINUOUS
 62
     7
 10
-449.8904678938
 20
149.4643719411
 30
0.0
 40
12.49334362984932
 50
152.8464624845
 51
207.1535375155
  0
ARC
  5
106
  8
0
  6
CONTINUOUS
 62
     7
 10
-449.8830037425
 20
149.4643749679
 30
0.0
 40
12.50000000000004
 50
27.1379395953
 51
152.8620934681
  0
ARC
  5
107
  8
0
  6
CONTINUOUS
 62
     7
 10
-449.8830037425
 20
149.4643749679
 30
0.0
 40
12.50000000000001
 50
207.1379399383
 51
332.8620895856
  0
ARC
  5
108
  8
0
  6
CONTINUOUS
 62
     7
 10
-464.6772507569
 20
165.048716954
 30
0.0
 40
0.3946029923199865
 50
81.6350676262
 51
121.4266570838
  0
ARC
  5
109
  8
0
  6
CONTINUOUS
 62
     7
 10
-464.6772524891
 20
133.8800361733
 30
0.0
 40
0.3946064018784229
 50
238.5739401733
 51
278.3651138032
  0
LINE
  5
10A
  8
0
  6
CONTINUOUS
 62
     7
 10
-464.8829993983
 20
133.5433131093
 30
0.0
 11
-464.8829993983
 21
165.3854349638
 31
0.0
  0
ARC
  5
10B
  8
0
  6
CONTINUOUS
 62
     7
 10
-435.0887620568
 20
133.8800916008
 30
0.0
 40
0.3946609430020978
 50
261.6363499107
 51
301.424103971
  0
ARC
  5
10C
  8
0
  6
CONTINUOUS
 62
     7
 10
-435.088760324
 20
165.0486551443
 30
0.0
 40
0.3946643517256843
 50
58.5764931708
 51
98.3638315935
  0
LINE
  5
10D
  8
0
  6
CONTINUOUS
 62
     7
 10
-434.8829982062
 20
165.3854368264
 30
0.0
 11
-434.8829982062
 21
133.543314972
 31
0.0
  0
ARC
  5
10E
  8
0
  6
CONTINUOUS
 62
     7
 10
-461.8719132103
 20
166.046715995
 30
0.0
 40
3.011119732099884
 50
94.0556221855
 51
180.2704470245
  0
ARC
  5
10F
  8
0
  6
CONTINUOUS
 62
     7
 10
-461.8479942912
 20
165.4843789795
 30
0.0
 40
3.036617512689632
 50
94.4196375863
 51
181.8672348759
  0
LINE
  5
110
  8
0
  6
CONTINUOUS
 62
     7
 10
-464.8829993983
 20
165.3854349638
 30
0.0
 11
-464.8829993983
 21
166.0325029875
 31
0.0
  0
ARC
  5
111
  8
0
  6
CONTINUOUS
 62
     7
 10
-437.8940992953
 20
132.8820339407
 30
0.0
 40
3.011119732099884
 50
274.0556221855
 51
0.2704470245
  0
ARC
  5
112
  8
0
  6
CONTINUOUS
 62
     7
 10
-437.9180290581
 20
133.4443940206
 30
0.0
 40
3.036642492438798
 50
274.4200883637
 51
1.8667840985
  0
LINE
  5
113
  8
0
  6
CONTINUOUS
 62
     7
 10
-434.8829982062
 20
133.543314972
 30
0.0
 11
-434.8829982062
 21
132.8962469483
 31
0.0
  0
POLYLINE
  5
114
  8
0
  6
CONTINUOUS
 62
     7
 66
     1
 10
0.0
 20
0.0
 30
0.0
  0
VERTEX
  5
520
  8
0
  6
CONTINUOUS
 62
     7
 10
-437.6811382552
 20
169.0503271306
 30
0.0
  0
VERTEX
  5
521
  8
0
  6
CONTINUOUS
 62
     7
 10
-437.6824942608
 20
168.7861071909
 30
0.0
  0
VERTEX
  5
522
  8
0
  6
CONTINUOUS
 62
     7
 10
-437.68389497
 20
168.5119574899
 30
0.0
  0
SEQEND
  5
523
  8
0
  6
CONTINUOUS
 62
     7
  0
ARC
  5
115
  8
0
  6
CONTINUOUS
 62
     7
 10
-437.8991464771
 20
166.0420529556
 30
0.0
 40
3.016163307418152
 50
359.819081523
 51
85.8550477302
  0
ARC
  5
116
  8
0
  6
CONTINUOUS
 62
     7
 10
-437.9180285528
 20
165.4843606289
 30
0.0
 40
3.03664208022838
 50
358.1331618246
 51
85.577946625
  0
LINE
  5
117
  8
0
  6
CONTINUOUS
 62
     7
 10
-434.8829982062
 20
166.0325290645
 30
0.0
 11
-434.8829982062
 21
165.3854368264
 31
0.0
  0
POLYLINE
  5
118
  8
0
  6
CONTINUOUS
 62
     7
 66
     1
 10
0.0
 20
0.0
 30
0.0
  0
VERTEX
  5
524
  8
0
  6
CONTINUOUS
 62
     7
 10
-462.0848742504
 20
129.8784228051
 30
0.0
  0
VERTEX
  5
525
  8
0
  6
CONTINUOUS
 62
     7
 10
-462.0835182448
 20
130.1426427449
 30
0.0
  0
VERTEX
  5
526
  8
0
  6
CONTINUOUS
 62
     7
 10
-462.0821026345
 20
130.4167924458
 30
0.0
  0
SEQEND
  5
527
  8
0
  6
CONTINUOUS
 62
     7
  0
ARC
  5
119
  8
0
  6
CONTINUOUS
 62
     7
 10
-461.866906254
 20
132.8866447897
 30
0.0
 40
3.016108346215318
 50
179.818086781
 51
265.8557382189
  0
ARC
  5
11A
  8
0
  6
CONTINUOUS
 62
     7
 10
-461.8479871395
 20
133.4443731029
 30
0.0
 40
3.036624529965062
 50
178.1328451292
 51
265.5782633204
  0
LINE
  5
11B
  8
0
  6
CONTINUOUS
 62
     7
 10
-464.8829993983
 20
132.8962208713
 30
0.0
 11
-464.8829993983
 21
133.5433131093
 31
0.0
  0
ARC
  5
11C
  8
0
  6
CONTINUOUS
 62
     7
 10
-461.1197012278
 20
130.5762012331
 30
0.0
 40
0.9755134244803496
 50
175.9074500001
 51
189.4046670437
  0
ARC
  5
11D
  8
0
  6
CONTINUOUS
 62
     7
 10
-438.6458019983
 20
168.3526349127
 30
0.0
 40
0.975011603917676
 50
355.9002610031
 51
9.4044163129
  0
ARC
  5
11E
  8
0
  6
CONTINUOUS
 62
     7
 10
-449.8830037425
 20
-10.5356250321
 30
0.0
 40
179.9999999999998
 50
86.1130450723
 51
93.8869556952
  0
ARC
  5
11F
  8
0
  6
CONTINUOUS
 62
     7
 10
-449.8830037425
 20
309.4643749679
 30
0.0
 40
180.0000000011288
 50
266.1130449516
 51
273.8869556953
  0
LINE
  5
120
  8
0
  6
CONTINUOUS
 62
     7
 10
-479.8349288483
 20
-50.5356280123
 30
0.0
 11
-485.0310829659
 21
-50.5356280123
 31
0.0
  0
LINE
  5
121
  8
0
  6
CONTINUOUS
 62
     7
 10
-475.4330066223
 20
-52.5356320655
 30
0.0
 11
-489.4330051918
 21
-52.5356320655
 31
0.0
  0
LINE
  5
122
  8
0
  6
CONTINUOUS
 62
     7
 10
-105.433001854
 20
-52.5356320655
 30
0.0
 11
-119.4330004235
 21
-52.5356320655
 31
0.0
  0
LINE
  5
123
  8
0
  6
CONTINUOUS
 62
     7
 10
-109.8349240799
 20
-50.5356280123
 30
0.0
 11
-115.0310781975
 21
-50.5356280123
 31
0.0
  0
LINE
  5
124
  8
0
  6
CONTINUOUS
 62
     7
 10
-494.9322936316
 20
-48.3093349253
 30
0.0
 11
-494.6880337973
 21
-47.9299811637
 31
0.0
  0
LINE
  5
125
  8
0
  6
CONTINUOUS
 62
     7
 10
-494.9322936316
 20
-48.3093349253
 30
0.0
 11
-494.9322936316
 21
-47.9224858796
 31
0.0
  0
LINE
  5
126
  8
0
  6
CONTINUOUS
 62
     7
 10
-101.8757817526
 20
-46.0260448968
 30
0.0
 11
-100.4046199103
 21
-47.4918423211
 31
0.0
  0
LINE
  5
127
  8
0
  6
CONTINUOUS
 62
     7
 10
-493.6783609171
 20
-46.7798797404
 30
0.0
 11
-492.4194065113
 21
-45.5209253346
 31
0.0
  0
ARC
  5
128
  8
0
  6
CONTINUOUS
 62
     7
 10
-522.2237239833
 20
-37.6823770055
 30
0.0
 40
29.28744449884143
 50
333.9684776141
 51
338.7246539822
  0
ARC
  5
129
  8
0
  6
CONTINUOUS
 62
     7
 10
-307.9067675419
 20
-140.6043519394
 30
0.0
 40
227.5339827013686
 50
23.3188315492
 51
23.8552398479
  0
LINE
  5
12A
  8
0
  6
CONTINUOUS
 62
     7
 10
-98.9585963269
 20
-50.5356280123
 30
0.0
 11
-109.8349240799
 21
-50.5356280123
 31
0.0
  0
LINE
  5
12B
  8
0
  6
CONTINUOUS
 62
     7
 10
-115.0310781975
 20
-50.5356280123
 30
0.0
 11
-479.8349288483
 21
-50.5356280123
 31
0.0
  0
LINE
  5
12C
  8
0
  6
CONTINUOUS
 62
     7
 10
-485.0310829659
 20
-50.5356280123
 30
0.0
 11
-495.9074107189
 21
-50.5356280123
 31
0.0
  0
ARC
  5
12D
  8
0
  6
CONTINUOUS
 62
     7
 10
-72.6422830625
 20
336.6111269412
 30
0.0
 40
29.28744449884135
 50
153.9684776141
 51
158.7246539822
  0
POLYLINE
  5
12E
  8
0
  6
CONTINUOUS
 62
     7
 66
     1
 10
0.0
 20
0.0
 30
0.0
  0
VERTEX
  5
528
  8
0
  6
CONTINUOUS
 62
     7
 10
-494.7031137724
 20
346.8400897468
 30
0.0
  0
VERTEX
  5
529
  8
0
  6
CONTINUOUS
 62
     7
 10
-495.0412658234
 20
347.4806757653
 30
0.0
  0
VERTEX
  5
52A
  8
0
  6
CONTINUOUS
 62
     7
 10
-495.4371449728
 20
348.3852954591
 30
0.0
  0
VERTEX
  5
52B
  8
0
  6
CONTINUOUS
 62
     7
 10
-495.6791845341
 20
349.0638198341
 30
0.0
  0
VERTEX
  5
52C
  8
0
  6
CONTINUOUS
 62
     7
 10
-495.7950261612
 20
349.3454368795
 30
0.0
  0
VERTEX
  5
52D
  8
0
  6
CONTINUOUS
 62
     7
 10
-495.9074107189
 20
349.4643779481
 30
0.0
  0
SEQEND
  5
52E
  8
0
  6
CONTINUOUS
 62
     7
  0
LINE
  5
12F
  8
0
  6
CONTINUOUS
 62
     7
 10
-98.9585963269
 20
349.4643779481
 30
0.0
 11
-495.9074107189
 21
349.4643779481
 31
0.0
  0
POLYLINE
  5
130
  8
0
  6
CONTINUOUS
 62
     7
 66
     1
 10
0.0
 20
0.0
 30
0.0
  0
VERTEX
  5
52F
  8
0
  6
CONTINUOUS
 62
     7
 10
-495.0319078942
 20
346.9636650766
 30
0.0
  0
VERTEX
  5
530
  8
0
  6
CONTINUOUS
 62
     7
 10
-495.0412658234
 20
346.9725312675
 30
0.0
  0
VERTEX
  5
531
  8
0
  6
CONTINUOUS
 62
     7
 10
-495.4371449728
 20
347.4248262132
 30
0.0
  0
VERTEX
  5
532
  8
0
  6
CONTINUOUS
 62
     7
 10
-495.6791845341
 20
347.7640958513
 30
0.0
  0
VERTEX
  5
533
  8
0
  6
CONTINUOUS
 62
     7
 10
-495.7950261612
 20
347.9049118245
 30
0.0
  0
VERTEX
  5
534
  8
0
  6
CONTINUOUS
 62
     7
 10
-495.9074107189
 20
347.9643823589
 30
0.0
  0
SEQEND
  5
535
  8
0
  6
CONTINUOUS
 62
     7
  0
LINE
  5
131
  8
0
  6
CONTINUOUS
 62
     7
 10
-495.9074107189
 20
349.4643779481
 30
0.0
 11
-495.9074107189
 21
347.9643823589
 31
0.0
  0
LINE
  5
132
  8
0
  6
CONTINUOUS
 62
     7
 10
-101.897075512
 20
344.9992002929
 30
0.0
 11
-100.4319039364
 21
346.4643718684
 31
0.0
  0
ARC
  5
133
  8
0
  6
CONTINUOUS
 62
     7
 10
-490.9322964162
 20
349.9625632258
 30
0.0
 40
4.999999999973016
 50
224.3979399628
 51
225.1044244628
  0
LINE
  5
134
  8
0
  6
CONTINUOUS
 62
     7
 10
-493.7015024205
 20
345.6634791578
 30
0.0
 11
-492.4648401518
 21
344.4313170398
 31
0.0
  0
ARC
  5
135
  8
0
  6
CONTINUOUS
 62
     7
 10
-148.8469005749
 20
-91.9718907167
 30
0.0
 40
65.82070477443922
 50
40.7168596036
 51
41.4778625345
  0
LINE
  5
136
  8
0
  6
CONTINUOUS
 62
     7
 10
-98.9585963269
 20
-50.5356280123
 30
0.0
 11
-98.9585963269
 21
-49.0356324231
 31
0.0
  0
LINE
  5
137
  8
0
  6
CONTINUOUS
 62
     7
 10
-97.4330005427
 20
-49.0100322282
 30
0.0
 11
-97.4330005427
 21
347.9387821639
 31
0.0
  0
ARC
  5
138
  8
0
  6
CONTINUOUS
 62
     7
 10
-110.2862515495
 20
-75.3263454925
 30
0.0
 40
29.28744449884135
 50
63.9684776141
 51
68.7246539822
  0
ARC
  5
139
  8
0
  6
CONTINUOUS
 62
     7
 10
-10.3588316304
 20
145.9351473249
 30
0.0
 40
219.9713149024757
 50
113.3185782571
 51
113.8507904766
  0
LINE
  5
13A
  8
0
  6
CONTINUOUS
 62
     7
 10
-101.9166407366
 20
345.0476439679
 30
0.0
 11
-100.4767862339
 21
346.4927585805
 31
0.0
  0
LINE
  5
13B
  8
0
  6
CONTINUOUS
 62
     7
 10
-100.4330066223
 20
-47.5367246186
 30
0.0
 11
-101.8977013607
 21
-46.0720298802
 31
0.0
  0
LINE
  5
13C
  8
0
  6
CONTINUOUS
 62
     7
 10
-492.3745540161
 20
-45.5419806754
 30
0.0
 11
-493.6544445534
 21
-46.8265352761
 31
0.0
  0
LINE
  5
13D
  8
0
  6
CONTINUOUS
 62
     7
 10
-493.6776009579
 20
345.71008999
 30
0.0
 11
-492.4178269883
 21
344.4503011192
 31
0.0
  0
ARC
  5
13E
  8
0
  6
CONTINUOUS
 62
     7
 10
-484.5797554963
 20
374.2550954283
 30
0.0
 40
29.28744449884137
 50
243.9684776141
 51
248.7246539822
  0
LINE
  5
13F
  8
0
  6
CONTINUOUS
 62
     7
 10
-495.2067134161
 20
346.9636650766
 30
0.0
 11
-494.8099103947
 21
346.7081697667
 31
0.0
  0
POLYLINE
  5
140
  8
0
  6
CONTINUOUS
 62
     7
 66
     1
 10
0.0
 20
0.0
 30
0.0
  0
VERTEX
  5
536
  8
0
  6
CONTINUOUS
 62
     7
 10
-494.7946218033
 20
-47.7982996022
 30
0.0
  0
VERTEX
  5
537
  8
0
  6
CONTINUOUS
 62
     7
 10
-495.4493043204
 20
-48.1438873326
 30
0.0
  0
VERTEX
  5
538
  8
0
  6
CONTINUOUS
 62
     7
 10
-496.3539240141
 20
-48.539766482
 30
0.0
  0
VERTEX
  5
539
  8
0
  6
CONTINUOUS
 62
     7
 10
-497.0324483891
 20
-48.7818060433
 30
0.0
  0
VERTEX
  5
53A
  8
0
  6
CONTINUOUS
 62
     7
 10
-497.3140654345
 20
-48.8976476704
 30
0.0
  0
VERTEX
  5
53B
  8
0
  6
CONTINUOUS
 62
     7
 10
-497.4330065031
 20
-49.0100322282
 30
0.0
  0
SEQEND
  5
53C
  8
0
  6
CONTINUOUS
 62
     7
  0
LINE
  5
141
  8
0
  6
CONTINUOUS
 62
     7
 10
-497.4330065031
 20
-49.0100322282
 30
0.0
 11
-497.4330065031
 21
347.9387821639
 31
0.0
  0
LINE
  5
142
  8
0
  6
CONTINUOUS
 62
     7
 10
-495.2067134161
 20
346.9636650766
 30
0.0
 11
-494.8198643704
 21
346.9636650766
 31
0.0
  0
POLYLINE
  5
143
  8
0
  6
CONTINUOUS
 62
     7
 66
     1
 10
0.0
 20
0.0
 30
0.0
  0
VERTEX
  5
53D
  8
0
  6
CONTINUOUS
 62
     7
 10
-494.9322936316
 20
-48.1345294034
 30
0.0
  0
VERTEX
  5
53E
  8
0
  6
CONTINUOUS
 62
     7
 10
-494.9411598225
 20
-48.1438873326
 30
0.0
  0
VERTEX
  5
53F
  8
0
  6
CONTINUOUS
 62
     7
 10
-495.3934547682
 20
-48.539766482
 30
0.0
  0
VERTEX
  5
540
  8
0
  6
CONTINUOUS
 62
     7
 10
-495.7327244063
 20
-48.7818060433
 30
0.0
  0
VERTEX
  5
541
  8
0
  6
CONTINUOUS
 62
     7
 10
-495.8735403796
 20
-48.8976476704
 30
0.0
  0
VERTEX
  5
542
  8
0
  6
CONTINUOUS
 62
     7
 10
-495.9330109139
 20
-49.0100322282
 30
0.0
  0
SEQEND
  5
543
  8
0
  6
CONTINUOUS
 62
     7
  0
LINE
  5
144
  8
0
  6
CONTINUOUS
 62
     7
 10
-497.4330065031
 20
-49.0100322282
 30
0.0
 11
-495.9330109139
 21
-49.0100322282
 31
0.0
  0
ARC
  5
145
  8
0
  6
CONTINUOUS
 62
     7
 10
-54.6095453944
 20
296.4544115311
 30
0.0
 40
67.9353273690448
 50
130.725515827
 51
131.4702411626
  0
LINE
  5
146
  8
0
  6
CONTINUOUS
 62
     7
 10
-97.4330005427
 20
347.9387821639
 30
0.0
 11
-98.9329961319
 21
347.9387821639
 31
0.0
  0
LINE
  5
147
  8
0
  6
CONTINUOUS
 62
     7
 10
-495.9074107189
 20
-49.0356324231
 30
0.0
 11
-495.9074107189
 21
-50.5356280123
 31
0.0
  0
ARC
  5
148
  8
0
  6
CONTINUOUS
 62
     7
 10
-505.4679304007
 20
-39.6769361695
 30
0.0
 40
13.37866705437773
 50
315.6111876974
 51
321.9520510504
  0
LINE
  5
149
  8
0
  6
CONTINUOUS
 62
     7
 10
-98.9585963269
 20
347.9643823589
 30
0.0
 11
-98.9585963269
 21
349.4643779481
 31
0.0
  0
ARC
  5
14A
  8
0
  6
CONTINUOUS
 62
     7
 10
-91.724616505
 20
340.8408685167
 30
0.0
 40
10.1525816186726
 50
135.4408227284
 51
140.3799185124
  0
LINE
  5
14B
  8
0
  6
CONTINUOUS
 62
     7
 10
-495.9330109139
 20
347.9387821639
 30
0.0
 11
-497.4330065031
 21
347.9387821639
 31
0.0
  0
ARC
  5
14C
  8
0
  6
CONTINUOUS
 62
     7
 10
-486.5743146603
 20
357.4993018456
 30
0.0
 40
13.37866705437764
 50
225.6111876974
 51
231.9520510504
  0
ARC
  5
14D
  8
0
  6
CONTINUOUS
 62
     7
 10
-106.0659157009
 20
-56.2536973389
 30
0.0
 40
10.16608212701383
 50
45.4413514601
 51
50.4054856423
  0
LINE
  5
14E
  8
0
  6
CONTINUOUS
 62
     7
 10
-98.9329961319
 20
-49.0100322282
 30
0.0
 11
-97.4330005427
 21
-49.0100322282
 31
0.0
  0
LINE
  5
14F
  8
0
  6
CONTINUOUS
 62
     7
 10
-97.4330005427
 20
347.9636671031
 30
0.0
 11
-98.9329961319
 21
347.9636671031
 31
0.0
  0
LINE
  5
150
  8
0
  6
CONTINUOUS
 62
     7
 10
-97.4330005427
 20
347.9387821639
 30
0.0
 11
-97.4330005427
 21
347.9636671031
 31
0.0
  0
LINE
  5
151
  8
0
  6
CONTINUOUS
 62
     7
 10
-98.9329961319
 20
347.9636671031
 30
0.0
 11
-98.9329961319
 21
347.9387821639
 31
0.0
  0
LINE
  5
152
  8
0
  6
CONTINUOUS
 62
     7
 10
-497.4330065031
 20
-49.0349171674
 30
0.0
 11
-495.9330109139
 21
-49.0349171674
 31
0.0
  0
LINE
  5
153
  8
0
  6
CONTINUOUS
 62
     7
 10
-497.4330065031
 20
-49.0349171674
 30
0.0
 11
-497.4330065031
 21
-49.0100322282
 31
0.0
  0
LINE
  5
154
  8
0
  6
CONTINUOUS
 62
     7
 10
-495.9330109139
 20
-49.0349171674
 30
0.0
 11
-495.9330109139
 21
-49.0100322282
 31
0.0
  0
LINE
  5
155
  8
0
  6
CONTINUOUS
 62
     7
 10
-495.9322956581
 20
347.9643823589
 30
0.0
 11
-495.9074107189
 21
347.9643823589
 31
0.0
  0
LINE
  5
156
  8
0
  6
CONTINUOUS
 62
     7
 10
-495.9322956581
 20
349.4643779481
 30
0.0
 11
-495.9322956581
 21
347.9643823589
 31
0.0
  0
LINE
  5
157
  8
0
  6
CONTINUOUS
 62
     7
 10
-495.9322956581
 20
349.4643779481
 30
0.0
 11
-495.9074107189
 21
349.4643779481
 31
0.0
  0
LINE
  5
158
  8
0
  6
CONTINUOUS
 62
     7
 10
-98.9585963269
 20
349.4643779481
 30
0.0
 11
-98.9337113877
 21
349.4643779481
 31
0.0
  0
LINE
  5
159
  8
0
  6
CONTINUOUS
 62
     7
 10
-98.9337113877
 20
349.4643779481
 30
0.0
 11
-98.9337113877
 21
347.9643823589
 31
0.0
  0
LINE
  5
15A
  8
0
  6
CONTINUOUS
 62
     7
 10
-98.9585963269
 20
347.9643823589
 30
0.0
 11
-98.9337113877
 21
347.9643823589
 31
0.0
  0
LINE
  5
15B
  8
0
  6
CONTINUOUS
 62
     7
 10
-98.9337113877
 20
-50.5356280123
 30
0.0
 11
-98.9337113877
 21
-49.0356324231
 31
0.0
  0
LINE
  5
15C
  8
0
  6
CONTINUOUS
 62
     7
 10
-98.9337113877
 20
-49.0356324231
 30
0.0
 11
-98.9585963269
 21
-49.0356324231
 31
0.0
  0
LINE
  5
15D
  8
0
  6
CONTINUOUS
 62
     7
 10
-98.9337113877
 20
-50.5356280123
 30
0.0
 11
-98.9585963269
 21
-50.5356280123
 31
0.0
  0
LINE
  5
15E
  8
0
  6
CONTINUOUS
 62
     7
 10
-495.9322956581
 20
-50.5356280123
 30
0.0
 11
-495.9322956581
 21
-49.0356324231
 31
0.0
  0
LINE
  5
15F
  8
0
  6
CONTINUOUS
 62
     7
 10
-495.9074107189
 20
-49.0356324231
 30
0.0
 11
-495.9322956581
 21
-49.0356324231
 31
0.0
  0
LINE
  5
160
  8
0
  6
CONTINUOUS
 62
     7
 10
-495.9322956581
 20
-50.5356280123
 30
0.0
 11
-495.9074107189
 21
-50.5356280123
 31
0.0
  0
LINE
  5
161
  8
0
  6
CONTINUOUS
 62
     7
 10
-497.4330065031
 20
347.9636671031
 30
0.0
 11
-495.9330109139
 21
347.9636671031
 31
0.0
  0
LINE
  5
162
  8
0
  6
CONTINUOUS
 62
     7
 10
-497.4330065031
 20
347.9387821639
 30
0.0
 11
-497.4330065031
 21
347.9636671031
 31
0.0
  0
LINE
  5
163
  8
0
  6
CONTINUOUS
 62
     7
 10
-495.9330109139
 20
347.9387821639
 30
0.0
 11
-495.9330109139
 21
347.9636671031
 31
0.0
  0
LINE
  5
164
  8
0
  6
CONTINUOUS
 62
     7
 10
-97.4330005427
 20
-49.0349171674
 30
0.0
 11
-98.9329961319
 21
-49.0349171674
 31
0.0
  0
LINE
  5
165
  8
0
  6
CONTINUOUS
 62
     7
 10
-97.4330005427
 20
-49.0349171674
 30
0.0
 11
-97.4330005427
 21
-49.0100322282
 31
0.0
  0
LINE
  5
166
  8
0
  6
CONTINUOUS
 62
     7
 10
-98.9329961319
 20
-49.0100322282
 30
0.0
 11
-98.9329961319
 21
-49.0349171674
 31
0.0
  0
LINE
  5
167
  8
0
  6
CONTINUOUS
 62
     7
 10
-707.7805940994
 20
353.164380976
 30
0.0
 11
-707.7805940994
 21
349.7643681253
 31
0.0
  0
LINE
  5
168
  8
0
  6
CONTINUOUS
 62
     7
 10
-707.7805940994
 20
349.7643681253
 30
0.0
 11
-707.4805964717
 21
349.4643779481
 31
0.0
  0
LINE
  5
169
  8
0
  6
CONTINUOUS
 62
     7
 10
-707.4805964717
 20
353.4643711532
 30
0.0
 11
-707.7805940994
 21
353.164380976
 31
0.0
  0
LINE
  5
16A
  8
0
  6
CONTINUOUS
 62
     7
 10
-707.4805964717
 20
-50.5356280123
 30
0.0
 11
-707.7805940994
 21
-50.8356181895
 31
0.0
  0
LINE
  5
16B
  8
0
  6
CONTINUOUS
 62
     7
 10
-707.7805940994
 20
-50.8356181895
 30
0.0
 11
-707.7805940994
 21
-54.2356310403
 31
0.0
  0
LINE
  5
16C
  8
0
  6
CONTINUOUS
 62
     7
 10
-707.7805940994
 20
-54.2356310403
 30
0.0
 11
-707.4805964717
 21
-54.5356212174
 31
0.0
  0
ARC
  5
16D
  8
0
  6
CONTINUOUS
 62
     7
 10
-773.480594687
 20
149.4643749679
 30
0.0
 40
89.50000000001992
 50
167.6878123258
 51
171.8046187659
  0
ARC
  5
16E
  8
0
  6
CONTINUOUS
 62
     7
 10
-773.480594687
 20
149.4643749679
 30
0.0
 40
89.50000000001997
 50
188.1938926696
 51
192.3117800122
  0
ARC
  5
16F
  8
0
  6
CONTINUOUS
 62
     7
 10
-862.3640256713
 20
136.6791654374
 30
0.0
 40
0.2998274203618139
 50
5.6598437602
 51
90.4955197614
  0
ARC
  5
170
  8
0
  6
CONTINUOUS
 62
     7
 10
-773.480594687
 20
149.4643749679
 30
0.0
 40
90.19999999999942
 50
185.4696070839
 51
187.799459856
  0
ARC
  5
171
  8
0
  6
CONTINUOUS
 62
     7
 10
-773.480594687
 20
149.4643749679
 30
0.0
 40
90.1999999999995
 50
172.2005399977
 51
174.5303929161
  0
ARC
  5
172
  8
0
  6
CONTINUOUS
 62
     7
 10
-852.980594687
 20
136.7076962596
 30
0.0
 40
32.99999999999996
 50
96.9620626911
 51
103.523892595
  0
ARC
  5
173
  8
0
  6
CONTINUOUS
 62
     7
 10
-852.980594687
 20
162.2210536762
 30
0.0
 40
32.99999999999996
 50
256.4797637263
 51
263.0379373089
  0
ARC
  5
174
  8
0
  6
CONTINUOUS
 62
     7
 10
-860.6254750552
 20
130.4272374394
 30
0.0
 40
0.2999840820389545
 50
191.9519472169
 51
257.7246706265
  0
ARC
  5
175
  8
0
  6
CONTINUOUS
 62
     7
 10
-860.6254750552
 20
168.5015124964
 30
0.0
 40
0.2999840820389545
 50
102.2753293735
 51
168.0480527831
  0
ARC
  5
176
  8
0
  6
CONTINUOUS
 62
     7
 10
-862.5489392321
 20
161.6643749679
 30
0.0
 40
0.3000000000001965
 50
90.0
 51
172.2023682146
  0
LINE
  5
177
  8
0
  6
CONTINUOUS
 62
     7
 10
-862.3360862025
 20
161.9643751541
 30
0.0
 11
-862.5765164384
 21
161.9643751541
 31
0.0
  0
LINE
  5
178
  8
0
  6
CONTINUOUS
 62
     7
 10
-862.5765164384
 20
136.9643747816
 30
0.0
 11
-862.3360862025
 21
136.9643747816
 31
0.0
  0
ARC
  5
179
  8
0
  6
CONTINUOUS
 62
     7
 10
-862.5489392321
 20
137.2643749679
 30
0.0
 40
0.3000000000000114
 50
187.7975877807
 51
270.0
  0
ARC
  5
17A
  8
0
  6
CONTINUOUS
 62
     7
 10
-862.7721816368
 20
158.0143749679
 30
0.0
 40
0.5000000000000497
 50
174.5304035696
 51
180.0
  0
ARC
  5
17B
  8
0
  6
CONTINUOUS
 62
     7
 10
-862.7721816368
 20
140.9143749679
 30
0.0
 40
0.5000000000001137
 50
180.0
 51
185.4695964304
  0
LINE
  5
17C
  8
0
  6
CONTINUOUS
 62
     7
 10
-863.2721771487
 20
158.0143753449
 30
0.0
 11
-863.2721771487
 21
140.9143745909
 31
0.0
  0
ARC
  5
17D
  8
0
  6
CONTINUOUS
 62
     7
 10
-862.3529226258
 20
162.2427479583
 30
0.0
 40
0.2881608100719663
 50
273.4593571585
 51
355.4752077085
  0
LINE
  5
17E
  8
0
  6
CONTINUOUS
 62
     7
 10
-833.2805951127
 20
-50.5356280123
 30
0.0
 11
-833.2805951127
 21
-52.5356320655
 31
0.0
  0
LINE
  5
17F
  8
0
  6
CONTINUOUS
 62
     7
 10
-819.2805965432
 20
-52.5356320655
 30
0.0
 11
-819.2805965432
 21
-50.5356280123
 31
0.0
  0
LINE
  5
180
  8
0
  6
CONTINUOUS
 62
     7
 10
-821.780594159
 20
-49.0356324231
 30
0.0
 11
-821.780594159
 21
-49.0349171674
 31
0.0
  0
LINE
  5
181
  8
0
  6
CONTINUOUS
 62
     7
 10
-830.7805974969
 20
-49.0349171674
 30
0.0
 11
-830.7805974969
 21
-49.0356324231
 31
0.0
  0
LINE
  5
182
  8
0
  6
CONTINUOUS
 62
     7
 10
-837.7805967817
 20
316.4643706764
 30
0.0
 11
-838.0005975255
 21
316.4643706764
 31
0.0
  0
LINE
  5
183
  8
0
  6
CONTINUOUS
 62
     7
 10
-838.0005975255
 20
311.4643754447
 30
0.0
 11
-837.7805967817
 21
311.4643754447
 31
0.0
  0
LINE
  5
184
  8
0
  6
CONTINUOUS
 62
     7
 10
-838.0005975255
 20
316.4643706764
 30
0.0
 11
-838.4005893954
 21
316.0643788064
 31
0.0
  0
LINE
  5
185
  8
0
  6
CONTINUOUS
 62
     7
 10
-838.4005893954
 20
311.8643822158
 30
0.0
 11
-838.0005975255
 21
311.4643754447
 31
0.0
  0
LINE
  5
186
  8
0
  6
CONTINUOUS
 62
     7
 10
-837.7805967817
 20
276.464379021
 30
0.0
 11
-838.0005975255
 21
276.464379021
 31
0.0
  0
LINE
  5
187
  8
0
  6
CONTINUOUS
 62
     7
 10
-838.0005975255
 20
271.4643763388
 30
0.0
 11
-837.7805967817
 21
271.4643763388
 31
0.0
  0
LINE
  5
188
  8
0
  6
CONTINUOUS
 62
     7
 10
-838.0005975255
 20
276.464379021
 30
0.0
 11
-838.4005893954
 21
276.0643722499
 31
0.0
  0
LINE
  5
189
  8
0
  6
CONTINUOUS
 62
     7
 10
-838.4005893954
 20
271.8643756593
 30
0.0
 11
-838.0005975255
 21
271.4643763388
 31
0.0
  0
LINE
  5
18A
  8
0
  6
CONTINUOUS
 62
     7
 10
-837.7805967817
 20
-12.535625509
 30
0.0
 11
-838.0005975255
 21
-12.535625509
 31
0.0
  0
LINE
  5
18B
  8
0
  6
CONTINUOUS
 62
     7
 10
-838.0005975255
 20
-17.5356207406
 30
0.0
 11
-837.7805967817
 21
-17.5356207406
 31
0.0
  0
LINE
  5
18C
  8
0
  6
CONTINUOUS
 62
     7
 10
-838.0005975255
 20
-12.535625509
 30
0.0
 11
-838.4005893954
 21
-12.93563228
 31
0.0
  0
LINE
  5
18D
  8
0
  6
CONTINUOUS
 62
     7
 10
-838.4005893954
 20
-17.1356288707
 30
0.0
 11
-838.0005975255
 21
-17.5356207406
 31
0.0
  0
LINE
  5
18E
  8
0
  6
CONTINUOUS
 62
     7
 10
-837.7805967817
 20
27.464373597
 30
0.0
 11
-838.0005975255
 21
27.464373597
 31
0.0
  0
LINE
  5
18F
  8
0
  6
CONTINUOUS
 62
     7
 10
-838.0005975255
 20
22.4643709148
 30
0.0
 11
-837.7805967817
 21
22.4643709148
 31
0.0
  0
LINE
  5
190
  8
0
  6
CONTINUOUS
 62
     7
 10
-838.0005975255
 20
27.464373597
 30
0.0
 11
-838.4005893954
 21
27.0643742765
 31
0.0
  0
LINE
  5
191
  8
0
  6
CONTINUOUS
 62
     7
 10
-838.4005893954
 20
22.8643776859
 30
0.0
 11
-838.0005975255
 21
22.4643709148
 31
0.0
  0
LINE
  5
192
  8
0
  6
CONTINUOUS
 62
     7
 10
-681.9071789273
 20
-49.0349171674
 30
0.0
 11
-681.8805952558
 21
-49.0356324231
 31
0.0
  0
LINE
  5
193
  8
0
  6
CONTINUOUS
 62
     7
 10
-694.6805958637
 20
-49.0356324231
 30
0.0
 11
-694.6540121922
 21
-49.0349171674
 31
0.0
  0
LINE
  5
194
  8
0
  6
CONTINUOUS
 62
     7
 10
-706.9071774372
 20
-49.0349171674
 30
0.0
 11
-706.8805937657
 21
-49.0356324231
 31
0.0
  0
LINE
  5
195
  8
0
  6
CONTINUOUS
 62
     7
 10
-681.8805952558
 20
347.9643823589
 30
0.0
 11
-681.9071789273
 21
347.9636671031
 31
0.0
  0
LINE
  5
196
  8
0
  6
CONTINUOUS
 62
     7
 10
-706.8805937657
 20
347.9643823589
 30
0.0
 11
-706.9071774372
 21
347.9636671031
 31
0.0
  0
LINE
  5
197
  8
0
  6
CONTINUOUS
 62
     7
 10
-694.6540121922
 20
347.9636671031
 30
0.0
 11
-694.6805958637
 21
347.9643823589
 31
0.0
  0
LINE
  5
198
  8
0
  6
CONTINUOUS
 62
     7
 10
-632.7805948445
 20
349.4643779481
 30
0.0
 11
-632.7805948445
 21
-50.5356280123
 31
0.0
  0
LINE
  5
199
  8
0
  6
CONTINUOUS
 62
     7
 10
-672.7805958131
 20
-50.5356280123
 30
0.0
 11
-672.7805958131
 21
349.4643779481
 31
0.0
  0
LINE
  5
19A
  8
0
  6
CONTINUOUS
 62
     7
 10
-841.9805933723
 20
-46.0356263434
 30
0.0
 11
-841.9805933723
 21
-49.0356324231
 31
0.0
  0
LINE
  5
19B
  8
0
  6
CONTINUOUS
 62
     7
 10
-853.4805943259
 20
-49.0356324231
 30
0.0
 11
-841.9805933723
 21
-49.0356324231
 31
0.0
  0
POLYLINE
  5
19C
  8
0
  6
CONTINUOUS
 62
     7
 66
     1
 10
0.0
 20
0.0
 30
0.0
  0
VERTEX
  5
544
  8
0
  6
CONTINUOUS
 62
     7
 10
-853.4805943259
 20
-49.0356324231
 30
0.0
  0
VERTEX
  5
545
  8
0
  6
CONTINUOUS
 62
     7
 10
-853.2660325059
 20
-48.9882318293
 30
0.0
  0
VERTEX
  5
546
  8
0
  6
CONTINUOUS
 62
     7
 10
-853.1089444646
 20
-48.831143788
 30
0.0
  0
VERTEX
  5
547
  8
0
  6
CONTINUOUS
 62
     7
 10
-853.0127425679
 20
-48.5519258296
 30
0.0
  0
VERTEX
  5
548
  8
0
  6
CONTINUOUS
 62
     7
 10
-852.9806007632
 20
-48.1569407498
 30
0.0
  0
VERTEX
  5
549
  8
0
  6
CONTINUOUS
 62
     7
 10
-853.0125786552
 20
-47.6684359824
 30
0.0
  0
VERTEX
  5
54A
  8
0
  6
CONTINUOUS
 62
     7
 10
-853.1085570344
 20
-47.1256760871
 30
0.0
  0
VERTEX
  5
54B
  8
0
  6
CONTINUOUS
 62
     7
 10
-853.2661815175
 20
-46.5663759028
 30
0.0
  0
VERTEX
  5
54C
  8
0
  6
CONTINUOUS
 62
     7
 10
-853.4805943259
 20
-46.0356263434
 30
0.0
  0
SEQEND
  5
54D
  8
0
  6
CONTINUOUS
 62
     7
  0
ARC
  5
19D
  8
0
  6
CONTINUOUS
 62
     7
 10
-855.480594687
 20
346.4643749679
 30
0.0
 40
2.500000000000091
 50
306.8698976458
 51
323.1301023542
  0
LINE
  5
19E
  8
0
  6
CONTINUOUS
 62
     7
 10
-841.9805933723
 20
344.9643762792
 30
0.0
 11
-841.9805933723
 21
-46.0356263434
 31
0.0
  0
ARC
  5
19F
  8
0
  6
CONTINUOUS
 62
     7
 10
-855.480594687
 20
-47.5356250321
 30
0.0
 40
2.500000000000107
 50
36.8698976458
 51
53.1301023542
  0
LINE
  5
1A0
  8
0
  6
CONTINUOUS
 62
     7
 10
-856.9805939683
 20
-45.5356178796
 30
0.0
 11
-856.9805939683
 21
344.4643678153
 31
0.0
  0
POLYLINE
  5
1A1
  8
0
  6
CONTINUOUS
 62
     7
 66
     1
 10
0.0
 20
0.0
 30
0.0
  0
VERTEX
  5
54E
  8
0
  6
CONTINUOUS
 62
     7
 10
-853.9805878886
 20
344.4643678153
 30
0.0
  0
VERTEX
  5
54F
  8
0
  6
CONTINUOUS
 62
     7
 10
-854.5117695817
 20
344.2498059953
 30
0.0
  0
VERTEX
  5
550
  8
0
  6
CONTINUOUS
 62
     7
 10
-855.0691922197
 20
344.092717954
 30
0.0
  0
VERTEX
  5
551
  8
0
  6
CONTINUOUS
 62
     7
 10
-855.6140680799
 20
343.9965309585
 30
0.0
  0
VERTEX
  5
552
  8
0
  6
CONTINUOUS
 62
     7
 10
-856.1019171962
 20
343.9643742526
 30
0.0
  0
VERTEX
  5
553
  8
0
  6
CONTINUOUS
 62
     7
 10
-856.4973195085
 20
343.9963670457
 30
0.0
  0
VERTEX
  5
554
  8
0
  6
CONTINUOUS
 62
     7
 10
-856.7755539903
 20
344.0923305238
 30
0.0
  0
VERTEX
  5
555
  8
0
  6
CONTINUOUS
 62
     7
 10
-856.9332678804
 20
344.2499550069
 30
0.0
  0
VERTEX
  5
556
  8
0
  6
CONTINUOUS
 62
     7
 10
-856.9805939683
 20
344.4643678153
 30
0.0
  0
SEQEND
  5
557
  8
0
  6
CONTINUOUS
 62
     7
  0
POLYLINE
  5
1A2
  8
0
  6
CONTINUOUS
 62
     7
 66
     1
 10
0.0
 20
0.0
 30
0.0
  0
VERTEX
  5
558
  8
0
  6
CONTINUOUS
 62
     7
 10
-853.9805878886
 20
-45.5356178796
 30
0.0
  0
VERTEX
  5
559
  8
0
  6
CONTINUOUS
 62
     7
 10
-854.5117695817
 20
-45.3210560595
 30
0.0
  0
VERTEX
  5
55A
  8
0
  6
CONTINUOUS
 62
     7
 10
-855.0691922197
 20
-45.1639680182
 30
0.0
  0
VERTEX
  5
55B
  8
0
  6
CONTINUOUS
 62
     7
 10
-855.6140680799
 20
-45.0677810227
 30
0.0
  0
VERTEX
  5
55C
  8
0
  6
CONTINUOUS
 62
     7
 10
-856.1019171962
 20
-45.0356243169
 30
0.0
  0
VERTEX
  5
55D
  8
0
  6
CONTINUOUS
 62
     7
 10
-856.4973195085
 20
-45.0676171099
 30
0.0
  0
VERTEX
  5
55E
  8
0
  6
CONTINUOUS
 62
     7
 10
-856.7755539903
 20
-45.163580588
 30
0.0
  0
VERTEX
  5
55F
  8
0
  6
CONTINUOUS
 62
     7
 10
-856.9332678804
 20
-45.3212050711
 30
0.0
  0
VERTEX
  5
560
  8
0
  6
CONTINUOUS
 62
     7
 10
-856.9805939683
 20
-45.5356178796
 30
0.0
  0
SEQEND
  5
561
  8
0
  6
CONTINUOUS
 62
     7
  0
LINE
  5
1A3
  8
0
  6
CONTINUOUS
 62
     7
 10
-853.4805943259
 20
-49.0356324231
 30
0.0
 11
-853.4805943259
 21
-47.5356219327
 31
0.0
  0
POLYLINE
  5
1A4
  8
0
  6
CONTINUOUS
 62
     7
 66
     1
 10
0.0
 20
0.0
 30
0.0
  0
VERTEX
  5
562
  8
0
  6
CONTINUOUS
 62
     7
 10
-853.4805943259
 20
-47.5356219327
 30
0.0
  0
VERTEX
  5
563
  8
0
  6
CONTINUOUS
 62
     7
 10
-853.2660325059
 20
-47.5119290864
 30
0.0
  0
VERTEX
  5
564
  8
0
  6
CONTINUOUS
 62
     7
 10
-853.1089444646
 20
-47.4333850657
 30
0.0
  0
VERTEX
  5
565
  8
0
  6
CONTINUOUS
 62
     7
 10
-853.0127425679
 20
-47.2937760865
 30
0.0
  0
VERTEX
  5
566
  8
0
  6
CONTINUOUS
 62
     7
 10
-852.9806007632
 20
-47.096276096
 30
0.0
  0
VERTEX
  5
567
  8
0
  6
CONTINUOUS
 62
     7
 10
-852.9806007632
 20
-47.096276096
 30
0.0
  0
SEQEND
  5
568
  8
0
  6
CONTINUOUS
 62
     7
  0
ARC
  5
1A5
  8
0
  6
CONTINUOUS
 62
     7
 10
-855.0663591617
 20
-45.4565878342
 30
0.0
 40
0.4217106558341259
 50
86.588895363
 51
190.8012930139
  0
LINE
  5
1A6
  8
0
  6
CONTINUOUS
 62
     7
 10
-856.9805939683
 20
-45.5356178796
 30
0.0
 11
-855.4805983791
 21
-45.5356178796
 31
0.0
  0
POLYLINE
  5
1A7
  8
0
  6
CONTINUOUS
 62
     7
 66
     1
 10
0.0
 20
0.0
 30
0.0
  0
VERTEX
  5
569
  8
0
  6
CONTINUOUS
 62
     7
 10
-853.4805943259
 20
347.9643823589
 30
0.0
  0
VERTEX
  5
56A
  8
0
  6
CONTINUOUS
 62
     7
 10
-853.2660325059
 20
347.9169817651
 30
0.0
  0
VERTEX
  5
56B
  8
0
  6
CONTINUOUS
 62
     7
 10
-853.1089444646
 20
347.7598937238
 30
0.0
  0
VERTEX
  5
56C
  8
0
  6
CONTINUOUS
 62
     7
 10
-853.0127425679
 20
347.4806757653
 30
0.0
  0
VERTEX
  5
56D
  8
0
  6
CONTINUOUS
 62
     7
 10
-852.9806007632
 20
347.0856906856
 30
0.0
  0
VERTEX
  5
56E
  8
0
  6
CONTINUOUS
 62
     7
 10
-853.0125786552
 20
346.5971859182
 30
0.0
  0
VERTEX
  5
56F
  8
0
  6
CONTINUOUS
 62
     7
 10
-853.1085570344
 20
346.0544260228
 30
0.0
  0
VERTEX
  5
570
  8
0
  6
CONTINUOUS
 62
     7
 10
-853.2661815175
 20
345.4951258386
 30
0.0
  0
VERTEX
  5
571
  8
0
  6
CONTINUOUS
 62
     7
 10
-853.4805943259
 20
344.9643762792
 30
0.0
  0
SEQEND
  5
572
  8
0
  6
CONTINUOUS
 62
     7
  0
LINE
  5
1A8
  8
0
  6
CONTINUOUS
 62
     7
 10
-841.9805933723
 20
347.9643823589
 30
0.0
 11
-853.4805943259
 21
347.9643823589
 31
0.0
  0
LINE
  5
1A9
  8
0
  6
CONTINUOUS
 62
     7
 10
-841.9805933723
 20
347.9643823589
 30
0.0
 11
-841.9805933723
 21
344.9643762792
 31
0.0
  0
LINE
  5
1AA
  8
0
  6
CONTINUOUS
 62
     7
 10
-856.9805939683
 20
344.4643678153
 30
0.0
 11
-855.4805983791
 21
344.4643678153
 31
0.0
  0
ARC
  5
1AB
  8
0
  6
CONTINUOUS
 62
     7
 10
-855.0663591617
 20
344.38533777
 30
0.0
 40
0.4217106558341259
 50
169.1987069861
 51
273.411104637
  0
POLYLINE
  5
1AC
  8
0
  6
CONTINUOUS
 62
     7
 66
     1
 10
0.0
 20
0.0
 30
0.0
  0
VERTEX
  5
573
  8
0
  6
CONTINUOUS
 62
     7
 10
-853.4805943259
 20
346.4643718684
 30
0.0
  0
VERTEX
  5
574
  8
0
  6
CONTINUOUS
 62
     7
 10
-853.2660325059
 20
346.4406790221
 30
0.0
  0
VERTEX
  5
575
  8
0
  6
CONTINUOUS
 62
     7
 10
-853.1089444646
 20
346.3621350015
 30
0.0
  0
VERTEX
  5
576
  8
0
  6
CONTINUOUS
 62
     7
 10
-853.0127425679
 20
346.2225260223
 30
0.0
  0
VERTEX
  5
577
  8
0
  6
CONTINUOUS
 62
     7
 10
-852.9806007632
 20
346.0250260318
 30
0.0
  0
VERTEX
  5
578
  8
0
  6
CONTINUOUS
 62
     7
 10
-852.9806007632
 20
346.0250260318
 30
0.0
  0
SEQEND
  5
579
  8
0
  6
CONTINUOUS
 62
     7
  0
LINE
  5
1AD
  8
0
  6
CONTINUOUS
 62
     7
 10
-853.4805943259
 20
347.9643823589
 30
0.0
 11
-853.4805943259
 21
346.4643718684
 31
0.0
  0
LINE
  5
1AE
  8
0
  6
CONTINUOUS
 62
     7
 10
-855.4805983791
 20
-45.5356178796
 30
0.0
 11
-855.4805983791
 21
-46.0356263434
 31
0.0
  0
LINE
  5
1AF
  8
0
  6
CONTINUOUS
 62
     7
 10
-855.4805983791
 20
-46.0356263434
 30
0.0
 11
-856.9805939683
 21
-46.0356263434
 31
0.0
  0
LINE
  5
1B0
  8
0
  6
CONTINUOUS
 62
     7
 10
-856.9805939683
 20
-45.5356178796
 30
0.0
 11
-856.9805939683
 21
-46.0356263434
 31
0.0
  0
LINE
  5
1B1
  8
0
  6
CONTINUOUS
 62
     7
 10
-853.7128289231
 20
-47.5356219327
 30
0.0
 11
-853.7128289231
 21
-49.0356324231
 31
0.0
  0
LINE
  5
1B2
  8
0
  6
CONTINUOUS
 62
     7
 10
-853.7128289231
 20
-49.0356324231
 30
0.0
 11
-853.4805943259
 21
-49.0356324231
 31
0.0
  0
LINE
  5
1B3
  8
0
  6
CONTINUOUS
 62
     7
 10
-853.7128289231
 20
-47.5356219327
 30
0.0
 11
-853.4805943259
 21
-47.5356219327
 31
0.0
  0
LINE
  5
1B4
  8
0
  6
CONTINUOUS
 62
     7
 10
-853.7128289231
 20
347.9643823589
 30
0.0
 11
-853.7128289231
 21
346.4643718684
 31
0.0
  0
LINE
  5
1B5
  8
0
  6
CONTINUOUS
 62
     7
 10
-853.7128289231
 20
346.4643718684
 30
0.0
 11
-853.4805943259
 21
346.4643718684
 31
0.0
  0
LINE
  5
1B6
  8
0
  6
CONTINUOUS
 62
     7
 10
-853.7128289231
 20
347.9643823589
 30
0.0
 11
-853.4805943259
 21
347.9643823589
 31
0.0
  0
LINE
  5
1B7
  8
0
  6
CONTINUOUS
 62
     7
 10
-855.4805983791
 20
344.9643762792
 30
0.0
 11
-856.9805939683
 21
344.9643762792
 31
0.0
  0
LINE
  5
1B8
  8
0
  6
CONTINUOUS
 62
     7
 10
-856.9805939683
 20
344.4643678153
 30
0.0
 11
-856.9805939683
 21
344.9643762792
 31
0.0
  0
LINE
  5
1B9
  8
0
  6
CONTINUOUS
 62
     7
 10
-855.4805983791
 20
344.4643678153
 30
0.0
 11
-855.4805983791
 21
344.9643762792
 31
0.0
  0
LINE
  5
1BA
  8
0
  6
CONTINUOUS
 62
     7
 10
-853.9805878886
 20
-47.5356219327
 30
0.0
 11
-853.9805878886
 21
-49.0356324231
 31
0.0
  0
LINE
  5
1BB
  8
0
  6
CONTINUOUS
 62
     7
 10
-853.9805878886
 20
-49.0356324231
 30
0.0
 11
-853.7128289231
 21
-49.0356324231
 31
0.0
  0
LINE
  5
1BC
  8
0
  6
CONTINUOUS
 62
     7
 10
-853.9805878886
 20
-47.5356219327
 30
0.0
 11
-853.7128289231
 21
-47.5356219327
 31
0.0
  0
LINE
  5
1BD
  8
0
  6
CONTINUOUS
 62
     7
 10
-853.9805878886
 20
346.4643718684
 30
0.0
 11
-853.9805878886
 21
347.9643823589
 31
0.0
  0
LINE
  5
1BE
  8
0
  6
CONTINUOUS
 62
     7
 10
-853.9805878886
 20
346.4643718684
 30
0.0
 11
-853.7128289231
 21
346.4643718684
 31
0.0
  0
LINE
  5
1BF
  8
0
  6
CONTINUOUS
 62
     7
 10
-853.9805878886
 20
347.9643823589
 30
0.0
 11
-853.7128289231
 21
347.9643823589
 31
0.0
  0
ARC
  5
1C0
  8
0
  6
CONTINUOUS
 62
     7
 10
-853.9805810832
 20
-46.035619538
 30
0.0
 40
3.000012885128394
 50
180.0001299739
 51
269.9998700261
  0
ARC
  5
1C1
  8
0
  6
CONTINUOUS
 62
     7
 10
-853.9806040192
 20
-46.0356275729
 30
0.0
 40
1.499994359829077
 50
179.9999530359
 51
270.0006161454
  0
ARC
  5
1C2
  8
0
  6
CONTINUOUS
 62
     7
 10
-853.9805810832
 20
344.9643694737
 30
0.0
 40
3.000012885128387
 50
90.0001299739
 51
179.9998700261
  0
ARC
  5
1C3
  8
0
  6
CONTINUOUS
 62
     7
 10
-853.9806040192
 20
344.9643775087
 30
0.0
 40
1.499994359829077
 50
89.9993838546
 51
180.0000469642
  0
LINE
  5
1C4
  8
0
  6
CONTINUOUS
 62
     7
 10
-635.0305947476
 20
349.7643681253
 30
0.0
 11
-631.7805946806
 21
349.7643681253
 31
0.0
  0
LINE
  5
1C5
  8
0
  6
CONTINUOUS
 62
     7
 10
-631.7805946806
 20
353.164380976
 30
0.0
 11
-635.0305947476
 21
353.164380976
 31
0.0
  0
LINE
  5
1C6
  8
0
  6
CONTINUOUS
 62
     7
 10
-631.7805946806
 20
353.164380976
 30
0.0
 11
-631.7805946806
 21
349.7643681253
 31
0.0
  0
LINE
  5
1C7
  8
0
  6
CONTINUOUS
 62
     7
 10
-635.0305947476
 20
353.4643711532
 30
0.0
 11
-632.0805951023
 21
353.4643711532
 31
0.0
  0
LINE
  5
1C8
  8
0
  6
CONTINUOUS
 62
     7
 10
-632.0805951023
 20
353.4643711532
 30
0.0
 11
-631.7805946806
 21
353.164380976
 31
0.0
  0
LINE
  5
1C9
  8
0
  6
CONTINUOUS
 62
     7
 10
-632.0805951023
 20
349.4643779481
 30
0.0
 11
-635.0305947476
 21
349.4643779481
 31
0.0
  0
LINE
  5
1CA
  8
0
  6
CONTINUOUS
 62
     7
 10
-632.0805951023
 20
349.4643779481
 30
0.0
 11
-631.7805946806
 21
349.7643681253
 31
0.0
  0
LINE
  5
1CB
  8
0
  6
CONTINUOUS
 62
     7
 10
-635.0305947476
 20
349.4643779481
 30
0.0
 11
-670.9783860484
 21
349.4643779481
 31
0.0
  0
LINE
  5
1CC
  8
0
  6
CONTINUOUS
 62
     7
 10
-670.9783860484
 20
349.7643681253
 30
0.0
 11
-635.0305947476
 21
349.7643681253
 31
0.0
  0
LINE
  5
1CD
  8
0
  6
CONTINUOUS
 62
     7
 10
-635.0305947476
 20
353.164380976
 30
0.0
 11
-670.9783860484
 21
353.164380976
 31
0.0
  0
LINE
  5
1CE
  8
0
  6
CONTINUOUS
 62
     7
 10
-670.9783860484
 20
353.4643711532
 30
0.0
 11
-635.0305947476
 21
353.4643711532
 31
0.0
  0
LINE
  5
1CF
  8
0
  6
CONTINUOUS
 62
     7
 10
-673.1882338413
 20
349.7643681253
 30
0.0
 11
-670.9783860484
 21
349.7643681253
 31
0.0
  0
LINE
  5
1D0
  8
0
  6
CONTINUOUS
 62
     7
 10
-670.9783860484
 20
353.164380976
 30
0.0
 11
-673.1882338413
 21
353.164380976
 31
0.0
  0
LINE
  5
1D1
  8
0
  6
CONTINUOUS
 62
     7
 10
-672.9842481205
 20
353.4643711532
 30
0.0
 11
-670.9783860484
 21
353.4643711532
 31
0.0
  0
LINE
  5
1D2
  8
0
  6
CONTINUOUS
 62
     7
 10
-670.9783860484
 20
349.4643779481
 30
0.0
 11
-672.9842481205
 21
349.4643779481
 31
0.0
  0
LINE
  5
1D3
  8
0
  6
CONTINUOUS
 62
     7
 10
-673.1882338413
 20
353.164380976
 30
0.0
 11
-705.5402678439
 21
353.164380976
 31
0.0
  0
LINE
  5
1D4
  8
0
  6
CONTINUOUS
 62
     7
 10
-705.336282123
 20
353.4643711532
 30
0.0
 11
-672.9842481205
 21
353.4643711532
 31
0.0
  0
LINE
  5
1D5
  8
0
  6
CONTINUOUS
 62
     7
 10
-705.5402678439
 20
349.7643681253
 30
0.0
 11
-673.1882338413
 21
349.7643681253
 31
0.0
  0
LINE
  5
1D6
  8
0
  6
CONTINUOUS
 62
     7
 10
-672.9842481205
 20
349.4643779481
 30
0.0
 11
-694.9983109721
 21
349.4643779481
 31
0.0
  0
LINE
  5
1D7
  8
0
  6
CONTINUOUS
 62
     7
 10
-707.7805940994
 20
349.7643681253
 30
0.0
 11
-705.5402678439
 21
349.7643681253
 31
0.0
  0
LINE
  5
1D8
  8
0
  6
CONTINUOUS
 62
     7
 10
-705.5402678439
 20
353.164380976
 30
0.0
 11
-707.7805940994
 21
353.164380976
 31
0.0
  0
LINE
  5
1D9
  8
0
  6
CONTINUOUS
 62
     7
 10
-707.4805964717
 20
353.4643711532
 30
0.0
 11
-705.336282123
 21
353.4643711532
 31
0.0
  0
LINE
  5
1DA
  8
0
  6
CONTINUOUS
 62
     7
 10
-635.0305947476
 20
-54.2356310403
 30
0.0
 11
-631.7805946806
 21
-54.2356310403
 31
0.0
  0
LINE
  5
1DB
  8
0
  6
CONTINUOUS
 62
     7
 10
-631.7805946806
 20
-50.8356181895
 30
0.0
 11
-635.0305947476
 21
-50.8356181895
 31
0.0
  0
LINE
  5
1DC
  8
0
  6
CONTINUOUS
 62
     7
 10
-631.7805946806
 20
-50.8356181895
 30
0.0
 11
-631.7805946806
 21
-54.2356310403
 31
0.0
  0
LINE
  5
1DD
  8
0
  6
CONTINUOUS
 62
     7
 10
-632.0805951023
 20
-54.5356212174
 30
0.0
 11
-635.0305947476
 21
-54.5356212174
 31
0.0
  0
LINE
  5
1DE
  8
0
  6
CONTINUOUS
 62
     7
 10
-632.0805951023
 20
-54.5356212174
 30
0.0
 11
-631.7805946806
 21
-54.2356310403
 31
0.0
  0
LINE
  5
1DF
  8
0
  6
CONTINUOUS
 62
     7
 10
-635.0305947476
 20
-50.5356280123
 30
0.0
 11
-632.0805951023
 21
-50.5356280123
 31
0.0
  0
LINE
  5
1E0
  8
0
  6
CONTINUOUS
 62
     7
 10
-632.0805951023
 20
-50.5356280123
 30
0.0
 11
-631.7805946806
 21
-50.8356181895
 31
0.0
  0
LINE
  5
1E1
  8
0
  6
CONTINUOUS
 62
     7
 10
-670.9783860484
 20
-54.2356310403
 30
0.0
 11
-635.0305947476
 21
-54.2356310403
 31
0.0
  0
LINE
  5
1E2
  8
0
  6
CONTINUOUS
 62
     7
 10
-635.0305947476
 20
-50.8356181895
 30
0.0
 11
-670.9783860484
 21
-50.8356181895
 31
0.0
  0
LINE
  5
1E3
  8
0
  6
CONTINUOUS
 62
     7
 10
-635.0305947476
 20
-54.5356212174
 30
0.0
 11
-670.9783860484
 21
-54.5356212174
 31
0.0
  0
LINE
  5
1E4
  8
0
  6
CONTINUOUS
 62
     7
 10
-670.9783860484
 20
-50.5356280123
 30
0.0
 11
-635.0305947476
 21
-50.5356280123
 31
0.0
  0
LINE
  5
1E5
  8
0
  6
CONTINUOUS
 62
     7
 10
-673.1882338413
 20
-54.2356310403
 30
0.0
 11
-670.9783860484
 21
-54.2356310403
 31
0.0
  0
LINE
  5
1E6
  8
0
  6
CONTINUOUS
 62
     7
 10
-670.9783860484
 20
-50.8356181895
 30
0.0
 11
-673.1882338413
 21
-50.8356181895
 31
0.0
  0
LINE
  5
1E7
  8
0
  6
CONTINUOUS
 62
     7
 10
-672.9842481205
 20
-50.5356280123
 30
0.0
 11
-670.9783860484
 21
-50.5356280123
 31
0.0
  0
LINE
  5
1E8
  8
0
  6
CONTINUOUS
 62
     7
 10
-670.9783860484
 20
-54.5356212174
 30
0.0
 11
-672.9842481205
 21
-54.5356212174
 31
0.0
  0
LINE
  5
1E9
  8
0
  6
CONTINUOUS
 62
     7
 10
-673.1882338413
 20
-50.8356181895
 30
0.0
 11
-705.5402678439
 21
-50.8356181895
 31
0.0
  0
LINE
  5
1EA
  8
0
  6
CONTINUOUS
 62
     7
 10
-694.9983109721
 20
-50.5356280123
 30
0.0
 11
-672.9842481205
 21
-50.5356280123
 31
0.0
  0
LINE
  5
1EB
  8
0
  6
CONTINUOUS
 62
     7
 10
-705.5402678439
 20
-54.2356310403
 30
0.0
 11
-673.1882338413
 21
-54.2356310403
 31
0.0
  0
LINE
  5
1EC
  8
0
  6
CONTINUOUS
 62
     7
 10
-672.9842481205
 20
-54.5356212174
 30
0.0
 11
-705.336282123
 21
-54.5356212174
 31
0.0
  0
LINE
  5
1ED
  8
0
  6
CONTINUOUS
 62
     7
 10
-705.5402678439
 20
-50.8356181895
 30
0.0
 11
-707.7805940994
 21
-50.8356181895
 31
0.0
  0
LINE
  5
1EE
  8
0
  6
CONTINUOUS
 62
     7
 10
-707.7805940994
 20
-54.2356310403
 30
0.0
 11
-705.5402678439
 21
-54.2356310403
 31
0.0
  0
LINE
  5
1EF
  8
0
  6
CONTINUOUS
 62
     7
 10
-705.336282123
 20
-54.5356212174
 30
0.0
 11
-707.4805964717
 21
-54.5356212174
 31
0.0
  0
POLYLINE
  5
1F0
  8
0
  6
CONTINUOUS
 62
     7
 66
     1
 10
0.0
 20
0.0
 30
0.0
  0
VERTEX
  5
57A
  8
0
  6
CONTINUOUS
 62
     7
 10
-856.9805939683
 20
166.0325290645
 30
0.0
  0
VERTEX
  5
57B
  8
0
  6
CONTINUOUS
 62
     7
 10
-858.8636686095
 20
165.7171646143
 30
0.0
  0
VERTEX
  5
57C
  8
0
  6
CONTINUOUS
 62
     7
 10
-860.3272457608
 20
165.3854368264
 30
0.0
  0
SEQEND
  5
57D
  8
0
  6
CONTINUOUS
 62
     7
  0
LINE
  5
1F1
  8
0
  6
CONTINUOUS
 62
     7
 10
-856.9805939683
 20
164.4643746326
 30
0.0
 11
-859.023632575
 21
164.4643746326
 31
0.0
  0
ARC
  5
1F2
  8
0
  6
CONTINUOUS
 62
     7
 10
-859.0235943852
 20
163.4644121579
 30
0.0
 40
0.9999615440999976
 50
90.0021881959
 51
170.7018156392
  0
ARC
  5
1F3
  8
0
  6
CONTINUOUS
 62
     7
 10
-773.480594687
 20
149.4643749679
 30
0.0
 40
87.68108752478975
 50
170.7052868851
 51
189.2946613374
  0
ARC
  5
1F4
  8
0
  6
CONTINUOUS
 62
     7
 10
-859.0235794117
 20
135.4643578688
 30
0.0
 40
0.9999816342882453
 50
189.2946203141
 51
270.0003690724
  0
LINE
  5
1F5
  8
0
  6
CONTINUOUS
 62
     7
 10
-856.9805939683
 20
134.4643753032
 30
0.0
 11
-859.0235729703
 21
134.4643753032
 31
0.0
  0
LINE
  5
1F6
  8
0
  6
CONTINUOUS
 62
     7
 10
-856.9805939683
 20
132.8962469483
 30
0.0
 11
-856.9805939683
 21
134.4643753032
 31
0.0
  0
POLYLINE
  5
1F7
  8
0
  6
CONTINUOUS
 62
     7
 66
     1
 10
0.0
 20
0.0
 30
0.0
  0
VERTEX
  5
57E
  8
0
  6
CONTINUOUS
 62
     7
 10
-860.3272457608
 20
133.543314972
 30
0.0
  0
VERTEX
  5
57F
  8
0
  6
CONTINUOUS
 62
     7
 10
-858.4607263097
 20
133.1336820508
 30
0.0
  0
VERTEX
  5
580
  8
0
  6
CONTINUOUS
 62
     7
 10
-856.9805939683
 20
132.8962469483
 30
0.0
  0
SEQEND
  5
581
  8
0
  6
CONTINUOUS
 62
     7
  0
LINE
  5
1F8
  8
0
  6
CONTINUOUS
 62
     7
 10
-858.0101747998
 20
164.4643746326
 30
0.0
 11
-858.0101747998
 21
163.4643754
 31
0.0
  0
LINE
  5
1F9
  8
0
  6
CONTINUOUS
 62
     7
 10
-858.0101747998
 20
134.4643753032
 30
0.0
 11
-858.0101747998
 21
135.4643745358
 31
0.0
  0
POLYLINE
  5
1FA
  8
0
  6
CONTINUOUS
 62
     7
 66
     1
 10
0.0
 20
0.0
 30
0.0
  0
VERTEX
  5
582
  8
0
  6
CONTINUOUS
 62
     7
 10
-856.9805939683
 20
169.0503271306
 30
0.0
  0
VERTEX
  5
583
  8
0
  6
CONTINUOUS
 62
     7
 10
-858.7431033143
 20
168.7861071909
 30
0.0
  0
VERTEX
  5
584
  8
0
  6
CONTINUOUS
 62
     7
 10
-860.1158727893
 20
168.5119574899
 30
0.0
  0
SEQEND
  5
585
  8
0
  6
CONTINUOUS
 62
     7
  0
POLYLINE
  5
1FB
  8
0
  6
CONTINUOUS
 62
     7
 66
     1
 10
0.0
 20
0.0
 30
0.0
  0
VERTEX
  5
586
  8
0
  6
CONTINUOUS
 62
     7
 10
-860.3272457608
 20
165.3854368264
 30
0.0
  0
VERTEX
  5
587
  8
0
  6
CONTINUOUS
 62
     7
 10
-860.3803385982
 20
165.3951728726
 30
0.0
  0
VERTEX
  5
588
  8
0
  6
CONTINUOUS
 62
     7
 10
-860.431717802
 20
165.4045904065
 30
0.0
  0
VERTEX
  5
589
  8
0
  6
CONTINUOUS
 62
     7
 10
-860.4796846399
 20
165.4133820916
 30
0.0
  0
VERTEX
  5
58A
  8
0
  6
CONTINUOUS
 62
     7
 10
-860.5226595887
 20
165.4212629432
 30
0.0
  0
VERTEX
  5
58B
  8
0
  6
CONTINUOUS
 62
     7
 10
-860.5592568406
 20
165.427972191
 30
0.0
  0
VERTEX
  5
58C
  8
0
  6
CONTINUOUS
 62
     7
 10
-860.5882843026
 20
165.4332919056
 30
0.0
  0
VERTEX
  5
58D
  8
0
  6
CONTINUOUS
 62
     7
 10
-860.6087883004
 20
165.4370507235
 30
0.0
  0
VERTEX
  5
58E
  8
0
  6
CONTINUOUS
 62
     7
 10
-860.6200833806
 20
165.4391219849
 30
0.0
  0
SEQEND
  5
58F
  8
0
  6
CONTINUOUS
 62
     7
  0
ARC
  5
1FC
  8
0
  6
CONTINUOUS
 62
     7
 10
-870.6813219812
 20
167.8559273467
 30
0.0
 40
10.34743786325348
 50
346.4929160934
 51
2.3650601821
  0
ARC
  5
1FD
  8
0
  6
CONTINUOUS
 62
     7
 10
-860.0487036673
 20
168.2185937608
 30
0.0
 40
0.3009514625546971
 50
102.8964205731
 51
167.6565558573
  0
ARC
  5
1FE
  8
0
  6
CONTINUOUS
 62
     7
 10
-869.8070813195
 20
131.1580960932
 30
0.0
 40
9.47823675227781
 50
356.9017987782
 51
14.2402249463
  0
POLYLINE
  5
1FF
  8
0
  6
CONTINUOUS
 62
     7
 66
     1
 10
0.0
 20
0.0
 30
0.0
  0
VERTEX
  5
590
  8
0
  6
CONTINUOUS
 62
     7
 10
-860.3272457608
 20
133.543314972
 30
0.0
  0
VERTEX
  5
591
  8
0
  6
CONTINUOUS
 62
     7
 10
-860.3803385982
 20
133.5335789258
 30
0.0
  0
VERTEX
  5
592
  8
0
  6
CONTINUOUS
 62
     7
 10
-860.431717802
 20
133.5241613919
 30
0.0
  0
VERTEX
  5
593
  8
0
  6
CONTINUOUS
 62
     7
 10
-860.4796846399
 20
133.5153678442
 30
0.0
  0
VERTEX
  5
594
  8
0
  6
CONTINUOUS
 62
     7
 10
-860.5226595887
 20
133.5074888552
 30
0.0
  0
VERTEX
  5
595
  8
0
  6
CONTINUOUS
 62
     7
 10
-860.5592568406
 20
133.5007796074
 30
0.0
  0
VERTEX
  5
596
  8
0
  6
CONTINUOUS
 62
     7
 10
-860.5882843026
 20
133.4954580302
 30
0.0
  0
VERTEX
  5
597
  8
0
  6
CONTINUOUS
 62
     7
 10
-860.6087883004
 20
133.4917010749
 30
0.0
  0
VERTEX
  5
598
  8
0
  6
CONTINUOUS
 62
     7
 10
-860.6200833806
 20
133.4896279509
 30
0.0
  0
SEQEND
  5
599
  8
0
  6
CONTINUOUS
 62
     7
  0
LINE
  5
200
  8
0
  6
CONTINUOUS
 62
     7
 10
-862.0667328128
 20
136.7071369673
 30
0.0
 11
-862.0689381847
 21
136.7683909843
 31
0.0
  0
ARC
  5
201
  8
0
  6
CONTINUOUS
 62
     7
 10
-862.3636673792
 20
162.2643584108
 30
0.0
 40
0.300010265033838
 50
269.9998333312
 51
351.8086252301
  0
LINE
  5
202
  8
0
  6
CONTINUOUS
 62
     7
 10
-862.3636682519
 20
136.9643747816
 30
0.0
 11
-862.3652030715
 21
137.0055895308
 31
0.0
  0
LINE
  5
203
  8
0
  6
CONTINUOUS
 62
     7
 10
-862.8460039386
 20
143.8804144049
 30
0.0
 11
-862.8460039386
 21
155.0483411188
 31
0.0
  0
LINE
  5
204
  8
0
  6
CONTINUOUS
 62
     7
 10
-812.5315030107
 20
347.9643823589
 30
0.0
 11
-812.5315030107
 21
347.9636671031
 31
0.0
  0
LINE
  5
205
  8
0
  6
CONTINUOUS
 62
     7
 10
-778.5314937123
 20
347.9643823589
 30
0.0
 11
-778.5966266879
 21
347.9636671031
 31
0.0
  0
LINE
  5
206
  8
0
  6
CONTINUOUS
 62
     7
 10
-822.5315083751
 20
347.9636671031
 30
0.0
 11
-822.5315083751
 21
347.9643823589
 31
0.0
  0
LINE
  5
207
  8
0
  6
CONTINUOUS
 62
     7
 10
-832.78060155
 20
-50.5356280123
 30
0.0
 11
-833.2805951127
 21
-50.5356280123
 31
0.0
  0
LINE
  5
208
  8
0
  6
CONTINUOUS
 62
     7
 10
-819.2805965432
 20
-52.5356320655
 30
0.0
 11
-833.2805951127
 21
-52.5356320655
 31
0.0
  0
LINE
  5
209
  8
0
  6
CONTINUOUS
 62
     7
 10
-837.7805967817
 20
32.4643762792
 30
0.0
 11
-837.7805967817
 21
-22.5356308734
 31
0.0
  0
LINE
  5
20A
  8
0
  6
CONTINUOUS
 62
     7
 10
-837.7805967817
 20
32.4643762792
 30
0.0
 11
-835.7805927285
 21
32.4643762792
 31
0.0
  0
LINE
  5
20B
  8
0
  6
CONTINUOUS
 62
     7
 10
-837.7805967817
 20
-22.5356308734
 30
0.0
 11
-835.7805927285
 21
-22.5356308734
 31
0.0
  0
LINE
  5
20C
  8
0
  6
CONTINUOUS
 62
     7
 10
-840.0589396247
 20
32.4643762792
 30
0.0
 11
-837.7805967817
 21
32.4643762792
 31
0.0
  0
LINE
  5
20D
  8
0
  6
CONTINUOUS
 62
     7
 10
-840.0589396247
 20
-22.5356308734
 30
0.0
 11
-837.7805967817
 21
-22.5356308734
 31
0.0
  0
LINE
  5
20E
  8
0
  6
CONTINUOUS
 62
     7
 10
-841.9805933723
 20
32.4643762792
 30
0.0
 11
-840.0589396247
 21
32.4643762792
 31
0.0
  0
LINE
  5
20F
  8
0
  6
CONTINUOUS
 62
     7
 10
-841.9805933723
 20
-22.5356308734
 30
0.0
 11
-840.0589396247
 21
-22.5356308734
 31
0.0
  0
LINE
  5
210
  8
0
  6
CONTINUOUS
 62
     7
 10
-837.7805967817
 20
321.4643808091
 30
0.0
 11
-837.7805967817
 21
266.4643736566
 31
0.0
  0
LINE
  5
211
  8
0
  6
CONTINUOUS
 62
     7
 10
-837.7805967817
 20
321.4643808091
 30
0.0
 11
-835.7805927285
 21
321.4643808091
 31
0.0
  0
LINE
  5
212
  8
0
  6
CONTINUOUS
 62
     7
 10
-837.7805967817
 20
266.4643736566
 30
0.0
 11
-835.7805927285
 21
266.4643736566
 31
0.0
  0
LINE
  5
213
  8
0
  6
CONTINUOUS
 62
     7
 10
-840.0589396247
 20
321.4643808091
 30
0.0
 11
-837.7805967817
 21
321.4643808091
 31
0.0
  0
LINE
  5
214
  8
0
  6
CONTINUOUS
 62
     7
 10
-840.0589396247
 20
266.4643736566
 30
0.0
 11
-837.7805967817
 21
266.4643736566
 31
0.0
  0
LINE
  5
215
  8
0
  6
CONTINUOUS
 62
     7
 10
-841.9805933723
 20
321.4643808091
 30
0.0
 11
-840.0589396247
 21
321.4643808091
 31
0.0
  0
LINE
  5
216
  8
0
  6
CONTINUOUS
 62
     7
 10
-841.9805933723
 20
266.4643736566
 30
0.0
 11
-840.0589396247
 21
266.4643736566
 31
0.0
  0
ARC
  5
217
  8
0
  6
CONTINUOUS
 62
     7
 10
-832.2824068547
 20
342.9636678611
 30
0.0
 40
4.999999999973037
 50
90.0
 51
95.7183052343
  0
LINE
  5
218
  8
0
  6
CONTINUOUS
 62
     7
 10
-672.7805958131
 20
347.9636671031
 30
0.0
 11
-832.2824110278
 21
347.9636671031
 31
0.0
  0
LINE
  5
219
  8
0
  6
CONTINUOUS
 62
     7
 10
-832.2824110278
 20
-49.0349171674
 30
0.0
 11
-672.7805958131
 21
-49.0349171674
 31
0.0
  0
ARC
  5
21A
  8
0
  6
CONTINUOUS
 62
     7
 10
-832.2824068547
 20
-44.0349179254
 30
0.0
 40
5.000000000006445
 50
264.2816947658
 51
270.0
  0
ARC
  5
21B
  8
0
  6
CONTINUOUS
 62
     7
 10
-832.9746039854
 20
-44.7912977998
 30
0.0
 40
4.223192763978435
 50
230.1789778611
 51
272.6329449098
  0
LINE
  5
21C
  8
0
  6
CONTINUOUS
 62
     7
 10
-835.6791009196
 20
-48.0349151408
 30
0.0
 11
-835.7805927285
 21
-47.5367246186
 31
0.0
  0
LINE
  5
21D
  8
0
  6
CONTINUOUS
 62
     7
 10
-835.7805927285
 20
-47.4918423211
 30
0.0
 11
-835.7805927285
 21
346.5361507619
 31
0.0
  0
POLYLINE
  5
21E
  8
0
  6
CONTINUOUS
 62
     7
 66
     1
 10
0.0
 20
0.0
 30
0.0
  0
VERTEX
  5
59A
  8
0
  6
CONTINUOUS
 62
     7
 10
-835.7805927285
 20
346.5361507619
 30
0.0
  0
VERTEX
  5
59B
  8
0
  6
CONTINUOUS
 62
     7
 10
-835.6032093057
 20
347.0726372684
 30
0.0
  0
VERTEX
  5
59C
  8
0
  6
CONTINUOUS
 62
     7
 10
-835.0849618205
 20
347.4685164178
 30
0.0
  0
VERTEX
  5
59D
  8
0
  6
CONTINUOUS
 62
     7
 10
-834.2782129535
 20
347.7105559791
 30
0.0
  0
VERTEX
  5
59E
  8
0
  6
CONTINUOUS
 62
     7
 10
-833.6169441232
 20
347.8263976062
 30
0.0
  0
VERTEX
  5
59F
  8
0
  6
CONTINUOUS
 62
     7
 10
-832.78060155
 20
347.9387821639
 30
0.0
  0
SEQEND
  5
5A0
  8
0
  6
CONTINUOUS
 62
     7
  0
LINE
  5
21F
  8
0
  6
CONTINUOUS
 62
     7
 10
-832.78060155
 20
-50.5356280123
 30
0.0
 11
-832.78060155
 21
-49.0356324231
 31
0.0
  0
LINE
  5
220
  8
0
  6
CONTINUOUS
 62
     7
 10
-832.2824110278
 20
-49.0356324231
 30
0.0
 11
-832.78060155
 21
-49.0356324231
 31
0.0
  0
LINE
  5
221
  8
0
  6
CONTINUOUS
 62
     7
 10
-832.2824110278
 20
-50.5356280123
 30
0.0
 11
-832.78060155
 21
-50.5356280123
 31
0.0
  0
LINE
  5
222
  8
0
  6
CONTINUOUS
 62
     7
 10
-832.78060155
 20
347.9643823589
 30
0.0
 11
-832.78060155
 21
349.4643779481
 31
0.0
  0
LINE
  5
223
  8
0
  6
CONTINUOUS
 62
     7
 10
-832.78060155
 20
349.4643779481
 30
0.0
 11
-832.2824110278
 21
349.4643779481
 31
0.0
  0
LINE
  5
224
  8
0
  6
CONTINUOUS
 62
     7
 10
-832.78060155
 20
347.9643823589
 30
0.0
 11
-832.2824110278
 21
347.9643823589
 31
0.0
  0
LINE
  5
225
  8
0
  6
CONTINUOUS
 62
     7
 10
-672.7805958131
 20
-49.0356324231
 30
0.0
 11
-832.2824110278
 21
-49.0356324231
 31
0.0
  0
LINE
  5
226
  8
0
  6
CONTINUOUS
 62
     7
 10
-694.9983109721
 20
-50.5356280123
 30
0.0
 11
-832.2824110278
 21
-50.5356280123
 31
0.0
  0
LINE
  5
227
  8
0
  6
CONTINUOUS
 62
     7
 10
-832.2824110278
 20
349.4643779481
 30
0.0
 11
-694.9983109721
 21
349.4643779481
 31
0.0
  0
LINE
  5
228
  8
0
  6
CONTINUOUS
 62
     7
 10
-832.2824110278
 20
347.9643823589
 30
0.0
 11
-672.7805958131
 21
347.9643823589
 31
0.0
  0
POLYLINE
  5
229
  8
0
  6
CONTINUOUS
 62
     7
 66
     1
 10
0.0
 20
0.0
 30
0.0
  0
VERTEX
  5
5A1
  8
0
  6
CONTINUOUS
 62
     7
 10
-833.2753350028
 20
-48.9435581481
 30
0.0
  0
VERTEX
  5
5A2
  8
0
  6
CONTINUOUS
 62
     7
 10
-833.1987728366
 20
-48.9761618888
 30
0.0
  0
VERTEX
  5
5A3
  8
0
  6
CONTINUOUS
 62
     7
 10
-832.78060155
 20
-49.0356324231
 30
0.0
  0
SEQEND
  5
5A4
  8
0
  6
CONTINUOUS
 62
     7
  0
ARC
  5
22A
  8
0
  6
CONTINUOUS
 62
     7
 10
-832.7805887479
 20
-47.5356240317
 30
0.0
 40
3.000003980652632
 50
179.9999599112
 51
269.9997554975
  0
LINE
  5
22B
  8
0
  6
CONTINUOUS
 62
     7
 10
-835.6791009196
 20
347.2380848611
 30
0.0
 11
-835.5085720309
 21
347.1925618137
 31
0.0
  0
ARC
  5
22C
  8
0
  6
CONTINUOUS
 62
     7
 10
-832.7805969751
 20
346.4643897381
 30
0.0
 40
2.99998820999842
 50
90.0000873758
 51
165.0545443187
  0
POLYLINE
  5
22D
  8
0
  6
CONTINUOUS
 62
     7
 66
     1
 10
0.0
 20
0.0
 30
0.0
  0
VERTEX
  5
5A5
  8
0
  6
CONTINUOUS
 62
     7
 10
-832.78060155
 20
347.9643823589
 30
0.0
  0
VERTEX
  5
5A6
  8
0
  6
CONTINUOUS
 62
     7
 10
-833.1297208556
 20
347.9231806482
 30
0.0
  0
VERTEX
  5
5A7
  8
0
  6
CONTINUOUS
 62
     7
 10
-833.277942706
 20
347.871950456
 30
0.0
  0
SEQEND
  5
5A8
  8
0
  6
CONTINUOUS
 62
     7
  0
LINE
  5
22E
  8
0
  6
CONTINUOUS
 62
     7
 10
-835.6791158208
 20
347.2380848611
 30
0.0
 11
-835.7805927285
 21
346.4643718684
 31
0.0
  0
LINE
  5
22F
  8
0
  6
CONTINUOUS
 62
     7
 10
-835.7805927285
 20
-47.5356219327
 30
0.0
 11
-835.7805927285
 21
-47.4918423211
 31
0.0
  0
LINE
  5
230
  8
0
  6
CONTINUOUS
 62
     7
 10
-837.4893535861
 20
326.9800754274
 30
0.0
 11
-837.6981188544
 21
325.4946829761
 31
0.0
  0
LINE
  5
231
  8
0
  6
CONTINUOUS
 62
     7
 10
-837.4893535861
 20
326.9800754274
 30
0.0
 11
-841.9805933723
 21
327.6112737144
 31
0.0
  0
LINE
  5
232
  8
0
  6
CONTINUOUS
 62
     7
 10
-841.9805933723
 20
326.0965408767
 30
0.0
 11
-837.6981188544
 21
325.4946829761
 31
0.0
  0
LINE
  5
233
  8
0
  6
CONTINUOUS
 62
     7
 10
-841.9805933723
 20
-28.8827208792
 30
0.0
 11
-837.4893535861
 21
-28.2453237092
 31
0.0
  0
POLYLINE
  5
234
  8
0
  6
CONTINUOUS
 62
     7
 66
     1
 10
0.0
 20
0.0
 30
0.0
  0
VERTEX
  5
5A9
  8
0
  6
CONTINUOUS
 62
     7
 10
-836.2983931789
 20
-28.4030375993
 30
0.0
  0
VERTEX
  5
5AA
  8
0
  6
CONTINUOUS
 62
     7
 10
-835.9161634931
 20
-28.9135513818
 30
0.0
  0
VERTEX
  5
5AB
  8
0
  6
CONTINUOUS
 62
     7
 10
-835.7805927285
 20
-29.536732844
 30
0.0
  0
SEQEND
  5
5AC
  8
0
  6
CONTINUOUS
 62
     7
  0
POLYLINE
  5
235
  8
0
  6
CONTINUOUS
 62
     7
 66
     1
 10
0.0
 20
0.0
 30
0.0
  0
VERTEX
  5
5AD
  8
0
  6
CONTINUOUS
 62
     7
 10
-835.7805927285
 20
328.4654827798
 30
0.0
  0
VERTEX
  5
5AE
  8
0
  6
CONTINUOUS
 62
     7
 10
-835.9161634931
 20
327.8423013175
 30
0.0
  0
VERTEX
  5
5AF
  8
0
  6
CONTINUOUS
 62
     7
 10
-836.2983931789
 20
327.331787535
 30
0.0
  0
SEQEND
  5
5B0
  8
0
  6
CONTINUOUS
 62
     7
  0
POLYLINE
  5
236
  8
0
  6
CONTINUOUS
 62
     7
 66
     1
 10
0.0
 20
0.0
 30
0.0
  0
VERTEX
  5
5B1
  8
0
  6
CONTINUOUS
 62
     7
 10
-836.5040143022
 20
325.5749853338
 30
0.0
  0
VERTEX
  5
5B2
  8
0
  6
CONTINUOUS
 62
     7
 10
-836.4309390077
 20
325.5688758577
 30
0.0
  0
VERTEX
  5
5B3
  8
0
  6
CONTINUOUS
 62
     7
 10
-836.2983931789
 20
325.5570592368
 30
0.0
  0
SEQEND
  5
5B4
  8
0
  6
CONTINUOUS
 62
     7
  0
ARC
  5
237
  8
0
  6
CONTINUOUS
 62
     7
 10
-848.7939036399
 20
114.3162108003
 30
0.0
 40
142.9914005349179
 50
274.6183503062
 51
275.0671788829
  0
ARC
  5
238
  8
0
  6
CONTINUOUS
 62
     7
 10
-841.8894489559
 20
0.1365344469
 30
0.0
 40
28.72091070378034
 50
278.8125217237
 51
281.225357256
  0
ARC
  5
239
  8
0
  6
CONTINUOUS
 62
     7
 10
-841.8891326112
 20
297.2920004563
 30
0.0
 40
28.72106436876834
 50
78.775346968
 51
81.1881644166
  0
LINE
  5
23A
  8
0
  6
CONTINUOUS
 62
     7
 10
-836.2983931789
 20
325.4636736596
 30
0.0
 11
-836.2983931789
 21
326.9636692489
 31
0.0
  0
POLYLINE
  5
23B
  8
0
  6
CONTINUOUS
 62
     7
 66
     1
 10
0.0
 20
0.0
 30
0.0
  0
VERTEX
  5
5B5
  8
0
  6
CONTINUOUS
 62
     7
 10
-835.7805927285
 20
-29.53783553
 30
0.0
  0
VERTEX
  5
5B6
  8
0
  6
CONTINUOUS
 62
     7
 10
-835.9161634931
 20
-28.786369971
 30
0.0
  0
VERTEX
  5
5B7
  8
0
  6
CONTINUOUS
 62
     7
 10
-836.2983931789
 20
-28.0349193131
 30
0.0
  0
SEQEND
  5
5B8
  8
0
  6
CONTINUOUS
 62
     7
  0
POLYLINE
  5
23C
  8
0
  6
CONTINUOUS
 62
     7
 66
     1
 10
0.0
 20
0.0
 30
0.0
  0
VERTEX
  5
5B9
  8
0
  6
CONTINUOUS
 62
     7
 10
-836.2983931789
 20
326.9636692489
 30
0.0
  0
VERTEX
  5
5BA
  8
0
  6
CONTINUOUS
 62
     7
 10
-835.9161634931
 20
327.7178766216
 30
0.0
  0
VERTEX
  5
5BB
  8
0
  6
CONTINUOUS
 62
     7
 10
-835.7805927285
 20
328.4720690931
 30
0.0
  0
SEQEND
  5
5BC
  8
0
  6
CONTINUOUS
 62
     7
  0
ARC
  5
23D
  8
0
  6
CONTINUOUS
 62
     7
 10
-837.2545600376
 20
327.9814307429
 30
0.0
 40
2.525996611197587
 50
259.8865662948
 51
292.2426905256
  0
ARC
  5
23E
  8
0
  6
CONTINUOUS
 62
     7
 10
-837.2805889672
 20
328.4654199525
 30
0.0
 40
1.499943673803198
 50
261.9995059972
 51
310.9061378494
  0
POLYLINE
  5
23F
  8
0
  6
CONTINUOUS
 62
     7
 66
     1
 10
0.0
 20
0.0
 30
0.0
  0
VERTEX
  5
5BD
  8
0
  6
CONTINUOUS
 62
     7
 10
-836.7850949058
 20
-28.1275151288
 30
0.0
  0
VERTEX
  5
5BE
  8
0
  6
CONTINUOUS
 62
     7
 10
-836.560757924
 20
-28.2207367932
 30
0.0
  0
VERTEX
  5
5BF
  8
0
  6
CONTINUOUS
 62
     7
 10
-836.2983931789
 20
-28.4030375993
 30
0.0
  0
SEQEND
  5
5C0
  8
0
  6
CONTINUOUS
 62
     7
  0
POLYLINE
  5
240
  8
0
  6
CONTINUOUS
 62
     7
 66
     1
 10
0.0
 20
0.0
 30
0.0
  0
VERTEX
  5
5C1
  8
0
  6
CONTINUOUS
 62
     7
 10
-836.7004861125
 20
327.091431805
 30
0.0
  0
VERTEX
  5
5C2
  8
0
  6
CONTINUOUS
 62
     7
 10
-837.0595146903
 20
327.1214725459
 30
0.0
  0
VERTEX
  5
5C3
  8
0
  6
CONTINUOUS
 62
     7
 10
-837.6981188544
 20
327.1740736449
 30
0.0
  0
SEQEND
  5
5C4
  8
0
  6
CONTINUOUS
 62
     7
  0
LINE
  5
241
  8
0
  6
CONTINUOUS
 62
     7
 10
-837.4893535861
 20
327.1740736449
 30
0.0
 11
-837.6981188544
 21
327.1740736449
 31
0.0
  0
LINE
  5
242
  8
0
  6
CONTINUOUS
 62
     7
 10
-837.2776080856
 20
327.1391900266
 30
0.0
 11
-837.4893535861
 21
327.1740736449
 31
0.0
  0
LINE
  5
243
  8
0
  6
CONTINUOUS
 62
     7
 10
-841.9805933723
 20
327.7818473066
 30
0.0
 11
-837.6981188544
 21
327.1740736449
 31
0.0
  0
LINE
  5
244
  8
0
  6
CONTINUOUS
 62
     7
 10
-841.9805933723
 20
327.811470815
 30
0.0
 11
-837.4893535861
 21
327.1740736449
 31
0.0
  0
LINE
  5
245
  8
0
  6
CONTINUOUS
 62
     7
 10
-835.7805927285
 20
-47.5367246186
 30
0.0
 11
-835.7805927285
 21
-47.5640086447
 31
0.0
  0
LINE
  5
246
  8
0
  6
CONTINUOUS
 62
     7
 10
-835.7805927285
 20
-47.5640086447
 30
0.0
 11
-835.7805927285
 21
-47.6074008261
 31
0.0
  0
LINE
  5
247
  8
0
  6
CONTINUOUS
 62
     7
 10
-838.0005975255
 20
316.4643706764
 30
0.0
 11
-838.0005975255
 21
311.4643754447
 31
0.0
  0
LINE
  5
248
  8
0
  6
CONTINUOUS
 62
     7
 10
-838.4005893954
 20
311.8643822158
 30
0.0
 11
-838.4005893954
 21
316.0643788064
 31
0.0
  0
LINE
  5
249
  8
0
  6
CONTINUOUS
 62
     7
 10
-838.0005975255
 20
271.4643763388
 30
0.0
 11
-838.0005975255
 21
276.464379021
 31
0.0
  0
LINE
  5
24A
  8
0
  6
CONTINUOUS
 62
     7
 10
-838.4005893954
 20
271.8643756593
 30
0.0
 11
-838.4005893954
 21
276.0643722499
 31
0.0
  0
LINE
  5
24B
  8
0
  6
CONTINUOUS
 62
     7
 10
-838.0005975255
 20
-12.535625509
 30
0.0
 11
-838.0005975255
 21
-17.5356207406
 31
0.0
  0
LINE
  5
24C
  8
0
  6
CONTINUOUS
 62
     7
 10
-838.4005893954
 20
-17.1356288707
 30
0.0
 11
-838.4005893954
 21
-12.93563228
 31
0.0
  0
LINE
  5
24D
  8
0
  6
CONTINUOUS
 62
     7
 10
-838.0005975255
 20
27.464373597
 30
0.0
 11
-838.0005975255
 21
22.4643709148
 31
0.0
  0
LINE
  5
24E
  8
0
  6
CONTINUOUS
 62
     7
 10
-838.4005893954
 20
22.8643776859
 30
0.0
 11
-838.4005893954
 21
27.0643742765
 31
0.0
  0
ARC
  5
24F
  8
0
  6
CONTINUOUS
 62
     7
 10
-1424.0083353655
 20
346.9643749679
 30
0.0
 40
2.0
 50
90.0
 51
180.0
  0
LINE
  5
250
  8
0
  6
CONTINUOUS
 62
     7
 10
-1029.0083300011
 20
348.9643694843
 30
0.0
 11
-1424.0083407299
 21
348.9643694843
 31
0.0
  0
LINE
  5
251
  8
0
  6
CONTINUOUS
 62
     7
 10
-1424.0083407299
 20
-50.0356195485
 30
0.0
 11
-1029.0083300011
 21
-50.0356195485
 31
0.0
  0
ARC
  5
252
  8
0
  6
CONTINUOUS
 62
     7
 10
-1424.0083353655
 20
-48.0356250321
 30
0.0
 40
2.0
 50
180.0
 51
270.0
  0
LINE
  5
253
  8
0
  6
CONTINUOUS
 62
     7
 10
-1426.0083298819
 20
346.9643803323
 30
0.0
 11
-1426.0083298819
 21
-48.0356303965
 31
0.0
  0
LINE
  5
254
  8
0
  6
CONTINUOUS
 62
     7
 10
-1027.0083408491
 20
-48.0356303965
 30
0.0
 11
-1027.0083408491
 21
346.9643803323
 31
0.0
  0
ARC
  5
255
  8
0
  6
CONTINUOUS
 62
     7
 10
-1029.0083353655
 20
-48.0356250321
 30
0.0
 40
2.000000000000007
 50
270.0
 51
0.0
  0
ARC
  5
256
  8
0
  6
CONTINUOUS
 62
     7
 10
-1029.0083353655
 20
346.9643749679
 30
0.0
 40
2.0
 50
0.0
 51
90.0
  0
LINE
  5
257
  8
0
  6
CONTINUOUS
 62
     7
 10
-1435.5083416836
 20
349.4643779481
 30
0.0
 11
-1435.5083416836
 21
-50.5356280123
 31
0.0
  0
LINE
  5
258
  8
0
  6
CONTINUOUS
 62
     7
 10
-1445.5083321468
 20
-50.5356280123
 30
0.0
 11
-1445.5083321468
 21
349.4643779481
 31
0.0
  0
LINE
  5
259
  8
0
  6
CONTINUOUS
 62
     7
 10
-1007.5083385841
 20
349.4643779481
 30
0.0
 11
-1007.5083385841
 21
-50.5356280123
 31
0.0
  0
LINE
  5
25A
  8
0
  6
CONTINUOUS
 62
     7
 10
-1017.5083290474
 20
-50.5356280123
 30
0.0
 11
-1017.5083290474
 21
349.4643779481
 31
0.0
  0
LINE
  5
25B
  8
0
  6
CONTINUOUS
 62
     7
 10
-1009.7583394186
 20
-50.5356280123
 30
0.0
 11
-1006.8083416359
 21
-50.5356280123
 31
0.0
  0
LINE
  5
25C
  8
0
  6
CONTINUOUS
 62
     7
 10
-1006.8083416359
 20
-50.5356280123
 30
0.0
 11
-1006.5083365576
 21
-50.8356181895
 31
0.0
  0
LINE
  5
25D
  8
0
  6
CONTINUOUS
 62
     7
 10
-1006.5083365576
 20
-50.8356181895
 30
0.0
 11
-1009.7583394186
 21
-50.8356181895
 31
0.0
  0
LINE
  5
25E
  8
0
  6
CONTINUOUS
 62
     7
 10
-1006.5083365576
 20
-50.8356181895
 30
0.0
 11
-1006.5083365576
 21
-54.2356310403
 31
0.0
  0
LINE
  5
25F
  8
0
  6
CONTINUOUS
 62
     7
 10
-1009.7583394186
 20
-54.2356310403
 30
0.0
 11
-1006.5083365576
 21
-54.2356310403
 31
0.0
  0
LINE
  5
260
  8
0
  6
CONTINUOUS
 62
     7
 10
-1015.2583282129
 20
-50.5356280123
 30
0.0
 11
-1009.7583394186
 21
-50.5356280123
 31
0.0
  0
LINE
  5
261
  8
0
  6
CONTINUOUS
 62
     7
 10
-1009.7583394186
 20
-50.8356181895
 30
0.0
 11
-1015.2583282129
 21
-50.8356181895
 31
0.0
  0
LINE
  5
262
  8
0
  6
CONTINUOUS
 62
     7
 10
-1015.2583282129
 20
-54.2356310403
 30
0.0
 11
-1009.7583394186
 21
-54.2356310403
 31
0.0
  0
LINE
  5
263
  8
0
  6
CONTINUOUS
 62
     7
 10
-1006.8083416359
 20
-54.5356212174
 30
0.0
 11
-1009.7583394186
 21
-54.5356212174
 31
0.0
  0
LINE
  5
264
  8
0
  6
CONTINUOUS
 62
     7
 10
-1006.8083416359
 20
-54.5356212174
 30
0.0
 11
-1006.5083365576
 21
-54.2356310403
 31
0.0
  0
LINE
  5
265
  8
0
  6
CONTINUOUS
 62
     7
 10
-1009.7583394186
 20
-54.5356212174
 30
0.0
 11
-1015.2583282129
 21
-54.5356212174
 31
0.0
  0
LINE
  5
266
  8
0
  6
CONTINUOUS
 62
     7
 10
-1018.2083408968
 20
-50.5356280123
 30
0.0
 11
-1015.2583282129
 21
-50.5356280123
 31
0.0
  0
LINE
  5
267
  8
0
  6
CONTINUOUS
 62
     7
 10
-1015.2583282129
 20
-50.8356181895
 30
0.0
 11
-1018.508331074
 21
-50.8356181895
 31
0.0
  0
LINE
  5
268
  8
0
  6
CONTINUOUS
 62
     7
 10
-1018.2083408968
 20
-50.5356280123
 30
0.0
 11
-1018.508331074
 21
-50.8356181895
 31
0.0
  0
LINE
  5
269
  8
0
  6
CONTINUOUS
 62
     7
 10
-1018.508331074
 20
-54.2356310403
 30
0.0
 11
-1015.2583282129
 21
-54.2356310403
 31
0.0
  0
LINE
  5
26A
  8
0
  6
CONTINUOUS
 62
     7
 10
-1018.508331074
 20
-54.2356310403
 30
0.0
 11
-1018.508331074
 21
-50.8356181895
 31
0.0
  0
LINE
  5
26B
  8
0
  6
CONTINUOUS
 62
     7
 10
-1015.2583282129
 20
-54.5356212174
 30
0.0
 11
-1018.2083408968
 21
-54.5356212174
 31
0.0
  0
LINE
  5
26C
  8
0
  6
CONTINUOUS
 62
     7
 10
-1018.508331074
 20
-54.2356310403
 30
0.0
 11
-1018.2083408968
 21
-54.5356212174
 31
0.0
  0
LINE
  5
26D
  8
0
  6
CONTINUOUS
 62
     7
 10
-1018.508331074
 20
-50.8356181895
 30
0.0
 11
-1019.3752508299
 21
-50.8356181895
 31
0.0
  0
LINE
  5
26E
  8
0
  6
CONTINUOUS
 62
     7
 10
-1019.1552798883
 20
-50.5356280123
 30
0.0
 11
-1018.2083408968
 21
-50.5356280123
 31
0.0
  0
LINE
  5
26F
  8
0
  6
CONTINUOUS
 62
     7
 10
-1019.3752508299
 20
-54.2356310403
 30
0.0
 11
-1018.508331074
 21
-54.2356310403
 31
0.0
  0
LINE
  5
270
  8
0
  6
CONTINUOUS
 62
     7
 10
-1018.2083408968
 20
-54.5356212174
 30
0.0
 11
-1019.1552798883
 21
-54.5356212174
 31
0.0
  0
LINE
  5
271
  8
0
  6
CONTINUOUS
 62
     7
 10
-1019.3752508299
 20
-50.8356181895
 30
0.0
 11
-1047.6411293881
 21
-50.8356181895
 31
0.0
  0
LINE
  5
272
  8
0
  6
CONTINUOUS
 62
     7
 10
-1028.0090432303
 20
-50.5356280123
 30
0.0
 11
-1019.1552798883
 21
-50.5356280123
 31
0.0
  0
LINE
  5
273
  8
0
  6
CONTINUOUS
 62
     7
 10
-1047.6411293881
 20
-54.2356310403
 30
0.0
 11
-1019.3752508299
 21
-54.2356310403
 31
0.0
  0
LINE
  5
274
  8
0
  6
CONTINUOUS
 62
     7
 10
-1019.1552798883
 20
-54.5356212174
 30
0.0
 11
-1047.4211435453
 21
-54.5356212174
 31
0.0
  0
LINE
  5
275
  8
0
  6
CONTINUOUS
 62
     7
 10
-1047.6411293881
 20
-50.8356181895
 30
0.0
 11
-1049.5083342926
 21
-50.8356181895
 31
0.0
  0
LINE
  5
276
  8
0
  6
CONTINUOUS
 62
     7
 10
-1049.5083342926
 20
-54.2356310403
 30
0.0
 11
-1047.6411293881
 21
-54.2356310403
 31
0.0
  0
LINE
  5
277
  8
0
  6
CONTINUOUS
 62
     7
 10
-1049.5083342926
 20
-54.2356310403
 30
0.0
 11
-1049.5083342926
 21
-50.8356181895
 31
0.0
  0
LINE
  5
278
  8
0
  6
CONTINUOUS
 62
     7
 10
-1049.5083342926
 20
-54.2356310403
 30
0.0
 11
-1049.2083292143
 21
-54.5356212174
 31
0.0
  0
LINE
  5
279
  8
0
  6
CONTINUOUS
 62
     7
 10
-1047.4211435453
 20
-54.5356212174
 30
0.0
 11
-1049.2083292143
 21
-54.5356212174
 31
0.0
  0
LINE
  5
27A
  8
0
  6
CONTINUOUS
 62
     7
 10
-1049.5083342926
 20
-50.8356181895
 30
0.0
 11
-1049.2083292143
 21
-50.5356280123
 31
0.0
  0
LINE
  5
27B
  8
0
  6
CONTINUOUS
 62
     7
 10
-1434.8083298342
 20
349.4643779481
 30
0.0
 11
-1437.758342518
 21
349.4643779481
 31
0.0
  0
LINE
  5
27C
  8
0
  6
CONTINUOUS
 62
     7
 10
-1437.758342518
 20
349.7643681253
 30
0.0
 11
-1434.508339657
 21
349.7643681253
 31
0.0
  0
LINE
  5
27D
  8
0
  6
CONTINUOUS
 62
     7
 10
-1434.8083298342
 20
349.4643779481
 30
0.0
 11
-1434.508339657
 21
349.7643681253
 31
0.0
  0
LINE
  5
27E
  8
0
  6
CONTINUOUS
 62
     7
 10
-1434.508339657
 20
353.164380976
 30
0.0
 11
-1437.758342518
 21
353.164380976
 31
0.0
  0
LINE
  5
27F
  8
0
  6
CONTINUOUS
 62
     7
 10
-1434.508339657
 20
353.164380976
 30
0.0
 11
-1434.508339657
 21
349.7643681253
 31
0.0
  0
LINE
  5
280
  8
0
  6
CONTINUOUS
 62
     7
 10
-1437.758342518
 20
349.4643779481
 30
0.0
 11
-1443.2583313124
 21
349.4643779481
 31
0.0
  0
LINE
  5
281
  8
0
  6
CONTINUOUS
 62
     7
 10
-1443.2583313124
 20
349.7643681253
 30
0.0
 11
-1437.758342518
 21
349.7643681253
 31
0.0
  0
LINE
  5
282
  8
0
  6
CONTINUOUS
 62
     7
 10
-1437.758342518
 20
353.164380976
 30
0.0
 11
-1443.2583313124
 21
353.164380976
 31
0.0
  0
LINE
  5
283
  8
0
  6
CONTINUOUS
 62
     7
 10
-1437.758342518
 20
353.4643711532
 30
0.0
 11
-1434.8083298342
 21
353.4643711532
 31
0.0
  0
LINE
  5
284
  8
0
  6
CONTINUOUS
 62
     7
 10
-1434.508339657
 20
353.164380976
 30
0.0
 11
-1434.8083298342
 21
353.4643711532
 31
0.0
  0
LINE
  5
285
  8
0
  6
CONTINUOUS
 62
     7
 10
-1443.2583313124
 20
353.4643711532
 30
0.0
 11
-1437.758342518
 21
353.4643711532
 31
0.0
  0
LINE
  5
286
  8
0
  6
CONTINUOUS
 62
     7
 10
-1443.2583313124
 20
349.4643779481
 30
0.0
 11
-1446.2083290951
 21
349.4643779481
 31
0.0
  0
LINE
  5
287
  8
0
  6
CONTINUOUS
 62
     7
 10
-1446.2083290951
 20
349.4643779481
 30
0.0
 11
-1446.5083341734
 21
349.7643681253
 31
0.0
  0
LINE
  5
288
  8
0
  6
CONTINUOUS
 62
     7
 10
-1446.5083341734
 20
349.7643681253
 30
0.0
 11
-1443.2583313124
 21
349.7643681253
 31
0.0
  0
LINE
  5
289
  8
0
  6
CONTINUOUS
 62
     7
 10
-1446.5083341734
 20
349.7643681253
 30
0.0
 11
-1446.5083341734
 21
353.164380976
 31
0.0
  0
LINE
  5
28A
  8
0
  6
CONTINUOUS
 62
     7
 10
-1443.2583313124
 20
353.164380976
 30
0.0
 11
-1446.5083341734
 21
353.164380976
 31
0.0
  0
LINE
  5
28B
  8
0
  6
CONTINUOUS
 62
     7
 10
-1446.2083290951
 20
353.4643711532
 30
0.0
 11
-1443.2583313124
 21
353.4643711532
 31
0.0
  0
LINE
  5
28C
  8
0
  6
CONTINUOUS
 62
     7
 10
-1446.2083290951
 20
353.4643711532
 30
0.0
 11
-1446.5083341734
 21
353.164380976
 31
0.0
  0
LINE
  5
28D
  8
0
  6
CONTINUOUS
 62
     7
 10
-1434.508339657
 20
349.7643681253
 30
0.0
 11
-1433.6414199011
 21
349.7643681253
 31
0.0
  0
LINE
  5
28E
  8
0
  6
CONTINUOUS
 62
     7
 10
-1433.6414199011
 20
353.164380976
 30
0.0
 11
-1434.508339657
 21
353.164380976
 31
0.0
  0
LINE
  5
28F
  8
0
  6
CONTINUOUS
 62
     7
 10
-1433.8613908426
 20
349.4643779481
 30
0.0
 11
-1434.8083298342
 21
349.4643779481
 31
0.0
  0
LINE
  5
290
  8
0
  6
CONTINUOUS
 62
     7
 10
-1434.8083298342
 20
353.4643711532
 30
0.0
 11
-1433.8613908426
 21
353.4643711532
 31
0.0
  0
LINE
  5
291
  8
0
  6
CONTINUOUS
 62
     7
 10
-1433.6414199011
 20
349.7643681253
 30
0.0
 11
-1405.3755413429
 21
349.7643681253
 31
0.0
  0
LINE
  5
292
  8
0
  6
CONTINUOUS
 62
     7
 10
-1405.3755413429
 20
353.164380976
 30
0.0
 11
-1433.6414199011
 21
353.164380976
 31
0.0
  0
LINE
  5
293
  8
0
  6
CONTINUOUS
 62
     7
 10
-1425.0076275007
 20
349.4643779481
 30
0.0
 11
-1433.8613908426
 21
349.4643779481
 31
0.0
  0
LINE
  5
294
  8
0
  6
CONTINUOUS
 62
     7
 10
-1433.8613908426
 20
353.4643711532
 30
0.0
 11
-1405.5955271856
 21
353.4643711532
 31
0.0
  0
LINE
  5
295
  8
0
  6
CONTINUOUS
 62
     7
 10
-1403.5083364384
 20
353.164380976
 30
0.0
 11
-1405.3755413429
 21
353.164380976
 31
0.0
  0
LINE
  5
296
  8
0
  6
CONTINUOUS
 62
     7
 10
-1403.5083364384
 20
353.164380976
 30
0.0
 11
-1403.8083415167
 21
353.4643711532
 31
0.0
  0
LINE
  5
297
  8
0
  6
CONTINUOUS
 62
     7
 10
-1405.5955271856
 20
353.4643711532
 30
0.0
 11
-1403.8083415167
 21
353.4643711532
 31
0.0
  0
LINE
  5
298
  8
0
  6
CONTINUOUS
 62
     7
 10
-1405.3755413429
 20
349.7643681253
 30
0.0
 11
-1403.5083364384
 21
349.7643681253
 31
0.0
  0
LINE
  5
299
  8
0
  6
CONTINUOUS
 62
     7
 10
-1403.5083364384
 20
353.164380976
 30
0.0
 11
-1403.5083364384
 21
349.7643681253
 31
0.0
  0
LINE
  5
29A
  8
0
  6
CONTINUOUS
 62
     7
 10
-1403.5083364384
 20
349.7643681253
 30
0.0
 11
-1403.8083415167
 21
349.4643779481
 31
0.0
  0
LINE
  5
29B
  8
0
  6
CONTINUOUS
 62
     7
 10
-1437.758342518
 20
-54.2356310403
 30
0.0
 11
-1434.508339657
 21
-54.2356310403
 31
0.0
  0
LINE
  5
29C
  8
0
  6
CONTINUOUS
 62
     7
 10
-1434.508339657
 20
-50.8356181895
 30
0.0
 11
-1437.758342518
 21
-50.8356181895
 31
0.0
  0
LINE
  5
29D
  8
0
  6
CONTINUOUS
 62
     7
 10
-1434.508339657
 20
-50.8356181895
 30
0.0
 11
-1434.508339657
 21
-54.2356310403
 31
0.0
  0
LINE
  5
29E
  8
0
  6
CONTINUOUS
 62
     7
 10
-1434.8083298342
 20
-54.5356212174
 30
0.0
 11
-1437.758342518
 21
-54.5356212174
 31
0.0
  0
LINE
  5
29F
  8
0
  6
CONTINUOUS
 62
     7
 10
-1434.8083298342
 20
-54.5356212174
 30
0.0
 11
-1434.508339657
 21
-54.2356310403
 31
0.0
  0
LINE
  5
2A0
  8
0
  6
CONTINUOUS
 62
     7
 10
-1437.758342518
 20
-54.5356212174
 30
0.0
 11
-1443.2583313124
 21
-54.5356212174
 31
0.0
  0
LINE
  5
2A1
  8
0
  6
CONTINUOUS
 62
     7
 10
-1443.2583313124
 20
-54.2356310403
 30
0.0
 11
-1437.758342518
 21
-54.2356310403
 31
0.0
  0
LINE
  5
2A2
  8
0
  6
CONTINUOUS
 62
     7
 10
-1437.758342518
 20
-50.8356181895
 30
0.0
 11
-1443.2583313124
 21
-50.8356181895
 31
0.0
  0
LINE
  5
2A3
  8
0
  6
CONTINUOUS
 62
     7
 10
-1437.758342518
 20
-50.5356280123
 30
0.0
 11
-1434.8083298342
 21
-50.5356280123
 31
0.0
  0
LINE
  5
2A4
  8
0
  6
CONTINUOUS
 62
     7
 10
-1434.508339657
 20
-50.8356181895
 30
0.0
 11
-1434.8083298342
 21
-50.5356280123
 31
0.0
  0
LINE
  5
2A5
  8
0
  6
CONTINUOUS
 62
     7
 10
-1443.2583313124
 20
-50.5356280123
 30
0.0
 11
-1437.758342518
 21
-50.5356280123
 31
0.0
  0
LINE
  5
2A6
  8
0
  6
CONTINUOUS
 62
     7
 10
-1446.5083341734
 20
-54.2356310403
 30
0.0
 11
-1443.2583313124
 21
-54.2356310403
 31
0.0
  0
LINE
  5
2A7
  8
0
  6
CONTINUOUS
 62
     7
 10
-1446.5083341734
 20
-54.2356310403
 30
0.0
 11
-1446.5083341734
 21
-50.8356181895
 31
0.0
  0
LINE
  5
2A8
  8
0
  6
CONTINUOUS
 62
     7
 10
-1443.2583313124
 20
-50.8356181895
 30
0.0
 11
-1446.5083341734
 21
-50.8356181895
 31
0.0
  0
LINE
  5
2A9
  8
0
  6
CONTINUOUS
 62
     7
 10
-1443.2583313124
 20
-54.5356212174
 30
0.0
 11
-1446.2083290951
 21
-54.5356212174
 31
0.0
  0
LINE
  5
2AA
  8
0
  6
CONTINUOUS
 62
     7
 10
-1446.2083290951
 20
-54.5356212174
 30
0.0
 11
-1446.5083341734
 21
-54.2356310403
 31
0.0
  0
LINE
  5
2AB
  8
0
  6
CONTINUOUS
 62
     7
 10
-1446.2083290951
 20
-50.5356280123
 30
0.0
 11
-1443.2583313124
 21
-50.5356280123
 31
0.0
  0
LINE
  5
2AC
  8
0
  6
CONTINUOUS
 62
     7
 10
-1446.2083290951
 20
-50.5356280123
 30
0.0
 11
-1446.5083341734
 21
-50.8356181895
 31
0.0
  0
LINE
  5
2AD
  8
0
  6
CONTINUOUS
 62
     7
 10
-1434.508339657
 20
-54.2356310403
 30
0.0
 11
-1433.6414199011
 21
-54.2356310403
 31
0.0
  0
LINE
  5
2AE
  8
0
  6
CONTINUOUS
 62
     7
 10
-1433.8613908426
 20
-54.5356212174
 30
0.0
 11
-1434.8083298342
 21
-54.5356212174
 31
0.0
  0
LINE
  5
2AF
  8
0
  6
CONTINUOUS
 62
     7
 10
-1433.6414199011
 20
-50.8356181895
 30
0.0
 11
-1434.508339657
 21
-50.8356181895
 31
0.0
  0
LINE
  5
2B0
  8
0
  6
CONTINUOUS
 62
     7
 10
-1434.8083298342
 20
-50.5356280123
 30
0.0
 11
-1433.8613908426
 21
-50.5356280123
 31
0.0
  0
LINE
  5
2B1
  8
0
  6
CONTINUOUS
 62
     7
 10
-1433.6414199011
 20
-54.2356310403
 30
0.0
 11
-1405.3755413429
 21
-54.2356310403
 31
0.0
  0
LINE
  5
2B2
  8
0
  6
CONTINUOUS
 62
     7
 10
-1405.5955271856
 20
-54.5356212174
 30
0.0
 11
-1433.8613908426
 21
-54.5356212174
 31
0.0
  0
LINE
  5
2B3
  8
0
  6
CONTINUOUS
 62
     7
 10
-1405.3755413429
 20
-50.8356181895
 30
0.0
 11
-1433.6414199011
 21
-50.8356181895
 31
0.0
  0
LINE
  5
2B4
  8
0
  6
CONTINUOUS
 62
     7
 10
-1433.8613908426
 20
-50.5356280123
 30
0.0
 11
-1425.0076275007
 21
-50.5356280123
 31
0.0
  0
LINE
  5
2B5
  8
0
  6
CONTINUOUS
 62
     7
 10
-1403.5083364384
 20
-50.8356181895
 30
0.0
 11
-1405.3755413429
 21
-50.8356181895
 31
0.0
  0
LINE
  5
2B6
  8
0
  6
CONTINUOUS
 62
     7
 10
-1403.5083364384
 20
-50.8356181895
 30
0.0
 11
-1403.8083415167
 21
-50.5356280123
 31
0.0
  0
LINE
  5
2B7
  8
0
  6
CONTINUOUS
 62
     7
 10
-1405.3755413429
 20
-54.2356310403
 30
0.0
 11
-1403.5083364384
 21
-54.2356310403
 31
0.0
  0
LINE
  5
2B8
  8
0
  6
CONTINUOUS
 62
     7
 10
-1403.5083364384
 20
-50.8356181895
 30
0.0
 11
-1403.5083364384
 21
-54.2356310403
 31
0.0
  0
LINE
  5
2B9
  8
0
  6
CONTINUOUS
 62
     7
 10
-1403.5083364384
 20
-54.2356310403
 30
0.0
 11
-1403.8083415167
 21
-54.5356212174
 31
0.0
  0
LINE
  5
2BA
  8
0
  6
CONTINUOUS
 62
     7
 10
-1403.8083415167
 20
-54.5356212174
 30
0.0
 11
-1405.5955271856
 21
-54.5356212174
 31
0.0
  0
LINE
  5
2BB
  8
0
  6
CONTINUOUS
 62
     7
 10
-1009.7583394186
 20
353.4643711532
 30
0.0
 11
-1006.8083416359
 21
353.4643711532
 31
0.0
  0
LINE
  5
2BC
  8
0
  6
CONTINUOUS
 62
     7
 10
-1006.8083416359
 20
353.4643711532
 30
0.0
 11
-1006.5083365576
 21
353.164380976
 31
0.0
  0
LINE
  5
2BD
  8
0
  6
CONTINUOUS
 62
     7
 10
-1006.5083365576
 20
353.164380976
 30
0.0
 11
-1009.7583394186
 21
353.164380976
 31
0.0
  0
LINE
  5
2BE
  8
0
  6
CONTINUOUS
 62
     7
 10
-1006.5083365576
 20
353.164380976
 30
0.0
 11
-1006.5083365576
 21
349.7643681253
 31
0.0
  0
LINE
  5
2BF
  8
0
  6
CONTINUOUS
 62
     7
 10
-1009.7583394186
 20
349.7643681253
 30
0.0
 11
-1006.5083365576
 21
349.7643681253
 31
0.0
  0
LINE
  5
2C0
  8
0
  6
CONTINUOUS
 62
     7
 10
-1009.7583394186
 20
353.164380976
 30
0.0
 11
-1015.2583282129
 21
353.164380976
 31
0.0
  0
LINE
  5
2C1
  8
0
  6
CONTINUOUS
 62
     7
 10
-1015.2583282129
 20
349.7643681253
 30
0.0
 11
-1009.7583394186
 21
349.7643681253
 31
0.0
  0
LINE
  5
2C2
  8
0
  6
CONTINUOUS
 62
     7
 10
-1015.2583282129
 20
353.4643711532
 30
0.0
 11
-1009.7583394186
 21
353.4643711532
 31
0.0
  0
LINE
  5
2C3
  8
0
  6
CONTINUOUS
 62
     7
 10
-1006.8083416359
 20
349.4643779481
 30
0.0
 11
-1009.7583394186
 21
349.4643779481
 31
0.0
  0
LINE
  5
2C4
  8
0
  6
CONTINUOUS
 62
     7
 10
-1006.8083416359
 20
349.4643779481
 30
0.0
 11
-1006.5083365576
 21
349.7643681253
 31
0.0
  0
LINE
  5
2C5
  8
0
  6
CONTINUOUS
 62
     7
 10
-1009.7583394186
 20
349.4643779481
 30
0.0
 11
-1015.2583282129
 21
349.4643779481
 31
0.0
  0
LINE
  5
2C6
  8
0
  6
CONTINUOUS
 62
     7
 10
-1015.2583282129
 20
353.164380976
 30
0.0
 11
-1018.508331074
 21
353.164380976
 31
0.0
  0
LINE
  5
2C7
  8
0
  6
CONTINUOUS
 62
     7
 10
-1018.508331074
 20
349.7643681253
 30
0.0
 11
-1015.2583282129
 21
349.7643681253
 31
0.0
  0
LINE
  5
2C8
  8
0
  6
CONTINUOUS
 62
     7
 10
-1018.508331074
 20
349.7643681253
 30
0.0
 11
-1018.508331074
 21
353.164380976
 31
0.0
  0
LINE
  5
2C9
  8
0
  6
CONTINUOUS
 62
     7
 10
-1018.2083408968
 20
353.4643711532
 30
0.0
 11
-1015.2583282129
 21
353.4643711532
 31
0.0
  0
LINE
  5
2CA
  8
0
  6
CONTINUOUS
 62
     7
 10
-1018.2083408968
 20
353.4643711532
 30
0.0
 11
-1018.508331074
 21
353.164380976
 31
0.0
  0
LINE
  5
2CB
  8
0
  6
CONTINUOUS
 62
     7
 10
-1015.2583282129
 20
349.4643779481
 30
0.0
 11
-1018.2083408968
 21
349.4643779481
 31
0.0
  0
LINE
  5
2CC
  8
0
  6
CONTINUOUS
 62
     7
 10
-1018.508331074
 20
349.7643681253
 30
0.0
 11
-1018.2083408968
 21
349.4643779481
 31
0.0
  0
LINE
  5
2CD
  8
0
  6
CONTINUOUS
 62
     7
 10
-1018.508331074
 20
353.164380976
 30
0.0
 11
-1019.3752508299
 21
353.164380976
 31
0.0
  0
LINE
  5
2CE
  8
0
  6
CONTINUOUS
 62
     7
 10
-1019.1552798883
 20
353.4643711532
 30
0.0
 11
-1018.2083408968
 21
353.4643711532
 31
0.0
  0
LINE
  5
2CF
  8
0
  6
CONTINUOUS
 62
     7
 10
-1019.3752508299
 20
349.7643681253
 30
0.0
 11
-1018.508331074
 21
349.7643681253
 31
0.0
  0
LINE
  5
2D0
  8
0
  6
CONTINUOUS
 62
     7
 10
-1018.2083408968
 20
349.4643779481
 30
0.0
 11
-1019.1552798883
 21
349.4643779481
 31
0.0
  0
LINE
  5
2D1
  8
0
  6
CONTINUOUS
 62
     7
 10
-1019.3752508299
 20
353.164380976
 30
0.0
 11
-1047.6411293881
 21
353.164380976
 31
0.0
  0
LINE
  5
2D2
  8
0
  6
CONTINUOUS
 62
     7
 10
-1047.4211435453
 20
353.4643711532
 30
0.0
 11
-1019.1552798883
 21
353.4643711532
 31
0.0
  0
LINE
  5
2D3
  8
0
  6
CONTINUOUS
 62
     7
 10
-1047.6411293881
 20
349.7643681253
 30
0.0
 11
-1019.3752508299
 21
349.7643681253
 31
0.0
  0
LINE
  5
2D4
  8
0
  6
CONTINUOUS
 62
     7
 10
-1019.1552798883
 20
349.4643779481
 30
0.0
 11
-1028.0090432303
 21
349.4643779481
 31
0.0
  0
LINE
  5
2D5
  8
0
  6
CONTINUOUS
 62
     7
 10
-1049.5083342926
 20
349.7643681253
 30
0.0
 11
-1047.6411293881
 21
349.7643681253
 31
0.0
  0
LINE
  5
2D6
  8
0
  6
CONTINUOUS
 62
     7
 10
-1049.5083342926
 20
349.7643681253
 30
0.0
 11
-1049.2083292143
 21
349.4643779481
 31
0.0
  0
LINE
  5
2D7
  8
0
  6
CONTINUOUS
 62
     7
 10
-1047.6411293881
 20
353.164380976
 30
0.0
 11
-1049.5083342926
 21
353.164380976
 31
0.0
  0
LINE
  5
2D8
  8
0
  6
CONTINUOUS
 62
     7
 10
-1049.5083342926
 20
349.7643681253
 30
0.0
 11
-1049.5083342926
 21
353.164380976
 31
0.0
  0
LINE
  5
2D9
  8
0
  6
CONTINUOUS
 62
     7
 10
-1049.5083342926
 20
353.164380976
 30
0.0
 11
-1049.2083292143
 21
353.4643711532
 31
0.0
  0
LINE
  5
2DA
  8
0
  6
CONTINUOUS
 62
     7
 10
-1049.2083292143
 20
353.4643711532
 30
0.0
 11
-1047.4211435453
 21
353.4643711532
 31
0.0
  0
POLYLINE
  5
2DB
  8
0
  6
CONTINUOUS
 62
     7
 66
     1
 10
0.0
 20
0.0
 30
0.0
  0
VERTEX
  5
5C5
  8
0
  6
CONTINUOUS
 62
     7
 10
-1026.5083323853
 20
347.9636671031
 30
0.0
  0
VERTEX
  5
5C6
  8
0
  6
CONTINUOUS
 62
     7
 10
-1026.5539150373
 20
347.9408832277
 30
0.0
  0
VERTEX
  5
5C7
  8
0
  6
CONTINUOUS
 62
     7
 10
-1026.6892622845
 20
347.873246857
 30
0.0
  0
VERTEX
  5
5C8
  8
0
  6
CONTINUOUS
 62
     7
 10
-1026.9102614061
 20
347.7627994502
 30
0.0
  0
VERTEX
  5
5C9
  8
0
  6
CONTINUOUS
 62
     7
 10
-1027.1305154697
 20
347.6527245725
 30
0.0
  0
SEQEND
  5
5CA
  8
0
  6
CONTINUOUS
 62
     7
  0
LINE
  5
2DC
  8
0
  6
CONTINUOUS
 62
     7
 10
-1026.5083323853
 20
347.9636671031
 30
0.0
 11
-1026.5083323853
 21
-49.0349171674
 31
0.0
  0
POLYLINE
  5
2DD
  8
0
  6
CONTINUOUS
 62
     7
 66
     1
 10
0.0
 20
0.0
 30
0.0
  0
VERTEX
  5
5CB
  8
0
  6
CONTINUOUS
 62
     7
 10
-1027.1305154697
 20
-48.7239746367
 30
0.0
  0
VERTEX
  5
5CC
  8
0
  6
CONTINUOUS
 62
     7
 10
-1027.0139287846
 20
-48.782238177
 30
0.0
  0
VERTEX
  5
5CD
  8
0
  6
CONTINUOUS
 62
     7
 10
-1026.7366926806
 20
-48.9207891738
 30
0.0
  0
VERTEX
  5
5CE
  8
0
  6
CONTINUOUS
 62
     7
 10
-1026.5659849779
 20
-49.0061132228
 30
0.0
  0
VERTEX
  5
5CF
  8
0
  6
CONTINUOUS
 62
     7
 10
-1026.5083323853
 20
-49.0349171674
 30
0.0
  0
SEQEND
  5
5D0
  8
0
  6
CONTINUOUS
 62
     7
  0
LINE
  5
2DE
  8
0
  6
CONTINUOUS
 62
     7
 10
-1027.2758762972
 20
347.9636671031
 30
0.0
 11
-1026.5083323853
 21
347.9636671031
 31
0.0
  0
LINE
  5
2DF
  8
0
  6
CONTINUOUS
 62
     7
 10
-1027.2758762972
 20
-49.0349171674
 30
0.0
 11
-1026.5083323853
 21
-49.0349171674
 31
0.0
  0
POLYLINE
  5
2E0
  8
0
  6
CONTINUOUS
 62
     7
 66
     1
 10
0.0
 20
0.0
 30
0.0
  0
VERTEX
  5
5D1
  8
0
  6
CONTINUOUS
 62
     7
 10
-1028.0090432303
 20
-50.5356280123
 30
0.0
  0
VERTEX
  5
5D2
  8
0
  6
CONTINUOUS
 62
     7
 10
-1028.0318271057
 20
-50.4900453603
 30
0.0
  0
VERTEX
  5
5D3
  8
0
  6
CONTINUOUS
 62
     7
 10
-1028.0994634764
 20
-50.3546981131
 30
0.0
  0
VERTEX
  5
5D4
  8
0
  6
CONTINUOUS
 62
     7
 10
-1028.2099108831
 20
-50.1336989915
 30
0.0
  0
VERTEX
  5
5D5
  8
0
  6
CONTINUOUS
 62
     7
 10
-1028.3199857609
 20
-49.9134449279
 30
0.0
  0
SEQEND
  5
5D6
  8
0
  6
CONTINUOUS
 62
     7
  0
LINE
  5
2E1
  8
0
  6
CONTINUOUS
 62
     7
 10
-1028.0090432303
 20
-49.7680841004
 30
0.0
 11
-1028.0090432303
 21
-50.5356280123
 31
0.0
  0
LINE
  5
2E2
  8
0
  6
CONTINUOUS
 62
     7
 10
-1028.0090432303
 20
-50.5356280123
 30
0.0
 11
-1425.0076275007
 21
-50.5356280123
 31
0.0
  0
POLYLINE
  5
2E3
  8
0
  6
CONTINUOUS
 62
     7
 66
     1
 10
0.0
 20
0.0
 30
0.0
  0
VERTEX
  5
5D7
  8
0
  6
CONTINUOUS
 62
     7
 10
-1424.6966849701
 20
-49.9134449279
 30
0.0
  0
VERTEX
  5
5D8
  8
0
  6
CONTINUOUS
 62
     7
 10
-1424.7549485104
 20
-50.030031613
 30
0.0
  0
VERTEX
  5
5D9
  8
0
  6
CONTINUOUS
 62
     7
 10
-1424.8934995071
 20
-50.3072677171
 30
0.0
  0
VERTEX
  5
5DA
  8
0
  6
CONTINUOUS
 62
     7
 10
-1424.9788235561
 20
-50.4779754197
 30
0.0
  0
VERTEX
  5
5DB
  8
0
  6
CONTINUOUS
 62
     7
 10
-1425.0076275007
 20
-50.5356280123
 30
0.0
  0
SEQEND
  5
5DC
  8
0
  6
CONTINUOUS
 62
     7
  0
POLYLINE
  5
2E4
  8
0
  6
CONTINUOUS
 62
     7
 66
     1
 10
0.0
 20
0.0
 30
0.0
  0
VERTEX
  5
5DD
  8
0
  6
CONTINUOUS
 62
     7
 10
-1425.0076275007
 20
349.4643779481
 30
0.0
  0
VERTEX
  5
5DE
  8
0
  6
CONTINUOUS
 62
     7
 10
-1424.9848436253
 20
349.418795296
 30
0.0
  0
VERTEX
  5
5DF
  8
0
  6
CONTINUOUS
 62
     7
 10
-1424.9172072546
 20
349.2834480489
 30
0.0
  0
VERTEX
  5
5E0
  8
0
  6
CONTINUOUS
 62
     7
 10
-1424.8067598478
 20
349.0624489272
 30
0.0
  0
VERTEX
  5
5E1
  8
0
  6
CONTINUOUS
 62
     7
 10
-1424.6966849701
 20
348.8421948636
 30
0.0
  0
SEQEND
  5
5E2
  8
0
  6
CONTINUOUS
 62
     7
  0
LINE
  5
2E5
  8
0
  6
CONTINUOUS
 62
     7
 10
-1425.0076275007
 20
349.4643779481
 30
0.0
 11
-1028.0090432303
 21
349.4643779481
 31
0.0
  0
POLYLINE
  5
2E6
  8
0
  6
CONTINUOUS
 62
     7
 66
     1
 10
0.0
 20
0.0
 30
0.0
  0
VERTEX
  5
5E3
  8
0
  6
CONTINUOUS
 62
     7
 10
-1028.3199857609
 20
348.8421948636
 30
0.0
  0
VERTEX
  5
5E4
  8
0
  6
CONTINUOUS
 62
     7
 10
-1028.2617222206
 20
348.9587815488
 30
0.0
  0
VERTEX
  5
5E5
  8
0
  6
CONTINUOUS
 62
     7
 10
-1028.1231712238
 20
349.2360176528
 30
0.0
  0
VERTEX
  5
5E6
  8
0
  6
CONTINUOUS
 62
     7
 10
-1028.0378471748
 20
349.4067253555
 30
0.0
  0
VERTEX
  5
5E7
  8
0
  6
CONTINUOUS
 62
     7
 10
-1028.0090432303
 20
349.4643779481
 30
0.0
  0
SEQEND
  5
5E8
  8
0
  6
CONTINUOUS
 62
     7
  0
LINE
  5
2E7
  8
0
  6
CONTINUOUS
 62
     7
 10
-1028.0090432303
 20
348.6968340362
 30
0.0
 11
-1028.0090432303
 21
349.4643779481
 31
0.0
  0
LINE
  5
2E8
  8
0
  6
CONTINUOUS
 62
     7
 10
-1425.0076275007
 20
-49.7680841004
 30
0.0
 11
-1425.0076275007
 21
-50.5356280123
 31
0.0
  0
POLYLINE
  5
2E9
  8
0
  6
CONTINUOUS
 62
     7
 66
     1
 10
0.0
 20
0.0
 30
0.0
  0
VERTEX
  5
5E9
  8
0
  6
CONTINUOUS
 62
     7
 10
-1426.5083383457
 20
-49.0349171674
 30
0.0
  0
VERTEX
  5
5EA
  8
0
  6
CONTINUOUS
 62
     7
 10
-1426.4627556936
 20
-49.0121332919
 30
0.0
  0
VERTEX
  5
5EB
  8
0
  6
CONTINUOUS
 62
     7
 10
-1426.3274084465
 20
-48.9444969212
 30
0.0
  0
VERTEX
  5
5EC
  8
0
  6
CONTINUOUS
 62
     7
 10
-1426.1064093248
 20
-48.8340495145
 30
0.0
  0
VERTEX
  5
5ED
  8
0
  6
CONTINUOUS
 62
     7
 10
-1425.8861552612
 20
-48.7239746367
 30
0.0
  0
SEQEND
  5
5EE
  8
0
  6
CONTINUOUS
 62
     7
  0
LINE
  5
2EA
  8
0
  6
CONTINUOUS
 62
     7
 10
-1425.7407944338
 20
-49.0349171674
 30
0.0
 11
-1426.5083383457
 21
-49.0349171674
 31
0.0
  0
LINE
  5
2EB
  8
0
  6
CONTINUOUS
 62
     7
 10
-1425.0076275007
 20
348.6968340362
 30
0.0
 11
-1425.0076275007
 21
349.4643779481
 31
0.0
  0
LINE
  5
2EC
  8
0
  6
CONTINUOUS
 62
     7
 10
-1426.5083383457
 20
-49.0349171674
 30
0.0
 11
-1426.5083383457
 21
347.9636671031
 31
0.0
  0
POLYLINE
  5
2ED
  8
0
  6
CONTINUOUS
 62
     7
 66
     1
 10
0.0
 20
0.0
 30
0.0
  0
VERTEX
  5
5EF
  8
0
  6
CONTINUOUS
 62
     7
 10
-1425.8861552612
 20
347.6527245725
 30
0.0
  0
VERTEX
  5
5F0
  8
0
  6
CONTINUOUS
 62
     7
 10
-1426.1064093248
 20
347.7627994502
 30
0.0
  0
VERTEX
  5
5F1
  8
0
  6
CONTINUOUS
 62
     7
 10
-1426.3274084465
 20
347.873246857
 30
0.0
  0
VERTEX
  5
5F2
  8
0
  6
CONTINUOUS
 62
     7
 10
-1426.4627556936
 20
347.9408832277
 30
0.0
  0
VERTEX
  5
5F3
  8
0
  6
CONTINUOUS
 62
     7
 10
-1426.5083383457
 20
347.9636671031
 30
0.0
  0
SEQEND
  5
5F4
  8
0
  6
CONTINUOUS
 62
     7
  0
LINE
  5
2EE
  8
0
  6
CONTINUOUS
 62
     7
 10
-1425.7407944338
 20
347.9636671031
 30
0.0
 11
-1426.5083383457
 21
347.9636671031
 31
0.0
  0
ARC
  5
2EF
  8
0
  6
CONTINUOUS
 62
     7
 10
-1074.0583351459
 20
599.2779649324
 30
0.0
 40
120.0000000000276
 50
276.1072898503
 51
277.0541313733
  0
ARC
  5
2F0
  8
0
  6
CONTINUOUS
 62
     7
 10
-1074.0583351459
 20
599.2779649324
 30
0.0
 40
120.0000000000276
 50
262.9458686267
 51
263.8915999146
  0
ARC
  5
2F1
  8
0
  6
CONTINUOUS
 62
     7
 10
-1059.3583351459
 20
480.4840256931
 30
0.0
 40
0.3000000000022618
 50
277.0541278521
 51
359.9999856569
  0
ARC
  5
2F2
  8
0
  6
CONTINUOUS
 62
     7
 10
-1088.7583351459
 20
480.4840256931
 30
0.0
 40
0.3000000000022054
 50
180.0000143431
 51
262.9458721479
  0
ARC
  5
2F3
  8
0
  6
CONTINUOUS
 62
     7
 10
-1086.8583173635
 20
479.6608734509
 30
0.0
 40
0.2999988297465943
 50
359.5408809042
 51
84.3761543881
  0
ARC
  5
2F4
  8
0
  6
CONTINUOUS
 62
     7
 10
-1061.2583564918
 20
479.6608811688
 30
0.0
 40
0.2999903078444459
 50
95.6223584577
 51
180.4606062501
  0
ARC
  5
2F5
  8
0
  6
CONTINUOUS
 62
     7
 10
-1074.0583351459
 20
568.7779649324
 30
0.0
 40
90.1999999999998
 50
275.4696070839
 51
277.8002470321
  0
ARC
  5
2F6
  8
0
  6
CONTINUOUS
 62
     7
 10
-1074.0583351459
 20
568.7779649324
 30
0.0
 40
90.19999999999962
 50
262.1997529669
 51
264.5303929161
  0
ARC
  5
2F7
  8
0
  6
CONTINUOUS
 62
     7
 10
-1082.6083351459
 20
479.4863779827
 30
0.0
 40
0.5000000000001307
 50
264.5304035696
 51
270.0
  0
ARC
  5
2F8
  8
0
  6
CONTINUOUS
 62
     7
 10
-1065.5083351459
 20
479.4863779827
 30
0.0
 40
0.5000000000000874
 50
270.0
 51
275.4695964303
  0
LINE
  5
2F9
  8
0
  6
CONTINUOUS
 62
     7
 10
-1082.608328356
 20
478.9863824707
 30
0.0
 11
-1065.5083369152
 21
478.9863824707
 31
0.0
  0
ARC
  5
2FA
  8
0
  6
CONTINUOUS
 62
     7
 10
-1061.856357691
 20
479.7099103388
 30
0.0
 40
0.3000183935547462
 50
272.6640663483
 51
355.7612977051
  0
ARC
  5
2FB
  8
0
  6
CONTINUOUS
 62
     7
 10
-1086.2603329334
 20
479.7098835312
 30
0.0
 40
0.2999911292585362
 50
184.2339541747
 51
267.3376897811
  0
LINE
  5
2FC
  8
0
  6
CONTINUOUS
 62
     7
 10
-1045.258329405
 20
506.4779668909
 30
0.0
 11
-1045.258329405
 21
505.4779648643
 31
0.0
  0
LINE
  5
2FD
  8
0
  6
CONTINUOUS
 62
     7
 10
-1035.2583389418
 20
505.4779648643
 30
0.0
 11
-1035.2583389418
 21
506.4779668909
 31
0.0
  0
LINE
  5
2FE
  8
0
  6
CONTINUOUS
 62
     7
 10
-1028.0083279745
 20
545.2279597383
 30
0.0
 11
-1028.0090432303
 21
545.2279597383
 31
0.0
  0
LINE
  5
2FF
  8
0
  6
CONTINUOUS
 62
     7
 10
-1028.0090432303
 20
537.7279668909
 30
0.0
 11
-1028.0083279745
 21
537.7279668909
 31
0.0
  0
LINE
  5
300
  8
0
  6
CONTINUOUS
 62
     7
 10
-1425.0083427565
 20
537.7279668909
 30
0.0
 11
-1425.0076275007
 21
537.7279668909
 31
0.0
  0
LINE
  5
301
  8
0
  6
CONTINUOUS
 62
     7
 10
-1425.0076275007
 20
545.2279597383
 30
0.0
 11
-1425.0083427565
 21
545.2279597383
 31
0.0
  0
LINE
  5
302
  8
0
  6
CONTINUOUS
 62
     7
 10
-1415.2583341734
 20
504.2579620939
 30
0.0
 11
-1414.8583423035
 21
503.857970224
 31
0.0
  0
LINE
  5
303
  8
0
  6
CONTINUOUS
 62
     7
 10
-1410.6583308117
 20
503.857970224
 30
0.0
 11
-1410.2583389418
 21
504.2579620939
 31
0.0
  0
LINE
  5
304
  8
0
  6
CONTINUOUS
 62
     7
 10
-1415.2583341734
 20
504.4779628378
 30
0.0
 11
-1415.2583341734
 21
504.2579620939
 31
0.0
  0
LINE
  5
305
  8
0
  6
CONTINUOUS
 62
     7
 10
-1410.2583389418
 20
504.2579620939
 30
0.0
 11
-1410.2583389418
 21
504.4779628378
 31
0.0
  0
LINE
  5
306
  8
0
  6
CONTINUOUS
 62
     7
 10
-1424.5083342926
 20
697.4779645542
 30
0.0
 11
-1424.5083342926
 21
696.3063916345
 31
0.0
  0
LINE
  5
307
  8
0
  6
CONTINUOUS
 62
     7
 10
-1028.5083364384
 20
697.4779645542
 30
0.0
 11
-1028.5083364384
 21
696.3063916345
 31
0.0
  0
LINE
  5
308
  8
0
  6
CONTINUOUS
 62
     7
 10
-1426.0083298819
 20
697.4779645542
 30
0.0
 11
-1426.0083298819
 21
700.4779646967
 31
0.0
  0
LINE
  5
309
  8
0
  6
CONTINUOUS
 62
     7
 10
-1426.0083298819
 20
700.4779646967
 30
0.0
 11
-1424.0083407299
 21
700.4779646967
 31
0.0
  0
LINE
  5
30A
  8
0
  6
CONTINUOUS
 62
     7
 10
-1424.0083407299
 20
697.4779645542
 30
0.0
 11
-1426.0083298819
 21
697.4779645542
 31
0.0
  0
LINE
  5
30B
  8
0
  6
CONTINUOUS
 62
     7
 10
-1424.0083407299
 20
700.4779646967
 30
0.0
 11
-1029.0083300011
 21
700.4779646967
 31
0.0
  0
LINE
  5
30C
  8
0
  6
CONTINUOUS
 62
     7
 10
-1424.0083407299
 20
697.4779645542
 30
0.0
 11
-1029.0083300011
 21
697.4779645542
 31
0.0
  0
LINE
  5
30D
  8
0
  6
CONTINUOUS
 62
     7
 10
-1027.0083408491
 20
700.4779646967
 30
0.0
 11
-1027.0083408491
 21
697.4779645542
 31
0.0
  0
LINE
  5
30E
  8
0
  6
CONTINUOUS
 62
     7
 10
-1029.0083300011
 20
700.4779646967
 30
0.0
 11
-1027.0083408491
 21
700.4779646967
 31
0.0
  0
LINE
  5
30F
  8
0
  6
CONTINUOUS
 62
     7
 10
-1027.0083408491
 20
697.4779645542
 30
0.0
 11
-1029.0083300011
 21
697.4779645542
 31
0.0
  0
LINE
  5
310
  8
0
  6
CONTINUOUS
 62
     7
 10
-1032.0583294766
 20
485.2779656511
 30
0.0
 11
-1422.0583300726
 21
485.2779656511
 31
0.0
  0
POLYLINE
  5
311
  8
0
  6
CONTINUOUS
 62
     7
 66
     1
 10
0.0
 20
0.0
 30
0.0
  0
VERTEX
  5
5F5
  8
0
  6
CONTINUOUS
 62
     7
 10
-1422.0583300726
 20
485.2779656511
 30
0.0
  0
VERTEX
  5
5F6
  8
0
  6
CONTINUOUS
 62
     7
 10
-1421.8437682526
 20
485.3253662449
 30
0.0
  0
VERTEX
  5
5F7
  8
0
  6
CONTINUOUS
 62
     7
 10
-1421.6866802113
 20
485.482439385
 30
0.0
  0
VERTEX
  5
5F8
  8
0
  6
CONTINUOUS
 62
     7
 10
-1421.5904932158
 20
485.7616722446
 30
0.0
  0
VERTEX
  5
5F9
  8
0
  6
CONTINUOUS
 62
     7
 10
-1421.5583365099
 20
486.1566573244
 30
0.0
  0
VERTEX
  5
5FA
  8
0
  6
CONTINUOUS
 62
     7
 10
-1421.590329303
 20
486.6451471907
 30
0.0
  0
VERTEX
  5
5FB
  8
0
  6
CONTINUOUS
 62
     7
 10
-1421.6862927811
 20
487.187907086
 30
0.0
  0
VERTEX
  5
5FC
  8
0
  6
CONTINUOUS
 62
     7
 10
-1421.8439172642
 20
487.7472072702
 30
0.0
  0
VERTEX
  5
5FD
  8
0
  6
CONTINUOUS
 62
     7
 10
-1422.0583300726
 20
488.2779717308
 30
0.0
  0
SEQEND
  5
5FE
  8
0
  6
CONTINUOUS
 62
     7
  0
POLYLINE
  5
312
  8
0
  6
CONTINUOUS
 62
     7
 66
     1
 10
0.0
 20
0.0
 30
0.0
  0
VERTEX
  5
5FF
  8
0
  6
CONTINUOUS
 62
     7
 10
-1032.0583294766
 20
485.2779656511
 30
0.0
  0
VERTEX
  5
600
  8
0
  6
CONTINUOUS
 62
     7
 10
-1032.2729061977
 20
485.3253662449
 30
0.0
  0
VERTEX
  5
601
  8
0
  6
CONTINUOUS
 62
     7
 10
-1032.4299793379
 20
485.482439385
 30
0.0
  0
VERTEX
  5
602
  8
0
  6
CONTINUOUS
 62
     7
 10
-1032.5261812346
 20
485.7616722446
 30
0.0
  0
VERTEX
  5
603
  8
0
  6
CONTINUOUS
 62
     7
 10
-1032.5583379404
 20
486.1566573244
 30
0.0
  0
VERTEX
  5
604
  8
0
  6
CONTINUOUS
 62
     7
 10
-1032.5263451473
 20
486.6451471907
 30
0.0
  0
VERTEX
  5
605
  8
0
  6
CONTINUOUS
 62
     7
 10
-1032.4303667681
 20
487.187907086
 30
0.0
  0
VERTEX
  5
606
  8
0
  6
CONTINUOUS
 62
     7
 10
-1032.2727571861
 20
487.7472072702
 30
0.0
  0
VERTEX
  5
607
  8
0
  6
CONTINUOUS
 62
     7
 10
-1032.0583294766
 20
488.2779717308
 30
0.0
  0
SEQEND
  5
608
  8
0
  6
CONTINUOUS
 62
     7
  0
ARC
  5
313
  8
0
  6
CONTINUOUS
 62
     7
 10
-1424.0583351459
 20
486.7779649324
 30
0.0
 40
2.5
 50
36.8698976458
 51
45.0
  0
LINE
  5
314
  8
0
  6
CONTINUOUS
 62
     7
 10
-1422.2905646698
 20
488.5457306963
 30
0.0
 11
-1417.3083316223
 21
493.5279637438
 31
0.0
  0
LINE
  5
315
  8
0
  6
CONTINUOUS
 62
     7
 10
-1417.3083316223
 20
493.5279637438
 30
0.0
 11
-1410.5583291189
 21
493.5279637438
 31
0.0
  0
LINE
  5
316
  8
0
  6
CONTINUOUS
 62
     7
 10
-1410.5583291189
 20
493.5279637438
 30
0.0
 11
-1410.5583291189
 21
500.2779662472
 31
0.0
  0
LINE
  5
317
  8
0
  6
CONTINUOUS
 62
     7
 10
-1410.5583291189
 20
500.2779662472
 30
0.0
 11
-1043.5583304302
 21
500.2779662472
 31
0.0
  0
LINE
  5
318
  8
0
  6
CONTINUOUS
 62
     7
 10
-1043.5583304302
 20
493.5279637438
 30
0.0
 11
-1043.5583304302
 21
500.2779662472
 31
0.0
  0
LINE
  5
319
  8
0
  6
CONTINUOUS
 62
     7
 10
-1036.8083279268
 20
493.5279637438
 30
0.0
 11
-1043.5583304302
 21
493.5279637438
 31
0.0
  0
LINE
  5
31A
  8
0
  6
CONTINUOUS
 62
     7
 10
-1031.8260948793
 20
488.5457306963
 30
0.0
 11
-1036.8083279268
 21
493.5279637438
 31
0.0
  0
ARC
  5
31B
  8
0
  6
CONTINUOUS
 62
     7
 10
-1030.0583351459
 20
486.7779649324
 30
0.0
 40
2.5000000000001
 50
135.0
 51
143.1301023542
  0
ARC
  5
31C
  8
0
  6
CONTINUOUS
 62
     7
 10
-1032.126469482
 20
487.2046096988
 30
0.0
 40
0.4320555142428169
 50
178.3139548834
 51
279.0740725652
  0
LINE
  5
31D
  8
0
  6
CONTINUOUS
 62
     7
 10
-1032.0583294766
 20
486.7779612404
 30
0.0
 11
-1032.0583294766
 21
485.2779656511
 31
0.0
  0
ARC
  5
31E
  8
0
  6
CONTINUOUS
 62
     7
 10
-1030.0583351459
 20
486.7779649324
 30
0.0
 40
2.5
 50
126.8698976458
 51
135.0
  0
LINE
  5
31F
  8
0
  6
CONTINUOUS
 62
     7
 10
-1043.5583304302
 20
500.2779662472
 30
0.0
 11
-1031.5583359139
 21
500.2779662472
 31
0.0
  0
POLYLINE
  5
320
  8
0
  6
CONTINUOUS
 62
     7
 66
     1
 10
0.0
 20
0.0
 30
0.0
  0
VERTEX
  5
609
  8
0
  6
CONTINUOUS
 62
     7
 10
-1031.5583359139
 20
488.7779652935
 30
0.0
  0
VERTEX
  5
60A
  8
0
  6
CONTINUOUS
 62
     7
 10
-1031.0271542208
 20
488.9925271135
 30
0.0
  0
VERTEX
  5
60B
  8
0
  6
CONTINUOUS
 62
     7
 10
-1030.4697315828
 20
489.1496151548
 30
0.0
  0
VERTEX
  5
60C
  8
0
  6
CONTINUOUS
 62
     7
 10
-1029.9248557226
 20
489.2458170515
 30
0.0
  0
VERTEX
  5
60D
  8
0
  6
CONTINUOUS
 62
     7
 10
-1029.4370066063
 20
489.2779588562
 30
0.0
  0
VERTEX
  5
60E
  8
0
  6
CONTINUOUS
 62
     7
 10
-1029.041604294
 20
489.2459809643
 30
0.0
  0
VERTEX
  5
60F
  8
0
  6
CONTINUOUS
 62
     7
 10
-1028.7633847134
 20
489.150002585
 30
0.0
  0
VERTEX
  5
610
  8
0
  6
CONTINUOUS
 62
     7
 10
-1028.6056559221
 20
488.9923781019
 30
0.0
  0
VERTEX
  5
611
  8
0
  6
CONTINUOUS
 62
     7
 10
-1028.5583298342
 20
488.7779652935
 30
0.0
  0
SEQEND
  5
612
  8
0
  6
CONTINUOUS
 62
     7
  0
LINE
  5
321
  8
0
  6
CONTINUOUS
 62
     7
 10
-1028.5583298342
 20
488.7779652935
 30
0.0
 11
-1030.0583403246
 21
488.7779652935
 31
0.0
  0
ARC
  5
322
  8
0
  6
CONTINUOUS
 62
     7
 10
-1030.4725667903
 20
488.8570057954
 30
0.0
 40
0.4217000899529675
 50
349.1969867623
 51
93.4108976256
  0
LINE
  5
323
  8
0
  6
CONTINUOUS
 62
     7
 10
-1028.5583298342
 20
500.2779662472
 30
0.0
 11
-1028.5583298342
 21
488.7779652935
 31
0.0
  0
LINE
  5
324
  8
0
  6
CONTINUOUS
 62
     7
 10
-1031.5583359139
 20
500.2779662472
 30
0.0
 11
-1028.5583298342
 21
500.2779662472
 31
0.0
  0
LINE
  5
325
  8
0
  6
CONTINUOUS
 62
     7
 10
-1422.0583300726
 20
486.7779612404
 30
0.0
 11
-1422.0583300726
 21
485.2779656511
 31
0.0
  0
ARC
  5
326
  8
0
  6
CONTINUOUS
 62
     7
 10
-1421.9902018791
 20
487.2046084941
 30
0.0
 40
0.4320524618949861
 50
260.9274490647
 51
1.6862168579
  0
LINE
  5
327
  8
0
  6
CONTINUOUS
 62
     7
 10
-1422.5583385365
 20
500.2779662472
 30
0.0
 11
-1410.5583291189
 21
500.2779662472
 31
0.0
  0
ARC
  5
328
  8
0
  6
CONTINUOUS
 62
     7
 10
-1424.0583351459
 20
486.7779649324
 30
0.0
 40
2.49999999999998
 50
45.0
 51
53.1301023542
  0
POLYLINE
  5
329
  8
0
  6
CONTINUOUS
 62
     7
 66
     1
 10
0.0
 20
0.0
 30
0.0
  0
VERTEX
  5
613
  8
0
  6
CONTINUOUS
 62
     7
 10
-1422.5583385365
 20
488.7779652935
 30
0.0
  0
VERTEX
  5
614
  8
0
  6
CONTINUOUS
 62
     7
 10
-1423.0895202295
 20
488.9925271135
 30
0.0
  0
VERTEX
  5
615
  8
0
  6
CONTINUOUS
 62
     7
 10
-1423.6469428675
 20
489.1496151548
 30
0.0
  0
VERTEX
  5
616
  8
0
  6
CONTINUOUS
 62
     7
 10
-1424.1918187277
 20
489.2458170515
 30
0.0
  0
VERTEX
  5
617
  8
0
  6
CONTINUOUS
 62
     7
 10
-1424.679667844
 20
489.2779588562
 30
0.0
  0
VERTEX
  5
618
  8
0
  6
CONTINUOUS
 62
     7
 10
-1425.0750552551
 20
489.2459809643
 30
0.0
  0
VERTEX
  5
619
  8
0
  6
CONTINUOUS
 62
     7
 10
-1425.3532897369
 20
489.150002585
 30
0.0
  0
VERTEX
  5
61A
  8
0
  6
CONTINUOUS
 62
     7
 10
-1425.5110185282
 20
488.9923781019
 30
0.0
  0
VERTEX
  5
61B
  8
0
  6
CONTINUOUS
 62
     7
 10
-1425.558329715
 20
488.7779652935
 30
0.0
  0
SEQEND
  5
61C
  8
0
  6
CONTINUOUS
 62
     7
  0
ARC
  5
32A
  8
0
  6
CONTINUOUS
 62
     7
 10
-1423.6441060541
 20
488.8570051323
 30
0.0
 40
0.4217015431103736
 50
86.5873045338
 51
190.8028838431
  0
LINE
  5
32B
  8
0
  6
CONTINUOUS
 62
     7
 10
-1425.558329715
 20
488.7779652935
 30
0.0
 11
-1424.0583341257
 21
488.7779652935
 31
0.0
  0
LINE
  5
32C
  8
0
  6
CONTINUOUS
 62
     7
 10
-1425.558329715
 20
488.7779652935
 30
0.0
 11
-1425.558329715
 21
500.2779662472
 31
0.0
  0
LINE
  5
32D
  8
0
  6
CONTINUOUS
 62
     7
 10
-1425.558329715
 20
500.2779662472
 30
0.0
 11
-1422.5583385365
 21
500.2779662472
 31
0.0
  0
LINE
  5
32E
  8
0
  6
CONTINUOUS
 62
     7
 10
-1031.5583359139
 20
485.2779656511
 30
0.0
 11
-1031.5583359139
 21
486.7779612404
 31
0.0
  0
LINE
  5
32F
  8
0
  6
CONTINUOUS
 62
     7
 10
-1031.5583359139
 20
485.2779656511
 30
0.0
 11
-1032.0583294766
 21
485.2779656511
 31
0.0
  0
LINE
  5
330
  8
0
  6
CONTINUOUS
 62
     7
 10
-1031.5583359139
 20
486.7779612404
 30
0.0
 11
-1032.0583294766
 21
486.7779612404
 31
0.0
  0
LINE
  5
331
  8
0
  6
CONTINUOUS
 62
     7
 10
-1030.0583403246
 20
488.7779652935
 30
0.0
 11
-1030.0583403246
 21
488.2779717308
 31
0.0
  0
LINE
  5
332
  8
0
  6
CONTINUOUS
 62
     7
 10
-1028.5583298342
 20
488.7779652935
 30
0.0
 11
-1028.5583298342
 21
488.2779717308
 31
0.0
  0
LINE
  5
333
  8
0
  6
CONTINUOUS
 62
     7
 10
-1028.5583298342
 20
488.2779717308
 30
0.0
 11
-1030.0583403246
 21
488.2779717308
 31
0.0
  0
LINE
  5
334
  8
0
  6
CONTINUOUS
 62
     7
 10
-1422.5583385365
 20
485.2779656511
 30
0.0
 11
-1422.5583385365
 21
486.7779612404
 31
0.0
  0
LINE
  5
335
  8
0
  6
CONTINUOUS
 62
     7
 10
-1422.5583385365
 20
485.2779656511
 30
0.0
 11
-1422.0583300726
 21
485.2779656511
 31
0.0
  0
LINE
  5
336
  8
0
  6
CONTINUOUS
 62
     7
 10
-1422.5583385365
 20
486.7779612404
 30
0.0
 11
-1422.0583300726
 21
486.7779612404
 31
0.0
  0
LINE
  5
337
  8
0
  6
CONTINUOUS
 62
     7
 10
-1424.0583341257
 20
488.7779652935
 30
0.0
 11
-1424.0583341257
 21
488.2779717308
 31
0.0
  0
LINE
  5
338
  8
0
  6
CONTINUOUS
 62
     7
 10
-1425.558329715
 20
488.2779717308
 30
0.0
 11
-1424.0583341257
 21
488.2779717308
 31
0.0
  0
LINE
  5
339
  8
0
  6
CONTINUOUS
 62
     7
 10
-1425.558329715
 20
488.7779652935
 30
0.0
 11
-1425.558329715
 21
488.2779717308
 31
0.0
  0
ARC
  5
33A
  8
0
  6
CONTINUOUS
 62
     7
 10
-1031.5583488561
 20
488.2779846731
 30
0.0
 40
3.000019021984549
 50
270.0002471778
 51
359.9997528222
  0
ARC
  5
33B
  8
0
  6
CONTINUOUS
 62
     7
 10
-1031.5583346843
 20
488.2779556002
 30
0.0
 40
1.499994359800545
 50
269.9999530348
 51
0.0006161465
  0
ARC
  5
33C
  8
0
  6
CONTINUOUS
 62
     7
 10
-1422.5583312866
 20
488.2779640795
 30
0.0
 40
1.500002839161158
 50
179.9997077434
 51
269.9997230753
  0
ARC
  5
33D
  8
0
  6
CONTINUOUS
 62
     7
 10
-1422.5583409956
 20
488.2779543705
 30
0.0
 40
2.99998871942328
 50
179.9996684424
 51
270.0000469663
  0
CIRCLE
  5
33E
  8
0
  6
CONTINUOUS
 62
     7
 10
-1410.5083353655
 20
666.4779645067
 30
0.0
 40
3.750000000000096
  0
CIRCLE
  5
33F
  8
0
  6
CONTINUOUS
 62
     7
 10
-1410.5083353655
 20
641.4779645067
 30
0.0
 40
3.749999999999886
  0
CIRCLE
  5
340
  8
0
  6
CONTINUOUS
 62
     7
 10
-1042.5083353655
 20
666.4779645067
 30
0.0
 40
3.750000000000245
  0
CIRCLE
  5
341
  8
0
  6
CONTINUOUS
 62
     7
 10
-1042.5083353655
 20
641.4779645067
 30
0.0
 40
3.750000000000124
  0
CIRCLE
  5
342
  8
0
  6
CONTINUOUS
 62
     7
 10
-1440.5083353655
 20
704.7779645067
 30
0.0
 40
3.059999999999965
  0
CIRCLE
  5
343
  8
0
  6
CONTINUOUS
 62
     7
 10
-1440.5083353655
 20
674.1779645067
 30
0.0
 40
3.059999999999837
  0
CIRCLE
  5
344
  8
0
  6
CONTINUOUS
 62
     7
 10
-1012.5083353655
 20
704.7779645067
 30
0.0
 40
3.060000000000039
  0
CIRCLE
  5
345
  8
0
  6
CONTINUOUS
 62
     7
 10
-1012.5083353655
 20
674.1779645067
 30
0.0
 40
3.060000000000106
  0
LINE
  5
346
  8
0
  6
CONTINUOUS
 62
     7
 10
-1037.5955264704
 20
636.9222774964
 30
0.0
 11
-1007.5952272551
 21
669.274311499
 31
0.0
  0
LINE
  5
347
  8
0
  6
CONTINUOUS
 62
     7
 10
-1007.3752563135
 20
669.0703257781
 30
0.0
 11
-1037.3755406277
 21
636.7182917756
 31
0.0
  0
CIRCLE
  5
348
  8
0
  6
CONTINUOUS
 62
     7
 10
-1042.5083353655
 20
641.4779645067
 30
0.0
 40
3.200000000000045
  0
CIRCLE
  5
349
  8
0
  6
CONTINUOUS
 62
     7
 10
-1042.5083353655
 20
666.4779645067
 30
0.0
 40
3.199999999999932
  0
CIRCLE
  5
34A
  8
0
  6
CONTINUOUS
 62
     7
 10
-1012.5083353655
 20
704.7779645067
 30
0.0
 40
2.249999999999886
  0
CIRCLE
  5
34B
  8
0
  6
CONTINUOUS
 62
     7
 10
-1012.5083353655
 20
674.1779645067
 30
0.0
 40
2.25
  0
ARC
  5
34C
  8
0
  6
CONTINUOUS
 62
     7
 10
-1009.7583353655
 20
707.2279645067
 30
0.0
 40
2.950000000000045
 50
0.0
 51
90.0
  0
LINE
  5
34D
  8
0
  6
CONTINUOUS
 62
     7
 10
-1006.8083416359
 20
671.2801735711
 30
0.0
 11
-1006.8083416359
 21
707.2279648718
 31
0.0
  0
ARC
  5
34E
  8
0
  6
CONTINUOUS
 62
     7
 10
-1009.7583353655
 20
671.2801733388
 30
0.0
 40
2.950000000000056
 50
317.16
 51
0.0
  0
ARC
  5
34F
  8
0
  6
CONTINUOUS
 62
     7
 10
-1042.5083353655
 20
641.4779645067
 30
0.0
 40
6.700000000000052
 50
180.0
 51
317.16
  0
LINE
  5
350
  8
0
  6
CONTINUOUS
 62
     7
 10
-1049.2083292143
 20
665.0089882177
 30
0.0
 11
-1049.2083292143
 21
641.4779648047
 31
0.0
  0
ARC
  5
351
  8
0
  6
CONTINUOUS
 62
     7
 10
-1042.5083353655
 20
665.008989575
 30
0.0
 40
6.700000000000273
 50
137.16
 51
180.0
  0
LINE
  5
352
  8
0
  6
CONTINUOUS
 62
     7
 10
-1019.1552798883
 20
700.0463234589
 30
0.0
 11
-1047.4211435453
 21
669.5646773886
 31
0.0
  0
ARC
  5
353
  8
0
  6
CONTINUOUS
 62
     7
 10
-1021.7583353655
 20
702.4601578918
 30
0.0
 40
3.550000000000182
 50
317.16
 51
0.0
  0
LINE
  5
354
  8
0
  6
CONTINUOUS
 62
     7
 10
-1018.2083408968
 20
707.2279648718
 30
0.0
 11
-1018.2083408968
 21
702.4601576712
 31
0.0
  0
ARC
  5
355
  8
0
  6
CONTINUOUS
 62
     7
 10
-1015.2583353655
 20
707.2279645067
 30
0.0
 40
2.950000000000045
 50
90.0
 51
180.0
  0
LINE
  5
356
  8
0
  6
CONTINUOUS
 62
     7
 10
-1009.7583394186
 20
710.1779645171
 30
0.0
 11
-1015.2583282129
 21
710.1779645171
 31
0.0
  0
ARC
  5
357
  8
0
  6
CONTINUOUS
 62
     7
 10
-1042.5083353655
 20
641.4779645067
 30
0.0
 40
7.000000000000163
 50
180.0
 51
317.16
  0
LINE
  5
358
  8
0
  6
CONTINUOUS
 62
     7
 10
-1049.5083342926
 20
641.4779648047
 30
0.0
 11
-1049.5083342926
 21
665.0089882177
 31
0.0
  0
ARC
  5
359
  8
0
  6
CONTINUOUS
 62
     7
 10
-1042.5083353655
 20
665.008989575
 30
0.0
 40
7.000000000000227
 50
137.16
 51
180.0
  0
ARC
  5
35A
  8
0
  6
CONTINUOUS
 62
     7
 10
-1009.7583353655
 20
671.2801733388
 30
0.0
 40
3.250000000000006
 50
317.16
 51
0.0
  0
LINE
  5
35B
  8
0
  6
CONTINUOUS
 62
     7
 10
-1047.6411293881
 20
669.7686631095
 30
0.0
 11
-1019.3752508299
 21
700.2503094126
 31
0.0
  0
LINE
  5
35C
  8
0
  6
CONTINUOUS
 62
     7
 10
-1006.5083365576
 20
707.2279648718
 30
0.0
 11
-1006.5083365576
 21
671.2801735711
 31
0.0
  0
ARC
  5
35D
  8
0
  6
CONTINUOUS
 62
     7
 10
-1021.7583353655
 20
702.4601578918
 30
0.0
 40
3.250000000000083
 50
317.16
 51
0.0
  0
ARC
  5
35E
  8
0
  6
CONTINUOUS
 62
     7
 10
-1015.2583353655
 20
707.2279645067
 30
0.0
 40
3.250000000000227
 50
90.0
 51
180.0
  0
ARC
  5
35F
  8
0
  6
CONTINUOUS
 62
     7
 10
-1009.7583353655
 20
707.2279645067
 30
0.0
 40
3.25
 50
0.0
 51
90.0
  0
LINE
  5
360
  8
0
  6
CONTINUOUS
 62
     7
 10
-1018.508331074
 20
702.4601576712
 30
0.0
 11
-1018.508331074
 21
707.2279648718
 31
0.0
  0
LINE
  5
361
  8
0
  6
CONTINUOUS
 62
     7
 10
-1015.2583282129
 20
710.4779649389
 30
0.0
 11
-1009.7583394186
 21
710.4779649389
 31
0.0
  0
CIRCLE
  5
362
  8
0
  6
CONTINUOUS
 62
     7
 10
-1410.5083353655
 20
641.4779645067
 30
0.0
 40
3.200000000000045
  0
CIRCLE
  5
363
  8
0
  6
CONTINUOUS
 62
     7
 10
-1410.5083353655
 20
666.4779645067
 30
0.0
 40
3.199999999999932
  0
CIRCLE
  5
364
  8
0
  6
CONTINUOUS
 62
     7
 10
-1440.5083353655
 20
704.7779645067
 30
0.0
 40
2.249999999999886
  0
CIRCLE
  5
365
  8
0
  6
CONTINUOUS
 62
     7
 10
-1440.5083353655
 20
674.1779645067
 30
0.0
 40
2.25
  0
ARC
  5
366
  8
0
  6
CONTINUOUS
 62
     7
 10
-1437.7583353655
 20
707.2279645067
 30
0.0
 40
2.950000000000045
 50
0.0
 51
90.0
  0
LINE
  5
367
  8
0
  6
CONTINUOUS
 62
     7
 10
-1434.8083298342
 20
702.4601576712
 30
0.0
 11
-1434.8083298342
 21
707.2279648718
 31
0.0
  0
ARC
  5
368
  8
0
  6
CONTINUOUS
 62
     7
 10
-1431.2583353655
 20
702.4601578918
 30
0.0
 40
3.549999999999955
 50
180.0
 51
222.84
  0
LINE
  5
369
  8
0
  6
CONTINUOUS
 62
     7
 10
-1405.5955271856
 20
669.5646773886
 30
0.0
 11
-1433.8613908426
 21
700.0463234589
 31
0.0
  0
ARC
  5
36A
  8
0
  6
CONTINUOUS
 62
     7
 10
-1410.5083353655
 20
665.008989575
 30
0.0
 40
6.70000000000013
 50
0.0
 51
42.84
  0
LINE
  5
36B
  8
0
  6
CONTINUOUS
 62
     7
 10
-1403.8083415167
 20
641.4779648047
 30
0.0
 11
-1403.8083415167
 21
665.0089882177
 31
0.0
  0
ARC
  5
36C
  8
0
  6
CONTINUOUS
 62
     7
 10
-1410.5083353655
 20
641.4779645067
 30
0.0
 40
6.700000000000045
 50
222.84
 51
0.0
  0
LINE
  5
36D
  8
0
  6
CONTINUOUS
 62
     7
 10
-1445.4214434759
 20
669.274311499
 30
0.0
 11
-1415.4211442606
 21
636.9222774964
 31
0.0
  0
ARC
  5
36E
  8
0
  6
CONTINUOUS
 62
     7
 10
-1443.2583353655
 20
671.2801733388
 30
0.0
 40
2.949999999999966
 50
180.0
 51
222.84
  0
LINE
  5
36F
  8
0
  6
CONTINUOUS
 62
     7
 10
-1446.2083290951
 20
707.2279648718
 30
0.0
 11
-1446.2083290951
 21
671.2801735711
 31
0.0
  0
ARC
  5
370
  8
0
  6
CONTINUOUS
 62
     7
 10
-1443.2583353655
 20
707.2279645067
 30
0.0
 40
2.949999999999818
 50
90.0
 51
180.0
  0
LINE
  5
371
  8
0
  6
CONTINUOUS
 62
     7
 10
-1437.758342518
 20
710.1779645171
 30
0.0
 11
-1443.2583313124
 21
710.1779645171
 31
0.0
  0
ARC
  5
372
  8
0
  6
CONTINUOUS
 62
     7
 10
-1410.5083353655
 20
641.4779645067
 30
0.0
 40
7.000000000000227
 50
222.84
 51
0.0
  0
LINE
  5
373
  8
0
  6
CONTINUOUS
 62
     7
 10
-1415.6411301033
 20
636.7182917756
 30
0.0
 11
-1445.6414144175
 21
669.0703257781
 31
0.0
  0
LINE
  5
374
  8
0
  6
CONTINUOUS
 62
     7
 10
-1403.5083364384
 20
665.0089882177
 30
0.0
 11
-1403.5083364384
 21
641.4779648047
 31
0.0
  0
ARC
  5
375
  8
0
  6
CONTINUOUS
 62
     7
 10
-1410.5083353655
 20
665.008989575
 30
0.0
 40
7.000000000000227
 50
0.0
 51
42.84
  0
LINE
  5
376
  8
0
  6
CONTINUOUS
 62
     7
 10
-1433.6414199011
 20
700.2503094126
 30
0.0
 11
-1405.3755413429
 21
669.7686631095
 31
0.0
  0
LINE
  5
377
  8
0
  6
CONTINUOUS
 62
     7
 10
-1446.5083341734
 20
671.2801735711
 30
0.0
 11
-1446.5083341734
 21
707.2279648718
 31
0.0
  0
ARC
  5
378
  8
0
  6
CONTINUOUS
 62
     7
 10
-1443.2583353655
 20
671.2801733388
 30
0.0
 40
3.25
 50
180.0
 51
222.84
  0
ARC
  5
379
  8
0
  6
CONTINUOUS
 62
     7
 10
-1431.2583353655
 20
702.4601578918
 30
0.0
 40
3.25
 50
180.0
 51
222.84
  0
LINE
  5
37A
  8
0
  6
CONTINUOUS
 62
     7
 10
-1434.508339657
 20
707.2279648718
 30
0.0
 11
-1434.508339657
 21
702.4601576712
 31
0.0
  0
ARC
  5
37B
  8
0
  6
CONTINUOUS
 62
     7
 10
-1443.2583353655
 20
707.2279645067
 30
0.0
 40
3.25
 50
90.0
 51
180.0
  0
ARC
  5
37C
  8
0
  6
CONTINUOUS
 62
     7
 10
-1437.7583353655
 20
707.2279645067
 30
0.0
 40
3.25
 50
0.0
 51
90.0
  0
LINE
  5
37D
  8
0
  6
CONTINUOUS
 62
     7
 10
-1443.2583313124
 20
710.4779649389
 30
0.0
 11
-1437.758342518
 21
710.4779649389
 31
0.0
  0
POLYLINE
  5
37E
  8
0
  6
CONTINUOUS
 62
     7
 66
     1
 10
0.0
 20
0.0
 30
0.0
  0
VERTEX
  5
61D
  8
0
  6
CONTINUOUS
 62
     7
 10
-1061.856464638
 20
485.2779656511
 30
0.0
  0
VERTEX
  5
61E
  8
0
  6
CONTINUOUS
 62
     7
 10
-1061.8578206436
 20
483.5154563051
 30
0.0
  0
VERTEX
  5
61F
  8
0
  6
CONTINUOUS
 62
     7
 10
-1061.8592362539
 20
482.1426868301
 30
0.0
  0
SEQEND
  5
620
  8
0
  6
CONTINUOUS
 62
     7
  0
LINE
  5
37F
  8
0
  6
CONTINUOUS
 62
     7
 10
-1089.0583406822
 20
481.9313138586
 30
0.0
 11
-1089.0583406822
 21
485.2779656511
 31
0.0
  0
LINE
  5
380
  8
0
  6
CONTINUOUS
 62
     7
 10
-1089.0583406822
 20
481.9313138586
 30
0.0
 11
-1088.9761607782
 21
482.0321500164
 31
0.0
  0
LINE
  5
381
  8
0
  6
CONTINUOUS
 62
     7
 10
-1059.0583394901
 20
485.2779656511
 30
0.0
 11
-1059.0583394901
 21
481.9313138586
 31
0.0
  0
LINE
  5
382
  8
0
  6
CONTINUOUS
 62
     7
 10
-1059.1405342953
 20
482.0321500164
 30
0.0
 11
-1059.0583394901
 21
481.9313138586
 31
0.0
  0
ARC
  5
383
  8
0
  6
CONTINUOUS
 62
     7
 10
-1063.7342196285
 20
481.9412008568
 30
0.0
 40
1.885778155614425
 50
359.230084286
 51
6.1334755327
  0
POLYLINE
  5
384
  8
0
  6
CONTINUOUS
 62
     7
 66
     1
 10
0.0
 20
0.0
 30
0.0
  0
VERTEX
  5
621
  8
0
  6
CONTINUOUS
 62
     7
 10
-1061.848611726
 20
481.9158613544
 30
0.0
  0
VERTEX
  5
622
  8
0
  6
CONTINUOUS
 62
     7
 10
-1060.8563583033
 20
481.9689243895
 30
0.0
  0
VERTEX
  5
623
  8
0
  6
CONTINUOUS
 62
     7
 10
-1060.0743900673
 20
481.9361716371
 30
0.0
  0
VERTEX
  5
624
  8
0
  6
CONTINUOUS
 62
     7
 10
-1059.6156131165
 20
481.853425489
 30
0.0
  0
VERTEX
  5
625
  8
0
  6
CONTINUOUS
 62
     7
 10
-1059.3767177002
 20
481.7411154371
 30
0.0
  0
VERTEX
  5
626
  8
0
  6
CONTINUOUS
 62
     7
 10
-1059.3214939968
 20
481.6384762388
 30
0.0
  0
SEQEND
  5
627
  8
0
  6
CONTINUOUS
 62
     7
  0
POLYLINE
  5
385
  8
0
  6
CONTINUOUS
 62
     7
 66
     1
 10
0.0
 20
0.0
 30
0.0
  0
VERTEX
  5
628
  8
0
  6
CONTINUOUS
 62
     7
 10
-1088.7951712744
 20
481.6384762388
 30
0.0
  0
VERTEX
  5
629
  8
0
  6
CONTINUOUS
 62
     7
 10
-1088.7571137087
 20
481.7245751482
 30
0.0
  0
VERTEX
  5
62A
  8
0
  6
CONTINUOUS
 62
     7
 10
-1088.6009495394
 20
481.8194806438
 30
0.0
  0
VERTEX
  5
62B
  8
0
  6
CONTINUOUS
 62
     7
 10
-1088.2409821884
 20
481.9099157911
 30
0.0
  0
VERTEX
  5
62C
  8
0
  6
CONTINUOUS
 62
     7
 10
-1087.7457122938
 20
481.9591939312
 30
0.0
  0
VERTEX
  5
62D
  8
0
  6
CONTINUOUS
 62
     7
 10
-1087.0578001873
 20
481.9651543957
 30
0.0
  0
VERTEX
  5
62E
  8
0
  6
CONTINUOUS
 62
     7
 10
-1086.2680535452
 20
481.9158613544
 30
0.0
  0
SEQEND
  5
62F
  8
0
  6
CONTINUOUS
 62
     7
  0
ARC
  5
386
  8
0
  6
CONTINUOUS
 62
     7
 10
-1059.3551641438
 20
481.9333923563
 30
0.0
 40
0.2968319308564387
 50
276.513175477
 51
359.5987961217
  0
ARC
  5
387
  8
0
  6
CONTINUOUS
 62
     7
 10
-1088.7615015661
 20
481.9334070665
 30
0.0
 40
0.2968464962850187
 50
180.4040235356
 51
263.4872307237
  0
LINE
  5
388
  8
0
  6
CONTINUOUS
 62
     7
 10
-1059.0583394901
 20
481.9313138586
 30
0.0
 11
-1059.0583394901
 21
480.4840236765
 31
0.0
  0
LINE
  5
389
  8
0
  6
CONTINUOUS
 62
     7
 10
-1089.0583406822
 20
480.4840236765
 30
0.0
 11
-1089.0583406822
 21
481.9313138586
 31
0.0
  0
LINE
  5
38A
  8
0
  6
CONTINUOUS
 62
     7
 10
-1063.1652038233
 20
479.4123917681
 30
0.0
 11
-1084.9514763491
 21
479.4123917681
 31
0.0
  0
LINE
  5
38B
  8
0
  6
CONTINUOUS
 62
     7
 10
-1061.8164103167
 20
479.4125556808
 30
0.0
 11
-1063.1641160385
 21
479.4125556808
 31
0.0
  0
LINE
  5
38C
  8
0
  6
CONTINUOUS
 62
     7
 10
-1084.9525641338
 20
479.4125556808
 30
0.0
 11
-1086.3002698557
 21
479.4125556808
 31
0.0
  0
LINE
  5
38D
  8
0
  6
CONTINUOUS
 62
     7
 10
-1422.0583300726
 20
488.2779717308
 30
0.0
 11
-1422.0583300726
 21
486.8284761768
 31
0.0
  0
ARC
  5
38E
  8
0
  6
CONTINUOUS
 62
     7
 10
-1421.5583351459
 20
489.2779649324
 30
0.0
 40
2.500000000000085
 50
185.5744582276
 51
258.4630409672
  0
LINE
  5
38F
  8
0
  6
CONTINUOUS
 62
     7
 10
-1041.052744879
 20
505.4779648643
 30
0.0
 11
-1045.258329405
 21
505.4779648643
 31
0.0
  0
LINE
  5
390
  8
0
  6
CONTINUOUS
 62
     7
 10
-1035.2583389418
 20
505.4779648643
 30
0.0
 11
-1041.052744879
 21
505.4779648643
 31
0.0
  0
CIRCLE
  5
391
  8
0
  6
CONTINUOUS
 62
     7
 10
-1041.5083353655
 20
515.9779645067
 30
0.0
 40
7.000000000000003
  0
CIRCLE
  5
392
  8
0
  6
CONTINUOUS
 62
     7
 10
-1411.5083353655
 20
515.9779645067
 30
0.0
 40
7.00000000000008
  0
LINE
  5
393
  8
0
  6
CONTINUOUS
 62
     7
 10
-1407.0089470284
 20
500.2779662472
 30
0.0
 11
-1406.7388783829
 21
502.1996199947
 31
0.0
  0
ARC
  5
394
  8
0
  6
CONTINUOUS
 62
     7
 10
-1408.7194076972
 20
502.4779645069
 30
0.0
 40
2.000000082123506
 50
352.0000011903
 51
89.9999999999
  0
LINE
  5
395
  8
0
  6
CONTINUOUS
 62
     7
 10
-1408.7194066183
 20
504.4779628378
 30
0.0
 11
-1417.7583317892
 21
504.4779628378
 31
0.0
  0
LINE
  5
396
  8
0
  6
CONTINUOUS
 62
     7
 10
-1417.7583317892
 20
504.4779628378
 30
0.0
 11
-1417.7583317892
 21
506.4779668909
 31
0.0
  0
ARC
  5
397
  8
0
  6
CONTINUOUS
 62
     7
 10
-1408.7194076972
 20
502.4779645069
 30
0.0
 40
4.0
 50
352.0000011904
 51
90.0000000001
  0
LINE
  5
398
  8
0
  6
CONTINUOUS
 62
     7
 10
-1404.7583352463
 20
501.9212663036
 30
0.0
 11
-1404.9892883436
 21
500.2779662472
 31
0.0
  0
ARC
  5
399
  8
0
  6
CONTINUOUS
 62
     7
 10
-1032.2526625978
 20
509.283955634
 30
0.0
 40
4.223192763978409
 50
320.1789778611
 51
2.6329449098
  0
LINE
  5
39A
  8
0
  6
CONTINUOUS
 62
     7
 10
-1029.0090452568
 20
506.5794437986
 30
0.0
 11
-1029.507235779
 21
506.4779668909
 31
0.0
  0
LINE
  5
39B
  8
0
  6
CONTINUOUS
 62
     7
 10
-1423.5801111595
 20
506.4779668909
 30
0.0
 11
-1029.5521180765
 21
506.4779668909
 31
0.0
  0
POLYLINE
  5
39C
  8
0
  6
CONTINUOUS
 62
     7
 66
     1
 10
0.0
 20
0.0
 30
0.0
  0
VERTEX
  5
630
  8
0
  6
CONTINUOUS
 62
     7
 10
-1423.5801111595
 20
506.4779668909
 30
0.0
  0
VERTEX
  5
631
  8
0
  6
CONTINUOUS
 62
     7
 10
-1424.116597666
 20
506.6553503138
 30
0.0
  0
VERTEX
  5
632
  8
0
  6
CONTINUOUS
 62
     7
 10
-1424.5124768154
 20
507.1735977989
 30
0.0
  0
VERTEX
  5
633
  8
0
  6
CONTINUOUS
 62
     7
 10
-1424.7545163767
 20
507.980346666
 30
0.0
  0
VERTEX
  5
634
  8
0
  6
CONTINUOUS
 62
     7
 10
-1424.8703580038
 20
508.6416154963
 30
0.0
  0
VERTEX
  5
635
  8
0
  6
CONTINUOUS
 62
     7
 10
-1424.9827425615
 20
509.4779580694
 30
0.0
  0
SEQEND
  5
636
  8
0
  6
CONTINUOUS
 62
     7
  0
ARC
  5
39D
  8
0
  6
CONTINUOUS
 62
     7
 10
-1420.0076282588
 20
509.9761527647
 30
0.0
 40
4.99999999997317
 50
180.0
 51
185.7183052343
  0
LINE
  5
39E
  8
0
  6
CONTINUOUS
 62
     7
 10
-1425.0076275007
 20
693.4779644806
 30
0.0
 11
-1425.0076275007
 21
690.9397146527
 31
0.0
  0
LINE
  5
39F
  8
0
  6
CONTINUOUS
 62
     7
 10
-1425.0076275007
 20
646.8190438908
 30
0.0
 11
-1425.0076275007
 21
509.9761485916
 31
0.0
  0
LINE
  5
3A0
  8
0
  6
CONTINUOUS
 62
     7
 10
-1028.0090432303
 20
509.9761485916
 30
0.0
 11
-1028.0090432303
 21
646.8190438908
 31
0.0
  0
LINE
  5
3A1
  8
0
  6
CONTINUOUS
 62
     7
 10
-1028.0090432303
 20
690.9397146527
 30
0.0
 11
-1028.0090432303
 21
693.4779644806
 31
0.0
  0
ARC
  5
3A2
  8
0
  6
CONTINUOUS
 62
     7
 10
-1033.0090424723
 20
509.9761527647
 30
0.0
 40
5.000000000006334
 50
354.2816947658
 51
0.0
  0
POLYLINE
  5
3A3
  8
0
  6
CONTINUOUS
 62
     7
 66
     1
 10
0.0
 20
0.0
 30
0.0
  0
VERTEX
  5
637
  8
0
  6
CONTINUOUS
 62
     7
 10
-1423.508332266
 20
696.4779645067
 30
0.0
  0
VERTEX
  5
638
  8
0
  6
CONTINUOUS
 62
     7
 10
-1423.8008271591
 20
696.4203203469
 30
0.0
  0
VERTEX
  5
639
  8
0
  6
CONTINUOUS
 62
     7
 10
-1424.0820865767
 20
696.2496031055
 30
0.0
  0
VERTEX
  5
63A
  8
0
  6
CONTINUOUS
 62
     7
 10
-1424.3412922756
 20
695.9723733461
 30
0.0
  0
VERTEX
  5
63B
  8
0
  6
CONTINUOUS
 62
     7
 10
-1424.5684902803
 20
695.5992848242
 30
0.0
  0
VERTEX
  5
63C
  8
0
  6
CONTINUOUS
 62
     7
 10
-1424.7549485104
 20
695.1446751927
 30
0.0
  0
VERTEX
  5
63D
  8
0
  6
CONTINUOUS
 62
     7
 10
-1424.8934995071
 20
694.6260147823
 30
0.0
  0
VERTEX
  5
63E
  8
0
  6
CONTINUOUS
 62
     7
 10
-1424.9788235561
 20
694.0632355262
 30
0.0
  0
VERTEX
  5
63F
  8
0
  6
CONTINUOUS
 62
     7
 10
-1425.0076275007
 20
693.4779644806
 30
0.0
  0
SEQEND
  5
640
  8
0
  6
CONTINUOUS
 62
     7
  0
POLYLINE
  5
3A4
  8
0
  6
CONTINUOUS
 62
     7
 66
     1
 10
0.0
 20
0.0
 30
0.0
  0
VERTEX
  5
641
  8
0
  6
CONTINUOUS
 62
     7
 10
-1028.0090432303
 20
693.4779644806
 30
0.0
  0
VERTEX
  5
642
  8
0
  6
CONTINUOUS
 62
     7
 10
-1028.0318271057
 20
693.998909076
 30
0.0
  0
VERTEX
  5
643
  8
0
  6
CONTINUOUS
 62
     7
 10
-1028.0994634764
 20
694.5040249128
 30
0.0
  0
VERTEX
  5
644
  8
0
  6
CONTINUOUS
 62
     7
 10
-1028.2099108831
 20
694.9779644937
 30
0.0
  0
VERTEX
  5
645
  8
0
  6
CONTINUOUS
 62
     7
 10
-1028.3598165648
 20
695.4063273596
 30
0.0
  0
VERTEX
  5
646
  8
0
  6
CONTINUOUS
 62
     7
 10
-1028.5446058647
 20
695.776097812
 30
0.0
  0
VERTEX
  5
647
  8
0
  6
CONTINUOUS
 62
     7
 10
-1028.7586908476
 20
696.0760407245
 30
0.0
  0
VERTEX
  5
648
  8
0
  6
CONTINUOUS
 62
     7
 10
-1028.9955448048
 20
696.2970423637
 30
0.0
  0
VERTEX
  5
649
  8
0
  6
CONTINUOUS
 62
     7
 10
-1029.2479853766
 20
696.4323877663
 30
0.0
  0
VERTEX
  5
64A
  8
0
  6
CONTINUOUS
 62
     7
 10
-1029.5083384649
 20
696.4779645067
 30
0.0
  0
SEQEND
  5
64B
  8
0
  6
CONTINUOUS
 62
     7
  0
LINE
  5
3A5
  8
0
  6
CONTINUOUS
 62
     7
 10
-1029.5083384649
 20
696.4779645067
 30
0.0
 11
-1034.536198868
 21
696.4779645067
 31
0.0
  0
LINE
  5
3A6
  8
0
  6
CONTINUOUS
 62
     7
 10
-1418.480471863
 20
696.4779645067
 30
0.0
 11
-1423.508332266
 21
696.4779645067
 31
0.0
  0
LINE
  5
3A7
  8
0
  6
CONTINUOUS
 62
     7
 10
-1425.0083427565
 20
509.4779580694
 30
0.0
 11
-1426.5083383457
 21
509.4779580694
 31
0.0
  0
LINE
  5
3A8
  8
0
  6
CONTINUOUS
 62
     7
 10
-1426.5083383457
 20
509.9761485916
 30
0.0
 11
-1426.5083383457
 21
509.4779580694
 31
0.0
  0
LINE
  5
3A9
  8
0
  6
CONTINUOUS
 62
     7
 10
-1425.0083427565
 20
509.4779580694
 30
0.0
 11
-1425.0083427565
 21
509.9761485916
 31
0.0
  0
LINE
  5
3AA
  8
0
  6
CONTINUOUS
 62
     7
 10
-1028.0083279745
 20
509.9761485916
 30
0.0
 11
-1028.0083279745
 21
509.4779580694
 31
0.0
  0
LINE
  5
3AB
  8
0
  6
CONTINUOUS
 62
     7
 10
-1026.5083323853
 20
509.9761485916
 30
0.0
 11
-1026.5083323853
 21
509.4779580694
 31
0.0
  0
LINE
  5
3AC
  8
0
  6
CONTINUOUS
 62
     7
 10
-1026.5083323853
 20
509.4779580694
 30
0.0
 11
-1028.0083279745
 21
509.4779580694
 31
0.0
  0
ARC
  5
3AD
  8
0
  6
CONTINUOUS
 62
     7
 10
-1423.5083236817
 20
693.4779498426
 30
0.0
 40
3.000014664104246
 50
90.0001639491
 51
179.9997204359
  0
LINE
  5
3AE
  8
0
  6
CONTINUOUS
 62
     7
 10
-1426.5083383457
 20
509.9761485916
 30
0.0
 11
-1426.5083383457
 21
648.4373919528
 31
0.0
  0
LINE
  5
3AF
  8
0
  6
CONTINUOUS
 62
     7
 10
-1426.5083383457
 20
692.5580631804
 30
0.0
 11
-1426.5083383457
 21
693.4779644806
 31
0.0
  0
LINE
  5
3B0
  8
0
  6
CONTINUOUS
 62
     7
 10
-1425.0083427565
 20
509.9761485916
 30
0.0
 11
-1425.0083427565
 21
646.81980385
 31
0.0
  0
LINE
  5
3B1
  8
0
  6
CONTINUOUS
 62
     7
 10
-1425.0083427565
 20
690.9404769402
 30
0.0
 11
-1425.0083427565
 21
693.4779644806
 31
0.0
  0
LINE
  5
3B2
  8
0
  6
CONTINUOUS
 62
     7
 10
-1028.0083279745
 20
693.4779644806
 30
0.0
 11
-1028.0083279745
 21
690.9404769402
 31
0.0
  0
LINE
  5
3B3
  8
0
  6
CONTINUOUS
 62
     7
 10
-1028.0083279745
 20
646.81980385
 30
0.0
 11
-1028.0083279745
 21
509.9761485916
 31
0.0
  0
LINE
  5
3B4
  8
0
  6
CONTINUOUS
 62
     7
 10
-1026.5083323853
 20
693.4779644806
 30
0.0
 11
-1026.5083323853
 21
692.5580631804
 31
0.0
  0
LINE
  5
3B5
  8
0
  6
CONTINUOUS
 62
     7
 10
-1026.5083323853
 20
648.4373919528
 30
0.0
 11
-1026.5083323853
 21
509.9761485916
 31
0.0
  0
ARC
  5
3B6
  8
0
  6
CONTINUOUS
 62
     7
 10
-1029.5083281616
 20
693.4779687304
 30
0.0
 40
2.999995776347359
 50
359.9999188357
 51
90.0001967794
  0
POLYLINE
  5
3B7
  8
0
  6
CONTINUOUS
 62
     7
 66
     1
 10
0.0
 20
0.0
 30
0.0
  0
VERTEX
  5
64C
  8
0
  6
CONTINUOUS
 62
     7
 10
-1425.0083427565
 20
509.4779580694
 30
0.0
  0
VERTEX
  5
64D
  8
0
  6
CONTINUOUS
 62
     7
 10
-1424.9671410458
 20
509.1288387638
 30
0.0
  0
VERTEX
  5
64E
  8
0
  6
CONTINUOUS
 62
     7
 10
-1424.9159108536
 20
508.9806169134
 30
0.0
  0
SEQEND
  5
64F
  8
0
  6
CONTINUOUS
 62
     7
  0
ARC
  5
3B8
  8
0
  6
CONTINUOUS
 62
     7
 10
-1423.5083501357
 20
509.4779626444
 30
0.0
 40
2.999988209998342
 50
180.0000873758
 51
255.0545443187
  0
POLYLINE
  5
3B9
  8
0
  6
CONTINUOUS
 62
     7
 66
     1
 10
0.0
 20
0.0
 30
0.0
  0
VERTEX
  5
650
  8
0
  6
CONTINUOUS
 62
     7
 10
-1028.1004022495
 20
508.9832246166
 30
0.0
  0
VERTEX
  5
651
  8
0
  6
CONTINUOUS
 62
     7
 10
-1028.0677985088
 20
509.0597867828
 30
0.0
  0
VERTEX
  5
652
  8
0
  6
CONTINUOUS
 62
     7
 10
-1028.0083279745
 20
509.4779580694
 30
0.0
  0
SEQEND
  5
653
  8
0
  6
CONTINUOUS
 62
     7
  0
ARC
  5
3BA
  8
0
  6
CONTINUOUS
 62
     7
 10
-1029.5083363659
 20
509.4779708716
 30
0.0
 40
3.000003980652645
 50
269.9999599112
 51
359.9997554975
  0
LINE
  5
3BB
  8
0
  6
CONTINUOUS
 62
     7
 10
-1424.2820452587
 20
506.5794586998
 30
0.0
 11
-1423.508332266
 21
506.4779668909
 31
0.0
  0
LINE
  5
3BC
  8
0
  6
CONTINUOUS
 62
     7
 10
-1029.5521180765
 20
506.4779668909
 30
0.0
 11
-1029.5083384649
 21
506.4779668909
 31
0.0
  0
LINE
  5
3BD
  8
0
  6
CONTINUOUS
 62
     7
 10
-1404.655234112
 20
500.2779662472
 30
0.0
 11
-1404.024035825
 21
504.7692060333
 31
0.0
  0
LINE
  5
3BE
  8
0
  6
CONTINUOUS
 62
     7
 10
-1404.024035825
 20
504.7692060333
 30
0.0
 11
-1402.5386433737
 21
504.560440765
 31
0.0
  0
LINE
  5
3BF
  8
0
  6
CONTINUOUS
 62
     7
 10
-1403.1405012743
 20
500.2779662472
 30
0.0
 11
-1402.5386433737
 21
504.560440765
 31
0.0
  0
LINE
  5
3C0
  8
0
  6
CONTINUOUS
 62
     7
 10
-1048.7986366884
 20
504.7692060333
 30
0.0
 11
-1048.1612395184
 21
500.2779662472
 31
0.0
  0
POLYLINE
  5
3C1
  8
0
  6
CONTINUOUS
 62
     7
 66
     1
 10
0.0
 20
0.0
 30
0.0
  0
VERTEX
  5
654
  8
0
  6
CONTINUOUS
 62
     7
 10
-1048.6409227984
 20
505.9601664406
 30
0.0
  0
VERTEX
  5
655
  8
0
  6
CONTINUOUS
 62
     7
 10
-1048.1304090159
 20
506.3423961264
 30
0.0
  0
VERTEX
  5
656
  8
0
  6
CONTINUOUS
 62
     7
 10
-1047.5072275536
 20
506.4779668909
 30
0.0
  0
SEQEND
  5
657
  8
0
  6
CONTINUOUS
 62
     7
  0
POLYLINE
  5
3C2
  8
0
  6
CONTINUOUS
 62
     7
 66
     1
 10
0.0
 20
0.0
 30
0.0
  0
VERTEX
  5
658
  8
0
  6
CONTINUOUS
 62
     7
 10
-1405.5094431774
 20
506.4779668909
 30
0.0
  0
VERTEX
  5
659
  8
0
  6
CONTINUOUS
 62
     7
 10
-1404.8862617151
 20
506.3423961264
 30
0.0
  0
VERTEX
  5
65A
  8
0
  6
CONTINUOUS
 62
     7
 10
-1404.3757479326
 20
505.9601664406
 30
0.0
  0
SEQEND
  5
65B
  8
0
  6
CONTINUOUS
 62
     7
  0
POLYLINE
  5
3C3
  8
0
  6
CONTINUOUS
 62
     7
 66
     1
 10
0.0
 20
0.0
 30
0.0
  0
VERTEX
  5
65C
  8
0
  6
CONTINUOUS
 62
     7
 10
-1047.5061248676
 20
506.4779668909
 30
0.0
  0
VERTEX
  5
65D
  8
0
  6
CONTINUOUS
 62
     7
 10
-1048.2575904266
 20
506.3423961264
 30
0.0
  0
VERTEX
  5
65E
  8
0
  6
CONTINUOUS
 62
     7
 10
-1049.0090410845
 20
505.9601664406
 30
0.0
  0
SEQEND
  5
65F
  8
0
  6
CONTINUOUS
 62
     7
  0
ARC
  5
3C4
  8
0
  6
CONTINUOUS
 62
     7
 10
-1077.1804948445
 20
500.3691106636
 30
0.0
 40
28.72091070378037
 50
8.8125217237
 51
11.225357256
  0
ARC
  5
3C5
  8
0
  6
CONTINUOUS
 62
     7
 10
-1374.3359608539
 20
500.3694270082
 30
0.0
 40
28.72106436876838
 50
168.775346968
 51
171.1881644166
  0
LINE
  5
3C6
  8
0
  6
CONTINUOUS
 62
     7
 10
-1402.5076340572
 20
505.9601664406
 30
0.0
 11
-1404.0076296465
 21
505.9601664406
 31
0.0
  0
POLYLINE
  5
3C7
  8
0
  6
CONTINUOUS
 62
     7
 66
     1
 10
0.0
 20
0.0
 30
0.0
  0
VERTEX
  5
660
  8
0
  6
CONTINUOUS
 62
     7
 10
-1404.0076296465
 20
505.9601664406
 30
0.0
  0
VERTEX
  5
661
  8
0
  6
CONTINUOUS
 62
     7
 10
-1404.7618370192
 20
506.3423961264
 30
0.0
  0
VERTEX
  5
662
  8
0
  6
CONTINUOUS
 62
     7
 10
-1405.5160294907
 20
506.4779668909
 30
0.0
  0
SEQEND
  5
663
  8
0
  6
CONTINUOUS
 62
     7
  0
POLYLINE
  5
3C8
  8
0
  6
CONTINUOUS
 62
     7
 66
     1
 10
0.0
 20
0.0
 30
0.0
  0
VERTEX
  5
664
  8
0
  6
CONTINUOUS
 62
     7
 10
-1402.6189457314
 20
505.7545453173
 30
0.0
  0
VERTEX
  5
665
  8
0
  6
CONTINUOUS
 62
     7
 10
-1402.6128362553
 20
505.8276206118
 30
0.0
  0
VERTEX
  5
666
  8
0
  6
CONTINUOUS
 62
     7
 10
-1402.6010196344
 20
505.9601664406
 30
0.0
  0
SEQEND
  5
667
  8
0
  6
CONTINUOUS
 62
     7
  0
ARC
  5
3C9
  8
0
  6
CONTINUOUS
 62
     7
 10
-1191.3601711979
 20
493.4646559795
 30
0.0
 40
142.9914005349178
 50
4.6183503062
 51
5.0671788829
  0
ARC
  5
3CA
  8
0
  6
CONTINUOUS
 62
     7
 10
-1405.0253911405
 20
505.0039995818
 30
0.0
 40
2.525996611197637
 50
349.8865662948
 51
22.2426905256
  0
ARC
  5
3CB
  8
0
  6
CONTINUOUS
 62
     7
 10
-1405.5093803501
 20
504.9779706523
 30
0.0
 40
1.499943673803123
 50
351.9995059972
 51
40.9061378494
  0
POLYLINE
  5
3CC
  8
0
  6
CONTINUOUS
 62
     7
 66
     1
 10
0.0
 20
0.0
 30
0.0
  0
VERTEX
  5
668
  8
0
  6
CONTINUOUS
 62
     7
 10
-1048.8812785284
 20
505.5580735069
 30
0.0
  0
VERTEX
  5
669
  8
0
  6
CONTINUOUS
 62
     7
 10
-1048.8232236044
 20
505.6978016954
 30
0.0
  0
VERTEX
  5
66A
  8
0
  6
CONTINUOUS
 62
     7
 10
-1048.6409227984
 20
505.9601664406
 30
0.0
  0
SEQEND
  5
66B
  8
0
  6
CONTINUOUS
 62
     7
  0
POLYLINE
  5
3CD
  8
0
  6
CONTINUOUS
 62
     7
 66
     1
 10
0.0
 20
0.0
 30
0.0
  0
VERTEX
  5
66C
  8
0
  6
CONTINUOUS
 62
     7
 10
-1404.1353922026
 20
505.5580735069
 30
0.0
  0
VERTEX
  5
66D
  8
0
  6
CONTINUOUS
 62
     7
 10
-1404.1654329435
 20
505.1990449291
 30
0.0
  0
VERTEX
  5
66E
  8
0
  6
CONTINUOUS
 62
     7
 10
-1404.2180340426
 20
504.560440765
 30
0.0
  0
SEQEND
  5
66F
  8
0
  6
CONTINUOUS
 62
     7
  0
LINE
  5
3CE
  8
0
  6
CONTINUOUS
 62
     7
 10
-1404.2180340426
 20
504.7692060333
 30
0.0
 11
-1404.2180340426
 21
504.560440765
 31
0.0
  0
LINE
  5
3CF
  8
0
  6
CONTINUOUS
 62
     7
 10
-1404.1831504242
 20
504.9809515339
 30
0.0
 11
-1404.2180340426
 21
504.7692060333
 31
0.0
  0
LINE
  5
3D0
  8
0
  6
CONTINUOUS
 62
     7
 10
-1404.8258077042
 20
500.2779662472
 30
0.0
 11
-1404.2180340426
 21
504.560440765
 31
0.0
  0
LINE
  5
3D1
  8
0
  6
CONTINUOUS
 62
     7
 10
-1404.2180340426
 20
504.7692060333
 30
0.0
 11
-1404.8554312126
 21
500.2779662472
 31
0.0
  0
LINE
  5
3D2
  8
0
  6
CONTINUOUS
 62
     7
 10
-1029.4799517529
 20
506.4779668909
 30
0.0
 11
-1029.507235779
 21
506.4779668909
 31
0.0
  0
LINE
  5
3D3
  8
0
  6
CONTINUOUS
 62
     7
 10
-1029.4365595715
 20
506.4779668909
 30
0.0
 11
-1029.4799517529
 21
506.4779668909
 31
0.0
  0
LINE
  5
3D4
  8
0
  6
CONTINUOUS
 62
     7
 10
-1412.7583365576
 20
503.857970224
 30
0.0
 11
-1414.8583423035
 21
503.857970224
 31
0.0
  0
LINE
  5
3D5
  8
0
  6
CONTINUOUS
 62
     7
 10
-1410.6583308117
 20
503.857970224
 30
0.0
 11
-1412.7583365576
 21
503.857970224
 31
0.0
  0
LINE
  5
3D6
  8
0
  6
CONTINUOUS
 62
     7
 10
-1412.7583365576
 20
504.2579620939
 30
0.0
 11
-1410.2583389418
 21
504.2579620939
 31
0.0
  0
LINE
  5
3D7
  8
0
  6
CONTINUOUS
 62
     7
 10
-1415.2583341734
 20
504.2579620939
 30
0.0
 11
-1412.7583365576
 21
504.2579620939
 31
0.0
  0
ARC
  5
3D8
  8
0
  6
CONTINUOUS
 62
     7
 10
-1074.0583351459
 20
-302.9301876367
 30
0.0
 40
120.0000000000275
 50
96.1072772981
 51
97.0541313733
  0
ARC
  5
3D9
  8
0
  6
CONTINUOUS
 62
     7
 10
-1074.0583351459
 20
-302.9301876367
 30
0.0
 40
120.0000000000276
 50
82.9458686267
 51
83.8915872211
  0
ARC
  5
3DA
  8
0
  6
CONTINUOUS
 62
     7
 10
-1088.7583351459
 20
-184.1362483973
 30
0.0
 40
0.300000000002149
 50
97.0541278521
 51
179.999985657
  0
ARC
  5
3DB
  8
0
  6
CONTINUOUS
 62
     7
 10
-1059.3583351459
 20
-184.1362483973
 30
0.0
 40
0.3000000000022618
 50
0.0000143431
 51
82.9458721479
  0
ARC
  5
3DC
  8
0
  6
CONTINUOUS
 62
     7
 10
-1061.2583564918
 20
-183.313103873
 30
0.0
 40
0.2999903078444459
 50
179.5393937499
 51
264.3776415423
  0
ARC
  5
3DD
  8
0
  6
CONTINUOUS
 62
     7
 10
-1086.8583173635
 20
-183.3130961551
 30
0.0
 40
0.299998829746765
 50
275.623845612
 51
0.4591190958
  0
ARC
  5
3DE
  8
0
  6
CONTINUOUS
 62
     7
 10
-1074.0583351459
 20
-272.4301876366
 30
0.0
 40
90.19999999999975
 50
82.1997529679
 51
84.5303929161
  0
ARC
  5
3DF
  8
0
  6
CONTINUOUS
 62
     7
 10
-1074.0583351459
 20
-272.4301876366
 30
0.0
 40
90.19999999999959
 50
95.4696070839
 51
97.8002470331
  0
ARC
  5
3E0
  8
0
  6
CONTINUOUS
 62
     7
 10
-1065.5083351459
 20
-183.1386006869
 30
0.0
 40
0.5000000000000591
 50
84.5304035697
 51
90.0
  0
ARC
  5
3E1
  8
0
  6
CONTINUOUS
 62
     7
 10
-1082.6083351459
 20
-183.1386006869
 30
0.0
 40
0.5000000000001024
 50
90.0
 51
95.4695964304
  0
LINE
  5
3E2
  8
0
  6
CONTINUOUS
 62
     7
 10
-1065.5083369152
 20
-182.6386051749
 30
0.0
 11
-1082.608328356
 21
-182.6386051749
 31
0.0
  0
ARC
  5
3E3
  8
0
  6
CONTINUOUS
 62
     7
 10
-1086.2603329334
 20
-183.3621062354
 30
0.0
 40
0.2999911292586951
 50
92.662310219
 51
175.7660458253
  0
ARC
  5
3E4
  8
0
  6
CONTINUOUS
 62
     7
 10
-1061.856357691
 20
-183.362133043
 30
0.0
 40
0.300018393554719
 50
4.2387022949
 51
87.3359336517
  0
LINE
  5
3E5
  8
0
  6
CONTINUOUS
 62
     7
 10
-1035.2583389418
 20
-210.1301895951
 30
0.0
 11
-1035.2583389418
 21
-209.1301875686
 31
0.0
  0
LINE
  5
3E6
  8
0
  6
CONTINUOUS
 62
     7
 10
-1045.258329405
 20
-209.1301875686
 30
0.0
 11
-1045.258329405
 21
-210.1301895951
 31
0.0
  0
LINE
  5
3E7
  8
0
  6
CONTINUOUS
 62
     7
 10
-1028.0083279745
 20
-241.3801895951
 30
0.0
 11
-1028.0090432303
 21
-241.3801895951
 31
0.0
  0
LINE
  5
3E8
  8
0
  6
CONTINUOUS
 62
     7
 10
-1028.0090432303
 20
-248.8801824426
 30
0.0
 11
-1028.0083279745
 21
-248.8801824426
 31
0.0
  0
LINE
  5
3E9
  8
0
  6
CONTINUOUS
 62
     7
 10
-1425.0083427565
 20
-248.8801824426
 30
0.0
 11
-1425.0076275007
 21
-248.8801824426
 31
0.0
  0
LINE
  5
3EA
  8
0
  6
CONTINUOUS
 62
     7
 10
-1425.0076275007
 20
-241.3801895951
 30
0.0
 11
-1425.0083427565
 21
-241.3801895951
 31
0.0
  0
LINE
  5
3EB
  8
0
  6
CONTINUOUS
 62
     7
 10
-1410.2583389418
 20
-207.9101847981
 30
0.0
 11
-1410.6583308117
 21
-207.5101929282
 31
0.0
  0
LINE
  5
3EC
  8
0
  6
CONTINUOUS
 62
     7
 10
-1414.8583423035
 20
-207.5101929282
 30
0.0
 11
-1415.2583341734
 21
-207.9101847981
 31
0.0
  0
LINE
  5
3ED
  8
0
  6
CONTINUOUS
 62
     7
 10
-1410.2583389418
 20
-208.130185542
 30
0.0
 11
-1410.2583389418
 21
-207.9101847981
 31
0.0
  0
LINE
  5
3EE
  8
0
  6
CONTINUOUS
 62
     7
 10
-1415.2583341734
 20
-207.9101847981
 30
0.0
 11
-1415.2583341734
 21
-208.130185542
 31
0.0
  0
LINE
  5
3EF
  8
0
  6
CONTINUOUS
 62
     7
 10
-1028.5083364384
 20
-401.1301872584
 30
0.0
 11
-1028.5083364384
 21
-399.9586143387
 31
0.0
  0
LINE
  5
3F0
  8
0
  6
CONTINUOUS
 62
     7
 10
-1424.5083342926
 20
-401.1301872584
 30
0.0
 11
-1424.5083342926
 21
-399.9586143387
 31
0.0
  0
LINE
  5
3F1
  8
0
  6
CONTINUOUS
 62
     7
 10
-1029.0083300011
 20
-401.1301872584
 30
0.0
 11
-1424.0083407299
 21
-401.1301872584
 31
0.0
  0
LINE
  5
3F2
  8
0
  6
CONTINUOUS
 62
     7
 10
-1029.0083300011
 20
-404.1301874009
 30
0.0
 11
-1424.0083407299
 21
-404.1301874009
 31
0.0
  0
LINE
  5
3F3
  8
0
  6
CONTINUOUS
 62
     7
 10
-1027.0083408491
 20
-401.1301872584
 30
0.0
 11
-1027.0083408491
 21
-404.1301874009
 31
0.0
  0
LINE
  5
3F4
  8
0
  6
CONTINUOUS
 62
     7
 10
-1027.0083408491
 20
-404.1301874009
 30
0.0
 11
-1029.0083300011
 21
-404.1301874009
 31
0.0
  0
LINE
  5
3F5
  8
0
  6
CONTINUOUS
 62
     7
 10
-1029.0083300011
 20
-401.1301872584
 30
0.0
 11
-1027.0083408491
 21
-401.1301872584
 31
0.0
  0
LINE
  5
3F6
  8
0
  6
CONTINUOUS
 62
     7
 10
-1426.0083298819
 20
-404.1301874009
 30
0.0
 11
-1426.0083298819
 21
-401.1301872584
 31
0.0
  0
LINE
  5
3F7
  8
0
  6
CONTINUOUS
 62
     7
 10
-1424.0083407299
 20
-404.1301874009
 30
0.0
 11
-1426.0083298819
 21
-404.1301874009
 31
0.0
  0
LINE
  5
3F8
  8
0
  6
CONTINUOUS
 62
     7
 10
-1426.0083298819
 20
-401.1301872584
 30
0.0
 11
-1424.0083407299
 21
-401.1301872584
 31
0.0
  0
LINE
  5
3F9
  8
0
  6
CONTINUOUS
 62
     7
 10
-1422.0583300726
 20
-188.9301883554
 30
0.0
 11
-1032.0583294766
 21
-188.9301883554
 31
0.0
  0
POLYLINE
  5
3FA
  8
0
  6
CONTINUOUS
 62
     7
 66
     1
 10
0.0
 20
0.0
 30
0.0
  0
VERTEX
  5
670
  8
0
  6
CONTINUOUS
 62
     7
 10
-1032.0583294766
 20
-188.9301883554
 30
0.0
  0
VERTEX
  5
671
  8
0
  6
CONTINUOUS
 62
     7
 10
-1032.2729061977
 20
-188.9775889491
 30
0.0
  0
VERTEX
  5
672
  8
0
  6
CONTINUOUS
 62
     7
 10
-1032.4299793379
 20
-189.1346620893
 30
0.0
  0
VERTEX
  5
673
  8
0
  6
CONTINUOUS
 62
     7
 10
-1032.5261812346
 20
-189.4138949489
 30
0.0
  0
VERTEX
  5
674
  8
0
  6
CONTINUOUS
 62
     7
 10
-1032.5583379404
 20
-189.8088800286
 30
0.0
  0
VERTEX
  5
675
  8
0
  6
CONTINUOUS
 62
     7
 10
-1032.5263451473
 20
-190.2973698949
 30
0.0
  0
VERTEX
  5
676
  8
0
  6
CONTINUOUS
 62
     7
 10
-1032.4303667681
 20
-190.8401297902
 30
0.0
  0
VERTEX
  5
677
  8
0
  6
CONTINUOUS
 62
     7
 10
-1032.2727571861
 20
-191.3994299745
 30
0.0
  0
VERTEX
  5
678
  8
0
  6
CONTINUOUS
 62
     7
 10
-1032.0583294766
 20
-191.930194435
 30
0.0
  0
SEQEND
  5
679
  8
0
  6
CONTINUOUS
 62
     7
  0
POLYLINE
  5
3FB
  8
0
  6
CONTINUOUS
 62
     7
 66
     1
 10
0.0
 20
0.0
 30
0.0
  0
VERTEX
  5
67A
  8
0
  6
CONTINUOUS
 62
     7
 10
-1422.0583300726
 20
-188.9301883554
 30
0.0
  0
VERTEX
  5
67B
  8
0
  6
CONTINUOUS
 62
     7
 10
-1421.8437682526
 20
-188.9775889491
 30
0.0
  0
VERTEX
  5
67C
  8
0
  6
CONTINUOUS
 62
     7
 10
-1421.6866802113
 20
-189.1346620893
 30
0.0
  0
VERTEX
  5
67D
  8
0
  6
CONTINUOUS
 62
     7
 10
-1421.5904932158
 20
-189.4138949489
 30
0.0
  0
VERTEX
  5
67E
  8
0
  6
CONTINUOUS
 62
     7
 10
-1421.5583365099
 20
-189.8088800286
 30
0.0
  0
VERTEX
  5
67F
  8
0
  6
CONTINUOUS
 62
     7
 10
-1421.590329303
 20
-190.2973698949
 30
0.0
  0
VERTEX
  5
680
  8
0
  6
CONTINUOUS
 62
     7
 10
-1421.6862927811
 20
-190.8401297902
 30
0.0
  0
VERTEX
  5
681
  8
0
  6
CONTINUOUS
 62
     7
 10
-1421.8439172642
 20
-191.3994299745
 30
0.0
  0
VERTEX
  5
682
  8
0
  6
CONTINUOUS
 62
     7
 10
-1422.0583300726
 20
-191.930194435
 30
0.0
  0
SEQEND
  5
683
  8
0
  6
CONTINUOUS
 62
     7
  0
ARC
  5
3FC
  8
0
  6
CONTINUOUS
 62
     7
 10
-1030.0583351459
 20
-190.4301876366
 30
0.0
 40
2.500000000000034
 50
216.8698976458
 51
225.0
  0
LINE
  5
3FD
  8
0
  6
CONTINUOUS
 62
     7
 10
-1031.8260948793
 20
-192.1979534005
 30
0.0
 11
-1036.8083279268
 21
-197.180186448
 31
0.0
  0
LINE
  5
3FE
  8
0
  6
CONTINUOUS
 62
     7
 10
-1036.8083279268
 20
-197.180186448
 30
0.0
 11
-1043.5583304302
 21
-197.180186448
 31
0.0
  0
LINE
  5
3FF
  8
0
  6
CONTINUOUS
 62
     7
 10
-1043.5583304302
 20
-197.180186448
 30
0.0
 11
-1043.5583304302
 21
-203.9301889514
 31
0.0
  0
LINE
  5
400
  8
0
  6
CONTINUOUS
 62
     7
 10
-1043.5583304302
 20
-203.9301889514
 30
0.0
 11
-1410.5583291189
 21
-203.9301889514
 31
0.0
  0
LINE
  5
401
  8
0
  6
CONTINUOUS
 62
     7
 10
-1410.5583291189
 20
-197.180186448
 30
0.0
 11
-1410.5583291189
 21
-203.9301889514
 31
0.0
  0
LINE
  5
402
  8
0
  6
CONTINUOUS
 62
     7
 10
-1417.3083316223
 20
-197.180186448
 30
0.0
 11
-1410.5583291189
 21
-197.180186448
 31
0.0
  0
LINE
  5
403
  8
0
  6
CONTINUOUS
 62
     7
 10
-1422.2905646698
 20
-192.1979534005
 30
0.0
 11
-1417.3083316223
 21
-197.180186448
 31
0.0
  0
ARC
  5
404
  8
0
  6
CONTINUOUS
 62
     7
 10
-1424.0583351459
 20
-190.4301876366
 30
0.0
 40
2.499999999999983
 50
315.0
 51
323.1301023542
  0
ARC
  5
405
  8
0
  6
CONTINUOUS
 62
     7
 10
-1421.9902018791
 20
-190.8568311983
 30
0.0
 40
0.4320524618949853
 50
358.3137831421
 51
99.0725509353
  0
LINE
  5
406
  8
0
  6
CONTINUOUS
 62
     7
 10
-1422.0583300726
 20
-190.4301839446
 30
0.0
 11
-1422.0583300726
 21
-188.9301883554
 31
0.0
  0
LINE
  5
407
  8
0
  6
CONTINUOUS
 62
     7
 10
-1425.558329715
 20
-203.9301889514
 30
0.0
 11
-1425.558329715
 21
-192.4301879977
 31
0.0
  0
POLYLINE
  5
408
  8
0
  6
CONTINUOUS
 62
     7
 66
     1
 10
0.0
 20
0.0
 30
0.0
  0
VERTEX
  5
684
  8
0
  6
CONTINUOUS
 62
     7
 10
-1422.5583385365
 20
-192.4301879977
 30
0.0
  0
VERTEX
  5
685
  8
0
  6
CONTINUOUS
 62
     7
 10
-1423.0895202295
 20
-192.6447498178
 30
0.0
  0
VERTEX
  5
686
  8
0
  6
CONTINUOUS
 62
     7
 10
-1423.6469428675
 20
-192.8018378591
 30
0.0
  0
VERTEX
  5
687
  8
0
  6
CONTINUOUS
 62
     7
 10
-1424.1918187277
 20
-192.8980397557
 30
0.0
  0
VERTEX
  5
688
  8
0
  6
CONTINUOUS
 62
     7
 10
-1424.679667844
 20
-192.9301815604
 30
0.0
  0
VERTEX
  5
689
  8
0
  6
CONTINUOUS
 62
     7
 10
-1425.0750552551
 20
-192.8982036685
 30
0.0
  0
VERTEX
  5
68A
  8
0
  6
CONTINUOUS
 62
     7
 10
-1425.3532897369
 20
-192.8022252893
 30
0.0
  0
VERTEX
  5
68B
  8
0
  6
CONTINUOUS
 62
     7
 10
-1425.5110185282
 20
-192.6446008061
 30
0.0
  0
VERTEX
  5
68C
  8
0
  6
CONTINUOUS
 62
     7
 10
-1425.558329715
 20
-192.4301879977
 30
0.0
  0
SEQEND
  5
68D
  8
0
  6
CONTINUOUS
 62
     7
  0
LINE
  5
409
  8
0
  6
CONTINUOUS
 62
     7
 10
-1422.5583385365
 20
-203.9301889514
 30
0.0
 11
-1425.558329715
 21
-203.9301889514
 31
0.0
  0
ARC
  5
40A
  8
0
  6
CONTINUOUS
 62
     7
 10
-1424.0583351459
 20
-190.4301876366
 30
0.0
 40
2.500000000000045
 50
306.8698976458
 51
315.0
  0
LINE
  5
40B
  8
0
  6
CONTINUOUS
 62
     7
 10
-1410.5583291189
 20
-203.9301889514
 30
0.0
 11
-1422.5583385365
 21
-203.9301889514
 31
0.0
  0
LINE
  5
40C
  8
0
  6
CONTINUOUS
 62
     7
 10
-1425.558329715
 20
-192.4301879977
 30
0.0
 11
-1424.0583341257
 21
-192.4301879977
 31
0.0
  0
ARC
  5
40D
  8
0
  6
CONTINUOUS
 62
     7
 10
-1423.6441060541
 20
-192.5092278365
 30
0.0
 40
0.4217015431104268
 50
169.1971161569
 51
273.4126954662
  0
LINE
  5
40E
  8
0
  6
CONTINUOUS
 62
     7
 10
-1032.0583294766
 20
-190.4301839446
 30
0.0
 11
-1032.0583294766
 21
-188.9301883554
 31
0.0
  0
ARC
  5
40F
  8
0
  6
CONTINUOUS
 62
     7
 10
-1032.126469482
 20
-190.856832403
 30
0.0
 40
0.432055514242873
 50
80.9259274348
 51
181.6860451166
  0
LINE
  5
410
  8
0
  6
CONTINUOUS
 62
     7
 10
-1031.5583359139
 20
-203.9301889514
 30
0.0
 11
-1043.5583304302
 21
-203.9301889514
 31
0.0
  0
ARC
  5
411
  8
0
  6
CONTINUOUS
 62
     7
 10
-1030.0583351459
 20
-190.4301876366
 30
0.0
 40
2.49999999999998
 50
225.0
 51
233.1301023542
  0
LINE
  5
412
  8
0
  6
CONTINUOUS
 62
     7
 10
-1028.5583298342
 20
-192.4301879977
 30
0.0
 11
-1028.5583298342
 21
-203.9301889514
 31
0.0
  0
LINE
  5
413
  8
0
  6
CONTINUOUS
 62
     7
 10
-1028.5583298342
 20
-203.9301889514
 30
0.0
 11
-1031.5583359139
 21
-203.9301889514
 31
0.0
  0
POLYLINE
  5
414
  8
0
  6
CONTINUOUS
 62
     7
 66
     1
 10
0.0
 20
0.0
 30
0.0
  0
VERTEX
  5
68E
  8
0
  6
CONTINUOUS
 62
     7
 10
-1031.5583359139
 20
-192.4301879977
 30
0.0
  0
VERTEX
  5
68F
  8
0
  6
CONTINUOUS
 62
     7
 10
-1031.0271542208
 20
-192.6447498178
 30
0.0
  0
VERTEX
  5
690
  8
0
  6
CONTINUOUS
 62
     7
 10
-1030.4697315828
 20
-192.8018378591
 30
0.0
  0
VERTEX
  5
691
  8
0
  6
CONTINUOUS
 62
     7
 10
-1029.9248557226
 20
-192.8980397557
 30
0.0
  0
VERTEX
  5
692
  8
0
  6
CONTINUOUS
 62
     7
 10
-1029.4370066063
 20
-192.9301815604
 30
0.0
  0
VERTEX
  5
693
  8
0
  6
CONTINUOUS
 62
     7
 10
-1029.041604294
 20
-192.8982036685
 30
0.0
  0
VERTEX
  5
694
  8
0
  6
CONTINUOUS
 62
     7
 10
-1028.7633847134
 20
-192.8022252893
 30
0.0
  0
VERTEX
  5
695
  8
0
  6
CONTINUOUS
 62
     7
 10
-1028.6056559221
 20
-192.6446008061
 30
0.0
  0
VERTEX
  5
696
  8
0
  6
CONTINUOUS
 62
     7
 10
-1028.5583298342
 20
-192.4301879977
 30
0.0
  0
SEQEND
  5
697
  8
0
  6
CONTINUOUS
 62
     7
  0
ARC
  5
415
  8
0
  6
CONTINUOUS
 62
     7
 10
-1030.4725667903
 20
-192.5092284996
 30
0.0
 40
0.4217000899529516
 50
266.5891023744
 51
10.8030132377
  0
LINE
  5
416
  8
0
  6
CONTINUOUS
 62
     7
 10
-1028.5583298342
 20
-192.4301879977
 30
0.0
 11
-1030.0583403246
 21
-192.4301879977
 31
0.0
  0
LINE
  5
417
  8
0
  6
CONTINUOUS
 62
     7
 10
-1422.5583385365
 20
-190.4301839446
 30
0.0
 11
-1422.0583300726
 21
-190.4301839446
 31
0.0
  0
LINE
  5
418
  8
0
  6
CONTINUOUS
 62
     7
 10
-1422.5583385365
 20
-188.9301883554
 30
0.0
 11
-1422.5583385365
 21
-190.4301839446
 31
0.0
  0
LINE
  5
419
  8
0
  6
CONTINUOUS
 62
     7
 10
-1422.5583385365
 20
-188.9301883554
 30
0.0
 11
-1422.0583300726
 21
-188.9301883554
 31
0.0
  0
LINE
  5
41A
  8
0
  6
CONTINUOUS
 62
     7
 10
-1425.558329715
 20
-191.930194435
 30
0.0
 11
-1424.0583341257
 21
-191.930194435
 31
0.0
  0
LINE
  5
41B
  8
0
  6
CONTINUOUS
 62
     7
 10
-1424.0583341257
 20
-192.4301879977
 30
0.0
 11
-1424.0583341257
 21
-191.930194435
 31
0.0
  0
LINE
  5
41C
  8
0
  6
CONTINUOUS
 62
     7
 10
-1425.558329715
 20
-192.4301879977
 30
0.0
 11
-1425.558329715
 21
-191.930194435
 31
0.0
  0
LINE
  5
41D
  8
0
  6
CONTINUOUS
 62
     7
 10
-1031.5583359139
 20
-188.9301883554
 30
0.0
 11
-1031.5583359139
 21
-190.4301839446
 31
0.0
  0
LINE
  5
41E
  8
0
  6
CONTINUOUS
 62
     7
 10
-1031.5583359139
 20
-190.4301839446
 30
0.0
 11
-1032.0583294766
 21
-190.4301839446
 31
0.0
  0
LINE
  5
41F
  8
0
  6
CONTINUOUS
 62
     7
 10
-1031.5583359139
 20
-188.9301883554
 30
0.0
 11
-1032.0583294766
 21
-188.9301883554
 31
0.0
  0
LINE
  5
420
  8
0
  6
CONTINUOUS
 62
     7
 10
-1028.5583298342
 20
-191.930194435
 30
0.0
 11
-1030.0583403246
 21
-191.930194435
 31
0.0
  0
LINE
  5
421
  8
0
  6
CONTINUOUS
 62
     7
 10
-1030.0583403246
 20
-192.4301879977
 30
0.0
 11
-1030.0583403246
 21
-191.930194435
 31
0.0
  0
LINE
  5
422
  8
0
  6
CONTINUOUS
 62
     7
 10
-1028.5583298342
 20
-192.4301879977
 30
0.0
 11
-1028.5583298342
 21
-191.930194435
 31
0.0
  0
ARC
  5
423
  8
0
  6
CONTINUOUS
 62
     7
 10
-1422.5583312866
 20
-191.9301867838
 30
0.0
 40
1.500002839161158
 50
90.0002769247
 51
180.0002922566
  0
ARC
  5
424
  8
0
  6
CONTINUOUS
 62
     7
 10
-1422.5583409956
 20
-191.9301770748
 30
0.0
 40
2.99998871942328
 50
89.9999530337
 51
180.0003315576
  0
ARC
  5
425
  8
0
  6
CONTINUOUS
 62
     7
 10
-1031.5583346843
 20
-191.9301783044
 30
0.0
 40
1.49999435980046
 50
359.9993838535
 51
90.0000469652
  0
ARC
  5
426
  8
0
  6
CONTINUOUS
 62
     7
 10
-1031.5583488561
 20
-191.9302073773
 30
0.0
 40
3.000019021984549
 50
0.0002471778
 51
89.9997528222
  0
CIRCLE
  5
427
  8
0
  6
CONTINUOUS
 62
     7
 10
-1042.5083353655
 20
-370.1301872109
 30
0.0
 40
3.750000000000096
  0
CIRCLE
  5
428
  8
0
  6
CONTINUOUS
 62
     7
 10
-1410.5083353655
 20
-370.1301872109
 30
0.0
 40
3.750000000000038
  0
CIRCLE
  5
429
  8
0
  6
CONTINUOUS
 62
     7
 10
-1410.5083353655
 20
-345.1301872109
 30
0.0
 40
3.749999999999901
  0
CIRCLE
  5
42A
  8
0
  6
CONTINUOUS
 62
     7
 10
-1042.5083353655
 20
-345.1301872109
 30
0.0
 40
3.750000000000084
  0
CIRCLE
  5
42B
  8
0
  6
CONTINUOUS
 62
     7
 10
-1440.5083353655
 20
-377.8301872109
 30
0.0
 40
3.059999999999901
  0
CIRCLE
  5
42C
  8
0
  6
CONTINUOUS
 62
     7
 10
-1440.5083353655
 20
-408.4301872109
 30
0.0
 40
3.060000000000039
  0
CIRCLE
  5
42D
  8
0
  6
CONTINUOUS
 62
     7
 10
-1012.5083353655
 20
-408.4301872109
 30
0.0
 40
3.060000000000141
  0
CIRCLE
  5
42E
  8
0
  6
CONTINUOUS
 62
     7
 10
-1012.5083353655
 20
-377.8301872109
 30
0.0
 40
3.060000000000046
  0
CIRCLE
  5
42F
  8
0
  6
CONTINUOUS
 62
     7
 10
-1410.5083353655
 20
-345.1301872109
 30
0.0
 40
3.199999999999989
  0
CIRCLE
  5
430
  8
0
  6
CONTINUOUS
 62
     7
 10
-1410.5083353655
 20
-370.1301872109
 30
0.0
 40
3.199999999999932
  0
CIRCLE
  5
431
  8
0
  6
CONTINUOUS
 62
     7
 10
-1440.5083353655
 20
-408.4301872109
 30
0.0
 40
2.25
  0
CIRCLE
  5
432
  8
0
  6
CONTINUOUS
 62
     7
 10
-1440.5083353655
 20
-377.8301872109
 30
0.0
 40
2.25
  0
ARC
  5
433
  8
0
  6
CONTINUOUS
 62
     7
 10
-1443.2583353655
 20
-410.8801872109
 30
0.0
 40
2.950000000000273
 50
180.0
 51
270.0
  0
LINE
  5
434
  8
0
  6
CONTINUOUS
 62
     7
 10
-1446.2083290951
 20
-374.9323962753
 30
0.0
 11
-1446.2083290951
 21
-410.880187576
 31
0.0
  0
ARC
  5
435
  8
0
  6
CONTINUOUS
 62
     7
 10
-1443.2583353655
 20
-374.9323960431
 30
0.0
 40
2.950000000000273
 50
137.16
 51
180.0
  0
LINE
  5
436
  8
0
  6
CONTINUOUS
 62
     7
 10
-1415.4211442606
 20
-340.5745002007
 30
0.0
 11
-1445.4214434759
 21
-372.9265342032
 31
0.0
  0
ARC
  5
437
  8
0
  6
CONTINUOUS
 62
     7
 10
-1410.5083353655
 20
-345.1301872109
 30
0.0
 40
6.700000000000273
 50
0.0
 51
137.16
  0
LINE
  5
438
  8
0
  6
CONTINUOUS
 62
     7
 10
-1403.8083415167
 20
-368.6612109219
 30
0.0
 11
-1403.8083415167
 21
-345.130187509
 31
0.0
  0
ARC
  5
439
  8
0
  6
CONTINUOUS
 62
     7
 10
-1410.5083353655
 20
-368.6612122793
 30
0.0
 40
6.700000000000273
 50
317.16
 51
0.0
  0
LINE
  5
43A
  8
0
  6
CONTINUOUS
 62
     7
 10
-1433.8613908426
 20
-403.6985461631
 30
0.0
 11
-1405.5955271856
 21
-373.2169000929
 31
0.0
  0
ARC
  5
43B
  8
0
  6
CONTINUOUS
 62
     7
 10
-1431.2583353655
 20
-406.1123805961
 30
0.0
 40
3.550000000000182
 50
137.16
 51
180.0
  0
LINE
  5
43C
  8
0
  6
CONTINUOUS
 62
     7
 10
-1434.8083298342
 20
-410.880187576
 30
0.0
 11
-1434.8083298342
 21
-406.1123803755
 31
0.0
  0
ARC
  5
43D
  8
0
  6
CONTINUOUS
 62
     7
 10
-1437.7583353655
 20
-410.8801872109
 30
0.0
 40
2.950000000000045
 50
270.0
 51
0.0
  0
LINE
  5
43E
  8
0
  6
CONTINUOUS
 62
     7
 10
-1443.2583313124
 20
-413.8301872214
 30
0.0
 11
-1437.758342518
 21
-413.8301872214
 31
0.0
  0
LINE
  5
43F
  8
0
  6
CONTINUOUS
 62
     7
 10
-1445.6414144175
 20
-372.7225484823
 30
0.0
 11
-1415.6411301033
 21
-340.3705144798
 31
0.0
  0
ARC
  5
440
  8
0
  6
CONTINUOUS
 62
     7
 10
-1410.5083353655
 20
-345.1301872109
 30
0.0
 40
7.000000000000227
 50
0.0
 51
137.16
  0
LINE
  5
441
  8
0
  6
CONTINUOUS
 62
     7
 10
-1403.5083364384
 20
-345.130187509
 30
0.0
 11
-1403.5083364384
 21
-368.6612109219
 31
0.0
  0
ARC
  5
442
  8
0
  6
CONTINUOUS
 62
     7
 10
-1410.5083353655
 20
-368.6612122793
 30
0.0
 40
7.000000000000227
 50
317.16
 51
0.0
  0
LINE
  5
443
  8
0
  6
CONTINUOUS
 62
     7
 10
-1405.3755413429
 20
-373.4208858137
 30
0.0
 11
-1433.6414199011
 21
-403.9025321168
 31
0.0
  0
LINE
  5
444
  8
0
  6
CONTINUOUS
 62
     7
 10
-1446.5083341734
 20
-410.880187576
 30
0.0
 11
-1446.5083341734
 21
-374.9323962753
 31
0.0
  0
ARC
  5
445
  8
0
  6
CONTINUOUS
 62
     7
 10
-1443.2583353655
 20
-374.9323960431
 30
0.0
 40
3.25
 50
137.16
 51
180.0
  0
ARC
  5
446
  8
0
  6
CONTINUOUS
 62
     7
 10
-1431.2583353655
 20
-406.1123805961
 30
0.0
 40
3.250000000000227
 50
137.16
 51
180.0
  0
LINE
  5
447
  8
0
  6
CONTINUOUS
 62
     7
 10
-1434.508339657
 20
-406.1123803755
 30
0.0
 11
-1434.508339657
 21
-410.880187576
 31
0.0
  0
ARC
  5
448
  8
0
  6
CONTINUOUS
 62
     7
 10
-1437.7583353655
 20
-410.8801872109
 30
0.0
 40
3.25
 50
270.0
 51
0.0
  0
ARC
  5
449
  8
0
  6
CONTINUOUS
 62
     7
 10
-1443.2583353655
 20
-410.8801872109
 30
0.0
 40
3.25
 50
180.0
 51
270.0
  0
LINE
  5
44A
  8
0
  6
CONTINUOUS
 62
     7
 10
-1437.758342518
 20
-414.1301876431
 30
0.0
 11
-1443.2583313124
 21
-414.1301876431
 31
0.0
  0
CIRCLE
  5
44B
  8
0
  6
CONTINUOUS
 62
     7
 10
-1042.5083353655
 20
-345.1301872109
 30
0.0
 40
3.199999999999989
  0
CIRCLE
  5
44C
  8
0
  6
CONTINUOUS
 62
     7
 10
-1042.5083353655
 20
-370.1301872109
 30
0.0
 40
3.199999999999932
  0
CIRCLE
  5
44D
  8
0
  6
CONTINUOUS
 62
     7
 10
-1012.5083353655
 20
-408.4301872109
 30
0.0
 40
2.25
  0
CIRCLE
  5
44E
  8
0
  6
CONTINUOUS
 62
     7
 10
-1012.5083353655
 20
-377.8301872109
 30
0.0
 40
2.249999999999943
  0
ARC
  5
44F
  8
0
  6
CONTINUOUS
 62
     7
 10
-1015.2583353655
 20
-410.8801872109
 30
0.0
 40
2.949999999999932
 50
180.0
 51
270.0
  0
LINE
  5
450
  8
0
  6
CONTINUOUS
 62
     7
 10
-1018.2083408968
 20
-406.1123803755
 30
0.0
 11
-1018.2083408968
 21
-410.880187576
 31
0.0
  0
ARC
  5
451
  8
0
  6
CONTINUOUS
 62
     7
 10
-1021.7583353655
 20
-406.1123805961
 30
0.0
 40
3.550000000000182
 50
0.0
 51
42.84
  0
LINE
  5
452
  8
0
  6
CONTINUOUS
 62
     7
 10
-1047.4211435453
 20
-373.2169000929
 30
0.0
 11
-1019.1552798883
 21
-403.6985461631
 31
0.0
  0
ARC
  5
453
  8
0
  6
CONTINUOUS
 62
     7
 10
-1042.5083353655
 20
-368.6612122793
 30
0.0
 40
6.700000000000045
 50
180.0
 51
222.84
  0
LINE
  5
454
  8
0
  6
CONTINUOUS
 62
     7
 10
-1049.2083292143
 20
-345.130187509
 30
0.0
 11
-1049.2083292143
 21
-368.6612109219
 31
0.0
  0
ARC
  5
455
  8
0
  6
CONTINUOUS
 62
     7
 10
-1042.5083353655
 20
-345.1301872109
 30
0.0
 40
6.700000000000052
 50
42.84
 51
180.0
  0
LINE
  5
456
  8
0
  6
CONTINUOUS
 62
     7
 10
-1007.5952272551
 20
-372.9265342032
 30
0.0
 11
-1037.5955264704
 21
-340.5745002007
 31
0.0
  0
ARC
  5
457
  8
0
  6
CONTINUOUS
 62
     7
 10
-1009.7583353655
 20
-374.9323960431
 30
0.0
 40
2.950000000000045
 50
0.0
 51
42.84
  0
LINE
  5
458
  8
0
  6
CONTINUOUS
 62
     7
 10
-1006.8083416359
 20
-410.880187576
 30
0.0
 11
-1006.8083416359
 21
-374.9323962753
 31
0.0
  0
ARC
  5
459
  8
0
  6
CONTINUOUS
 62
     7
 10
-1009.7583353655
 20
-410.8801872109
 30
0.0
 40
2.950000000000045
 50
270.0
 51
0.0
  0
LINE
  5
45A
  8
0
  6
CONTINUOUS
 62
     7
 10
-1015.2583282129
 20
-413.8301872214
 30
0.0
 11
-1009.7583394186
 21
-413.8301872214
 31
0.0
  0
LINE
  5
45B
  8
0
  6
CONTINUOUS
 62
     7
 10
-1037.3755406277
 20
-340.3705144798
 30
0.0
 11
-1007.3752563135
 21
-372.7225484823
 31
0.0
  0
ARC
  5
45C
  8
0
  6
CONTINUOUS
 62
     7
 10
-1042.5083353655
 20
-345.1301872109
 30
0.0
 40
7.000000000000125
 50
42.84
 51
180.0
  0
LINE
  5
45D
  8
0
  6
CONTINUOUS
 62
     7
 10
-1049.5083342926
 20
-368.6612109219
 30
0.0
 11
-1049.5083342926
 21
-345.130187509
 31
0.0
  0
ARC
  5
45E
  8
0
  6
CONTINUOUS
 62
     7
 10
-1042.5083353655
 20
-368.6612122793
 30
0.0
 40
7.0
 50
180.0
 51
222.84
  0
LINE
  5
45F
  8
0
  6
CONTINUOUS
 62
     7
 10
-1019.3752508299
 20
-403.9025321168
 30
0.0
 11
-1047.6411293881
 21
-373.4208858137
 31
0.0
  0
LINE
  5
460
  8
0
  6
CONTINUOUS
 62
     7
 10
-1006.5083365576
 20
-374.9323962753
 30
0.0
 11
-1006.5083365576
 21
-410.880187576
 31
0.0
  0
ARC
  5
461
  8
0
  6
CONTINUOUS
 62
     7
 10
-1009.7583353655
 20
-374.9323960431
 30
0.0
 40
3.250000000000083
 50
0.0
 51
42.84
  0
ARC
  5
462
  8
0
  6
CONTINUOUS
 62
     7
 10
-1021.7583353655
 20
-406.1123805961
 30
0.0
 40
3.250000000000122
 50
0.0
 51
42.84
  0
ARC
  5
463
  8
0
  6
CONTINUOUS
 62
     7
 10
-1015.2583353655
 20
-410.8801872109
 30
0.0
 40
3.25
 50
180.0
 51
270.0
  0
LINE
  5
464
  8
0
  6
CONTINUOUS
 62
     7
 10
-1018.508331074
 20
-410.880187576
 30
0.0
 11
-1018.508331074
 21
-406.1123803755
 31
0.0
  0
ARC
  5
465
  8
0
  6
CONTINUOUS
 62
     7
 10
-1009.7583353655
 20
-410.8801872109
 30
0.0
 40
3.25
 50
270.0
 51
0.0
  0
LINE
  5
466
  8
0
  6
CONTINUOUS
 62
     7
 10
-1009.7583394186
 20
-414.1301876431
 30
0.0
 11
-1015.2583282129
 21
-414.1301876431
 31
0.0
  0
POLYLINE
  5
467
  8
0
  6
CONTINUOUS
 62
     7
 66
     1
 10
0.0
 20
0.0
 30
0.0
  0
VERTEX
  5
698
  8
0
  6
CONTINUOUS
 62
     7
 10
-1086.2602006332
 20
-188.9301883554
 30
0.0
  0
VERTEX
  5
699
  8
0
  6
CONTINUOUS
 62
     7
 10
-1086.2588446276
 20
-187.1676790093
 30
0.0
  0
VERTEX
  5
69A
  8
0
  6
CONTINUOUS
 62
     7
 10
-1086.2574439184
 20
-185.7949095344
 30
0.0
  0
SEQEND
  5
69B
  8
0
  6
CONTINUOUS
 62
     7
  0
LINE
  5
468
  8
0
  6
CONTINUOUS
 62
     7
 10
-1059.0583394901
 20
-185.5835365628
 30
0.0
 11
-1059.0583394901
 21
-188.9301883554
 31
0.0
  0
LINE
  5
469
  8
0
  6
CONTINUOUS
 62
     7
 10
-1059.0583394901
 20
-185.5835365628
 30
0.0
 11
-1059.140504493
 21
-185.6843727206
 31
0.0
  0
LINE
  5
46A
  8
0
  6
CONTINUOUS
 62
     7
 10
-1089.0583406822
 20
-188.9301883554
 30
0.0
 11
-1089.0583406822
 21
-185.5835365628
 31
0.0
  0
LINE
  5
46B
  8
0
  6
CONTINUOUS
 62
     7
 10
-1088.9761458771
 20
-185.6843727206
 30
0.0
 11
-1089.0583406822
 21
-185.5835365628
 31
0.0
  0
ARC
  5
46C
  8
0
  6
CONTINUOUS
 62
     7
 10
-1084.3855866068
 20
-185.5936936542
 30
0.0
 40
1.882641130302712
 50
179.2205806145
 51
186.1354676388
  0
POLYLINE
  5
46D
  8
0
  6
CONTINUOUS
 62
     7
 66
     1
 10
0.0
 20
0.0
 30
0.0
  0
VERTEX
  5
69C
  8
0
  6
CONTINUOUS
 62
     7
 10
-1059.3214939968
 20
-185.290698943
 30
0.0
  0
VERTEX
  5
69D
  8
0
  6
CONTINUOUS
 62
     7
 10
-1059.3595515625
 20
-185.3767978524
 30
0.0
  0
VERTEX
  5
69E
  8
0
  6
CONTINUOUS
 62
     7
 10
-1059.5157157318
 20
-185.4717033481
 30
0.0
  0
VERTEX
  5
69F
  8
0
  6
CONTINUOUS
 62
     7
 10
-1059.8756830828
 20
-185.5621384954
 30
0.0
  0
VERTEX
  5
6A0
  8
0
  6
CONTINUOUS
 62
     7
 10
-1060.3709678785
 20
-185.6114166354
 30
0.0
  0
VERTEX
  5
6A1
  8
0
  6
CONTINUOUS
 62
     7
 10
-1061.0588799851
 20
-185.6173770999
 30
0.0
  0
VERTEX
  5
6A2
  8
0
  6
CONTINUOUS
 62
     7
 10
-1061.848611726
 20
-185.5680840587
 30
0.0
  0
SEQEND
  5
6A3
  8
0
  6
CONTINUOUS
 62
     7
  0
POLYLINE
  5
46E
  8
0
  6
CONTINUOUS
 62
     7
 66
     1
 10
0.0
 20
0.0
 30
0.0
  0
VERTEX
  5
6A4
  8
0
  6
CONTINUOUS
 62
     7
 10
-1086.2680535452
 20
-185.5680840587
 30
0.0
  0
VERTEX
  5
6A5
  8
0
  6
CONTINUOUS
 62
     7
 10
-1087.2603218691
 20
-185.6211470937
 30
0.0
  0
VERTEX
  5
6A6
  8
0
  6
CONTINUOUS
 62
     7
 10
-1088.0422752039
 20
-185.5883943414
 30
0.0
  0
VERTEX
  5
6A7
  8
0
  6
CONTINUOUS
 62
     7
 10
-1088.5010670559
 20
-185.5056481933
 30
0.0
  0
VERTEX
  5
6A8
  8
0
  6
CONTINUOUS
 62
     7
 10
-1088.739947571
 20
-185.3933381413
 30
0.0
  0
VERTEX
  5
6A9
  8
0
  6
CONTINUOUS
 62
     7
 10
-1088.7951712744
 20
-185.290698943
 30
0.0
  0
SEQEND
  5
6AA
  8
0
  6
CONTINUOUS
 62
     7
  0
ARC
  5
46F
  8
0
  6
CONTINUOUS
 62
     7
 10
-1088.7615015661
 20
-185.5856297707
 30
0.0
 40
0.2968464962850187
 50
96.5127692763
 51
179.5959764644
  0
ARC
  5
470
  8
0
  6
CONTINUOUS
 62
     7
 10
-1059.3551641438
 20
-185.5856150606
 30
0.0
 40
0.2968319308564403
 50
0.4012038783
 51
83.486824523
  0
LINE
  5
471
  8
0
  6
CONTINUOUS
 62
     7
 10
-1089.0583406822
 20
-185.5835365628
 30
0.0
 11
-1089.0583406822
 21
-184.1362463807
 31
0.0
  0
LINE
  5
472
  8
0
  6
CONTINUOUS
 62
     7
 10
-1059.0583394901
 20
-184.1362463807
 30
0.0
 11
-1059.0583394901
 21
-185.5835365628
 31
0.0
  0
LINE
  5
473
  8
0
  6
CONTINUOUS
 62
     7
 10
-1084.9514763491
 20
-183.0646144723
 30
0.0
 11
-1063.1652038233
 21
-183.0646144723
 31
0.0
  0
LINE
  5
474
  8
0
  6
CONTINUOUS
 62
     7
 10
-1063.1641011374
 20
-183.0647783851
 30
0.0
 11
-1061.8164103167
 21
-183.0647783851
 31
0.0
  0
LINE
  5
475
  8
0
  6
CONTINUOUS
 62
     7
 10
-1086.3002698557
 20
-183.0647783851
 30
0.0
 11
-1084.9525641338
 21
-183.0647783851
 31
0.0
  0
LINE
  5
476
  8
0
  6
CONTINUOUS
 62
     7
 10
-1422.0583300726
 20
-191.930194435
 30
0.0
 11
-1422.0583300726
 21
-190.4806988811
 31
0.0
  0
ARC
  5
477
  8
0
  6
CONTINUOUS
 62
     7
 10
-1421.5583351459
 20
-192.9301876366
 30
0.0
 40
2.500000000000227
 50
101.5369590328
 51
180.0000000001
  0
LINE
  5
478
  8
0
  6
CONTINUOUS
 62
     7
 10
-1042.39094366
 20
-209.1301875686
 30
0.0
 11
-1035.2583389418
 21
-209.1301875686
 31
0.0
  0
LINE
  5
479
  8
0
  6
CONTINUOUS
 62
     7
 10
-1045.258329405
 20
-209.1301875686
 30
0.0
 11
-1042.39094366
 21
-209.1301875686
 31
0.0
  0
LINE
  5
47A
  8
0
  6
CONTINUOUS
 62
     7
 10
-1404.7583352463
 20
-205.5734890079
 30
0.0
 11
-1404.9892883436
 21
-203.9301889514
 31
0.0
  0
ARC
  5
47B
  8
0
  6
CONTINUOUS
 62
     7
 10
-1408.7194076972
 20
-206.1301872111
 30
0.0
 40
4.000000000000114
 50
269.9999999999
 51
7.9999988096
  0
LINE
  5
47C
  8
0
  6
CONTINUOUS
 62
     7
 10
-1417.7583317892
 20
-208.130185542
 30
0.0
 11
-1417.7583317892
 21
-210.1301895951
 31
0.0
  0
LINE
  5
47D
  8
0
  6
CONTINUOUS
 62
     7
 10
-1408.7194066183
 20
-208.130185542
 30
0.0
 11
-1417.7583317892
 21
-208.130185542
 31
0.0
  0
ARC
  5
47E
  8
0
  6
CONTINUOUS
 62
     7
 10
-1408.7194076972
 20
-206.1301872111
 30
0.0
 40
2.000000082123648
 50
269.9999999998
 51
7.9999988096
  0
LINE
  5
47F
  8
0
  6
CONTINUOUS
 62
     7
 10
-1407.0089470284
 20
-203.9301889514
 30
0.0
 11
-1406.7388783829
 21
-205.851842699
 31
0.0
  0
ARC
  5
480
  8
0
  6
CONTINUOUS
 62
     7
 10
-1420.7640081332
 20
-212.9361783382
 30
0.0
 40
4.223192763978392
 50
140.1789778611
 51
182.6329449098
  0
LINE
  5
481
  8
0
  6
CONTINUOUS
 62
     7
 10
-1424.0076254742
 20
-210.2316665029
 30
0.0
 11
-1423.509434952
 21
-210.1301895951
 31
0.0
  0
LINE
  5
482
  8
0
  6
CONTINUOUS
 62
     7
 10
-1423.4645526545
 20
-210.1301895951
 30
0.0
 11
-1029.4365595715
 21
-210.1301895951
 31
0.0
  0
POLYLINE
  5
483
  8
0
  6
CONTINUOUS
 62
     7
 66
     1
 10
0.0
 20
0.0
 30
0.0
  0
VERTEX
  5
6AB
  8
0
  6
CONTINUOUS
 62
     7
 10
-1029.4365595715
 20
-210.1301895951
 30
0.0
  0
VERTEX
  5
6AC
  8
0
  6
CONTINUOUS
 62
     7
 10
-1028.900073065
 20
-210.307573018
 30
0.0
  0
VERTEX
  5
6AD
  8
0
  6
CONTINUOUS
 62
     7
 10
-1028.5041939156
 20
-210.8258205031
 30
0.0
  0
VERTEX
  5
6AE
  8
0
  6
CONTINUOUS
 62
     7
 10
-1028.2621543543
 20
-211.6325693702
 30
0.0
  0
VERTEX
  5
6AF
  8
0
  6
CONTINUOUS
 62
     7
 10
-1028.1463127272
 20
-212.2938382005
 30
0.0
  0
VERTEX
  5
6B0
  8
0
  6
CONTINUOUS
 62
     7
 10
-1028.0339281694
 20
-213.1301807736
 30
0.0
  0
SEQEND
  5
6B1
  8
0
  6
CONTINUOUS
 62
     7
  0
LINE
  5
484
  8
0
  6
CONTINUOUS
 62
     7
 10
-1028.0090432303
 20
-397.1301871849
 30
0.0
 11
-1028.0090432303
 21
-394.5919373569
 31
0.0
  0
LINE
  5
485
  8
0
  6
CONTINUOUS
 62
     7
 10
-1028.0090432303
 20
-350.471266595
 30
0.0
 11
-1028.0090432303
 21
-213.6283712958
 31
0.0
  0
LINE
  5
486
  8
0
  6
CONTINUOUS
 62
     7
 10
-1425.0076275007
 20
-213.6283712958
 30
0.0
 11
-1425.0076275007
 21
-350.471266595
 31
0.0
  0
LINE
  5
487
  8
0
  6
CONTINUOUS
 62
     7
 10
-1425.0076275007
 20
-394.5919373569
 30
0.0
 11
-1425.0076275007
 21
-397.1301871849
 31
0.0
  0
CIRCLE
  5
488
  8
0
  6
CONTINUOUS
 62
     7
 10
-1226.5083353655
 20
-305.3792813399
 30
0.0
 40
25.25
  0
LINE
  5
489
  8
0
  6
CONTINUOUS
 62
     7
 10
-1254.9173451649
 20
-329.1920992111
 30
0.0
 11
-1258.8064308898
 21
-333.0811830734
 31
0.0
  0
ARC
  5
48A
  8
0
  6
CONTINUOUS
 62
     7
 10
-1256.5083353655
 20
-335.3792813399
 30
0.0
 40
3.249999999999946
 50
135.0
 51
315.0
  0
LINE
  5
48B
  8
0
  6
CONTINUOUS
 62
     7
 10
-1254.2102385001
 20
-337.6773791884
 30
0.0
 11
-1250.3211509125
 21
-333.7882878756
 31
0.0
  0
ARC
  5
48C
  8
0
  6
CONTINUOUS
 62
     7
 10
-1252.619248069
 20
-331.4901940434
 30
0.0
 40
3.250000000000388
 50
315.0
 51
135.0
  0
LINE
  5
48D
  8
0
  6
CONTINUOUS
 62
     7
 10
-1258.8064308898
 20
-277.6773768043
 30
0.0
 11
-1254.9173451649
 21
-281.5664681171
 31
0.0
  0
ARC
  5
48E
  8
0
  6
CONTINUOUS
 62
     7
 10
-1252.619248069
 20
-279.2683686365
 30
0.0
 40
3.250000000000067
 50
225.0
 51
45.0
  0
LINE
  5
48F
  8
0
  6
CONTINUOUS
 62
     7
 10
-1250.3211509125
 20
-276.9702720021
 30
0.0
 11
-1254.2102385001
 21
-273.0811881398
 31
0.0
  0
ARC
  5
490
  8
0
  6
CONTINUOUS
 62
     7
 10
-1256.5083353655
 20
-275.3792813399
 30
0.0
 40
3.250000000000227
 50
45.0
 51
225.0
  0
LINE
  5
491
  8
0
  6
CONTINUOUS
 62
     7
 10
-1194.2102398412
 20
-333.0811830734
 30
0.0
 11
-1198.0993255661
 21
-329.1920992111
 31
0.0
  0
ARC
  5
492
  8
0
  6
CONTINUOUS
 62
     7
 10
-1200.397422662
 20
-331.4901940434
 30
0.0
 40
3.250000000000067
 50
45.0
 51
225.0
  0
LINE
  5
493
  8
0
  6
CONTINUOUS
 62
     7
 10
-1202.6955198185
 20
-333.7882878756
 30
0.0
 11
-1198.8064322309
 21
-337.6773791884
 31
0.0
  0
ARC
  5
494
  8
0
  6
CONTINUOUS
 62
     7
 10
-1196.5083353655
 20
-335.3792813399
 30
0.0
 40
3.250000000000067
 50
225.0
 51
45.0
  0
LINE
  5
495
  8
0
  6
CONTINUOUS
 62
     7
 10
-1198.0993255661
 20
-281.5664681171
 30
0.0
 11
-1194.2102398412
 21
-277.6773768043
 31
0.0
  0
ARC
  5
496
  8
0
  6
CONTINUOUS
 62
     7
 10
-1196.5083353655
 20
-275.3792813399
 30
0.0
 40
3.250000000000147
 50
315.0
 51
135.0
  0
LINE
  5
497
  8
0
  6
CONTINUOUS
 62
     7
 10
-1198.8064322309
 20
-273.0811881398
 30
0.0
 11
-1202.6955198185
 21
-276.9702720021
 31
0.0
  0
ARC
  5
498
  8
0
  6
CONTINUOUS
 62
     7
 10
-1200.397422662
 20
-279.2683686365
 30
0.0
 40
3.250000000000026
 50
135.0
 51
315.0
  0
ARC
  5
499
  8
0
  6
CONTINUOUS
 62
     7
 10
-1033.0090424722
 20
-213.6283754689
 30
0.0
 40
4.99999999997307
 50
0.0
 51
5.7183052343
  0
ARC
  5
49A
  8
0
  6
CONTINUOUS
 62
     7
 10
-1420.0076282587
 20
-213.6283754689
 30
0.0
 40
5.000000000006594
 50
174.2816947658
 51
180.0
  0
POLYLINE
  5
49B
  8
0
  6
CONTINUOUS
 62
     7
 66
     1
 10
0.0
 20
0.0
 30
0.0
  0
VERTEX
  5
6B2
  8
0
  6
CONTINUOUS
 62
     7
 10
-1425.0076275007
 20
-397.1301871849
 30
0.0
  0
VERTEX
  5
6B3
  8
0
  6
CONTINUOUS
 62
     7
 10
-1424.9848436253
 20
-397.6511317802
 30
0.0
  0
VERTEX
  5
6B4
  8
0
  6
CONTINUOUS
 62
     7
 10
-1424.9172072546
 20
-398.1562476171
 30
0.0
  0
VERTEX
  5
6B5
  8
0
  6
CONTINUOUS
 62
     7
 10
-1424.8067598478
 20
-398.6301871979
 30
0.0
  0
VERTEX
  5
6B6
  8
0
  6
CONTINUOUS
 62
     7
 10
-1424.6568541662
 20
-399.0585500638
 30
0.0
  0
VERTEX
  5
6B7
  8
0
  6
CONTINUOUS
 62
     7
 10
-1424.4720648663
 20
-399.4283205162
 30
0.0
  0
VERTEX
  5
6B8
  8
0
  6
CONTINUOUS
 62
     7
 10
-1424.2579798834
 20
-399.7282634288
 30
0.0
  0
VERTEX
  5
6B9
  8
0
  6
CONTINUOUS
 62
     7
 10
-1424.0211259262
 20
-399.9492650679
 30
0.0
  0
VERTEX
  5
6BA
  8
0
  6
CONTINUOUS
 62
     7
 10
-1423.7686853544
 20
-400.0846104706
 30
0.0
  0
VERTEX
  5
6BB
  8
0
  6
CONTINUOUS
 62
     7
 10
-1423.508332266
 20
-400.1301872109
 30
0.0
  0
SEQEND
  5
6BC
  8
0
  6
CONTINUOUS
 62
     7
  0
POLYLINE
  5
49C
  8
0
  6
CONTINUOUS
 62
     7
 66
     1
 10
0.0
 20
0.0
 30
0.0
  0
VERTEX
  5
6BD
  8
0
  6
CONTINUOUS
 62
     7
 10
-1029.5083384649
 20
-400.1301872109
 30
0.0
  0
VERTEX
  5
6BE
  8
0
  6
CONTINUOUS
 62
     7
 10
-1029.2158435719
 20
-400.0725430511
 30
0.0
  0
VERTEX
  5
6BF
  8
0
  6
CONTINUOUS
 62
     7
 10
-1028.9345841543
 20
-399.9018258097
 30
0.0
  0
VERTEX
  5
6C0
  8
0
  6
CONTINUOUS
 62
     7
 10
-1028.6753784554
 20
-399.6245960503
 30
0.0
  0
VERTEX
  5
6C1
  8
0
  6
CONTINUOUS
 62
     7
 10
-1028.4481804506
 20
-399.2515075284
 30
0.0
  0
VERTEX
  5
6C2
  8
0
  6
CONTINUOUS
 62
     7
 10
-1028.2617222206
 20
-398.7968978969
 30
0.0
  0
VERTEX
  5
6C3
  8
0
  6
CONTINUOUS
 62
     7
 10
-1028.1231712238
 20
-398.2782374866
 30
0.0
  0
VERTEX
  5
6C4
  8
0
  6
CONTINUOUS
 62
     7
 10
-1028.0378471748
 20
-397.7154582304
 30
0.0
  0
VERTEX
  5
6C5
  8
0
  6
CONTINUOUS
 62
     7
 10
-1028.0090432303
 20
-397.1301871849
 30
0.0
  0
SEQEND
  5
6C6
  8
0
  6
CONTINUOUS
 62
     7
  0
LINE
  5
49D
  8
0
  6
CONTINUOUS
 62
     7
 10
-1423.508332266
 20
-400.1301872109
 30
0.0
 11
-1418.480471863
 21
-400.1301872109
 31
0.0
  0
LINE
  5
49E
  8
0
  6
CONTINUOUS
 62
     7
 10
-1034.536198868
 20
-400.1301872109
 30
0.0
 11
-1029.5083384649
 21
-400.1301872109
 31
0.0
  0
LINE
  5
49F
  8
0
  6
CONTINUOUS
 62
     7
 10
-1026.5083323853
 20
-213.1301807736
 30
0.0
 11
-1026.5083323853
 21
-213.6283712958
 31
0.0
  0
LINE
  5
4A0
  8
0
  6
CONTINUOUS
 62
     7
 10
-1028.0083279745
 20
-213.1301807736
 30
0.0
 11
-1026.5083323853
 21
-213.1301807736
 31
0.0
  0
LINE
  5
4A1
  8
0
  6
CONTINUOUS
 62
     7
 10
-1028.0083279745
 20
-213.1301807736
 30
0.0
 11
-1028.0083279745
 21
-213.6283712958
 31
0.0
  0
LINE
  5
4A2
  8
0
  6
CONTINUOUS
 62
     7
 10
-1426.5083383457
 20
-213.1301807736
 30
0.0
 11
-1426.5083383457
 21
-213.6283712958
 31
0.0
  0
LINE
  5
4A3
  8
0
  6
CONTINUOUS
 62
     7
 10
-1426.5083383457
 20
-213.1301807736
 30
0.0
 11
-1425.0083427565
 21
-213.1301807736
 31
0.0
  0
LINE
  5
4A4
  8
0
  6
CONTINUOUS
 62
     7
 10
-1425.0083427565
 20
-213.6283712958
 30
0.0
 11
-1425.0083427565
 21
-213.1301807736
 31
0.0
  0
ARC
  5
4A5
  8
0
  6
CONTINUOUS
 62
     7
 10
-1029.5083470493
 20
-397.1301725469
 30
0.0
 40
3.000014664104143
 50
270.0001639491
 51
359.9997204359
  0
LINE
  5
4A6
  8
0
  6
CONTINUOUS
 62
     7
 10
-1026.5083323853
 20
-213.6283712958
 30
0.0
 11
-1026.5083323853
 21
-352.0896146571
 31
0.0
  0
LINE
  5
4A7
  8
0
  6
CONTINUOUS
 62
     7
 10
-1026.5083323853
 20
-396.2102858846
 30
0.0
 11
-1026.5083323853
 21
-397.1301871849
 31
0.0
  0
LINE
  5
4A8
  8
0
  6
CONTINUOUS
 62
     7
 10
-1028.0083279745
 20
-213.6283712958
 30
0.0
 11
-1028.0083279745
 21
-350.4720265543
 31
0.0
  0
LINE
  5
4A9
  8
0
  6
CONTINUOUS
 62
     7
 10
-1028.0083279745
 20
-394.5926996445
 30
0.0
 11
-1028.0083279745
 21
-397.1301871849
 31
0.0
  0
LINE
  5
4AA
  8
0
  6
CONTINUOUS
 62
     7
 10
-1426.5083383457
 20
-397.1301871849
 30
0.0
 11
-1426.5083383457
 21
-396.2102858846
 31
0.0
  0
LINE
  5
4AB
  8
0
  6
CONTINUOUS
 62
     7
 10
-1426.5083383457
 20
-352.0896146571
 30
0.0
 11
-1426.5083383457
 21
-213.6283712958
 31
0.0
  0
LINE
  5
4AC
  8
0
  6
CONTINUOUS
 62
     7
 10
-1425.0083427565
 20
-397.1301871849
 30
0.0
 11
-1425.0083427565
 21
-394.5926996445
 31
0.0
  0
LINE
  5
4AD
  8
0
  6
CONTINUOUS
 62
     7
 10
-1425.0083427565
 20
-350.4720265543
 30
0.0
 11
-1425.0083427565
 21
-213.6283712958
 31
0.0
  0
ARC
  5
4AE
  8
0
  6
CONTINUOUS
 62
     7
 10
-1423.508323874
 20
-397.1301727392
 30
0.0
 40
3.000014471762588
 50
180.0002758907
 51
269.9998397243
  0
POLYLINE
  5
4AF
  8
0
  6
CONTINUOUS
 62
     7
 66
     1
 10
0.0
 20
0.0
 30
0.0
  0
VERTEX
  5
6C7
  8
0
  6
CONTINUOUS
 62
     7
 10
-1028.0083279745
 20
-213.1301807736
 30
0.0
  0
VERTEX
  5
6C8
  8
0
  6
CONTINUOUS
 62
     7
 10
-1028.0495296852
 20
-212.781061468
 30
0.0
  0
VERTEX
  5
6C9
  8
0
  6
CONTINUOUS
 62
     7
 10
-1028.1007598774
 20
-212.6328396176
 30
0.0
  0
SEQEND
  5
6CA
  8
0
  6
CONTINUOUS
 62
     7
  0
ARC
  5
4B0
  8
0
  6
CONTINUOUS
 62
     7
 10
-1029.5083205953
 20
-213.1301853486
 30
0.0
 40
2.999988209998342
 50
0.0000873758
 51
75.0545443187
  0
POLYLINE
  5
4B1
  8
0
  6
CONTINUOUS
 62
     7
 66
     1
 10
0.0
 20
0.0
 30
0.0
  0
VERTEX
  5
6CB
  8
0
  6
CONTINUOUS
 62
     7
 10
-1424.9162684814
 20
-212.6354473208
 30
0.0
  0
VERTEX
  5
6CC
  8
0
  6
CONTINUOUS
 62
     7
 10
-1424.9488722221
 20
-212.7120094871
 30
0.0
  0
VERTEX
  5
6CD
  8
0
  6
CONTINUOUS
 62
     7
 10
-1425.0083427565
 20
-213.1301807736
 30
0.0
  0
SEQEND
  5
6CE
  8
0
  6
CONTINUOUS
 62
     7
  0
ARC
  5
4B2
  8
0
  6
CONTINUOUS
 62
     7
 10
-1423.5083343651
 20
-213.1301935758
 30
0.0
 40
3.000003980652795
 50
89.9999599112
 51
179.9997554975
  0
LINE
  5
4B3
  8
0
  6
CONTINUOUS
 62
     7
 10
-1028.7346254723
 20
-210.2316665029
 30
0.0
 11
-1029.5083384649
 21
-210.1301895951
 31
0.0
  0
LINE
  5
4B4
  8
0
  6
CONTINUOUS
 62
     7
 10
-1423.4645526545
 20
-210.1301895951
 30
0.0
 11
-1423.508332266
 21
-210.1301895951
 31
0.0
  0
LINE
  5
4B5
  8
0
  6
CONTINUOUS
 62
     7
 10
-1048.992634906
 20
-208.4214287375
 30
0.0
 11
-1050.4780273573
 21
-208.2126634692
 31
0.0
  0
LINE
  5
4B6
  8
0
  6
CONTINUOUS
 62
     7
 10
-1049.8761694567
 20
-203.9301889514
 30
0.0
 11
-1050.4780273573
 21
-208.2126634692
 31
0.0
  0
LINE
  5
4B7
  8
0
  6
CONTINUOUS
 62
     7
 10
-1048.361436619
 20
-203.9301889514
 30
0.0
 11
-1048.992634906
 21
-208.4214287375
 31
0.0
  0
LINE
  5
4B8
  8
0
  6
CONTINUOUS
 62
     7
 10
-1404.2180340426
 20
-208.4214287375
 30
0.0
 11
-1404.8554312126
 21
-203.9301889514
 31
0.0
  0
POLYLINE
  5
4B9
  8
0
  6
CONTINUOUS
 62
     7
 66
     1
 10
0.0
 20
0.0
 30
0.0
  0
VERTEX
  5
6CF
  8
0
  6
CONTINUOUS
 62
     7
 10
-1404.3757479326
 20
-209.6123891448
 30
0.0
  0
VERTEX
  5
6D0
  8
0
  6
CONTINUOUS
 62
     7
 10
-1404.8862617151
 20
-209.9946188306
 30
0.0
  0
VERTEX
  5
6D1
  8
0
  6
CONTINUOUS
 62
     7
 10
-1405.5094431774
 20
-210.1301895951
 30
0.0
  0
SEQEND
  5
6D2
  8
0
  6
CONTINUOUS
 62
     7
  0
POLYLINE
  5
4BA
  8
0
  6
CONTINUOUS
 62
     7
 66
     1
 10
0.0
 20
0.0
 30
0.0
  0
VERTEX
  5
6D3
  8
0
  6
CONTINUOUS
 62
     7
 10
-1047.5072275536
 20
-210.1301895951
 30
0.0
  0
VERTEX
  5
6D4
  8
0
  6
CONTINUOUS
 62
     7
 10
-1048.1304090159
 20
-209.9946188306
 30
0.0
  0
VERTEX
  5
6D5
  8
0
  6
CONTINUOUS
 62
     7
 10
-1048.6409227984
 20
-209.6123891448
 30
0.0
  0
SEQEND
  5
6D6
  8
0
  6
CONTINUOUS
 62
     7
  0
POLYLINE
  5
4BB
  8
0
  6
CONTINUOUS
 62
     7
 66
     1
 10
0.0
 20
0.0
 30
0.0
  0
VERTEX
  5
6D7
  8
0
  6
CONTINUOUS
 62
     7
 10
-1050.3977249996
 20
-209.4067680215
 30
0.0
  0
VERTEX
  5
6D8
  8
0
  6
CONTINUOUS
 62
     7
 10
-1050.4038344757
 20
-209.479843316
 30
0.0
  0
VERTEX
  5
6D9
  8
0
  6
CONTINUOUS
 62
     7
 10
-1050.4156510965
 20
-209.6123891448
 30
0.0
  0
SEQEND
  5
6DA
  8
0
  6
CONTINUOUS
 62
     7
  0
ARC
  5
4BC
  8
0
  6
CONTINUOUS
 62
     7
 10
-1261.6564995331
 20
-197.1168786837
 30
0.0
 40
142.9914005349175
 50
184.6183503062
 51
185.0671788829
  0
POLYLINE
  5
4BD
  8
0
  6
CONTINUOUS
 62
     7
 66
     1
 10
0.0
 20
0.0
 30
0.0
  0
VERTEX
  5
6DB
  8
0
  6
CONTINUOUS
 62
     7
 10
-1405.5105458633
 20
-210.1301895951
 30
0.0
  0
VERTEX
  5
6DC
  8
0
  6
CONTINUOUS
 62
     7
 10
-1404.7590803043
 20
-209.9946188306
 30
0.0
  0
VERTEX
  5
6DD
  8
0
  6
CONTINUOUS
 62
     7
 10
-1404.0076296465
 20
-209.6123891448
 30
0.0
  0
SEQEND
  5
6DE
  8
0
  6
CONTINUOUS
 62
     7
  0
ARC
  5
4BE
  8
0
  6
CONTINUOUS
 62
     7
 10
-1375.8361758865
 20
-204.0213333678
 30
0.0
 40
28.72091070378038
 50
188.8125217237
 51
191.225357256
  0
ARC
  5
4BF
  8
0
  6
CONTINUOUS
 62
     7
 10
-1078.6807098771
 20
-204.0216497124
 30
0.0
 40
28.7210643687686
 50
348.775346968
 51
351.1881644166
  0
LINE
  5
4C0
  8
0
  6
CONTINUOUS
 62
     7
 10
-1050.5090366737
 20
-209.6123891448
 30
0.0
 11
-1049.0090410845
 21
-209.6123891448
 31
0.0
  0
POLYLINE
  5
4C1
  8
0
  6
CONTINUOUS
 62
     7
 66
     1
 10
0.0
 20
0.0
 30
0.0
  0
VERTEX
  5
6DF
  8
0
  6
CONTINUOUS
 62
     7
 10
-1049.0090410845
 20
-209.6123891448
 30
0.0
  0
VERTEX
  5
6E0
  8
0
  6
CONTINUOUS
 62
     7
 10
-1048.2548337118
 20
-209.9946188306
 30
0.0
  0
VERTEX
  5
6E1
  8
0
  6
CONTINUOUS
 62
     7
 10
-1047.5006412403
 20
-210.1301895951
 30
0.0
  0
SEQEND
  5
6E2
  8
0
  6
CONTINUOUS
 62
     7
  0
ARC
  5
4C2
  8
0
  6
CONTINUOUS
 62
     7
 10
-1047.5072903808
 20
-208.6301933565
 30
0.0
 40
1.499943673803258
 50
171.9995059972
 51
220.9061378494
  0
ARC
  5
4C3
  8
0
  6
CONTINUOUS
 62
     7
 10
-1047.9912795905
 20
-208.656222286
 30
0.0
 40
2.525996611197637
 50
169.8865662948
 51
202.2426905256
  0
POLYLINE
  5
4C4
  8
0
  6
CONTINUOUS
 62
     7
 66
     1
 10
0.0
 20
0.0
 30
0.0
  0
VERTEX
  5
6E3
  8
0
  6
CONTINUOUS
 62
     7
 10
-1404.1002254622
 20
-209.1256874179
 30
0.0
  0
VERTEX
  5
6E4
  8
0
  6
CONTINUOUS
 62
     7
 10
-1404.1934471266
 20
-209.3500243997
 30
0.0
  0
VERTEX
  5
6E5
  8
0
  6
CONTINUOUS
 62
     7
 10
-1404.3757479326
 20
-209.6123891448
 30
0.0
  0
SEQEND
  5
6E6
  8
0
  6
CONTINUOUS
 62
     7
  0
POLYLINE
  5
4C5
  8
0
  6
CONTINUOUS
 62
     7
 66
     1
 10
0.0
 20
0.0
 30
0.0
  0
VERTEX
  5
6E7
  8
0
  6
CONTINUOUS
 62
     7
 10
-1048.8812785284
 20
-209.2102962111
 30
0.0
  0
VERTEX
  5
6E8
  8
0
  6
CONTINUOUS
 62
     7
 10
-1048.8512377874
 20
-208.8512676333
 30
0.0
  0
VERTEX
  5
6E9
  8
0
  6
CONTINUOUS
 62
     7
 10
-1048.7986366884
 20
-208.2126634692
 30
0.0
  0
SEQEND
  5
6EA
  8
0
  6
CONTINUOUS
 62
     7
  0
LINE
  5
4C6
  8
0
  6
CONTINUOUS
 62
     7
 10
-1048.7986366884
 20
-208.4214287375
 30
0.0
 11
-1048.7986366884
 21
-208.2126634692
 31
0.0
  0
LINE
  5
4C7
  8
0
  6
CONTINUOUS
 62
     7
 10
-1048.8335203068
 20
-208.6331742381
 30
0.0
 11
-1048.7986366884
 21
-208.4214287375
 31
0.0
  0
LINE
  5
4C8
  8
0
  6
CONTINUOUS
 62
     7
 10
-1048.1908630268
 20
-203.9301889514
 30
0.0
 11
-1048.7986366884
 21
-208.2126634692
 31
0.0
  0
LINE
  5
4C9
  8
0
  6
CONTINUOUS
 62
     7
 10
-1048.7986366884
 20
-208.4214287375
 30
0.0
 11
-1048.1612395184
 21
-203.9301889514
 31
0.0
  0
LINE
  5
4CA
  8
0
  6
CONTINUOUS
 62
     7
 10
-1423.509434952
 20
-210.1301895951
 30
0.0
 11
-1423.5367189781
 21
-210.1301895951
 31
0.0
  0
LINE
  5
4CB
  8
0
  6
CONTINUOUS
 62
     7
 10
-1423.5801111595
 20
-210.1301895951
 30
0.0
 11
-1423.5367189781
 21
-210.1301895951
 31
0.0
  0
LINE
  5
4CC
  8
0
  6
CONTINUOUS
 62
     7
 10
-1412.3740654127
 20
-207.5101929282
 30
0.0
 11
-1410.6583308117
 21
-207.5101929282
 31
0.0
  0
LINE
  5
4CD
  8
0
  6
CONTINUOUS
 62
     7
 10
-1414.8583423035
 20
-207.5101929282
 30
0.0
 11
-1412.3740654127
 21
-207.5101929282
 31
0.0
  0
LINE
  5
4CE
  8
0
  6
CONTINUOUS
 62
     7
 10
-1412.3008709089
 20
-207.9101847981
 30
0.0
 11
-1415.2583341734
 21
-207.9101847981
 31
0.0
  0
LINE
  5
4CF
  8
0
  6
CONTINUOUS
 62
     7
 10
-1410.2583389418
 20
-207.9101847981
 30
0.0
 11
-1412.3008709089
 21
-207.9101847981
 31
0.0
  0
ENDSEC
  0
EOF
