  0
SECTION
  2
HEADER
  9
$ACADVER
  1
AC1009
  9
$DWGCODEPAGE
  3
ansi_1252
  9
$INSBASE
 10
0.0
 20
0.0
 30
0.0
  9
$EXTMIN
 10
0.0
 20
0.0
 30
0.0
  9
$EXTMAX
 10
420.0
 20
297.0
 30
0.0
  9
$LIMMIN
 10
0.0
 20
0.0
  9
$LIMMAX
 10
420.0
 20
297.0
  9
$ORTHOMODE
 70
     0
  9
$REGENMODE
 70
     1
  9
$FILLMODE
 70
     1
  9
$QTEXTMODE
 70
     0
  9
$MIRRTEXT
 70
     1
  9
$DRAGMODE
 70
     2
  9
$LTSCALE
 40
1.0
  9
$OSMODE
 70
    37
  9
$ATTMODE
 70
     1
  9
$TEXTSIZE
 40
4.8380952381
  9
$TRACEWID
 40
1.0
  9
$TEXTSTYLE
  7
STANDARD
  9
$CLAYER
  8
0
  9
$CELTYPE
  6
BYLAYER
  9
$CECOLOR
 62
   256
  9
$DIMSCALE
 40
1.0
  9
$DIMASZ
 40
3.5
  9
$DIMEXO
 40
1.0
  9
$DIMDLI
 40
3.75
  9
$DIMRND
 40
0.0
  9
$DIMDLE
 40
0.0
  9
$DIMEXE
 40
1.0
  9
$DIMTP
 40
0.0
  9
$DIMTM
 40
0.0
  9
$DIMTXT
 40
4.0317460317
  9
$DIMCEN
 40
2.5
  9
$DIMTSZ
 40
0.0
  9
$DIMTOL
 70
     0
  9
$DIMLIM
 70
     0
  9
$DIMTIH
 70
     1
  9
$DIMTOH
 70
     1
  9
$DIMSE1
 70
     0
  9
$DIMSE2
 70
     0
  9
$DIMTAD
 70
     1
  9
$DIMZIN
 70
     0
  9
$DIMBLK
  1

  9
$DIMASO
 70
     1
  9
$DIMSHO
 70
     1
  9
$DIMPOST
  1

  9
$DIMAPOST
  1

  9
$DIMALT
 70
     0
  9
$DIMALTD
 70
     3
  9
$DIMALTF
 40
0.0393700787
  9
$DIMLFAC
 40
1.0
  9
$DIMTOFL
 70
     1
  9
$DIMTVP
 40
0.0
  9
$DIMTIX
 70
     0
  9
$DIMSOXD
 70
     0
  9
$DIMSAH
 70
     0
  9
$DIMBLK1
  1

  9
$DIMBLK2
  1

  9
$DIMSTYLE
  2
ISO-25
  9
$DIMCLRD
 70
     0
  9
$DIMCLRE
 70
     0
  9
$DIMCLRT
 70
     0
  9
$DIMTFAC
 40
1.0
  9
$DIMGAP
 40
1.524
  9
$LUNITS
 70
     2
  9
$LUPREC
 70
     2
  9
$SKETCHINC
 40
1.0
  9
$FILLETRAD
 40
10.0
  9
$AUNITS
 70
     0
  9
$AUPREC
 70
     2
  9
$MENU
  1
.
  9
$ELEVATION
 40
0.0
  9
$PELEVATION
 40
0.0
  9
$THICKNESS
 40
0.0
  9
$LIMCHECK
 70
     0
  9
$CHAMFERA
 40
10.0
  9
$CHAMFERB
 40
10.0
  9
$SKPOLY
 70
     0
  9
$TDCREATE
 40
2455889.568411435
  9
$TDUPDATE
 40
2455889.568411447
  9
$TDINDWG
 40
0.0000000116
  9
$TDUSRTIMER
 40
0.0000000116
  9
$USRTIMER
 70
     1
  9
$ANGBASE
 50
0.0
  9
$ANGDIR
 70
     0
  9
$PDMODE
 70
     0
  9
$PDSIZE
 40
-1.0
  9
$PLINEWID
 40
0.0
  9
$COORDS
 70
     1
  9
$SPLFRAME
 70
     0
  9
$SPLINETYPE
 70
     6
  9
$SPLINESEGS
 70
     8
  9
$ATTDIA
 70
     0
  9
$ATTREQ
 70
     1
  9
$HANDLING
 70
     1
  9
$HANDSEED
  5
B59
  9
$SURFTAB1
 70
     6
  9
$SURFTAB2
 70
     6
  9
$SURFTYPE
 70
     6
  9
$SURFU
 70
     6
  9
$SURFV
 70
     6
  9
$UCSNAME
  2

  9
$UCSORG
 10
0.0
 20
0.0
 30
0.0
  9
$UCSXDIR
 10
1.0
 20
0.0
 30
0.0
  9
$UCSYDIR
 10
0.0
 20
1.0
 30
0.0
  9
$PUCSNAME
  2

  9
$PUCSORG
 10
0.0
 20
0.0
 30
0.0
  9
$PUCSXDIR
 10
1.0
 20
0.0
 30
0.0
  9
$PUCSYDIR
 10
0.0
 20
1.0
 30
0.0
  9
$USERI1
 70
     0
  9
$USERI2
 70
     0
  9
$USERI3
 70
     0
  9
$USERI4
 70
     0
  9
$USERI5
 70
     0
  9
$USERR1
 40
0.0
  9
$USERR2
 40
0.0
  9
$USERR3
 40
0.0
  9
$USERR4
 40
0.0
  9
$USERR5
 40
0.0
  9
$WORLDVIEW
 70
     1
  9
$SHADEDGE
 70
     3
  9
$SHADEDIF
 70
    70
  9
$TILEMODE
 70
     1
  9
$MAXACTVP
 70
    64
  9
$PLIMCHECK
 70
     0
  9
$PEXTMIN
 10
1.0000000000E+20
 20
1.0000000000E+20
 30
1.0000000000E+20
  9
$PEXTMAX
 10
-1.0000000000E+20
 20
-1.0000000000E+20
 30
-1.0000000000E+20
  9
$PLIMMIN
 10
0.0
 20
0.0
  9
$PLIMMAX
 10
420.0
 20
297.0
  9
$UNITMODE
 70
     0
  9
$VISRETAIN
 70
     1
  9
$PLINEGEN
 70
     0
  9
$PSLTSCALE
 70
     1
  0
ENDSEC
  0
SECTION
  2
TABLES
  0
TABLE
  2
VPORT
 70
     1
  0
VPORT
  2
*ACTIVE
 70
     0
 10
0.0
 20
0.0
 11
1.0
 21
1.0
 12
210.0
 22
148.5
 13
0.0
 23
0.0
 14
10.0
 24
10.0
 15
10.0
 25
10.0
 16
0.0
 26
0.0
 36
1.0
 17
0.0
 27
0.0
 37
0.0
 40
297.0
 41
1.4141414141
 42
50.0
 43
0.0
 44
0.0
 50
0.0
 51
0.0
 71
     0
 72
  2000
 73
     1
 74
     3
 75
     0
 76
     0
 77
     0
 78
     0
  0
ENDTAB
  0
TABLE
  2
LTYPE
 70
     6
  0
LTYPE
  2
CONTINUOUS
 70
     0
  3
Solid line
 72
    65
 73
     0
 40
0.0
  0
LTYPE
  2
HIDDEN
 70
     0
  3
Hidden __ __ __ __ __ __ __ __ __ __ __ __ __ __
 72
    65
 73
     2
 40
1.905
 49
1.27
 49
-0.635
  0
LTYPE
  2
PHANTOM
 70
     0
  3
Phantom ______  __  __  ______  __  __  ______
 72
    65
 73
     6
 40
12.7
 49
6.35
 49
-1.27
 49
1.27
 49
-1.27
 49
1.27
 49
-1.27
  0
LTYPE
  2
CENTER
 70
     0
  3
Center ____ _ ____ _ ____ _ ____ _ ____ _ ____
 72
    65
 73
     4
 40
10.16
 49
6.35
 49
-1.27
 49
1.27
 49
-1.27
  0
LTYPE
  2
CENTERX2
 70
     0
  3
Center (2x) ________  __  ________  __  _____
 72
    65
 73
     4
 40
20.32
 49
12.7
 49
-2.54
 49
2.54
 49
-2.54
  0
LTYPE
  2
DOT2
 70
     0
  3
Dot (.5x) ........................................
 72
    65
 73
     2
 40
0.635
 49
0.0
 49
-0.635
  0
ENDTAB
  0
TABLE
  2
LAYER
 70
     8
  0
LAYER
  2
0
 70
     0
 62
     7
  6
CONTINUOUS
  0
LAYER
  2
SLD-0
 70
     0
 62
     7
  6
CONTINUOUS
  0
LAYER
  2
AM_BOR
 70
     0
 62
     7
  6
CONTINUOUS
  0
LAYER
  2
BIEGLINIE__ZU_
 70
     0
 62
     8
  6
CONTINUOUS
  0
LAYER
  2
BIEGELINIE__WEG_
 70
     0
 62
     8
  6
HIDDEN
  0
LAYER
  2
BIEGELINIE__ZU_
 70
     0
 62
     8
  6
CONTINUOUS
  0
LAYER
  2
LAYER0
 70
     0
 62
     7
  6
CONTINUOUS
  0
LAYER
  2
CK_LEVEL_1
 70
     0
 62
     7
  6
CONTINUOUS
  0
ENDTAB
  0
TABLE
  2
STYLE
 70
     1
  0
STYLE
  2
STANDARD
 70
     0
 40
0.0
 41
1.0
 50
0.0
 71
     0
 42
2.5
  3
txt
  4

  0
ENDTAB
  0
TABLE
  2
VIEW
 70
     0
  0
ENDTAB
  0
TABLE
  2
UCS
 70
     0
  0
ENDTAB
  0
TABLE
  2
APPID
 70
     1
  0
APPID
  2
ACAD
 70
     0
  0
ENDTAB
  0
TABLE
  2
DIMSTYLE
 70
     1
  0
DIMSTYLE
  2
ISO-25
 70
     0
  3

  4

  5

  6

  7

 40
1.0
 41
2.5
 42
0.625
 43
3.75
 44
1.25
 45
0.0
 46
0.0
 47
0.0
 48
0.0
140
2.5
141
2.5
142
0.0
143
0.0393700787
144
1.0
145
0.0
146
1.0
147
0.625
 71
     0
 72
     0
 73
     0
 74
     0
 75
     0
 76
     0
 77
     1
 78
     8
170
     0
171
     3
172
     1
173
     0
174
     0
175
     0
176
     0
177
     0
178
     0
  0
ENDTAB
  0
ENDSEC
  0
SECTION
  2
BLOCKS
  0
BLOCK
  8
0
  2
$MODEL_SPACE
 70
     0
 10
0.0
 20
0.0
 30
0.0
  3
$MODEL_SPACE
  1

  0
ENDBLK
  5
21
  8
0
  0
BLOCK
 67
     1
  8
0
  2
$PAPER_SPACE
 70
     0
 10
0.0
 20
0.0
 30
0.0
  3
$PAPER_SPACE
  1

  0
ENDBLK
  5
1D
 67
     1
  8
0
  0
BLOCK
  8
0
  2
ERDUNG1
 70
     0
 10
0.0
 20
0.0
 30
0.0
  3
ERDUNG1
  1

  0
CIRCLE
  5
4E
  8
CK_LEVEL_1
  6
CONTINUOUS
 62
     7
 10
8.75
 20
8.75
 30
0.0
 40
8.749999999999998
  0
LINE
  5
4F
  8
CK_LEVEL_1
  6
CONTINUOUS
 62
     7
 10
8.75
 20
3.75
 30
0.0
 11
9.918893
 21
3.75
 31
0.0
  0
LINE
  5
50
  8
CK_LEVEL_1
  6
CONTINUOUS
 62
     7
 10
8.75
 20
3.75
 30
0.0
 11
7.581107
 21
3.75
 31
0.0
  0
LINE
  5
51
  8
CK_LEVEL_1
  6
CONTINUOUS
 62
     7
 10
8.75
 20
6.25
 30
0.0
 11
11.019622
 21
6.25
 31
0.0
  0
LINE
  5
52
  8
CK_LEVEL_1
  6
CONTINUOUS
 62
     7
 10
8.75
 20
8.75
 30
0.0
 11
12.815547
 21
8.75
 31
0.0
  0
LINE
  5
53
  8
CK_LEVEL_1
  6
CONTINUOUS
 62
     7
 10
8.75
 20
6.25
 30
0.0
 11
6.480378
 21
6.25
 31
0.0
  0
LINE
  5
54
  8
CK_LEVEL_1
  6
CONTINUOUS
 62
     7
 10
8.75
 20
8.75
 30
0.0
 11
4.684453
 21
8.75
 31
0.0
  0
LINE
  5
55
  8
CK_LEVEL_1
  6
CONTINUOUS
 62
     7
 10
8.75
 20
8.75
 30
0.0
 11
8.75
 21
16.692861
 31
0.0
  0
ENDBLK
  5
4D
  8
0
  0
ENDSEC
  0
SECTION
  2
ENTITIES
  0
LINE
  5
56
  8
0
  6
CONTINUOUS
 62
     7
 10
-710.8823651123
 20
-44.3199693244
 30
0.0
 11
-710.8823651123
 21
-46.3199733776
 31
0.0
  0
LINE
  5
57
  8
0
  6
CONTINUOUS
 62
     7
 10
-696.8823665429
 20
-46.3199733776
 30
0.0
 11
-696.8823665429
 21
-44.3199693244
 31
0.0
  0
LINE
  5
58
  8
0
  6
CONTINUOUS
 62
     7
 10
-140.8823722649
 20
-44.3199693244
 30
0.0
 11
-140.8823722649
 21
-46.3199733776
 31
0.0
  0
LINE
  5
59
  8
0
  6
CONTINUOUS
 62
     7
 10
-126.8823736954
 20
-46.3199733776
 30
0.0
 11
-126.8823736954
 21
-44.3199693244
 31
0.0
  0
ARC
  5
5A
  8
0
  6
CONTINUOUS
 62
     7
 10
-716.3823694039
 20
-41.8199663442
 30
0.0
 40
2.000000000000082
 50
209.9766118521
 51
240.0233881469
  0
ARC
  5
5B
  8
0
  6
CONTINUOUS
 62
     7
 10
-121.3823694039
 20
353.1800336558
 30
0.0
 40
1.99999999999998
 50
29.9766118522
 51
60.0233881468
  0
ARC
  5
5C
  8
0
  6
CONTINUOUS
 62
     7
 10
-121.3823694039
 20
-41.8199663442
 30
0.0
 40
2.000000000000024
 50
299.9766118538
 51
330.0233881483
  0
ARC
  5
5D
  8
0
  6
CONTINUOUS
 62
     7
 10
-716.3823694039
 20
353.1800336558
 30
0.0
 40
2.000000000000092
 50
119.9766118537
 51
150.0233881482
  0
LINE
  5
5E
  8
0
  6
CONTINUOUS
 62
     7
 10
-109.8823839474
 20
-44.3199693244
 30
0.0
 11
-109.8823839474
 21
355.680036636
 31
0.0
  0
LINE
  5
5F
  8
0
  6
CONTINUOUS
 62
     7
 10
-99.8823636818
 20
355.680036636
 30
0.0
 11
-99.8823636818
 21
-44.3199693244
 31
0.0
  0
LINE
  5
60
  8
0
  6
CONTINUOUS
 62
     7
 10
-727.8823548603
 20
355.680036636
 30
0.0
 11
-727.8823548603
 21
-44.3199693244
 31
0.0
  0
LINE
  5
61
  8
0
  6
CONTINUOUS
 62
     7
 10
-737.8823751259
 20
-44.3199693244
 30
0.0
 11
-737.8823751259
 21
355.680036636
 31
0.0
  0
POLYLINE
  5
62
  8
0
  6
CONTINUOUS
 62
     7
 66
     1
 10
0.0
 20
0.0
 30
0.0
  0
VERTEX
  5
611
  8
0
  6
CONTINUOUS
 62
     7
 10
-716.8323689747
 20
-39.3199591917
 30
0.0
  0
VERTEX
  5
612
  8
0
  6
CONTINUOUS
 62
     7
 10
-716.7849832821
 20
-39.1053973716
 30
0.0
  0
VERTEX
  5
613
  8
0
  6
CONTINUOUS
 62
     7
 10
-716.6278952408
 20
-38.9483093303
 30
0.0
  0
VERTEX
  5
614
  8
0
  6
CONTINUOUS
 62
     7
 10
-716.3486772824
 20
-38.8521223348
 30
0.0
  0
VERTEX
  5
615
  8
0
  6
CONTINUOUS
 62
     7
 10
-715.9536773014
 20
-38.819965629
 30
0.0
  0
VERTEX
  5
616
  8
0
  6
CONTINUOUS
 62
     7
 10
-715.4651874352
 20
-38.851958422
 30
0.0
  0
VERTEX
  5
617
  8
0
  6
CONTINUOUS
 62
     7
 10
-714.9224275399
 20
-38.9479219001
 30
0.0
  0
VERTEX
  5
618
  8
0
  6
CONTINUOUS
 62
     7
 10
-714.3631273556
 20
-39.1055463832
 30
0.0
  0
VERTEX
  5
619
  8
0
  6
CONTINUOUS
 62
     7
 10
-713.8323777962
 20
-39.3199591917
 30
0.0
  0
SEQEND
  5
61A
  8
0
  6
CONTINUOUS
 62
     7
  0
LINE
  5
63
  8
0
  6
CONTINUOUS
 62
     7
 10
-716.8323689747
 20
350.6800265032
 30
0.0
 11
-716.8323689747
 21
-39.3199591917
 31
0.0
  0
POLYLINE
  5
64
  8
0
  6
CONTINUOUS
 62
     7
 66
     1
 10
0.0
 20
0.0
 30
0.0
  0
VERTEX
  5
61B
  8
0
  6
CONTINUOUS
 62
     7
 10
-716.8323689747
 20
350.6800265032
 30
0.0
  0
VERTEX
  5
61C
  8
0
  6
CONTINUOUS
 62
     7
 10
-716.7849832821
 20
350.4654646832
 30
0.0
  0
VERTEX
  5
61D
  8
0
  6
CONTINUOUS
 62
     7
 10
-716.6278952408
 20
350.3083766419
 30
0.0
  0
VERTEX
  5
61E
  8
0
  6
CONTINUOUS
 62
     7
 10
-716.3486772824
 20
350.2121896464
 30
0.0
  0
VERTEX
  5
61F
  8
0
  6
CONTINUOUS
 62
     7
 10
-715.9536773014
 20
350.1800329405
 30
0.0
  0
VERTEX
  5
620
  8
0
  6
CONTINUOUS
 62
     7
 10
-715.4651874352
 20
350.2120257336
 30
0.0
  0
VERTEX
  5
621
  8
0
  6
CONTINUOUS
 62
     7
 10
-714.9224275399
 20
350.3079892117
 30
0.0
  0
VERTEX
  5
622
  8
0
  6
CONTINUOUS
 62
     7
 10
-714.3631273556
 20
350.4656136948
 30
0.0
  0
VERTEX
  5
623
  8
0
  6
CONTINUOUS
 62
     7
 10
-713.8323777962
 20
350.6800265032
 30
0.0
  0
SEQEND
  5
624
  8
0
  6
CONTINUOUS
 62
     7
  0
LINE
  5
65
  8
0
  6
CONTINUOUS
 62
     7
 10
-716.8323689747
 20
350.6800265032
 30
0.0
 11
-715.3323584843
 21
350.6800265032
 31
0.0
  0
POLYLINE
  5
66
  8
0
  6
CONTINUOUS
 62
     7
 66
     1
 10
0.0
 20
0.0
 30
0.0
  0
VERTEX
  5
625
  8
0
  6
CONTINUOUS
 62
     7
 10
-715.3323584843
 20
350.6800265032
 30
0.0
  0
VERTEX
  5
626
  8
0
  6
CONTINUOUS
 62
     7
 10
-715.308665638
 20
350.4654646832
 30
0.0
  0
VERTEX
  5
627
  8
0
  6
CONTINUOUS
 62
     7
 10
-715.2301365185
 20
350.3083766419
 30
0.0
  0
VERTEX
  5
628
  8
0
  6
CONTINUOUS
 62
     7
 10
-715.0905126381
 20
350.2121896464
 30
0.0
  0
VERTEX
  5
629
  8
0
  6
CONTINUOUS
 62
     7
 10
-714.8930126477
 20
350.1800329405
 30
0.0
  0
VERTEX
  5
62A
  8
0
  6
CONTINUOUS
 62
     7
 10
-714.8930126477
 20
350.1800329405
 30
0.0
  0
SEQEND
  5
62B
  8
0
  6
CONTINUOUS
 62
     7
  0
POLYLINE
  5
67
  8
0
  6
CONTINUOUS
 62
     7
 66
     1
 10
0.0
 20
0.0
 30
0.0
  0
VERTEX
  5
62C
  8
0
  6
CONTINUOUS
 62
     7
 10
-119.8323661137
 20
350.6800265032
 30
0.0
  0
VERTEX
  5
62D
  8
0
  6
CONTINUOUS
 62
     7
 10
-119.8797816086
 20
350.4654646832
 30
0.0
  0
VERTEX
  5
62E
  8
0
  6
CONTINUOUS
 62
     7
 10
-120.0368398476
 20
350.3083766419
 30
0.0
  0
VERTEX
  5
62F
  8
0
  6
CONTINUOUS
 62
     7
 10
-120.3160876084
 20
350.2121896464
 30
0.0
  0
VERTEX
  5
630
  8
0
  6
CONTINUOUS
 62
     7
 10
-120.711057787
 20
350.1800329405
 30
0.0
  0
VERTEX
  5
631
  8
0
  6
CONTINUOUS
 62
     7
 10
-121.1995476532
 20
350.2120257336
 30
0.0
  0
VERTEX
  5
632
  8
0
  6
CONTINUOUS
 62
     7
 10
-121.7423075486
 20
350.3079892117
 30
0.0
  0
VERTEX
  5
633
  8
0
  6
CONTINUOUS
 62
     7
 10
-122.3016077328
 20
350.4656136948
 30
0.0
  0
VERTEX
  5
634
  8
0
  6
CONTINUOUS
 62
     7
 10
-122.8323572922
 20
350.6800265032
 30
0.0
  0
SEQEND
  5
635
  8
0
  6
CONTINUOUS
 62
     7
  0
LINE
  5
68
  8
0
  6
CONTINUOUS
 62
     7
 10
-119.8323661137
 20
-39.3199591917
 30
0.0
 11
-119.8323661137
 21
350.6800265032
 31
0.0
  0
POLYLINE
  5
69
  8
0
  6
CONTINUOUS
 62
     7
 66
     1
 10
0.0
 20
0.0
 30
0.0
  0
VERTEX
  5
636
  8
0
  6
CONTINUOUS
 62
     7
 10
-119.8323661137
 20
-39.3199591917
 30
0.0
  0
VERTEX
  5
637
  8
0
  6
CONTINUOUS
 62
     7
 10
-119.8797816086
 20
-39.1053973716
 30
0.0
  0
VERTEX
  5
638
  8
0
  6
CONTINUOUS
 62
     7
 10
-120.0368398476
 20
-38.9483093303
 30
0.0
  0
VERTEX
  5
639
  8
0
  6
CONTINUOUS
 62
     7
 10
-120.3160876084
 20
-38.8521223348
 30
0.0
  0
VERTEX
  5
63A
  8
0
  6
CONTINUOUS
 62
     7
 10
-120.711057787
 20
-38.819965629
 30
0.0
  0
VERTEX
  5
63B
  8
0
  6
CONTINUOUS
 62
     7
 10
-121.1995476532
 20
-38.851958422
 30
0.0
  0
VERTEX
  5
63C
  8
0
  6
CONTINUOUS
 62
     7
 10
-121.7423075486
 20
-38.9479219001
 30
0.0
  0
VERTEX
  5
63D
  8
0
  6
CONTINUOUS
 62
     7
 10
-122.3016077328
 20
-39.1055463832
 30
0.0
  0
VERTEX
  5
63E
  8
0
  6
CONTINUOUS
 62
     7
 10
-122.8323572922
 20
-39.3199591917
 30
0.0
  0
SEQEND
  5
63F
  8
0
  6
CONTINUOUS
 62
     7
  0
POLYLINE
  5
6A
  8
0
  6
CONTINUOUS
 62
     7
 66
     1
 10
0.0
 20
0.0
 30
0.0
  0
VERTEX
  5
640
  8
0
  6
CONTINUOUS
 62
     7
 10
-713.3323842335
 20
351.1800349671
 30
0.0
  0
VERTEX
  5
641
  8
0
  6
CONTINUOUS
 62
     7
 10
-713.1178075123
 20
351.7112166602
 30
0.0
  0
VERTEX
  5
642
  8
0
  6
CONTINUOUS
 62
     7
 10
-712.960719471
 20
352.2686392981
 30
0.0
  0
VERTEX
  5
643
  8
0
  6
CONTINUOUS
 62
     7
 10
-712.8645175744
 20
352.8135151583
 30
0.0
  0
VERTEX
  5
644
  8
0
  6
CONTINUOUS
 62
     7
 10
-712.8323608685
 20
353.3013642746
 30
0.0
  0
VERTEX
  5
645
  8
0
  6
CONTINUOUS
 62
     7
 10
-712.8643685627
 20
353.6967665869
 30
0.0
  0
VERTEX
  5
646
  8
0
  6
CONTINUOUS
 62
     7
 10
-712.9603320408
 20
353.9749861676
 30
0.0
  0
VERTEX
  5
647
  8
0
  6
CONTINUOUS
 62
     7
 10
-713.1179565239
 20
354.1327149588
 30
0.0
  0
VERTEX
  5
648
  8
0
  6
CONTINUOUS
 62
     7
 10
-713.3323842335
 20
354.1800410468
 30
0.0
  0
SEQEND
  5
649
  8
0
  6
CONTINUOUS
 62
     7
  0
LINE
  5
6B
  8
0
  6
CONTINUOUS
 62
     7
 10
-123.3323806572
 20
354.1800410468
 30
0.0
 11
-713.3323842335
 21
354.1800410468
 31
0.0
  0
POLYLINE
  5
6C
  8
0
  6
CONTINUOUS
 62
     7
 66
     1
 10
0.0
 20
0.0
 30
0.0
  0
VERTEX
  5
64A
  8
0
  6
CONTINUOUS
 62
     7
 10
-123.3323806572
 20
351.1800349671
 30
0.0
  0
VERTEX
  5
64B
  8
0
  6
CONTINUOUS
 62
     7
 10
-123.5469275761
 20
351.7112166602
 30
0.0
  0
VERTEX
  5
64C
  8
0
  6
CONTINUOUS
 62
     7
 10
-123.7040156174
 20
352.2686392981
 30
0.0
  0
VERTEX
  5
64D
  8
0
  6
CONTINUOUS
 62
     7
 10
-123.8002175141
 20
352.8135151583
 30
0.0
  0
VERTEX
  5
64E
  8
0
  6
CONTINUOUS
 62
     7
 10
-123.8323742199
 20
353.3013642746
 30
0.0
  0
VERTEX
  5
64F
  8
0
  6
CONTINUOUS
 62
     7
 10
-123.800396328
 20
353.6967665869
 30
0.0
  0
VERTEX
  5
650
  8
0
  6
CONTINUOUS
 62
     7
 10
-123.7044030476
 20
353.9749861676
 30
0.0
  0
VERTEX
  5
651
  8
0
  6
CONTINUOUS
 62
     7
 10
-123.5467785645
 20
354.1327149588
 30
0.0
  0
VERTEX
  5
652
  8
0
  6
CONTINUOUS
 62
     7
 10
-123.3323806572
 20
354.1800410468
 30
0.0
  0
SEQEND
  5
653
  8
0
  6
CONTINUOUS
 62
     7
  0
POLYLINE
  5
6D
  8
0
  6
CONTINUOUS
 62
     7
 66
     1
 10
0.0
 20
0.0
 30
0.0
  0
VERTEX
  5
654
  8
0
  6
CONTINUOUS
 62
     7
 10
-121.3323766041
 20
350.6800265032
 30
0.0
  0
VERTEX
  5
655
  8
0
  6
CONTINUOUS
 62
     7
 10
-121.3560694504
 20
350.4654646832
 30
0.0
  0
VERTEX
  5
656
  8
0
  6
CONTINUOUS
 62
     7
 10
-121.4345985699
 20
350.3083766419
 30
0.0
  0
VERTEX
  5
657
  8
0
  6
CONTINUOUS
 62
     7
 10
-121.5742224503
 20
350.2121896464
 30
0.0
  0
VERTEX
  5
658
  8
0
  6
CONTINUOUS
 62
     7
 10
-121.7717224408
 20
350.1800329405
 30
0.0
  0
VERTEX
  5
659
  8
0
  6
CONTINUOUS
 62
     7
 10
-121.7717224408
 20
350.1800329405
 30
0.0
  0
SEQEND
  5
65A
  8
0
  6
CONTINUOUS
 62
     7
  0
LINE
  5
6E
  8
0
  6
CONTINUOUS
 62
     7
 10
-119.8323661137
 20
350.6800265032
 30
0.0
 11
-121.3323766041
 21
350.6800265032
 31
0.0
  0
ARC
  5
6F
  8
0
  6
CONTINUOUS
 62
     7
 10
-715.3323696234
 20
-41.3199663442
 30
0.0
 40
2.500000000000108
 50
36.8698976458
 51
53.1301023542
  0
ARC
  5
70
  8
0
  6
CONTINUOUS
 62
     7
 10
-121.3323696234
 20
352.6800336558
 30
0.0
 40
2.500000000000034
 50
216.8698976458
 51
233.1301023542
  0
ARC
  5
71
  8
0
  6
CONTINUOUS
 62
     7
 10
-121.3323696234
 20
-41.3199663442
 30
0.0
 40
2.5
 50
126.8698976458
 51
143.1301023542
  0
ARC
  5
72
  8
0
  6
CONTINUOUS
 62
     7
 10
-715.3323696234
 20
352.6800336558
 30
0.0
 40
2.500000000000023
 50
306.8698976458
 51
323.1301023542
  0
LINE
  5
73
  8
0
  6
CONTINUOUS
 62
     7
 10
-123.3323806572
 20
352.6800305563
 30
0.0
 11
-123.3323806572
 21
354.1800410468
 31
0.0
  0
ARC
  5
74
  8
0
  6
CONTINUOUS
 62
     7
 10
-123.4114115781
 20
352.2657931863
 30
0.0
 40
0.4217090053445173
 50
79.1985431027
 51
183.4093412852
  0
ARC
  5
75
  8
0
  6
CONTINUOUS
 62
     7
 10
-713.253350815
 20
352.2657674708
 30
0.0
 40
0.4217347333427657
 50
356.5943667814
 51
100.8011354717
  0
LINE
  5
76
  8
0
  6
CONTINUOUS
 62
     7
 10
-713.3323842335
 20
352.6800305563
 30
0.0
 11
-713.3323842335
 21
354.1800410468
 31
0.0
  0
POLYLINE
  5
77
  8
0
  6
CONTINUOUS
 62
     7
 66
     1
 10
0.0
 20
0.0
 30
0.0
  0
VERTEX
  5
65B
  8
0
  6
CONTINUOUS
 62
     7
 10
-713.3323842335
 20
-39.8199676555
 30
0.0
  0
VERTEX
  5
65C
  8
0
  6
CONTINUOUS
 62
     7
 10
-713.1178075123
 20
-40.3511493486
 30
0.0
  0
VERTEX
  5
65D
  8
0
  6
CONTINUOUS
 62
     7
 10
-712.960719471
 20
-40.9085719865
 30
0.0
  0
VERTEX
  5
65E
  8
0
  6
CONTINUOUS
 62
     7
 10
-712.8645175744
 20
-41.4534478467
 30
0.0
  0
VERTEX
  5
65F
  8
0
  6
CONTINUOUS
 62
     7
 10
-712.8323608685
 20
-41.9412969631
 30
0.0
  0
VERTEX
  5
660
  8
0
  6
CONTINUOUS
 62
     7
 10
-712.8643685627
 20
-42.3366992753
 30
0.0
  0
VERTEX
  5
661
  8
0
  6
CONTINUOUS
 62
     7
 10
-712.9603320408
 20
-42.614918856
 30
0.0
  0
VERTEX
  5
662
  8
0
  6
CONTINUOUS
 62
     7
 10
-713.1179565239
 20
-42.7726476472
 30
0.0
  0
VERTEX
  5
663
  8
0
  6
CONTINUOUS
 62
     7
 10
-713.3323842335
 20
-42.8199737352
 30
0.0
  0
SEQEND
  5
664
  8
0
  6
CONTINUOUS
 62
     7
  0
LINE
  5
78
  8
0
  6
CONTINUOUS
 62
     7
 10
-713.3323842335
 20
-41.3199632448
 30
0.0
 11
-713.3323842335
 21
-42.8199737352
 31
0.0
  0
ARC
  5
79
  8
0
  6
CONTINUOUS
 62
     7
 10
-713.253350815
 20
-40.9057001592
 30
0.0
 40
0.4217347333428146
 50
259.1988645283
 51
3.4056332186
  0
POLYLINE
  5
7A
  8
0
  6
CONTINUOUS
 62
     7
 66
     1
 10
0.0
 20
0.0
 30
0.0
  0
VERTEX
  5
665
  8
0
  6
CONTINUOUS
 62
     7
 10
-123.3323806572
 20
-39.8199676555
 30
0.0
  0
VERTEX
  5
666
  8
0
  6
CONTINUOUS
 62
     7
 10
-123.5469275761
 20
-40.3511493486
 30
0.0
  0
VERTEX
  5
667
  8
0
  6
CONTINUOUS
 62
     7
 10
-123.7040156174
 20
-40.9085719865
 30
0.0
  0
VERTEX
  5
668
  8
0
  6
CONTINUOUS
 62
     7
 10
-123.8002175141
 20
-41.4534478467
 30
0.0
  0
VERTEX
  5
669
  8
0
  6
CONTINUOUS
 62
     7
 10
-123.8323742199
 20
-41.9412969631
 30
0.0
  0
VERTEX
  5
66A
  8
0
  6
CONTINUOUS
 62
     7
 10
-123.800396328
 20
-42.3366992753
 30
0.0
  0
VERTEX
  5
66B
  8
0
  6
CONTINUOUS
 62
     7
 10
-123.7044030476
 20
-42.614918856
 30
0.0
  0
VERTEX
  5
66C
  8
0
  6
CONTINUOUS
 62
     7
 10
-123.5467785645
 20
-42.7726476472
 30
0.0
  0
VERTEX
  5
66D
  8
0
  6
CONTINUOUS
 62
     7
 10
-123.3323806572
 20
-42.8199737352
 30
0.0
  0
SEQEND
  5
66E
  8
0
  6
CONTINUOUS
 62
     7
  0
LINE
  5
7B
  8
0
  6
CONTINUOUS
 62
     7
 10
-713.3323842335
 20
-42.8199737352
 30
0.0
 11
-123.3323806572
 21
-42.8199737352
 31
0.0
  0
POLYLINE
  5
7C
  8
0
  6
CONTINUOUS
 62
     7
 66
     1
 10
0.0
 20
0.0
 30
0.0
  0
VERTEX
  5
66F
  8
0
  6
CONTINUOUS
 62
     7
 10
-715.3323584843
 20
-39.3199591917
 30
0.0
  0
VERTEX
  5
670
  8
0
  6
CONTINUOUS
 62
     7
 10
-715.308665638
 20
-39.1053973716
 30
0.0
  0
VERTEX
  5
671
  8
0
  6
CONTINUOUS
 62
     7
 10
-715.2301365185
 20
-38.9483093303
 30
0.0
  0
VERTEX
  5
672
  8
0
  6
CONTINUOUS
 62
     7
 10
-715.0905126381
 20
-38.8521223348
 30
0.0
  0
VERTEX
  5
673
  8
0
  6
CONTINUOUS
 62
     7
 10
-714.8930126477
 20
-38.819965629
 30
0.0
  0
VERTEX
  5
674
  8
0
  6
CONTINUOUS
 62
     7
 10
-714.8930126477
 20
-38.819965629
 30
0.0
  0
SEQEND
  5
675
  8
0
  6
CONTINUOUS
 62
     7
  0
LINE
  5
7D
  8
0
  6
CONTINUOUS
 62
     7
 10
-716.8323689747
 20
-39.3199591917
 30
0.0
 11
-715.3323584843
 21
-39.3199591917
 31
0.0
  0
ARC
  5
7E
  8
0
  6
CONTINUOUS
 62
     7
 10
-123.4114115781
 20
-40.9057258747
 30
0.0
 40
0.4217090053445238
 50
176.5906587148
 51
280.8014568973
  0
LINE
  5
7F
  8
0
  6
CONTINUOUS
 62
     7
 10
-123.3323806572
 20
-41.3199632448
 30
0.0
 11
-123.3323806572
 21
-42.8199737352
 31
0.0
  0
LINE
  5
80
  8
0
  6
CONTINUOUS
 62
     7
 10
-119.8323661137
 20
-39.3199591917
 30
0.0
 11
-121.3323766041
 21
-39.3199591917
 31
0.0
  0
POLYLINE
  5
81
  8
0
  6
CONTINUOUS
 62
     7
 66
     1
 10
0.0
 20
0.0
 30
0.0
  0
VERTEX
  5
676
  8
0
  6
CONTINUOUS
 62
     7
 10
-121.3323766041
 20
-39.3199591917
 30
0.0
  0
VERTEX
  5
677
  8
0
  6
CONTINUOUS
 62
     7
 10
-121.3560694504
 20
-39.1053973716
 30
0.0
  0
VERTEX
  5
678
  8
0
  6
CONTINUOUS
 62
     7
 10
-121.4345985699
 20
-38.9483093303
 30
0.0
  0
VERTEX
  5
679
  8
0
  6
CONTINUOUS
 62
     7
 10
-121.5742224503
 20
-38.8521223348
 30
0.0
  0
VERTEX
  5
67A
  8
0
  6
CONTINUOUS
 62
     7
 10
-121.7717224408
 20
-38.819965629
 30
0.0
  0
VERTEX
  5
67B
  8
0
  6
CONTINUOUS
 62
     7
 10
-121.7717224408
 20
-38.819965629
 30
0.0
  0
SEQEND
  5
67C
  8
0
  6
CONTINUOUS
 62
     7
  0
LINE
  5
82
  8
0
  6
CONTINUOUS
 62
     7
 10
-716.8323689747
 20
351.1800349671
 30
0.0
 11
-715.3323584843
 21
351.1800349671
 31
0.0
  0
LINE
  5
83
  8
0
  6
CONTINUOUS
 62
     7
 10
-715.3323584843
 20
351.1800349671
 30
0.0
 11
-715.3323584843
 21
350.6800265032
 31
0.0
  0
LINE
  5
84
  8
0
  6
CONTINUOUS
 62
     7
 10
-716.8323689747
 20
351.1800349671
 30
0.0
 11
-716.8323689747
 21
350.6800265032
 31
0.0
  0
LINE
  5
85
  8
0
  6
CONTINUOUS
 62
     7
 10
-123.3323806572
 20
354.1800410468
 30
0.0
 11
-123.1001311589
 21
354.1800410468
 31
0.0
  0
LINE
  5
86
  8
0
  6
CONTINUOUS
 62
     7
 10
-123.1001311589
 20
352.6800305563
 30
0.0
 11
-123.1001311589
 21
354.1800410468
 31
0.0
  0
LINE
  5
87
  8
0
  6
CONTINUOUS
 62
     7
 10
-123.3323806572
 20
352.6800305563
 30
0.0
 11
-123.1001311589
 21
352.6800305563
 31
0.0
  0
LINE
  5
88
  8
0
  6
CONTINUOUS
 62
     7
 10
-713.5646039296
 20
354.1800410468
 30
0.0
 11
-713.5646039296
 21
352.6800305563
 31
0.0
  0
LINE
  5
89
  8
0
  6
CONTINUOUS
 62
     7
 10
-713.3323842335
 20
354.1800410468
 30
0.0
 11
-713.5646039296
 21
354.1800410468
 31
0.0
  0
LINE
  5
8A
  8
0
  6
CONTINUOUS
 62
     7
 10
-713.3323842335
 20
352.6800305563
 30
0.0
 11
-713.5646039296
 21
352.6800305563
 31
0.0
  0
LINE
  5
8B
  8
0
  6
CONTINUOUS
 62
     7
 10
-119.8323661137
 20
351.1800349671
 30
0.0
 11
-121.3323766041
 21
351.1800349671
 31
0.0
  0
LINE
  5
8C
  8
0
  6
CONTINUOUS
 62
     7
 10
-121.3323766041
 20
351.1800349671
 30
0.0
 11
-121.3323766041
 21
350.6800265032
 31
0.0
  0
LINE
  5
8D
  8
0
  6
CONTINUOUS
 62
     7
 10
-119.8323661137
 20
351.1800349671
 30
0.0
 11
-119.8323661137
 21
350.6800265032
 31
0.0
  0
LINE
  5
8E
  8
0
  6
CONTINUOUS
 62
     7
 10
-716.8323689747
 20
-39.8199676555
 30
0.0
 11
-715.3323584843
 21
-39.8199676555
 31
0.0
  0
LINE
  5
8F
  8
0
  6
CONTINUOUS
 62
     7
 10
-715.3323584843
 20
-39.8199676555
 30
0.0
 11
-715.3323584843
 21
-39.3199591917
 31
0.0
  0
LINE
  5
90
  8
0
  6
CONTINUOUS
 62
     7
 10
-716.8323689747
 20
-39.8199676555
 30
0.0
 11
-716.8323689747
 21
-39.3199591917
 31
0.0
  0
LINE
  5
91
  8
0
  6
CONTINUOUS
 62
     7
 10
-713.5646039296
 20
-41.3199632448
 30
0.0
 11
-713.5646039296
 21
-42.8199737352
 31
0.0
  0
LINE
  5
92
  8
0
  6
CONTINUOUS
 62
     7
 10
-713.3323842335
 20
-41.3199632448
 30
0.0
 11
-713.5646039296
 21
-41.3199632448
 31
0.0
  0
LINE
  5
93
  8
0
  6
CONTINUOUS
 62
     7
 10
-713.3323842335
 20
-42.8199737352
 30
0.0
 11
-713.5646039296
 21
-42.8199737352
 31
0.0
  0
LINE
  5
94
  8
0
  6
CONTINUOUS
 62
     7
 10
-123.1001311589
 20
-42.8199737352
 30
0.0
 11
-123.1001311589
 21
-41.3199632448
 31
0.0
  0
LINE
  5
95
  8
0
  6
CONTINUOUS
 62
     7
 10
-123.3323806572
 20
-41.3199632448
 30
0.0
 11
-123.1001311589
 21
-41.3199632448
 31
0.0
  0
LINE
  5
96
  8
0
  6
CONTINUOUS
 62
     7
 10
-123.3323806572
 20
-42.8199737352
 30
0.0
 11
-123.1001311589
 21
-42.8199737352
 31
0.0
  0
LINE
  5
97
  8
0
  6
CONTINUOUS
 62
     7
 10
-119.8323661137
 20
-39.8199676555
 30
0.0
 11
-121.3323766041
 21
-39.8199676555
 31
0.0
  0
LINE
  5
98
  8
0
  6
CONTINUOUS
 62
     7
 10
-121.3323766041
 20
-39.8199676555
 30
0.0
 11
-121.3323766041
 21
-39.3199591917
 31
0.0
  0
LINE
  5
99
  8
0
  6
CONTINUOUS
 62
     7
 10
-119.8323661137
 20
-39.8199676555
 30
0.0
 11
-119.8323661137
 21
-39.3199591917
 31
0.0
  0
LINE
  5
9A
  8
0
  6
CONTINUOUS
 62
     7
 10
-713.5646039296
 20
352.6800305563
 30
0.0
 11
-713.8323777962
 21
352.6800305563
 31
0.0
  0
LINE
  5
9B
  8
0
  6
CONTINUOUS
 62
     7
 10
-713.8323777962
 20
354.1800410468
 30
0.0
 11
-713.8323777962
 21
352.6800305563
 31
0.0
  0
LINE
  5
9C
  8
0
  6
CONTINUOUS
 62
     7
 10
-713.5646039296
 20
354.1800410468
 30
0.0
 11
-713.8323777962
 21
354.1800410468
 31
0.0
  0
LINE
  5
9D
  8
0
  6
CONTINUOUS
 62
     7
 10
-122.8323572922
 20
354.1800410468
 30
0.0
 11
-122.8323572922
 21
352.6800305563
 31
0.0
  0
LINE
  5
9E
  8
0
  6
CONTINUOUS
 62
     7
 10
-123.1001311589
 20
352.6800305563
 30
0.0
 11
-122.8323572922
 21
352.6800305563
 31
0.0
  0
LINE
  5
9F
  8
0
  6
CONTINUOUS
 62
     7
 10
-123.1001311589
 20
354.1800410468
 30
0.0
 11
-122.8323572922
 21
354.1800410468
 31
0.0
  0
LINE
  5
A0
  8
0
  6
CONTINUOUS
 62
     7
 10
-713.5646039296
 20
-41.3199632448
 30
0.0
 11
-713.8323777962
 21
-41.3199632448
 31
0.0
  0
LINE
  5
A1
  8
0
  6
CONTINUOUS
 62
     7
 10
-713.5646039296
 20
-42.8199737352
 30
0.0
 11
-713.8323777962
 21
-42.8199737352
 31
0.0
  0
LINE
  5
A2
  8
0
  6
CONTINUOUS
 62
     7
 10
-713.8323777962
 20
-42.8199737352
 30
0.0
 11
-713.8323777962
 21
-41.3199632448
 31
0.0
  0
LINE
  5
A3
  8
0
  6
CONTINUOUS
 62
     7
 10
-122.8323572922
 20
-42.8199737352
 30
0.0
 11
-122.8323572922
 21
-41.3199632448
 31
0.0
  0
LINE
  5
A4
  8
0
  6
CONTINUOUS
 62
     7
 10
-123.1001311589
 20
-42.8199737352
 30
0.0
 11
-122.8323572922
 21
-42.8199737352
 31
0.0
  0
LINE
  5
A5
  8
0
  6
CONTINUOUS
 62
     7
 10
-123.1001311589
 20
-41.3199632448
 30
0.0
 11
-122.8323572922
 21
-41.3199632448
 31
0.0
  0
ARC
  5
A6
  8
0
  6
CONTINUOUS
 62
     7
 10
-713.8323726039
 20
351.1800446759
 30
0.0
 40
1.499985880464508
 50
90.0001983346
 51
180.0003708524
  0
ARC
  5
A7
  8
0
  6
CONTINUOUS
 62
     7
 10
-713.8323584319
 20
351.180030504
 30
0.0
 40
3.000010542843166
 50
90.0003698301
 51
179.9999147612
  0
ARC
  5
A8
  8
0
  6
CONTINUOUS
 62
     7
 10
-122.8323936155
 20
351.1800135452
 30
0.0
 40
3.00002750183162
 50
0.0004091251
 51
89.9993062835
  0
ARC
  5
A9
  8
0
  6
CONTINUOUS
 62
     7
 10
-122.8323624846
 20
351.1800446759
 30
0.0
 40
1.499985880464508
 50
359.9996291476
 51
89.9998016654
  0
ARC
  5
AA
  8
0
  6
CONTINUOUS
 62
     7
 10
-713.8323584319
 20
-39.8199631924
 30
0.0
 40
3.000010542843166
 50
180.0000852388
 51
269.9996301699
  0
ARC
  5
AB
  8
0
  6
CONTINUOUS
 62
     7
 10
-713.8323726039
 20
-39.8199773643
 30
0.0
 40
1.499985880464508
 50
179.9996291476
 51
269.9998016654
  0
ARC
  5
AC
  8
0
  6
CONTINUOUS
 62
     7
 10
-122.8323624846
 20
-39.8199773643
 30
0.0
 40
1.499985880464508
 50
270.0001983346
 51
0.0003708524
  0
ARC
  5
AD
  8
0
  6
CONTINUOUS
 62
     7
 10
-122.8323936155
 20
-39.8199462336
 30
0.0
 40
3.000027501831613
 50
270.0006937165
 51
359.9995908749
  0
LINE
  5
AE
  8
0
  6
CONTINUOUS
 62
     7
 10
-123.3251386929
 20
-39.8103862089
 30
0.0
 11
-121.8540066529
 21
-41.2761836332
 31
0.0
  0
LINE
  5
AF
  8
0
  6
CONTINUOUS
 62
     7
 10
-715.1277357388
 20
-40.5642210525
 30
0.0
 11
-713.8687664319
 21
-39.3052666467
 31
0.0
  0
LINE
  5
B0
  8
0
  6
CONTINUOUS
 62
     7
 10
-716.3816684533
 20
-42.0936762374
 30
0.0
 11
-716.137408619
 21
-41.7143224758
 31
0.0
  0
LINE
  5
B1
  8
0
  6
CONTINUOUS
 62
     7
 10
-716.3816684533
 20
-42.0936762374
 30
0.0
 11
-716.3816684533
 21
-41.7068271917
 31
0.0
  0
ARC
  5
B2
  8
0
  6
CONTINUOUS
 62
     7
 10
-743.6852798504
 20
-31.4615592393
 30
0.0
 40
29.30066735052148
 50
333.9698790353
 51
338.7238960957
  0
ARC
  5
B3
  8
0
  6
CONTINUOUS
 62
     7
 10
-332.9901997693
 20
-135.9753960642
 30
0.0
 40
231.4992925330724
 50
23.3234256027
 51
23.8506457944
  0
LINE
  5
B4
  8
0
  6
CONTINUOUS
 62
     7
 10
-120.4079681683
 20
-44.3199693244
 30
0.0
 11
-131.2842959214
 21
-44.3199693244
 31
0.0
  0
LINE
  5
B5
  8
0
  6
CONTINUOUS
 62
     7
 10
-136.480450039
 20
-44.3199693244
 30
0.0
 11
-701.2842887688
 21
-44.3199693244
 31
0.0
  0
LINE
  5
B6
  8
0
  6
CONTINUOUS
 62
     7
 10
-706.4804428864
 20
-44.3199693244
 30
0.0
 11
-717.3567706395
 21
-44.3199693244
 31
0.0
  0
ARC
  5
B7
  8
0
  6
CONTINUOUS
 62
     7
 10
-94.0794589574
 20
342.8216265509
 30
0.0
 40
29.30066735052164
 50
153.9698790353
 51
158.7238960957
  0
POLYLINE
  5
B8
  8
0
  6
CONTINUOUS
 62
     7
 66
     1
 10
0.0
 20
0.0
 30
0.0
  0
VERTEX
  5
67D
  8
0
  6
CONTINUOUS
 62
     7
 10
-716.1524885941
 20
353.0557484347
 30
0.0
  0
VERTEX
  5
67E
  8
0
  6
CONTINUOUS
 62
     7
 10
-716.4906257439
 20
353.6963344533
 30
0.0
  0
VERTEX
  5
67F
  8
0
  6
CONTINUOUS
 62
     7
 10
-716.8864899922
 20
354.600954147
 30
0.0
  0
VERTEX
  5
680
  8
0
  6
CONTINUOUS
 62
     7
 10
-717.1285444546
 20
355.279478522
 30
0.0
  0
VERTEX
  5
681
  8
0
  6
CONTINUOUS
 62
     7
 10
-717.2443860817
 20
355.5610955674
 30
0.0
  0
VERTEX
  5
682
  8
0
  6
CONTINUOUS
 62
     7
 10
-717.3567706395
 20
355.680036636
 30
0.0
  0
SEQEND
  5
683
  8
0
  6
CONTINUOUS
 62
     7
  0
LINE
  5
B9
  8
0
  6
CONTINUOUS
 62
     7
 10
-120.4079681683
 20
355.680036636
 30
0.0
 11
-717.3567706395
 21
355.680036636
 31
0.0
  0
LINE
  5
BA
  8
0
  6
CONTINUOUS
 62
     7
 10
-715.150862341
 20
351.8791378457
 30
0.0
 11
-713.9142149735
 21
350.6469757277
 31
0.0
  0
ARC
  5
BB
  8
0
  6
CONTINUOUS
 62
     7
 10
-712.3816622972
 20
356.1782219137
 30
0.0
 40
4.999999999973097
 50
224.3979399628
 51
225.1044244628
  0
LINE
  5
BC
  8
0
  6
CONTINUOUS
 62
     7
 10
-123.3464473534
 20
351.2148589808
 30
0.0
 11
-121.8812757779
 21
352.6800305563
 31
0.0
  0
ARC
  5
BD
  8
0
  6
CONTINUOUS
 62
     7
 10
-174.2115197581
 20
-89.1701984822
 30
0.0
 40
71.01524834689225
 50
40.7439604411
 51
41.4492897512
  0
LINE
  5
BE
  8
0
  6
CONTINUOUS
 62
     7
 10
-120.4079681683
 20
-44.3199693244
 30
0.0
 11
-120.4079681683
 21
-42.8199737352
 31
0.0
  0
POLYLINE
  5
BF
  8
0
  6
CONTINUOUS
 62
     7
 66
     1
 10
0.0
 20
0.0
 30
0.0
  0
VERTEX
  5
684
  8
0
  6
CONTINUOUS
 62
     7
 10
-716.4812678147
 20
353.1793237645
 30
0.0
  0
VERTEX
  5
685
  8
0
  6
CONTINUOUS
 62
     7
 10
-716.4906257439
 20
353.1881899554
 30
0.0
  0
VERTEX
  5
686
  8
0
  6
CONTINUOUS
 62
     7
 10
-716.8864899922
 20
353.6404849011
 30
0.0
  0
VERTEX
  5
687
  8
0
  6
CONTINUOUS
 62
     7
 10
-717.1285444546
 20
353.9797545392
 30
0.0
  0
VERTEX
  5
688
  8
0
  6
CONTINUOUS
 62
     7
 10
-717.2443860817
 20
354.1205705124
 30
0.0
  0
VERTEX
  5
689
  8
0
  6
CONTINUOUS
 62
     7
 10
-717.3567706395
 20
354.1800410468
 30
0.0
  0
SEQEND
  5
68A
  8
0
  6
CONTINUOUS
 62
     7
  0
LINE
  5
C0
  8
0
  6
CONTINUOUS
 62
     7
 10
-717.3567706395
 20
355.680036636
 30
0.0
 11
-717.3567706395
 21
354.1800410468
 31
0.0
  0
LINE
  5
C1
  8
0
  6
CONTINUOUS
 62
     7
 10
-118.882357483
 20
-42.7943735403
 30
0.0
 11
-118.882357483
 21
354.1544408518
 31
0.0
  0
ARC
  5
C2
  8
0
  6
CONTINUOUS
 62
     7
 10
-131.7378528227
 20
-69.1158108485
 30
0.0
 40
29.29303368378152
 50
63.96893162
 51
68.7241999763
  0
ARC
  5
C3
  8
0
  6
CONTINUOUS
 62
     7
 10
-31.808330771
 20
152.1511317337
 30
0.0
 40
219.9709594981253
 50
113.3185778272
 51
113.8507909065
  0
LINE
  5
C4
  8
0
  6
CONTINUOUS
 62
     7
 10
-123.3659976769
 20
351.2633026558
 30
0.0
 11
-121.9261580754
 21
352.7084172684
 31
0.0
  0
LINE
  5
C5
  8
0
  6
CONTINUOUS
 62
     7
 10
-121.8823784638
 20
-41.3210659307
 30
0.0
 11
-123.3470732022
 21
-39.8563711923
 31
0.0
  0
LINE
  5
C6
  8
0
  6
CONTINUOUS
 62
     7
 10
-716.6560882378
 20
353.1793237645
 30
0.0
 11
-716.2592703152
 21
352.9238284546
 31
0.0
  0
LINE
  5
C7
  8
0
  6
CONTINUOUS
 62
     7
 10
-716.6560882378
 20
353.1793237645
 30
0.0
 11
-716.2692242909
 21
353.1793237645
 31
0.0
  0
LINE
  5
C8
  8
0
  6
CONTINUOUS
 62
     7
 10
-713.8239139367
 20
-39.3263219875
 30
0.0
 11
-715.1038044739
 21
-40.6108765882
 31
0.0
  0
LINE
  5
C9
  8
0
  6
CONTINUOUS
 62
     7
 10
-715.1269608784
 20
351.9257486779
 30
0.0
 11
-713.8671869088
 21
350.6659598071
 31
0.0
  0
ARC
  5
CA
  8
0
  6
CONTINUOUS
 62
     7
 10
-706.0268859851
 20
380.47587816
 30
0.0
 40
29.29303368378152
 50
243.96893162
 51
248.7241999763
  0
POLYLINE
  5
CB
  8
0
  6
CONTINUOUS
 62
     7
 66
     1
 10
0.0
 20
0.0
 30
0.0
  0
VERTEX
  5
68B
  8
0
  6
CONTINUOUS
 62
     7
 10
-716.2439817238
 20
-41.5826409143
 30
0.0
  0
VERTEX
  5
68C
  8
0
  6
CONTINUOUS
 62
     7
 10
-716.898679142
 20
-41.9282286447
 30
0.0
  0
VERTEX
  5
68D
  8
0
  6
CONTINUOUS
 62
     7
 10
-717.8032988358
 20
-42.3241077941
 30
0.0
  0
VERTEX
  5
68E
  8
0
  6
CONTINUOUS
 62
     7
 10
-718.4818083096
 20
-42.5661473554
 30
0.0
  0
VERTEX
  5
68F
  8
0
  6
CONTINUOUS
 62
     7
 10
-718.7634402562
 20
-42.6819889825
 30
0.0
  0
VERTEX
  5
690
  8
0
  6
CONTINUOUS
 62
     7
 10
-718.8823813248
 20
-42.7943735403
 30
0.0
  0
SEQEND
  5
691
  8
0
  6
CONTINUOUS
 62
     7
  0
LINE
  5
CC
  8
0
  6
CONTINUOUS
 62
     7
 10
-718.8823813248
 20
-42.7943735403
 30
0.0
 11
-718.8823813248
 21
354.1544408518
 31
0.0
  0
ARC
  5
CD
  8
0
  6
CONTINUOUS
 62
     7
 10
-74.467359167
 20
300.8454965758
 30
0.0
 40
70.35646078018682
 50
130.7383298846
 51
131.457427105
  0
LINE
  5
CE
  8
0
  6
CONTINUOUS
 62
     7
 10
-118.882357483
 20
354.1544408518
 30
0.0
 11
-120.3823679734
 21
354.1544408518
 31
0.0
  0
POLYLINE
  5
CF
  8
0
  6
CONTINUOUS
 62
     7
 66
     1
 10
0.0
 20
0.0
 30
0.0
  0
VERTEX
  5
692
  8
0
  6
CONTINUOUS
 62
     7
 10
-716.3816684533
 20
-41.9188707155
 30
0.0
  0
VERTEX
  5
693
  8
0
  6
CONTINUOUS
 62
     7
 10
-716.390519743
 20
-41.9282286447
 30
0.0
  0
VERTEX
  5
694
  8
0
  6
CONTINUOUS
 62
     7
 10
-716.8428295899
 20
-42.3241077941
 30
0.0
  0
VERTEX
  5
695
  8
0
  6
CONTINUOUS
 62
     7
 10
-717.1820992279
 20
-42.5661473554
 30
0.0
  0
VERTEX
  5
696
  8
0
  6
CONTINUOUS
 62
     7
 10
-717.3229152012
 20
-42.6819889825
 30
0.0
  0
VERTEX
  5
697
  8
0
  6
CONTINUOUS
 62
     7
 10
-717.3823708344
 20
-42.7943735403
 30
0.0
  0
SEQEND
  5
698
  8
0
  6
CONTINUOUS
 62
     7
  0
LINE
  5
D0
  8
0
  6
CONTINUOUS
 62
     7
 10
-718.8823813248
 20
-42.7943735403
 30
0.0
 11
-717.3823708344
 21
-42.7943735403
 31
0.0
  0
LINE
  5
D1
  8
0
  6
CONTINUOUS
 62
     7
 10
-717.3567706395
 20
-42.8199737352
 30
0.0
 11
-717.3567706395
 21
-44.3199693244
 31
0.0
  0
ARC
  5
D2
  8
0
  6
CONTINUOUS
 62
     7
 10
-726.9217359426
 20
-33.4575242093
 30
0.0
 40
13.38446944693527
 50
315.613018559
 51
321.9510881376
  0
LINE
  5
D3
  8
0
  6
CONTINUOUS
 62
     7
 10
-120.4079681683
 20
354.1800410468
 30
0.0
 11
-120.4079681683
 21
355.680036636
 31
0.0
  0
ARC
  5
D4
  8
0
  6
CONTINUOUS
 62
     7
 10
-113.1320909566
 20
347.0186837805
 30
0.0
 40
10.20898756467706
 50
135.4544756782
 51
140.3662655626
  0
LINE
  5
D5
  8
0
  6
CONTINUOUS
 62
     7
 10
-717.3823708344
 20
354.1544408518
 30
0.0
 11
-718.8823813248
 21
354.1544408518
 31
0.0
  0
ARC
  5
D6
  8
0
  6
CONTINUOUS
 62
     7
 10
-708.0241708966
 20
363.7143939634
 30
0.0
 40
13.37791499341895
 50
225.6110092844
 51
231.9522294635
  0
ARC
  5
D7
  8
0
  6
CONTINUOUS
 62
     7
 10
-127.5284892181
 20
-50.0526612455
 30
0.0
 40
10.18576404875373
 50
45.4461505447
 51
50.4006865577
  0
LINE
  5
D8
  8
0
  6
CONTINUOUS
 62
     7
 10
-120.3823679734
 20
-42.7943735403
 30
0.0
 11
-118.882357483
 21
-42.7943735403
 31
0.0
  0
LINE
  5
D9
  8
0
  6
CONTINUOUS
 62
     7
 10
-717.3816555787
 20
355.680036636
 30
0.0
 11
-717.3816555787
 21
354.1800410468
 31
0.0
  0
LINE
  5
DA
  8
0
  6
CONTINUOUS
 62
     7
 10
-717.3816555787
 20
355.680036636
 30
0.0
 11
-717.3567706395
 21
355.680036636
 31
0.0
  0
LINE
  5
DB
  8
0
  6
CONTINUOUS
 62
     7
 10
-717.3816555787
 20
354.1800410468
 30
0.0
 11
-717.3567706395
 21
354.1800410468
 31
0.0
  0
LINE
  5
DC
  8
0
  6
CONTINUOUS
 62
     7
 10
-118.882357483
 20
354.179325791
 30
0.0
 11
-120.3823679734
 21
354.179325791
 31
0.0
  0
LINE
  5
DD
  8
0
  6
CONTINUOUS
 62
     7
 10
-118.882357483
 20
354.1544408518
 30
0.0
 11
-118.882357483
 21
354.179325791
 31
0.0
  0
LINE
  5
DE
  8
0
  6
CONTINUOUS
 62
     7
 10
-120.3823679734
 20
354.179325791
 30
0.0
 11
-120.3823679734
 21
354.1544408518
 31
0.0
  0
LINE
  5
DF
  8
0
  6
CONTINUOUS
 62
     7
 10
-120.4079681683
 20
355.680036636
 30
0.0
 11
-120.3830832291
 21
355.680036636
 31
0.0
  0
LINE
  5
E0
  8
0
  6
CONTINUOUS
 62
     7
 10
-120.3830832291
 20
355.680036636
 30
0.0
 11
-120.3830832291
 21
354.1800410468
 31
0.0
  0
LINE
  5
E1
  8
0
  6
CONTINUOUS
 62
     7
 10
-120.4079681683
 20
354.1800410468
 30
0.0
 11
-120.3830832291
 21
354.1800410468
 31
0.0
  0
LINE
  5
E2
  8
0
  6
CONTINUOUS
 62
     7
 10
-118.882357483
 20
-42.8192584795
 30
0.0
 11
-118.882357483
 21
-42.7943735403
 31
0.0
  0
LINE
  5
E3
  8
0
  6
CONTINUOUS
 62
     7
 10
-118.882357483
 20
-42.8192584795
 30
0.0
 11
-120.3823679734
 21
-42.8192584795
 31
0.0
  0
LINE
  5
E4
  8
0
  6
CONTINUOUS
 62
     7
 10
-120.3823679734
 20
-42.7943735403
 30
0.0
 11
-120.3823679734
 21
-42.8192584795
 31
0.0
  0
LINE
  5
E5
  8
0
  6
CONTINUOUS
 62
     7
 10
-718.8823813248
 20
354.179325791
 30
0.0
 11
-717.3823708344
 21
354.179325791
 31
0.0
  0
LINE
  5
E6
  8
0
  6
CONTINUOUS
 62
     7
 10
-717.3823708344
 20
354.1544408518
 30
0.0
 11
-717.3823708344
 21
354.179325791
 31
0.0
  0
LINE
  5
E7
  8
0
  6
CONTINUOUS
 62
     7
 10
-718.8823813248
 20
354.1544408518
 30
0.0
 11
-718.8823813248
 21
354.179325791
 31
0.0
  0
LINE
  5
E8
  8
0
  6
CONTINUOUS
 62
     7
 10
-717.3823708344
 20
-42.8192584795
 30
0.0
 11
-717.3823708344
 21
-42.7943735403
 31
0.0
  0
LINE
  5
E9
  8
0
  6
CONTINUOUS
 62
     7
 10
-718.8823813248
 20
-42.8192584795
 30
0.0
 11
-717.3823708344
 21
-42.8192584795
 31
0.0
  0
LINE
  5
EA
  8
0
  6
CONTINUOUS
 62
     7
 10
-718.8823813248
 20
-42.8192584795
 30
0.0
 11
-718.8823813248
 21
-42.7943735403
 31
0.0
  0
LINE
  5
EB
  8
0
  6
CONTINUOUS
 62
     7
 10
-120.3830832291
 20
-42.8199737352
 30
0.0
 11
-120.4079681683
 21
-42.8199737352
 31
0.0
  0
LINE
  5
EC
  8
0
  6
CONTINUOUS
 62
     7
 10
-120.3830832291
 20
-44.3199693244
 30
0.0
 11
-120.3830832291
 21
-42.8199737352
 31
0.0
  0
LINE
  5
ED
  8
0
  6
CONTINUOUS
 62
     7
 10
-120.3830832291
 20
-44.3199693244
 30
0.0
 11
-120.4079681683
 21
-44.3199693244
 31
0.0
  0
LINE
  5
EE
  8
0
  6
CONTINUOUS
 62
     7
 10
-717.3816555787
 20
-44.3199693244
 30
0.0
 11
-717.3567706395
 21
-44.3199693244
 31
0.0
  0
LINE
  5
EF
  8
0
  6
CONTINUOUS
 62
     7
 10
-717.3816555787
 20
-44.3199693244
 30
0.0
 11
-717.3816555787
 21
-42.8199737352
 31
0.0
  0
LINE
  5
F0
  8
0
  6
CONTINUOUS
 62
     7
 10
-717.3567706395
 20
-42.8199737352
 30
0.0
 11
-717.3816555787
 21
-42.8199737352
 31
0.0
  0
LINE
  5
F1
  8
0
  6
CONTINUOUS
 62
     7
 10
-695.8823794175
 20
-44.6199595016
 30
0.0
 11
-696.8823665429
 21
-44.6199595016
 31
0.0
  0
LINE
  5
F2
  8
0
  6
CONTINUOUS
 62
     7
 10
-695.8823794175
 20
-44.6199595016
 30
0.0
 11
-695.8823794175
 21
-48.0199723524
 31
0.0
  0
LINE
  5
F3
  8
0
  6
CONTINUOUS
 62
     7
 10
-708.0151432801
 20
-48.0199723524
 30
0.0
 11
-695.8823794175
 21
-48.0199723524
 31
0.0
  0
LINE
  5
F4
  8
0
  6
CONTINUOUS
 62
     7
 10
-696.1823695946
 20
-48.3199625295
 30
0.0
 11
-707.7951723385
 21
-48.3199625295
 31
0.0
  0
LINE
  5
F5
  8
0
  6
CONTINUOUS
 62
     7
 10
-695.8823794175
 20
-48.0199723524
 30
0.0
 11
-696.1823695946
 21
-48.3199625295
 31
0.0
  0
LINE
  5
F6
  8
0
  6
CONTINUOUS
 62
     7
 10
-695.8823794175
 20
-44.6199595016
 30
0.0
 11
-696.1823695946
 21
-44.3199693244
 31
0.0
  0
LINE
  5
F7
  8
0
  6
CONTINUOUS
 62
     7
 10
-738.0154424954
 20
-48.0199723524
 30
0.0
 11
-708.0151432801
 21
-48.0199723524
 31
0.0
  0
LINE
  5
F8
  8
0
  6
CONTINUOUS
 62
     7
 10
-707.7951723385
 20
-48.3199625295
 30
0.0
 11
-737.7954715538
 21
-48.3199625295
 31
0.0
  0
LINE
  5
F9
  8
0
  6
CONTINUOUS
 62
     7
 10
-710.8823651123
 20
-44.6199595016
 30
0.0
 11
-738.0154424954
 21
-44.6199595016
 31
0.0
  0
LINE
  5
FA
  8
0
  6
CONTINUOUS
 62
     7
 10
-737.7954715538
 20
-44.3199693244
 30
0.0
 11
-717.3816555787
 21
-44.3199693244
 31
0.0
  0
LINE
  5
FB
  8
0
  6
CONTINUOUS
 62
     7
 10
-738.5823720742
 20
-48.3199625295
 30
0.0
 11
-738.8823622513
 21
-48.0199723524
 31
0.0
  0
LINE
  5
FC
  8
0
  6
CONTINUOUS
 62
     7
 10
-738.8823622513
 20
-48.0199723524
 30
0.0
 11
-738.0154424954
 21
-48.0199723524
 31
0.0
  0
LINE
  5
FD
  8
0
  6
CONTINUOUS
 62
     7
 10
-737.7954715538
 20
-48.3199625295
 30
0.0
 11
-738.5823720742
 21
-48.3199625295
 31
0.0
  0
LINE
  5
FE
  8
0
  6
CONTINUOUS
 62
     7
 10
-738.0154424954
 20
-44.6199595016
 30
0.0
 11
-738.8823622513
 21
-44.6199595016
 31
0.0
  0
LINE
  5
FF
  8
0
  6
CONTINUOUS
 62
     7
 10
-738.8823622513
 20
-48.0199723524
 30
0.0
 11
-738.8823622513
 21
-44.6199595016
 31
0.0
  0
LINE
  5
100
  8
0
  6
CONTINUOUS
 62
     7
 10
-738.8823622513
 20
-44.6199595016
 30
0.0
 11
-738.5823720742
 21
-44.3199693244
 31
0.0
  0
LINE
  5
101
  8
0
  6
CONTINUOUS
 62
     7
 10
-738.5823720742
 20
-44.3199693244
 30
0.0
 11
-737.7954715538
 21
-44.3199693244
 31
0.0
  0
LINE
  5
102
  8
0
  6
CONTINUOUS
 62
     7
 10
-141.8823593903
 20
-48.0199723524
 30
0.0
 11
-129.7495955277
 21
-48.0199723524
 31
0.0
  0
LINE
  5
103
  8
0
  6
CONTINUOUS
 62
     7
 10
-129.9695664692
 20
-48.3199625295
 30
0.0
 11
-141.5823692131
 21
-48.3199625295
 31
0.0
  0
LINE
  5
104
  8
0
  6
CONTINUOUS
 62
     7
 10
-141.8823593903
 20
-48.0199723524
 30
0.0
 11
-141.5823692131
 21
-48.3199625295
 31
0.0
  0
LINE
  5
105
  8
0
  6
CONTINUOUS
 62
     7
 10
-141.8823593903
 20
-48.0199723524
 30
0.0
 11
-141.8823593903
 21
-44.6199595016
 31
0.0
  0
LINE
  5
106
  8
0
  6
CONTINUOUS
 62
     7
 10
-140.8823722649
 20
-44.6199595016
 30
0.0
 11
-141.8823593903
 21
-44.6199595016
 31
0.0
  0
LINE
  5
107
  8
0
  6
CONTINUOUS
 62
     7
 10
-141.8823593903
 20
-44.6199595016
 30
0.0
 11
-141.5823692131
 21
-44.3199693244
 31
0.0
  0
LINE
  5
108
  8
0
  6
CONTINUOUS
 62
     7
 10
-99.7492963124
 20
-44.6199595016
 30
0.0
 11
-126.8823736954
 21
-44.6199595016
 31
0.0
  0
LINE
  5
109
  8
0
  6
CONTINUOUS
 62
     7
 10
-120.3830832291
 20
-44.3199693244
 30
0.0
 11
-99.9692672539
 21
-44.3199693244
 31
0.0
  0
LINE
  5
10A
  8
0
  6
CONTINUOUS
 62
     7
 10
-129.7495955277
 20
-48.0199723524
 30
0.0
 11
-99.7492963124
 21
-48.0199723524
 31
0.0
  0
LINE
  5
10B
  8
0
  6
CONTINUOUS
 62
     7
 10
-99.9692672539
 20
-48.3199625295
 30
0.0
 11
-129.9695664692
 21
-48.3199625295
 31
0.0
  0
LINE
  5
10C
  8
0
  6
CONTINUOUS
 62
     7
 10
-99.7492963124
 20
-48.0199723524
 30
0.0
 11
-98.8823765564
 21
-48.0199723524
 31
0.0
  0
LINE
  5
10D
  8
0
  6
CONTINUOUS
 62
     7
 10
-98.8823765564
 20
-44.6199595016
 30
0.0
 11
-99.7492963124
 21
-44.6199595016
 31
0.0
  0
LINE
  5
10E
  8
0
  6
CONTINUOUS
 62
     7
 10
-98.8823765564
 20
-44.6199595016
 30
0.0
 11
-98.8823765564
 21
-48.0199723524
 31
0.0
  0
LINE
  5
10F
  8
0
  6
CONTINUOUS
 62
     7
 10
-99.1823667336
 20
-44.3199693244
 30
0.0
 11
-98.8823765564
 21
-44.6199595016
 31
0.0
  0
LINE
  5
110
  8
0
  6
CONTINUOUS
 62
     7
 10
-99.9692672539
 20
-44.3199693244
 30
0.0
 11
-99.1823667336
 21
-44.3199693244
 31
0.0
  0
LINE
  5
111
  8
0
  6
CONTINUOUS
 62
     7
 10
-98.8823765564
 20
-48.0199723524
 30
0.0
 11
-99.1823667336
 21
-48.3199625295
 31
0.0
  0
LINE
  5
112
  8
0
  6
CONTINUOUS
 62
     7
 10
-99.1823667336
 20
-48.3199625295
 30
0.0
 11
-99.9692672539
 21
-48.3199625295
 31
0.0
  0
LINE
  5
113
  8
0
  6
CONTINUOUS
 62
     7
 10
-141.8823593903
 20
355.9800268132
 30
0.0
 11
-129.7495955277
 21
355.9800268132
 31
0.0
  0
LINE
  5
114
  8
0
  6
CONTINUOUS
 62
     7
 10
-141.8823593903
 20
355.9800268132
 30
0.0
 11
-141.8823593903
 21
359.3800396639
 31
0.0
  0
LINE
  5
115
  8
0
  6
CONTINUOUS
 62
     7
 10
-129.7495955277
 20
359.3800396639
 30
0.0
 11
-141.8823593903
 21
359.3800396639
 31
0.0
  0
LINE
  5
116
  8
0
  6
CONTINUOUS
 62
     7
 10
-141.5823692131
 20
359.6800298411
 30
0.0
 11
-129.9695664692
 21
359.6800298411
 31
0.0
  0
LINE
  5
117
  8
0
  6
CONTINUOUS
 62
     7
 10
-141.8823593903
 20
359.3800396639
 30
0.0
 11
-141.5823692131
 21
359.6800298411
 31
0.0
  0
LINE
  5
118
  8
0
  6
CONTINUOUS
 62
     7
 10
-141.8823593903
 20
355.9800268132
 30
0.0
 11
-141.5823692131
 21
355.680036636
 31
0.0
  0
LINE
  5
119
  8
0
  6
CONTINUOUS
 62
     7
 10
-99.7492963124
 20
359.3800396639
 30
0.0
 11
-129.7495955277
 21
359.3800396639
 31
0.0
  0
LINE
  5
11A
  8
0
  6
CONTINUOUS
 62
     7
 10
-129.9695664692
 20
359.6800298411
 30
0.0
 11
-99.9692672539
 21
359.6800298411
 31
0.0
  0
LINE
  5
11B
  8
0
  6
CONTINUOUS
 62
     7
 10
-129.7495955277
 20
355.9800268132
 30
0.0
 11
-99.7492963124
 21
355.9800268132
 31
0.0
  0
LINE
  5
11C
  8
0
  6
CONTINUOUS
 62
     7
 10
-99.9692672539
 20
355.680036636
 30
0.0
 11
-120.3830832291
 21
355.680036636
 31
0.0
  0
LINE
  5
11D
  8
0
  6
CONTINUOUS
 62
     7
 10
-99.7492963124
 20
355.9800268132
 30
0.0
 11
-98.8823765564
 21
355.9800268132
 31
0.0
  0
LINE
  5
11E
  8
0
  6
CONTINUOUS
 62
     7
 10
-98.8823765564
 20
355.9800268132
 30
0.0
 11
-99.1823667336
 21
355.680036636
 31
0.0
  0
LINE
  5
11F
  8
0
  6
CONTINUOUS
 62
     7
 10
-99.1823667336
 20
355.680036636
 30
0.0
 11
-99.9692672539
 21
355.680036636
 31
0.0
  0
LINE
  5
120
  8
0
  6
CONTINUOUS
 62
     7
 10
-98.8823765564
 20
359.3800396639
 30
0.0
 11
-99.7492963124
 21
359.3800396639
 31
0.0
  0
LINE
  5
121
  8
0
  6
CONTINUOUS
 62
     7
 10
-98.8823765564
 20
359.3800396639
 30
0.0
 11
-98.8823765564
 21
355.9800268132
 31
0.0
  0
LINE
  5
122
  8
0
  6
CONTINUOUS
 62
     7
 10
-99.1823667336
 20
359.6800298411
 30
0.0
 11
-98.8823765564
 21
359.3800396639
 31
0.0
  0
LINE
  5
123
  8
0
  6
CONTINUOUS
 62
     7
 10
-99.9692672539
 20
359.6800298411
 30
0.0
 11
-99.1823667336
 21
359.6800298411
 31
0.0
  0
LINE
  5
124
  8
0
  6
CONTINUOUS
 62
     7
 10
-695.8823794175
 20
359.3800396639
 30
0.0
 11
-708.0151432801
 21
359.3800396639
 31
0.0
  0
LINE
  5
125
  8
0
  6
CONTINUOUS
 62
     7
 10
-695.8823794175
 20
359.3800396639
 30
0.0
 11
-695.8823794175
 21
355.9800268132
 31
0.0
  0
LINE
  5
126
  8
0
  6
CONTINUOUS
 62
     7
 10
-708.0151432801
 20
355.9800268132
 30
0.0
 11
-695.8823794175
 21
355.9800268132
 31
0.0
  0
LINE
  5
127
  8
0
  6
CONTINUOUS
 62
     7
 10
-707.7951723385
 20
359.6800298411
 30
0.0
 11
-696.1823695946
 21
359.6800298411
 31
0.0
  0
LINE
  5
128
  8
0
  6
CONTINUOUS
 62
     7
 10
-695.8823794175
 20
359.3800396639
 30
0.0
 11
-696.1823695946
 21
359.6800298411
 31
0.0
  0
LINE
  5
129
  8
0
  6
CONTINUOUS
 62
     7
 10
-695.8823794175
 20
355.9800268132
 30
0.0
 11
-696.1823695946
 21
355.680036636
 31
0.0
  0
LINE
  5
12A
  8
0
  6
CONTINUOUS
 62
     7
 10
-708.0151432801
 20
359.3800396639
 30
0.0
 11
-738.0154424954
 21
359.3800396639
 31
0.0
  0
LINE
  5
12B
  8
0
  6
CONTINUOUS
 62
     7
 10
-738.0154424954
 20
355.9800268132
 30
0.0
 11
-708.0151432801
 21
355.9800268132
 31
0.0
  0
LINE
  5
12C
  8
0
  6
CONTINUOUS
 62
     7
 10
-737.7954715538
 20
359.6800298411
 30
0.0
 11
-707.7951723385
 21
359.6800298411
 31
0.0
  0
LINE
  5
12D
  8
0
  6
CONTINUOUS
 62
     7
 10
-717.3816555787
 20
355.680036636
 30
0.0
 11
-737.7954715538
 21
355.680036636
 31
0.0
  0
LINE
  5
12E
  8
0
  6
CONTINUOUS
 62
     7
 10
-738.5823720742
 20
355.680036636
 30
0.0
 11
-738.8823622513
 21
355.9800268132
 31
0.0
  0
LINE
  5
12F
  8
0
  6
CONTINUOUS
 62
     7
 10
-738.8823622513
 20
355.9800268132
 30
0.0
 11
-738.0154424954
 21
355.9800268132
 31
0.0
  0
LINE
  5
130
  8
0
  6
CONTINUOUS
 62
     7
 10
-737.7954715538
 20
355.680036636
 30
0.0
 11
-738.5823720742
 21
355.680036636
 31
0.0
  0
LINE
  5
131
  8
0
  6
CONTINUOUS
 62
     7
 10
-738.0154424954
 20
359.3800396639
 30
0.0
 11
-738.8823622513
 21
359.3800396639
 31
0.0
  0
LINE
  5
132
  8
0
  6
CONTINUOUS
 62
     7
 10
-738.8823622513
 20
355.9800268132
 30
0.0
 11
-738.8823622513
 21
359.3800396639
 31
0.0
  0
LINE
  5
133
  8
0
  6
CONTINUOUS
 62
     7
 10
-738.8823622513
 20
359.3800396639
 30
0.0
 11
-738.5823720742
 21
359.6800298411
 31
0.0
  0
LINE
  5
134
  8
0
  6
CONTINUOUS
 62
     7
 10
-738.5823720742
 20
359.6800298411
 30
0.0
 11
-737.7954715538
 21
359.6800298411
 31
0.0
  0
ARC
  5
135
  8
0
  6
CONTINUOUS
 62
     7
 10
-671.3323696234
 20
155.6800336558
 30
0.0
 40
7.999999999999967
 50
190.8069228749
 51
349.1930771251
  0
LINE
  5
136
  8
0
  6
CONTINUOUS
 62
     7
 10
-676.1020714093
 20
154.1800336427
 30
0.0
 11
-679.1904860783
 21
154.1800336427
 31
0.0
  0
LINE
  5
137
  8
0
  6
CONTINUOUS
 62
     7
 10
-666.5626758385
 20
154.1800336427
 30
0.0
 11
-663.4742462683
 21
154.1800336427
 31
0.0
  0
ARC
  5
138
  8
0
  6
CONTINUOUS
 62
     7
 10
-671.3323696234
 20
155.6800336558
 30
0.0
 40
4.999999999999791
 50
197.4576031237
 51
342.5423968763
  0
ARC
  5
139
  8
0
  6
CONTINUOUS
 62
     7
 10
-671.3323696234
 20
155.6800336558
 30
0.0
 40
5.000000000000135
 50
17.4576031237
 51
162.5423968763
  0
LINE
  5
13A
  8
0
  6
CONTINUOUS
 62
     7
 10
-676.1020714093
 20
157.1800336688
 30
0.0
 11
-679.1904860783
 21
157.1800336688
 31
0.0
  0
LINE
  5
13B
  8
0
  6
CONTINUOUS
 62
     7
 10
-666.5626758385
 20
157.1800336688
 30
0.0
 11
-663.4742462683
 21
157.1800336688
 31
0.0
  0
ARC
  5
13C
  8
0
  6
CONTINUOUS
 62
     7
 10
-671.3323696234
 20
155.6800336558
 30
0.0
 40
8.000000000000595
 50
10.8069228749
 51
169.1930771251
  0
CIRCLE
  5
13D
  8
0
  6
CONTINUOUS
 62
     7
 10
-671.3323696234
 20
155.6800336558
 30
0.0
 40
2.5
  0
ARC
  5
13E
  8
0
  6
CONTINUOUS
 62
     7
 10
-671.3323696234
 20
155.6800336558
 30
0.0
 40
8.000000000000686
 50
169.1930771251
 51
190.8069228749
  0
ARC
  5
13F
  8
0
  6
CONTINUOUS
 62
     7
 10
-671.3323696234
 20
155.6800336558
 30
0.0
 40
8.000000000000016
 50
349.1930771251
 51
10.8069228749
  0
ARC
  5
140
  8
0
  6
CONTINUOUS
 62
     7
 10
-671.3323696234
 20
155.6800336558
 30
0.0
 40
12.24192993464991
 50
152.862078374
 51
207.1379513768
  0
ARC
  5
141
  8
0
  6
CONTINUOUS
 62
     7
 10
-671.3323696234
 20
155.6800336558
 30
0.0
 40
12.24192993625006
 50
332.8620780628
 51
27.137951024
  0
CIRCLE
  5
142
  8
0
  6
CONTINUOUS
 62
     7
 10
-671.3323696234
 20
155.6800336558
 30
0.0
 40
8.050000000000011
  0
ARC
  5
143
  8
0
  6
CONTINUOUS
 62
     7
 10
-683.2998727382
 20
139.6214881415
 30
0.0
 40
2.770614526869482
 50
178.2667987527
 51
264.9849605602
  0
ARC
  5
144
  8
0
  6
CONTINUOUS
 62
     7
 10
-683.3105349176
 20
171.7480541116
 30
0.0
 40
2.760261171692151
 50
94.8117601762
 51
181.9364805109
  0
ARC
  5
145
  8
0
  6
CONTINUOUS
 62
     7
 10
-659.3648716363
 20
171.7385842618
 30
0.0
 40
2.770611808898309
 50
358.2666917091
 51
84.9843965998
  0
ARC
  5
146
  8
0
  6
CONTINUOUS
 62
     7
 10
-659.3541361919
 20
139.6119431139
 30
0.0
 40
2.76018744618352
 50
274.8109237633
 51
1.9379879278
  0
ARC
  5
147
  8
0
  6
CONTINUOUS
 62
     7
 10
-671.3249033498
 20
155.6800364498
 30
0.0
 40
12.49334247145973
 50
332.8464609597
 51
27.1535390403
  0
ARC
  5
148
  8
0
  6
CONTINUOUS
 62
     7
 10
-671.3397253221
 20
155.680030629
 30
0.0
 40
12.49344808510865
 50
152.8467081858
 51
207.1532918142
  0
ARC
  5
149
  8
0
  6
CONTINUOUS
 62
     7
 10
-671.3323696234
 20
155.6800336558
 30
0.0
 40
12.50000000000009
 50
27.1379395953
 51
152.8620934681
  0
ARC
  5
14A
  8
0
  6
CONTINUOUS
 62
     7
 10
-671.3323696234
 20
155.6800336558
 30
0.0
 40
12.50000000000012
 50
207.1379399383
 51
332.8620895856
  0
ARC
  5
14B
  8
0
  6
CONTINUOUS
 62
     7
 10
-686.1266255786
 20
171.2643756419
 30
0.0
 40
0.3946029923201284
 50
81.6350676262
 51
121.4266570838
  0
ARC
  5
14C
  8
0
  6
CONTINUOUS
 62
     7
 10
-686.1266273108
 20
140.0956948612
 30
0.0
 40
0.3946064018784875
 50
238.5739401732
 51
278.3651138032
  0
LINE
  5
14D
  8
0
  6
CONTINUOUS
 62
     7
 10
-686.3323742199
 20
139.7589717973
 30
0.0
 11
-686.3323742199
 21
171.6010936517
 31
0.0
  0
ARC
  5
14E
  8
0
  6
CONTINUOUS
 62
     7
 10
-656.5381216692
 20
140.0956916697
 30
0.0
 40
0.3946029923199948
 50
261.6350676262
 51
301.4266570838
  0
ARC
  5
14F
  8
0
  6
CONTINUOUS
 62
     7
 10
-656.538119937
 20
171.2643724504
 30
0.0
 40
0.3946064018784593
 50
58.5739401733
 51
98.3651138033
  0
LINE
  5
150
  8
0
  6
CONTINUOUS
 62
     7
 10
-656.3323730278
 20
171.6010955143
 30
0.0
 11
-656.3323730278
 21
139.7589736599
 31
0.0
  0
ARC
  5
151
  8
0
  6
CONTINUOUS
 62
     7
 10
-683.3212569509
 20
172.2623448126
 30
0.0
 40
3.011150672013981
 50
94.0558890865
 51
180.26987587
  0
ARC
  5
152
  8
0
  6
CONTINUOUS
 62
     7
 10
-683.2973691128
 20
171.7000376674
 30
0.0
 40
3.036617512689856
 50
94.4196375863
 51
181.8672348759
  0
LINE
  5
153
  8
0
  6
CONTINUOUS
 62
     7
 10
-686.3323742199
 20
171.6010936517
 30
0.0
 11
-686.3323742199
 21
172.2481616754
 31
0.0
  0
ARC
  5
154
  8
0
  6
CONTINUOUS
 62
     7
 10
-659.3434592158
 20
139.0976926286
 30
0.0
 40
3.011119732099884
 50
274.0556221855
 51
0.2704470245
  0
ARC
  5
155
  8
0
  6
CONTINUOUS
 62
     7
 10
-659.3673781349
 20
139.6600296442
 30
0.0
 40
3.036617512689651
 50
274.4196375863
 51
1.8672348759
  0
LINE
  5
156
  8
0
  6
CONTINUOUS
 62
     7
 10
-656.3323730278
 20
139.7589736599
 30
0.0
 11
-656.3323730278
 21
139.1119056362
 31
0.0
  0
POLYLINE
  5
157
  8
0
  6
CONTINUOUS
 62
     7
 66
     1
 10
0.0
 20
0.0
 30
0.0
  0
VERTEX
  5
699
  8
0
  6
CONTINUOUS
 62
     7
 10
-659.1304981757
 20
175.2659858185
 30
0.0
  0
VERTEX
  5
69A
  8
0
  6
CONTINUOUS
 62
     7
 10
-659.1318541813
 20
175.0017658788
 30
0.0
  0
VERTEX
  5
69B
  8
0
  6
CONTINUOUS
 62
     7
 10
-659.1332697916
 20
174.7276161778
 30
0.0
  0
SEQEND
  5
69C
  8
0
  6
CONTINUOUS
 62
     7
  0
ARC
  5
158
  8
0
  6
CONTINUOUS
 62
     7
 10
-659.3484739391
 20
172.2577566323
 30
0.0
 40
3.016116090325597
 50
359.8182240548
 51
85.8556009452
  0
ARC
  5
159
  8
0
  6
CONTINUOUS
 62
     7
 10
-659.3673864291
 20
171.7000344973
 30
0.0
 40
3.036625638478688
 50
358.1328651325
 51
85.578243317
  0
LINE
  5
15A
  8
0
  6
CONTINUOUS
 62
     7
 10
-656.3323730278
 20
172.2481877524
 30
0.0
 11
-656.3323730278
 21
171.6010955143
 31
0.0
  0
POLYLINE
  5
15B
  8
0
  6
CONTINUOUS
 62
     7
 66
     1
 10
0.0
 20
0.0
 30
0.0
  0
VERTEX
  5
69D
  8
0
  6
CONTINUOUS
 62
     7
 10
-683.534234171
 20
136.094081493
 30
0.0
  0
VERTEX
  5
69E
  8
0
  6
CONTINUOUS
 62
     7
 10
-683.5328930664
 20
136.3583014328
 30
0.0
  0
VERTEX
  5
69F
  8
0
  6
CONTINUOUS
 62
     7
 10
-683.531462555
 20
136.6324511338
 30
0.0
  0
SEQEND
  5
6A0
  8
0
  6
CONTINUOUS
 62
     7
  0
ARC
  5
15C
  8
0
  6
CONTINUOUS
 62
     7
 10
-683.3162316944
 20
139.1023503408
 30
0.0
 40
3.016157578805239
 50
179.8189799806
 51
265.8551492727
  0
ARC
  5
15D
  8
0
  6
CONTINUOUS
 62
     7
 10
-683.297364548
 20
139.6600305892
 30
0.0
 40
3.036621983659327
 50
178.1328208778
 51
265.5785905582
  0
LINE
  5
15E
  8
0
  6
CONTINUOUS
 62
     7
 10
-686.3323742199
 20
139.1118795592
 30
0.0
 11
-686.3323742199
 21
139.7589717973
 31
0.0
  0
ARC
  5
15F
  8
0
  6
CONTINUOUS
 62
     7
 10
-682.5718030213
 20
136.7916695954
 30
0.0
 40
0.9727773398545635
 50
175.8846804645
 51
189.4199968515
  0
ARC
  5
160
  8
0
  6
CONTINUOUS
 62
     7
 10
-660.0956711983
 20
174.5682073906
 30
0.0
 40
0.9755134244803496
 50
355.9074500001
 51
9.4046670437
  0
ARC
  5
161
  8
0
  6
CONTINUOUS
 62
     7
 10
-671.3323696234
 20
-4.3199663442
 30
0.0
 40
179.9999999999999
 50
86.1130450723
 51
93.8869556952
  0
ARC
  5
162
  8
0
  6
CONTINUOUS
 62
     7
 10
-671.3323696234
 20
315.6800336558
 30
0.0
 40
180.0000000011287
 50
266.1130449516
 51
273.8869556953
  0
LINE
  5
163
  8
0
  6
CONTINUOUS
 62
     7
 10
-701.2842887688
 20
-44.3199693244
 30
0.0
 11
-706.4804428864
 21
-44.3199693244
 31
0.0
  0
LINE
  5
164
  8
0
  6
CONTINUOUS
 62
     7
 10
-696.8823665429
 20
-46.3199733776
 30
0.0
 11
-710.8823651123
 21
-46.3199733776
 31
0.0
  0
LINE
  5
165
  8
0
  6
CONTINUOUS
 62
     7
 10
-126.8823736954
 20
-46.3199733776
 30
0.0
 11
-140.8823722649
 21
-46.3199733776
 31
0.0
  0
LINE
  5
166
  8
0
  6
CONTINUOUS
 62
     7
 10
-131.2842959214
 20
-44.3199693244
 30
0.0
 11
-136.480450039
 21
-44.3199693244
 31
0.0
  0
LINE
  5
167
  8
0
  6
CONTINUOUS
 62
     7
 10
-985.5008953514
 20
-44.6199595016
 30
0.0
 11
-985.5008953514
 21
-48.0199723524
 31
0.0
  0
LINE
  5
168
  8
0
  6
CONTINUOUS
 62
     7
 10
-985.5008953514
 20
-48.0199723524
 30
0.0
 11
-985.2008977236
 21
-48.3199625295
 31
0.0
  0
LINE
  5
169
  8
0
  6
CONTINUOUS
 62
     7
 10
-985.2008977236
 20
-44.3199693244
 30
0.0
 11
-985.5008953514
 21
-44.6199595016
 31
0.0
  0
LINE
  5
16A
  8
0
  6
CONTINUOUS
 62
     7
 10
-985.5008953514
 20
359.3800396639
 30
0.0
 11
-985.5008953514
 21
355.9800268132
 31
0.0
  0
LINE
  5
16B
  8
0
  6
CONTINUOUS
 62
     7
 10
-985.2008977236
 20
359.6800298411
 30
0.0
 11
-985.5008953514
 21
359.3800396639
 31
0.0
  0
LINE
  5
16C
  8
0
  6
CONTINUOUS
 62
     7
 10
-985.5008953514
 20
355.9800268132
 30
0.0
 11
-985.2008977236
 21
355.680036636
 31
0.0
  0
ARC
  5
16D
  8
0
  6
CONTINUOUS
 62
     7
 10
-1141.2008959389
 20
155.6800336558
 30
0.0
 40
89.50000000002005
 50
167.6878123258
 51
171.8046187659
  0
ARC
  5
16E
  8
0
  6
CONTINUOUS
 62
     7
 10
-1141.2008959389
 20
155.6800336558
 30
0.0
 40
89.50000000002
 50
188.1938926696
 51
192.3117800122
  0
ARC
  5
16F
  8
0
  6
CONTINUOUS
 62
     7
 10
-1230.0843485729
 20
142.8947875448
 30
0.0
 40
0.2998638436734668
 50
5.6661778298
 51
90.4920061056
  0
ARC
  5
170
  8
0
  6
CONTINUOUS
 62
     7
 10
-1141.2008959389
 20
155.6800336558
 30
0.0
 40
90.19999999999946
 50
185.4696070839
 51
187.799459856
  0
ARC
  5
171
  8
0
  6
CONTINUOUS
 62
     7
 10
-1141.2008959389
 20
155.6800336558
 30
0.0
 40
90.19999999999945
 50
172.2005399977
 51
174.5303929161
  0
ARC
  5
172
  8
0
  6
CONTINUOUS
 62
     7
 10
-1220.7008959389
 20
142.9233549475
 30
0.0
 40
32.99999999999991
 50
96.9620626911
 51
103.523892595
  0
ARC
  5
173
  8
0
  6
CONTINUOUS
 62
     7
 10
-1220.7008959389
 20
168.4367123641
 30
0.0
 40
33.00000000000001
 50
256.4797637263
 51
263.0379373089
  0
ARC
  5
174
  8
0
  6
CONTINUOUS
 62
     7
 10
-1228.3457542197
 20
136.6429027139
 30
0.0
 40
0.2999959752953602
 50
191.9527522242
 51
257.7201486736
  0
ARC
  5
175
  8
0
  6
CONTINUOUS
 62
     7
 10
-1228.3457542197
 20
174.7171645977
 30
0.0
 40
0.2999959752953325
 50
102.2798513264
 51
168.0472477758
  0
ARC
  5
176
  8
0
  6
CONTINUOUS
 62
     7
 10
-1230.269240484
 20
167.8800336558
 30
0.0
 40
0.3000000000000114
 50
90.0
 51
172.2023682146
  0
LINE
  5
177
  8
0
  6
CONTINUOUS
 62
     7
 10
-1230.0564059319
 20
168.1800338421
 30
0.0
 11
-1230.2968212666
 21
168.1800338421
 31
0.0
  0
LINE
  5
178
  8
0
  6
CONTINUOUS
 62
     7
 10
-1230.2968212666
 20
143.1800334695
 30
0.0
 11
-1230.0564059319
 21
143.1800334695
 31
0.0
  0
ARC
  5
179
  8
0
  6
CONTINUOUS
 62
     7
 10
-1230.269240484
 20
143.4800336558
 30
0.0
 40
0.3000000000000114
 50
187.7975877807
 51
270.0
  0
ARC
  5
17A
  8
0
  6
CONTINUOUS
 62
     7
 10
-1230.4924828887
 20
164.2300336558
 30
0.0
 40
0.5000000000002462
 50
174.5304035697
 51
180.0
  0
ARC
  5
17B
  8
0
  6
CONTINUOUS
 62
     7
 10
-1230.4924828887
 20
147.1300336558
 30
0.0
 40
0.5000000000002462
 50
180.0
 51
185.4695964303
  0
LINE
  5
17C
  8
0
  6
CONTINUOUS
 62
     7
 10
-1230.9924968781
 20
164.2300340328
 30
0.0
 11
-1230.9924968781
 21
147.1300332788
 31
0.0
  0
ARC
  5
17D
  8
0
  6
CONTINUOUS
 62
     7
 10
-1230.073247072
 20
168.458442793
 30
0.0
 40
0.2881980752634837
 50
273.4628166371
 51
355.4685852758
  0
LINE
  5
17E
  8
0
  6
CONTINUOUS
 62
     7
 10
-1201.0008999409
 20
-44.3199693244
 30
0.0
 11
-1201.0008999409
 21
-46.3199733776
 31
0.0
  0
LINE
  5
17F
  8
0
  6
CONTINUOUS
 62
     7
 10
-1187.0009013714
 20
-46.3199733776
 30
0.0
 11
-1187.0009013714
 21
-44.3199693244
 31
0.0
  0
LINE
  5
180
  8
0
  6
CONTINUOUS
 62
     7
 10
-1189.5008989872
 20
-42.8199737352
 30
0.0
 11
-1189.5008989872
 21
-42.8192584795
 31
0.0
  0
LINE
  5
181
  8
0
  6
CONTINUOUS
 62
     7
 10
-1198.5009023251
 20
-42.8192584795
 30
0.0
 11
-1198.5009023251
 21
-42.8199737352
 31
0.0
  0
LINE
  5
182
  8
0
  6
CONTINUOUS
 62
     7
 10
-1205.5009016098
 20
322.6800293643
 30
0.0
 11
-1205.7209023537
 21
322.6800293643
 31
0.0
  0
LINE
  5
183
  8
0
  6
CONTINUOUS
 62
     7
 10
-1205.7209023537
 20
317.6800341326
 30
0.0
 11
-1205.5009016098
 21
317.6800341326
 31
0.0
  0
LINE
  5
184
  8
0
  6
CONTINUOUS
 62
     7
 10
-1205.7209023537
 20
322.6800293643
 30
0.0
 11
-1206.1209091248
 21
322.2800374943
 31
0.0
  0
LINE
  5
185
  8
0
  6
CONTINUOUS
 62
     7
 10
-1206.1209091248
 20
318.0800409037
 30
0.0
 11
-1205.7209023537
 21
317.6800341326
 31
0.0
  0
LINE
  5
186
  8
0
  6
CONTINUOUS
 62
     7
 10
-1205.5009016098
 20
282.6800377089
 30
0.0
 11
-1205.7209023537
 21
282.6800377089
 31
0.0
  0
LINE
  5
187
  8
0
  6
CONTINUOUS
 62
     7
 10
-1205.7209023537
 20
277.6800350267
 30
0.0
 11
-1205.5009016098
 21
277.6800350267
 31
0.0
  0
LINE
  5
188
  8
0
  6
CONTINUOUS
 62
     7
 10
-1205.7209023537
 20
282.6800377089
 30
0.0
 11
-1206.1209091248
 21
282.2800309378
 31
0.0
  0
LINE
  5
189
  8
0
  6
CONTINUOUS
 62
     7
 10
-1206.1209091248
 20
278.0800343472
 30
0.0
 11
-1205.7209023537
 21
277.6800350267
 31
0.0
  0
LINE
  5
18A
  8
0
  6
CONTINUOUS
 62
     7
 10
-1205.5009016098
 20
33.6800322849
 30
0.0
 11
-1205.7209023537
 21
33.6800322849
 31
0.0
  0
LINE
  5
18B
  8
0
  6
CONTINUOUS
 62
     7
 10
-1205.7209023537
 20
28.6800296027
 30
0.0
 11
-1205.5009016098
 21
28.6800296027
 31
0.0
  0
LINE
  5
18C
  8
0
  6
CONTINUOUS
 62
     7
 10
-1205.7209023537
 20
33.6800322849
 30
0.0
 11
-1206.1209091248
 21
33.2800329644
 31
0.0
  0
LINE
  5
18D
  8
0
  6
CONTINUOUS
 62
     7
 10
-1206.1209091248
 20
29.0800363738
 30
0.0
 11
-1205.7209023537
 21
28.6800296027
 31
0.0
  0
LINE
  5
18E
  8
0
  6
CONTINUOUS
 62
     7
 10
-1205.5009016098
 20
-6.319966821
 30
0.0
 11
-1205.7209023537
 21
-6.319966821
 31
0.0
  0
LINE
  5
18F
  8
0
  6
CONTINUOUS
 62
     7
 10
-1205.7209023537
 20
-11.3199620527
 30
0.0
 11
-1205.5009016098
 21
-11.3199620527
 31
0.0
  0
LINE
  5
190
  8
0
  6
CONTINUOUS
 62
     7
 10
-1205.7209023537
 20
-6.319966821
 30
0.0
 11
-1206.1209091248
 21
-6.7199735921
 31
0.0
  0
LINE
  5
191
  8
0
  6
CONTINUOUS
 62
     7
 10
-1206.1209091248
 20
-10.9199701828
 30
0.0
 11
-1205.7209023537
 21
-11.3199620527
 31
0.0
  0
LINE
  5
192
  8
0
  6
CONTINUOUS
 62
     7
 10
-984.6008950176
 20
354.1800410468
 30
0.0
 11
-984.6274786891
 21
354.179325791
 31
0.0
  0
LINE
  5
193
  8
0
  6
CONTINUOUS
 62
     7
 10
-972.3743134441
 20
354.179325791
 30
0.0
 11
-972.4008971157
 21
354.1800410468
 31
0.0
  0
LINE
  5
194
  8
0
  6
CONTINUOUS
 62
     7
 10
-959.6274801793
 20
-42.8192584795
 30
0.0
 11
-959.6008965077
 21
-42.8199737352
 31
0.0
  0
LINE
  5
195
  8
0
  6
CONTINUOUS
 62
     7
 10
-972.4008971157
 20
-42.8199737352
 30
0.0
 11
-972.3743134441
 21
-42.8192584795
 31
0.0
  0
LINE
  5
196
  8
0
  6
CONTINUOUS
 62
     7
 10
-984.6274786891
 20
-42.8192584795
 30
0.0
 11
-984.6008950176
 21
-42.8199737352
 31
0.0
  0
LINE
  5
197
  8
0
  6
CONTINUOUS
 62
     7
 10
-959.6008965077
 20
354.1800410468
 30
0.0
 11
-959.6274801793
 21
354.179325791
 31
0.0
  0
LINE
  5
198
  8
0
  6
CONTINUOUS
 62
     7
 10
-910.5008960964
 20
355.680036636
 30
0.0
 11
-910.5008960964
 21
-44.3199693244
 31
0.0
  0
LINE
  5
199
  8
0
  6
CONTINUOUS
 62
     7
 10
-950.500897065
 20
-44.3199693244
 30
0.0
 11
-950.500897065
 21
355.680036636
 31
0.0
  0
LINE
  5
19A
  8
0
  6
CONTINUOUS
 62
     7
 10
-1209.7008832993
 20
-39.8199676555
 30
0.0
 11
-1209.7008832993
 21
-42.8199737352
 31
0.0
  0
LINE
  5
19B
  8
0
  6
CONTINUOUS
 62
     7
 10
-1221.200884253
 20
-42.8199737352
 30
0.0
 11
-1209.7008832993
 21
-42.8199737352
 31
0.0
  0
POLYLINE
  5
19C
  8
0
  6
CONTINUOUS
 62
     7
 66
     1
 10
0.0
 20
0.0
 30
0.0
  0
VERTEX
  5
6A1
  8
0
  6
CONTINUOUS
 62
     7
 10
-1221.200884253
 20
-42.8199737352
 30
0.0
  0
VERTEX
  5
6A2
  8
0
  6
CONTINUOUS
 62
     7
 10
-1220.9863373341
 20
-42.7725731414
 30
0.0
  0
VERTEX
  5
6A3
  8
0
  6
CONTINUOUS
 62
     7
 10
-1220.8292492928
 20
-42.6154851001
 30
0.0
  0
VERTEX
  5
6A4
  8
0
  6
CONTINUOUS
 62
     7
 10
-1220.7330473961
 20
-42.3362671417
 30
0.0
  0
VERTEX
  5
6A5
  8
0
  6
CONTINUOUS
 62
     7
 10
-1220.7008906903
 20
-41.9412820619
 30
0.0
  0
VERTEX
  5
6A6
  8
0
  6
CONTINUOUS
 62
     7
 10
-1220.7328685822
 20
-41.4527772945
 30
0.0
  0
VERTEX
  5
6A7
  8
0
  6
CONTINUOUS
 62
     7
 10
-1220.8288618626
 20
-40.9100173992
 30
0.0
  0
VERTEX
  5
6A8
  8
0
  6
CONTINUOUS
 62
     7
 10
-1220.9864863457
 20
-40.3507172149
 30
0.0
  0
VERTEX
  5
6A9
  8
0
  6
CONTINUOUS
 62
     7
 10
-1221.200884253
 20
-39.8199676555
 30
0.0
  0
SEQEND
  5
6AA
  8
0
  6
CONTINUOUS
 62
     7
  0
ARC
  5
19D
  8
0
  6
CONTINUOUS
 62
     7
 10
-1223.2008959389
 20
352.6800336558
 30
0.0
 40
2.500000000000034
 50
306.8698976458
 51
323.1301023542
  0
LINE
  5
19E
  8
0
  6
CONTINUOUS
 62
     7
 10
-1209.7008832993
 20
351.1800349671
 30
0.0
 11
-1209.7008832993
 21
-39.8199676555
 31
0.0
  0
ARC
  5
19F
  8
0
  6
CONTINUOUS
 62
     7
 10
-1223.2008959389
 20
-41.3199663442
 30
0.0
 40
2.500000000000182
 50
36.8698976458
 51
53.1301023542
  0
LINE
  5
1A0
  8
0
  6
CONTINUOUS
 62
     7
 10
-1221.200884253
 20
-42.8199737352
 30
0.0
 11
-1221.200884253
 21
-41.3199632448
 31
0.0
  0
POLYLINE
  5
1A1
  8
0
  6
CONTINUOUS
 62
     7
 66
     1
 10
0.0
 20
0.0
 30
0.0
  0
VERTEX
  5
6AB
  8
0
  6
CONTINUOUS
 62
     7
 10
-1221.200884253
 20
-41.3199632448
 30
0.0
  0
VERTEX
  5
6AC
  8
0
  6
CONTINUOUS
 62
     7
 10
-1220.9863373341
 20
-41.2962703985
 30
0.0
  0
VERTEX
  5
6AD
  8
0
  6
CONTINUOUS
 62
     7
 10
-1220.8292492928
 20
-41.2177263778
 30
0.0
  0
VERTEX
  5
6AE
  8
0
  6
CONTINUOUS
 62
     7
 10
-1220.7330473961
 20
-41.0781173986
 30
0.0
  0
VERTEX
  5
6AF
  8
0
  6
CONTINUOUS
 62
     7
 10
-1220.7008906903
 20
-40.8806174081
 30
0.0
  0
VERTEX
  5
6B0
  8
0
  6
CONTINUOUS
 62
     7
 10
-1220.7008906903
 20
-40.8806174081
 30
0.0
  0
SEQEND
  5
6B1
  8
0
  6
CONTINUOUS
 62
     7
  0
LINE
  5
1A2
  8
0
  6
CONTINUOUS
 62
     7
 10
-1224.7008987965
 20
-39.3199591917
 30
0.0
 11
-1224.7008987965
 21
350.6800265032
 31
0.0
  0
POLYLINE
  5
1A3
  8
0
  6
CONTINUOUS
 62
     7
 66
     1
 10
0.0
 20
0.0
 30
0.0
  0
VERTEX
  5
6B2
  8
0
  6
CONTINUOUS
 62
     7
 10
-1221.700907618
 20
350.6800265032
 30
0.0
  0
VERTEX
  5
6B3
  8
0
  6
CONTINUOUS
 62
     7
 10
-1222.2320744099
 20
350.4654646832
 30
0.0
  0
VERTEX
  5
6B4
  8
0
  6
CONTINUOUS
 62
     7
 10
-1222.7894970478
 20
350.3083766419
 30
0.0
  0
VERTEX
  5
6B5
  8
0
  6
CONTINUOUS
 62
     7
 10
-1223.3343729081
 20
350.2121896464
 30
0.0
  0
VERTEX
  5
6B6
  8
0
  6
CONTINUOUS
 62
     7
 10
-1223.8222369255
 20
350.1800329405
 30
0.0
  0
VERTEX
  5
6B7
  8
0
  6
CONTINUOUS
 62
     7
 10
-1224.2176243367
 20
350.2120257336
 30
0.0
  0
VERTEX
  5
6B8
  8
0
  6
CONTINUOUS
 62
     7
 10
-1224.4958588185
 20
350.3079892117
 30
0.0
  0
VERTEX
  5
6B9
  8
0
  6
CONTINUOUS
 62
     7
 10
-1224.6535727086
 20
350.4656136948
 30
0.0
  0
VERTEX
  5
6BA
  8
0
  6
CONTINUOUS
 62
     7
 10
-1224.7008987965
 20
350.6800265032
 30
0.0
  0
SEQEND
  5
6BB
  8
0
  6
CONTINUOUS
 62
     7
  0
POLYLINE
  5
1A4
  8
0
  6
CONTINUOUS
 62
     7
 66
     1
 10
0.0
 20
0.0
 30
0.0
  0
VERTEX
  5
6BC
  8
0
  6
CONTINUOUS
 62
     7
 10
-1221.700907618
 20
-39.3199591917
 30
0.0
  0
VERTEX
  5
6BD
  8
0
  6
CONTINUOUS
 62
     7
 10
-1222.2320744099
 20
-39.1053973716
 30
0.0
  0
VERTEX
  5
6BE
  8
0
  6
CONTINUOUS
 62
     7
 10
-1222.7894970478
 20
-38.9483093303
 30
0.0
  0
VERTEX
  5
6BF
  8
0
  6
CONTINUOUS
 62
     7
 10
-1223.3343729081
 20
-38.8521223348
 30
0.0
  0
VERTEX
  5
6C0
  8
0
  6
CONTINUOUS
 62
     7
 10
-1223.8222369255
 20
-38.819965629
 30
0.0
  0
VERTEX
  5
6C1
  8
0
  6
CONTINUOUS
 62
     7
 10
-1224.2176243367
 20
-38.851958422
 30
0.0
  0
VERTEX
  5
6C2
  8
0
  6
CONTINUOUS
 62
     7
 10
-1224.4958588185
 20
-38.9479219001
 30
0.0
  0
VERTEX
  5
6C3
  8
0
  6
CONTINUOUS
 62
     7
 10
-1224.6535727086
 20
-39.1055463832
 30
0.0
  0
VERTEX
  5
6C4
  8
0
  6
CONTINUOUS
 62
     7
 10
-1224.7008987965
 20
-39.3199591917
 30
0.0
  0
SEQEND
  5
6C5
  8
0
  6
CONTINUOUS
 62
     7
  0
ARC
  5
1A5
  8
0
  6
CONTINUOUS
 62
     7
 10
-1222.7866506938
 20
-39.2409284836
 30
0.0
 40
0.4217092034268479
 50
86.5906932922
 51
190.8014223199
  0
LINE
  5
1A6
  8
0
  6
CONTINUOUS
 62
     7
 10
-1224.7008987965
 20
-39.3199591917
 30
0.0
 11
-1223.2008883061
 21
-39.3199591917
 31
0.0
  0
POLYLINE
  5
1A7
  8
0
  6
CONTINUOUS
 62
     7
 66
     1
 10
0.0
 20
0.0
 30
0.0
  0
VERTEX
  5
6C6
  8
0
  6
CONTINUOUS
 62
     7
 10
-1221.200884253
 20
354.1800410468
 30
0.0
  0
VERTEX
  5
6C7
  8
0
  6
CONTINUOUS
 62
     7
 10
-1220.9863373341
 20
354.132640453
 30
0.0
  0
VERTEX
  5
6C8
  8
0
  6
CONTINUOUS
 62
     7
 10
-1220.8292492928
 20
353.9755524117
 30
0.0
  0
VERTEX
  5
6C9
  8
0
  6
CONTINUOUS
 62
     7
 10
-1220.7330473961
 20
353.6963344533
 30
0.0
  0
VERTEX
  5
6CA
  8
0
  6
CONTINUOUS
 62
     7
 10
-1220.7008906903
 20
353.3013493735
 30
0.0
  0
VERTEX
  5
6CB
  8
0
  6
CONTINUOUS
 62
     7
 10
-1220.7328685822
 20
352.8128446061
 30
0.0
  0
VERTEX
  5
6CC
  8
0
  6
CONTINUOUS
 62
     7
 10
-1220.8288618626
 20
352.2700847107
 30
0.0
  0
VERTEX
  5
6CD
  8
0
  6
CONTINUOUS
 62
     7
 10
-1220.9864863457
 20
351.7107845265
 30
0.0
  0
VERTEX
  5
6CE
  8
0
  6
CONTINUOUS
 62
     7
 10
-1221.200884253
 20
351.1800349671
 30
0.0
  0
SEQEND
  5
6CF
  8
0
  6
CONTINUOUS
 62
     7
  0
LINE
  5
1A8
  8
0
  6
CONTINUOUS
 62
     7
 10
-1209.7008832993
 20
354.1800410468
 30
0.0
 11
-1221.200884253
 21
354.1800410468
 31
0.0
  0
LINE
  5
1A9
  8
0
  6
CONTINUOUS
 62
     7
 10
-1209.7008832993
 20
354.1800410468
 30
0.0
 11
-1209.7008832993
 21
351.1800349671
 31
0.0
  0
LINE
  5
1AA
  8
0
  6
CONTINUOUS
 62
     7
 10
-1224.7008987965
 20
350.6800265032
 30
0.0
 11
-1223.2008883061
 21
350.6800265032
 31
0.0
  0
ARC
  5
1AB
  8
0
  6
CONTINUOUS
 62
     7
 10
-1222.7866506938
 20
350.6009957952
 30
0.0
 40
0.4217092034268453
 50
169.1985776801
 51
273.4093067078
  0
POLYLINE
  5
1AC
  8
0
  6
CONTINUOUS
 62
     7
 66
     1
 10
0.0
 20
0.0
 30
0.0
  0
VERTEX
  5
6D0
  8
0
  6
CONTINUOUS
 62
     7
 10
-1221.200884253
 20
352.6800305563
 30
0.0
  0
VERTEX
  5
6D1
  8
0
  6
CONTINUOUS
 62
     7
 10
-1220.9863373341
 20
352.65633771
 30
0.0
  0
VERTEX
  5
6D2
  8
0
  6
CONTINUOUS
 62
     7
 10
-1220.8292492928
 20
352.5777936894
 30
0.0
  0
VERTEX
  5
6D3
  8
0
  6
CONTINUOUS
 62
     7
 10
-1220.7330473961
 20
352.4381847102
 30
0.0
  0
VERTEX
  5
6D4
  8
0
  6
CONTINUOUS
 62
     7
 10
-1220.7008906903
 20
352.2406847197
 30
0.0
  0
VERTEX
  5
6D5
  8
0
  6
CONTINUOUS
 62
     7
 10
-1220.7008906903
 20
352.2406847197
 30
0.0
  0
SEQEND
  5
6D6
  8
0
  6
CONTINUOUS
 62
     7
  0
LINE
  5
1AD
  8
0
  6
CONTINUOUS
 62
     7
 10
-1221.200884253
 20
354.1800410468
 30
0.0
 11
-1221.200884253
 21
352.6800305563
 31
0.0
  0
LINE
  5
1AE
  8
0
  6
CONTINUOUS
 62
     7
 10
-1223.2008883061
 20
-39.3199591917
 30
0.0
 11
-1223.2008883061
 21
-39.8199676555
 31
0.0
  0
LINE
  5
1AF
  8
0
  6
CONTINUOUS
 62
     7
 10
-1223.2008883061
 20
-39.8199676555
 30
0.0
 11
-1224.7008987965
 21
-39.8199676555
 31
0.0
  0
LINE
  5
1B0
  8
0
  6
CONTINUOUS
 62
     7
 10
-1224.7008987965
 20
-39.3199591917
 30
0.0
 11
-1224.7008987965
 21
-39.8199676555
 31
0.0
  0
LINE
  5
1B1
  8
0
  6
CONTINUOUS
 62
     7
 10
-1221.4331337513
 20
-41.3199632448
 30
0.0
 11
-1221.4331337513
 21
-42.8199737352
 31
0.0
  0
LINE
  5
1B2
  8
0
  6
CONTINUOUS
 62
     7
 10
-1221.4331337513
 20
-41.3199632448
 30
0.0
 11
-1221.200884253
 21
-41.3199632448
 31
0.0
  0
LINE
  5
1B3
  8
0
  6
CONTINUOUS
 62
     7
 10
-1221.4331337513
 20
-42.8199737352
 30
0.0
 11
-1221.200884253
 21
-42.8199737352
 31
0.0
  0
LINE
  5
1B4
  8
0
  6
CONTINUOUS
 62
     7
 10
-1221.4331337513
 20
354.1800410468
 30
0.0
 11
-1221.4331337513
 21
352.6800305563
 31
0.0
  0
LINE
  5
1B5
  8
0
  6
CONTINUOUS
 62
     7
 10
-1221.4331337513
 20
354.1800410468
 30
0.0
 11
-1221.200884253
 21
354.1800410468
 31
0.0
  0
LINE
  5
1B6
  8
0
  6
CONTINUOUS
 62
     7
 10
-1221.4331337513
 20
352.6800305563
 30
0.0
 11
-1221.200884253
 21
352.6800305563
 31
0.0
  0
LINE
  5
1B7
  8
0
  6
CONTINUOUS
 62
     7
 10
-1223.2008883061
 20
351.1800349671
 30
0.0
 11
-1224.7008987965
 21
351.1800349671
 31
0.0
  0
LINE
  5
1B8
  8
0
  6
CONTINUOUS
 62
     7
 10
-1224.7008987965
 20
350.6800265032
 30
0.0
 11
-1224.7008987965
 21
351.1800349671
 31
0.0
  0
LINE
  5
1B9
  8
0
  6
CONTINUOUS
 62
     7
 10
-1223.2008883061
 20
350.6800265032
 30
0.0
 11
-1223.2008883061
 21
351.1800349671
 31
0.0
  0
LINE
  5
1BA
  8
0
  6
CONTINUOUS
 62
     7
 10
-1221.700907618
 20
-41.3199632448
 30
0.0
 11
-1221.700907618
 21
-42.8199737352
 31
0.0
  0
LINE
  5
1BB
  8
0
  6
CONTINUOUS
 62
     7
 10
-1221.700907618
 20
-42.8199737352
 30
0.0
 11
-1221.4331337513
 21
-42.8199737352
 31
0.0
  0
LINE
  5
1BC
  8
0
  6
CONTINUOUS
 62
     7
 10
-1221.700907618
 20
-41.3199632448
 30
0.0
 11
-1221.4331337513
 21
-41.3199632448
 31
0.0
  0
LINE
  5
1BD
  8
0
  6
CONTINUOUS
 62
     7
 10
-1221.700907618
 20
354.1800410468
 30
0.0
 11
-1221.4331337513
 21
354.1800410468
 31
0.0
  0
LINE
  5
1BE
  8
0
  6
CONTINUOUS
 62
     7
 10
-1221.700907618
 20
352.6800305563
 30
0.0
 11
-1221.700907618
 21
354.1800410468
 31
0.0
  0
LINE
  5
1BF
  8
0
  6
CONTINUOUS
 62
     7
 10
-1221.700907618
 20
352.6800305563
 30
0.0
 11
-1221.4331337513
 21
352.6800305563
 31
0.0
  0
ARC
  5
1C0
  8
0
  6
CONTINUOUS
 62
     7
 10
-1221.7009157695
 20
-39.819990708
 30
0.0
 40
1.499972536811828
 50
179.9991194445
 51
270.0003113686
  0
ARC
  5
1C1
  8
0
  6
CONTINUOUS
 62
     7
 10
-1221.7008859112
 20
-39.8199608499
 30
0.0
 40
3.00001288533082
 50
180.0001299764
 51
269.9995854322
  0
ARC
  5
1C2
  8
0
  6
CONTINUOUS
 62
     7
 10
-1221.7008859112
 20
351.1800281615
 30
0.0
 40
3.00001288533075
 50
90.0004145678
 51
179.9998700236
  0
ARC
  5
1C3
  8
0
  6
CONTINUOUS
 62
     7
 10
-1221.7009157695
 20
351.1800580196
 30
0.0
 40
1.499972536811828
 50
89.9996886314
 51
180.0008805555
  0
ARC
  5
1C4
  8
0
  6
CONTINUOUS
 62
     7
 10
-1200.0027081066
 20
349.1793265491
 30
0.0
 40
4.999999999972923
 50
90.0
 51
95.7183052343
  0
LINE
  5
1C5
  8
0
  6
CONTINUOUS
 62
     7
 10
-950.500897065
 20
354.179325791
 30
0.0
 11
-1200.0027009549
 21
354.179325791
 31
0.0
  0
LINE
  5
1C6
  8
0
  6
CONTINUOUS
 62
     7
 10
-1200.0027009549
 20
-42.8192584795
 30
0.0
 11
-950.500897065
 21
-42.8192584795
 31
0.0
  0
ARC
  5
1C7
  8
0
  6
CONTINUOUS
 62
     7
 10
-1200.0027081066
 20
-37.8192592374
 30
0.0
 40
5.000000000006445
 50
264.2816947658
 51
270.0
  0
LINE
  5
1C8
  8
0
  6
CONTINUOUS
 62
     7
 10
-1203.399420649
 20
-41.8192564529
 30
0.0
 11
-1203.5008975567
 21
-41.3210659307
 31
0.0
  0
LINE
  5
1C9
  8
0
  6
CONTINUOUS
 62
     7
 10
-1203.5008975567
 20
-41.2761836332
 30
0.0
 11
-1203.5008975567
 21
352.7518094498
 31
0.0
  0
POLYLINE
  5
1CA
  8
0
  6
CONTINUOUS
 62
     7
 66
     1
 10
0.0
 20
0.0
 30
0.0
  0
VERTEX
  5
6D7
  8
0
  6
CONTINUOUS
 62
     7
 10
-1203.5008975567
 20
352.7518094498
 30
0.0
  0
VERTEX
  5
6D8
  8
0
  6
CONTINUOUS
 62
     7
 10
-1203.3235141339
 20
353.2882959563
 30
0.0
  0
VERTEX
  5
6D9
  8
0
  6
CONTINUOUS
 62
     7
 10
-1202.8052517476
 20
353.6841751057
 30
0.0
  0
VERTEX
  5
6DA
  8
0
  6
CONTINUOUS
 62
     7
 10
-1201.9985028805
 20
353.926214667
 30
0.0
  0
VERTEX
  5
6DB
  8
0
  6
CONTINUOUS
 62
     7
 10
-1201.3372489514
 20
354.0420562941
 30
0.0
  0
VERTEX
  5
6DC
  8
0
  6
CONTINUOUS
 62
     7
 10
-1200.5009063782
 20
354.1544408518
 30
0.0
  0
SEQEND
  5
6DD
  8
0
  6
CONTINUOUS
 62
     7
  0
ARC
  5
1CB
  8
0
  6
CONTINUOUS
 62
     7
 10
-1200.6948957162
 20
-38.5755588516
 30
0.0
 40
4.223272337994291
 50
230.1793834207
 51
272.6327173894
  0
LINE
  5
1CC
  8
0
  6
CONTINUOUS
 62
     7
 10
-1200.5009063782
 20
-44.3199693244
 30
0.0
 11
-1200.5009063782
 21
-42.8199737352
 31
0.0
  0
LINE
  5
1CD
  8
0
  6
CONTINUOUS
 62
     7
 10
-1200.0027009549
 20
-44.3199693244
 30
0.0
 11
-1200.5009063782
 21
-44.3199693244
 31
0.0
  0
LINE
  5
1CE
  8
0
  6
CONTINUOUS
 62
     7
 10
-1200.0027009549
 20
-42.8199737352
 30
0.0
 11
-1200.5009063782
 21
-42.8199737352
 31
0.0
  0
LINE
  5
1CF
  8
0
  6
CONTINUOUS
 62
     7
 10
-1200.5009063782
 20
354.1800410468
 30
0.0
 11
-1200.5009063782
 21
355.680036636
 31
0.0
  0
LINE
  5
1D0
  8
0
  6
CONTINUOUS
 62
     7
 10
-1200.5009063782
 20
354.1800410468
 30
0.0
 11
-1200.0027009549
 21
354.1800410468
 31
0.0
  0
LINE
  5
1D1
  8
0
  6
CONTINUOUS
 62
     7
 10
-1200.5009063782
 20
355.680036636
 30
0.0
 11
-1200.0027009549
 21
355.680036636
 31
0.0
  0
LINE
  5
1D2
  8
0
  6
CONTINUOUS
 62
     7
 10
-972.718612224
 20
-44.3199693244
 30
0.0
 11
-1200.0027009549
 21
-44.3199693244
 31
0.0
  0
LINE
  5
1D3
  8
0
  6
CONTINUOUS
 62
     7
 10
-950.500897065
 20
-42.8199737352
 30
0.0
 11
-1200.0027009549
 21
-42.8199737352
 31
0.0
  0
LINE
  5
1D4
  8
0
  6
CONTINUOUS
 62
     7
 10
-1200.0027009549
 20
354.1800410468
 30
0.0
 11
-950.500897065
 21
354.1800410468
 31
0.0
  0
LINE
  5
1D5
  8
0
  6
CONTINUOUS
 62
     7
 10
-1200.0027009549
 20
355.680036636
 30
0.0
 11
-972.718612224
 21
355.680036636
 31
0.0
  0
POLYLINE
  5
1D6
  8
0
  6
CONTINUOUS
 62
     7
 66
     1
 10
0.0
 20
0.0
 30
0.0
  0
VERTEX
  5
6DE
  8
0
  6
CONTINUOUS
 62
     7
 10
-1200.9956249299
 20
-42.7278994602
 30
0.0
  0
VERTEX
  5
6DF
  8
0
  6
CONTINUOUS
 62
     7
 10
-1200.9190627636
 20
-42.7605032009
 30
0.0
  0
VERTEX
  5
6E0
  8
0
  6
CONTINUOUS
 62
     7
 10
-1200.5009063782
 20
-42.8199737352
 30
0.0
  0
SEQEND
  5
6E1
  8
0
  6
CONTINUOUS
 62
     7
  0
ARC
  5
1D7
  8
0
  6
CONTINUOUS
 62
     7
 10
-1200.5008867953
 20
-41.3199585631
 30
0.0
 40
3.000010761448424
 50
180.0000894138
 51
269.9996259949
  0
ARC
  5
1D8
  8
0
  6
CONTINUOUS
 62
     7
 10
-1200.5008825801
 20
352.680003998
 30
0.0
 40
3.000032638153672
 50
90.0004545065
 51
165.053892596
  0
POLYLINE
  5
1D9
  8
0
  6
CONTINUOUS
 62
     7
 66
     1
 10
0.0
 20
0.0
 30
0.0
  0
VERTEX
  5
6E2
  8
0
  6
CONTINUOUS
 62
     7
 10
-1200.5009063782
 20
354.1800410468
 30
0.0
  0
VERTEX
  5
6E3
  8
0
  6
CONTINUOUS
 62
     7
 10
-1200.850040585
 20
354.1388393361
 30
0.0
  0
VERTEX
  5
6E4
  8
0
  6
CONTINUOUS
 62
     7
 10
-1200.9982475342
 20
354.0876091439
 30
0.0
  0
SEQEND
  5
6E5
  8
0
  6
CONTINUOUS
 62
     7
  0
LINE
  5
1DA
  8
0
  6
CONTINUOUS
 62
     7
 10
-1203.399420649
 20
353.453743549
 30
0.0
 11
-1203.5008975567
 21
352.6800305563
 31
0.0
  0
LINE
  5
1DB
  8
0
  6
CONTINUOUS
 62
     7
 10
-1203.5008975567
 20
-41.3199632448
 30
0.0
 11
-1203.5008975567
 21
-41.2761836332
 31
0.0
  0
LINE
  5
1DC
  8
0
  6
CONTINUOUS
 62
     7
 10
-1209.7008832993
 20
332.3121995646
 30
0.0
 11
-1205.4184087815
 21
331.710341664
 31
0.0
  0
LINE
  5
1DD
  8
0
  6
CONTINUOUS
 62
     7
 10
-1205.2096435131
 20
333.1957341153
 30
0.0
 11
-1209.7008832993
 21
333.8269324023
 31
0.0
  0
LINE
  5
1DE
  8
0
  6
CONTINUOUS
 62
     7
 10
-1205.2096435131
 20
333.1957341153
 30
0.0
 11
-1205.4184087815
 21
331.710341664
 31
0.0
  0
LINE
  5
1DF
  8
0
  6
CONTINUOUS
 62
     7
 10
-1209.7008832993
 20
-22.6670621913
 30
0.0
 11
-1205.2096435131
 21
-22.0296650213
 31
0.0
  0
POLYLINE
  5
1E0
  8
0
  6
CONTINUOUS
 62
     7
 66
     1
 10
0.0
 20
0.0
 30
0.0
  0
VERTEX
  5
6E6
  8
0
  6
CONTINUOUS
 62
     7
 10
-1204.0186831059
 20
-22.1873789114
 30
0.0
  0
VERTEX
  5
6E7
  8
0
  6
CONTINUOUS
 62
     7
 10
-1203.6364683213
 20
-22.6978926939
 30
0.0
  0
VERTEX
  5
6E8
  8
0
  6
CONTINUOUS
 62
     7
 10
-1203.5008975567
 20
-23.3210741561
 30
0.0
  0
SEQEND
  5
6E9
  8
0
  6
CONTINUOUS
 62
     7
  0
POLYLINE
  5
1E1
  8
0
  6
CONTINUOUS
 62
     7
 66
     1
 10
0.0
 20
0.0
 30
0.0
  0
VERTEX
  5
6EA
  8
0
  6
CONTINUOUS
 62
     7
 10
-1203.5008975567
 20
334.6811414677
 30
0.0
  0
VERTEX
  5
6EB
  8
0
  6
CONTINUOUS
 62
     7
 10
-1203.6364683213
 20
334.0579600054
 30
0.0
  0
VERTEX
  5
6EC
  8
0
  6
CONTINUOUS
 62
     7
 10
-1204.0186831059
 20
333.5474462229
 30
0.0
  0
SEQEND
  5
6ED
  8
0
  6
CONTINUOUS
 62
     7
  0
POLYLINE
  5
1E2
  8
0
  6
CONTINUOUS
 62
     7
 66
     1
 10
0.0
 20
0.0
 30
0.0
  0
VERTEX
  5
6EE
  8
0
  6
CONTINUOUS
 62
     7
 10
-1203.5008975567
 20
-23.3221768421
 30
0.0
  0
VERTEX
  5
6EF
  8
0
  6
CONTINUOUS
 62
     7
 10
-1203.6364683213
 20
-22.5707112831
 30
0.0
  0
VERTEX
  5
6F0
  8
0
  6
CONTINUOUS
 62
     7
 10
-1204.0186831059
 20
-21.8192606252
 30
0.0
  0
SEQEND
  5
6F1
  8
0
  6
CONTINUOUS
 62
     7
  0
ARC
  5
1E3
  8
0
  6
CONTINUOUS
 62
     7
 10
-1209.6109141217
 20
6.3588453861
 30
0.0
 40
28.7276644738132
 50
278.81280539
 51
281.2250735897
  0
ARC
  5
1E4
  8
0
  6
CONTINUOUS
 62
     7
 10
-1209.6105957657
 20
303.5010178077
 30
0.0
 40
28.72780704301165
 50
78.7756301648
 51
81.1878812198
  0
LINE
  5
1E5
  8
0
  6
CONTINUOUS
 62
     7
 10
-1204.0186831059
 20
331.6793323475
 30
0.0
 11
-1204.0186831059
 21
333.1793279368
 31
0.0
  0
POLYLINE
  5
1E6
  8
0
  6
CONTINUOUS
 62
     7
 66
     1
 10
0.0
 20
0.0
 30
0.0
  0
VERTEX
  5
6F2
  8
0
  6
CONTINUOUS
 62
     7
 10
-1204.0186831059
 20
333.1793279368
 30
0.0
  0
VERTEX
  5
6F3
  8
0
  6
CONTINUOUS
 62
     7
 10
-1203.6364683213
 20
333.9335353095
 30
0.0
  0
VERTEX
  5
6F4
  8
0
  6
CONTINUOUS
 62
     7
 10
-1203.5008975567
 20
334.687727781
 30
0.0
  0
SEQEND
  5
6F5
  8
0
  6
CONTINUOUS
 62
     7
  0
POLYLINE
  5
1E7
  8
0
  6
CONTINUOUS
 62
     7
 66
     1
 10
0.0
 20
0.0
 30
0.0
  0
VERTEX
  5
6F6
  8
0
  6
CONTINUOUS
 62
     7
 10
-1204.2243191304
 20
331.7906440217
 30
0.0
  0
VERTEX
  5
6F7
  8
0
  6
CONTINUOUS
 62
     7
 10
-1204.1512438359
 20
331.7845345456
 30
0.0
  0
VERTEX
  5
6F8
  8
0
  6
CONTINUOUS
 62
     7
 10
-1204.0186831059
 20
331.7727179247
 30
0.0
  0
SEQEND
  5
6F9
  8
0
  6
CONTINUOUS
 62
     7
  0
ARC
  5
1E8
  8
0
  6
CONTINUOUS
 62
     7
 10
-1216.5041432307
 20
120.409267972
 30
0.0
 40
142.8683878538973
 50
274.6182917323
 51
275.0674948524
  0
ARC
  5
1E9
  8
0
  6
CONTINUOUS
 62
     7
 10
-1205.0008934098
 20
334.681127793
 30
0.0
 40
1.499990327777434
 50
262.0003163741
 51
310.9053274725
  0
ARC
  5
1EA
  8
0
  6
CONTINUOUS
 62
     7
 10
-1204.9748652454
 20
334.1972332564
 30
0.0
 40
2.526135519143557
 50
259.8874803182
 51
292.2417765023
  0
POLYLINE
  5
1EB
  8
0
  6
CONTINUOUS
 62
     7
 66
     1
 10
0.0
 20
0.0
 30
0.0
  0
VERTEX
  5
6FA
  8
0
  6
CONTINUOUS
 62
     7
 10
-1204.4207760395
 20
-21.9470231813
 30
0.0
  0
VERTEX
  5
6FB
  8
0
  6
CONTINUOUS
 62
     7
 10
-1204.2810627522
 20
-22.0050781053
 30
0.0
  0
VERTEX
  5
6FC
  8
0
  6
CONTINUOUS
 62
     7
 10
-1204.0186831059
 20
-22.1873789114
 30
0.0
  0
SEQEND
  5
6FD
  8
0
  6
CONTINUOUS
 62
     7
  0
POLYLINE
  5
1EC
  8
0
  6
CONTINUOUS
 62
     7
 66
     1
 10
0.0
 20
0.0
 30
0.0
  0
VERTEX
  5
6FE
  8
0
  6
CONTINUOUS
 62
     7
 10
-1204.4207760395
 20
333.3070904929
 30
0.0
  0
VERTEX
  5
6FF
  8
0
  6
CONTINUOUS
 62
     7
 10
-1204.7798046174
 20
333.3371312338
 30
0.0
  0
VERTEX
  5
700
  8
0
  6
CONTINUOUS
 62
     7
 10
-1205.4184087815
 20
333.3897323329
 30
0.0
  0
SEQEND
  5
701
  8
0
  6
CONTINUOUS
 62
     7
  0
LINE
  5
1ED
  8
0
  6
CONTINUOUS
 62
     7
 10
-1205.2096435131
 20
333.3897323329
 30
0.0
 11
-1205.4184087815
 21
333.3897323329
 31
0.0
  0
LINE
  5
1EE
  8
0
  6
CONTINUOUS
 62
     7
 10
-1204.9979278149
 20
333.3548487145
 30
0.0
 11
-1205.2096435131
 21
333.3897323329
 31
0.0
  0
LINE
  5
1EF
  8
0
  6
CONTINUOUS
 62
     7
 10
-1209.7008832993
 20
333.9975059945
 30
0.0
 11
-1205.4184087815
 21
333.3897323329
 31
0.0
  0
LINE
  5
1F0
  8
0
  6
CONTINUOUS
 62
     7
 10
-1209.7008832993
 20
334.0271295029
 30
0.0
 11
-1205.2096435131
 21
333.3897323329
 31
0.0
  0
LINE
  5
1F1
  8
0
  6
CONTINUOUS
 62
     7
 10
-1203.5008975567
 20
-41.3210659307
 30
0.0
 11
-1203.5008975567
 21
-41.3483499568
 31
0.0
  0
LINE
  5
1F2
  8
0
  6
CONTINUOUS
 62
     7
 10
-1203.5008975567
 20
-41.3483499568
 30
0.0
 11
-1203.5008975567
 21
-41.3917421382
 31
0.0
  0
LINE
  5
1F3
  8
0
  6
CONTINUOUS
 62
     7
 10
-912.7508959996
 20
-44.3199693244
 30
0.0
 11
-909.8008963542
 21
-44.3199693244
 31
0.0
  0
LINE
  5
1F4
  8
0
  6
CONTINUOUS
 62
     7
 10
-909.8008963542
 20
-44.3199693244
 30
0.0
 11
-909.5008959325
 21
-44.6199595016
 31
0.0
  0
LINE
  5
1F5
  8
0
  6
CONTINUOUS
 62
     7
 10
-909.5008959325
 20
-44.6199595016
 30
0.0
 11
-912.7508959996
 21
-44.6199595016
 31
0.0
  0
LINE
  5
1F6
  8
0
  6
CONTINUOUS
 62
     7
 10
-912.7508959996
 20
-48.3199625295
 30
0.0
 11
-948.6986873003
 21
-48.3199625295
 31
0.0
  0
LINE
  5
1F7
  8
0
  6
CONTINUOUS
 62
     7
 10
-948.6986873003
 20
-48.0199723524
 30
0.0
 11
-912.7508959996
 21
-48.0199723524
 31
0.0
  0
LINE
  5
1F8
  8
0
  6
CONTINUOUS
 62
     7
 10
-912.7508959996
 20
-48.0199723524
 30
0.0
 11
-909.5008959325
 21
-48.0199723524
 31
0.0
  0
LINE
  5
1F9
  8
0
  6
CONTINUOUS
 62
     7
 10
-909.5008959325
 20
-44.6199595016
 30
0.0
 11
-909.5008959325
 21
-48.0199723524
 31
0.0
  0
LINE
  5
1FA
  8
0
  6
CONTINUOUS
 62
     7
 10
-912.7508959996
 20
-44.6199595016
 30
0.0
 11
-948.6986873003
 21
-44.6199595016
 31
0.0
  0
LINE
  5
1FB
  8
0
  6
CONTINUOUS
 62
     7
 10
-909.8008963542
 20
-48.3199625295
 30
0.0
 11
-912.7508959996
 21
-48.3199625295
 31
0.0
  0
LINE
  5
1FC
  8
0
  6
CONTINUOUS
 62
     7
 10
-909.8008963542
 20
-48.3199625295
 30
0.0
 11
-909.5008959325
 21
-48.0199723524
 31
0.0
  0
LINE
  5
1FD
  8
0
  6
CONTINUOUS
 62
     7
 10
-948.6986873003
 20
-44.3199693244
 30
0.0
 11
-912.7508959996
 21
-44.3199693244
 31
0.0
  0
LINE
  5
1FE
  8
0
  6
CONTINUOUS
 62
     7
 10
-950.9085350933
 20
-48.0199723524
 30
0.0
 11
-948.6986873003
 21
-48.0199723524
 31
0.0
  0
LINE
  5
1FF
  8
0
  6
CONTINUOUS
 62
     7
 10
-948.6986873003
 20
-44.6199595016
 30
0.0
 11
-950.9085350933
 21
-44.6199595016
 31
0.0
  0
LINE
  5
200
  8
0
  6
CONTINUOUS
 62
     7
 10
-948.6986873003
 20
-48.3199625295
 30
0.0
 11
-950.7045493724
 21
-48.3199625295
 31
0.0
  0
LINE
  5
201
  8
0
  6
CONTINUOUS
 62
     7
 10
-950.7045493724
 20
-44.3199693244
 30
0.0
 11
-948.6986873003
 21
-44.3199693244
 31
0.0
  0
LINE
  5
202
  8
0
  6
CONTINUOUS
 62
     7
 10
-950.9085350933
 20
-44.6199595016
 30
0.0
 11
-983.2605690958
 21
-44.6199595016
 31
0.0
  0
LINE
  5
203
  8
0
  6
CONTINUOUS
 62
     7
 10
-972.718612224
 20
-44.3199693244
 30
0.0
 11
-950.7045493724
 21
-44.3199693244
 31
0.0
  0
LINE
  5
204
  8
0
  6
CONTINUOUS
 62
     7
 10
-983.2605690958
 20
-48.0199723524
 30
0.0
 11
-950.9085350933
 21
-48.0199723524
 31
0.0
  0
LINE
  5
205
  8
0
  6
CONTINUOUS
 62
     7
 10
-950.7045493724
 20
-48.3199625295
 30
0.0
 11
-983.0565833749
 21
-48.3199625295
 31
0.0
  0
LINE
  5
206
  8
0
  6
CONTINUOUS
 62
     7
 10
-985.5008953514
 20
-48.0199723524
 30
0.0
 11
-983.2605690958
 21
-48.0199723524
 31
0.0
  0
LINE
  5
207
  8
0
  6
CONTINUOUS
 62
     7
 10
-983.2605690958
 20
-44.6199595016
 30
0.0
 11
-985.5008953514
 21
-44.6199595016
 31
0.0
  0
LINE
  5
208
  8
0
  6
CONTINUOUS
 62
     7
 10
-983.0565833749
 20
-48.3199625295
 30
0.0
 11
-985.2008977236
 21
-48.3199625295
 31
0.0
  0
LINE
  5
209
  8
0
  6
CONTINUOUS
 62
     7
 10
-912.7508959996
 20
359.6800298411
 30
0.0
 11
-909.8008963542
 21
359.6800298411
 31
0.0
  0
LINE
  5
20A
  8
0
  6
CONTINUOUS
 62
     7
 10
-909.8008963542
 20
359.6800298411
 30
0.0
 11
-909.5008959325
 21
359.3800396639
 31
0.0
  0
LINE
  5
20B
  8
0
  6
CONTINUOUS
 62
     7
 10
-909.5008959325
 20
359.3800396639
 30
0.0
 11
-912.7508959996
 21
359.3800396639
 31
0.0
  0
LINE
  5
20C
  8
0
  6
CONTINUOUS
 62
     7
 10
-948.6986873003
 20
355.9800268132
 30
0.0
 11
-912.7508959996
 21
355.9800268132
 31
0.0
  0
LINE
  5
20D
  8
0
  6
CONTINUOUS
 62
     7
 10
-912.7508959996
 20
359.3800396639
 30
0.0
 11
-948.6986873003
 21
359.3800396639
 31
0.0
  0
LINE
  5
20E
  8
0
  6
CONTINUOUS
 62
     7
 10
-909.8008963542
 20
355.680036636
 30
0.0
 11
-912.7508959996
 21
355.680036636
 31
0.0
  0
LINE
  5
20F
  8
0
  6
CONTINUOUS
 62
     7
 10
-912.7508959996
 20
355.9800268132
 30
0.0
 11
-909.5008959325
 21
355.9800268132
 31
0.0
  0
LINE
  5
210
  8
0
  6
CONTINUOUS
 62
     7
 10
-909.8008963542
 20
355.680036636
 30
0.0
 11
-909.5008959325
 21
355.9800268132
 31
0.0
  0
LINE
  5
211
  8
0
  6
CONTINUOUS
 62
     7
 10
-948.6986873003
 20
359.6800298411
 30
0.0
 11
-912.7508959996
 21
359.6800298411
 31
0.0
  0
LINE
  5
212
  8
0
  6
CONTINUOUS
 62
     7
 10
-912.7508959996
 20
355.680036636
 30
0.0
 11
-948.6986873003
 21
355.680036636
 31
0.0
  0
LINE
  5
213
  8
0
  6
CONTINUOUS
 62
     7
 10
-909.5008959325
 20
359.3800396639
 30
0.0
 11
-909.5008959325
 21
355.9800268132
 31
0.0
  0
LINE
  5
214
  8
0
  6
CONTINUOUS
 62
     7
 10
-950.9085350933
 20
355.9800268132
 30
0.0
 11
-948.6986873003
 21
355.9800268132
 31
0.0
  0
LINE
  5
215
  8
0
  6
CONTINUOUS
 62
     7
 10
-948.6986873003
 20
359.3800396639
 30
0.0
 11
-950.9085350933
 21
359.3800396639
 31
0.0
  0
LINE
  5
216
  8
0
  6
CONTINUOUS
 62
     7
 10
-950.7045493724
 20
359.6800298411
 30
0.0
 11
-948.6986873003
 21
359.6800298411
 31
0.0
  0
LINE
  5
217
  8
0
  6
CONTINUOUS
 62
     7
 10
-948.6986873003
 20
355.680036636
 30
0.0
 11
-950.7045493724
 21
355.680036636
 31
0.0
  0
LINE
  5
218
  8
0
  6
CONTINUOUS
 62
     7
 10
-983.2605690958
 20
355.9800268132
 30
0.0
 11
-950.9085350933
 21
355.9800268132
 31
0.0
  0
LINE
  5
219
  8
0
  6
CONTINUOUS
 62
     7
 10
-950.7045493724
 20
355.680036636
 30
0.0
 11
-972.718612224
 21
355.680036636
 31
0.0
  0
LINE
  5
21A
  8
0
  6
CONTINUOUS
 62
     7
 10
-950.9085350933
 20
359.3800396639
 30
0.0
 11
-983.2605690958
 21
359.3800396639
 31
0.0
  0
LINE
  5
21B
  8
0
  6
CONTINUOUS
 62
     7
 10
-983.0565833749
 20
359.6800298411
 30
0.0
 11
-950.7045493724
 21
359.6800298411
 31
0.0
  0
LINE
  5
21C
  8
0
  6
CONTINUOUS
 62
     7
 10
-985.5008953514
 20
355.9800268132
 30
0.0
 11
-983.2605690958
 21
355.9800268132
 31
0.0
  0
LINE
  5
21D
  8
0
  6
CONTINUOUS
 62
     7
 10
-983.2605690958
 20
359.3800396639
 30
0.0
 11
-985.5008953514
 21
359.3800396639
 31
0.0
  0
LINE
  5
21E
  8
0
  6
CONTINUOUS
 62
     7
 10
-985.2008977236
 20
359.6800298411
 30
0.0
 11
-983.0565833749
 21
359.6800298411
 31
0.0
  0
POLYLINE
  5
21F
  8
0
  6
CONTINUOUS
 62
     7
 66
     1
 10
0.0
 20
0.0
 30
0.0
  0
VERTEX
  5
702
  8
0
  6
CONTINUOUS
 62
     7
 10
-1224.7008987965
 20
172.2481877524
 30
0.0
  0
VERTEX
  5
703
  8
0
  6
CONTINUOUS
 62
     7
 10
-1226.5839585366
 20
171.9328233022
 30
0.0
  0
VERTEX
  5
704
  8
0
  6
CONTINUOUS
 62
     7
 10
-1228.047550589
 20
171.6010955143
 30
0.0
  0
SEQEND
  5
705
  8
0
  6
CONTINUOUS
 62
     7
  0
LINE
  5
220
  8
0
  6
CONTINUOUS
 62
     7
 10
-1224.7008987965
 20
170.6800333205
 30
0.0
 11
-1226.7439374031
 21
170.6800333205
 31
0.0
  0
ARC
  5
221
  8
0
  6
CONTINUOUS
 62
     7
 10
-1226.74387759
 20
169.6800453952
 30
0.0
 40
0.9999869957793878
 50
90.0034270881
 51
170.700576747
  0
ARC
  5
222
  8
0
  6
CONTINUOUS
 62
     7
 10
-1141.2008959389
 20
155.6800336558
 30
0.0
 40
87.68108752478962
 50
170.7052868851
 51
189.2946613374
  0
ARC
  5
223
  8
0
  6
CONTINUOUS
 62
     7
 10
-1226.743897259
 20
141.6799836958
 30
0.0
 40
0.9999487736325148
 50
189.2930205361
 51
270.00111506
  0
LINE
  5
224
  8
0
  6
CONTINUOUS
 62
     7
 10
-1224.7008987965
 20
140.6800339911
 30
0.0
 11
-1226.7438777985
 21
140.6800339911
 31
0.0
  0
LINE
  5
225
  8
0
  6
CONTINUOUS
 62
     7
 10
-1224.7008987965
 20
139.1119056362
 30
0.0
 11
-1224.7008987965
 21
140.6800339911
 31
0.0
  0
POLYLINE
  5
226
  8
0
  6
CONTINUOUS
 62
     7
 66
     1
 10
0.0
 20
0.0
 30
0.0
  0
VERTEX
  5
706
  8
0
  6
CONTINUOUS
 62
     7
 10
-1228.047550589
 20
139.7589736599
 30
0.0
  0
VERTEX
  5
707
  8
0
  6
CONTINUOUS
 62
     7
 10
-1226.1810311379
 20
139.3493407387
 30
0.0
  0
VERTEX
  5
708
  8
0
  6
CONTINUOUS
 62
     7
 10
-1224.7008987965
 20
139.1119056362
 30
0.0
  0
SEQEND
  5
709
  8
0
  6
CONTINUOUS
 62
     7
  0
LINE
  5
227
  8
0
  6
CONTINUOUS
 62
     7
 10
-1225.730479628
 20
170.6800333205
 30
0.0
 11
-1225.730479628
 21
169.6800340879
 31
0.0
  0
LINE
  5
228
  8
0
  6
CONTINUOUS
 62
     7
 10
-1225.730479628
 20
140.6800339911
 30
0.0
 11
-1225.730479628
 21
141.6800332237
 31
0.0
  0
POLYLINE
  5
229
  8
0
  6
CONTINUOUS
 62
     7
 66
     1
 10
0.0
 20
0.0
 30
0.0
  0
VERTEX
  5
70A
  8
0
  6
CONTINUOUS
 62
     7
 10
-1224.7008987965
 20
175.2659858185
 30
0.0
  0
VERTEX
  5
70B
  8
0
  6
CONTINUOUS
 62
     7
 10
-1226.4634081425
 20
175.0017658788
 30
0.0
  0
VERTEX
  5
70C
  8
0
  6
CONTINUOUS
 62
     7
 10
-1227.8361925187
 20
174.7276161778
 30
0.0
  0
SEQEND
  5
70D
  8
0
  6
CONTINUOUS
 62
     7
  0
POLYLINE
  5
22A
  8
0
  6
CONTINUOUS
 62
     7
 66
     1
 10
0.0
 20
0.0
 30
0.0
  0
VERTEX
  5
70E
  8
0
  6
CONTINUOUS
 62
     7
 10
-1228.047550589
 20
171.6010955143
 30
0.0
  0
VERTEX
  5
70F
  8
0
  6
CONTINUOUS
 62
     7
 10
-1228.1006583275
 20
171.6108315605
 30
0.0
  0
VERTEX
  5
710
  8
0
  6
CONTINUOUS
 62
     7
 10
-1228.152007729
 20
171.6202490944
 30
0.0
  0
VERTEX
  5
711
  8
0
  6
CONTINUOUS
 62
     7
 10
-1228.199989468
 20
171.6290407795
 30
0.0
  0
VERTEX
  5
712
  8
0
  6
CONTINUOUS
 62
     7
 10
-1228.2429644169
 20
171.6369216311
 30
0.0
  0
VERTEX
  5
713
  8
0
  6
CONTINUOUS
 62
     7
 10
-1228.2795616688
 20
171.643630879
 30
0.0
  0
VERTEX
  5
714
  8
0
  6
CONTINUOUS
 62
     7
 10
-1228.3085891308
 20
171.6489505935
 30
0.0
  0
VERTEX
  5
715
  8
0
  6
CONTINUOUS
 62
     7
 10
-1228.3290931286
 20
171.6527094114
 30
0.0
  0
VERTEX
  5
716
  8
0
  6
CONTINUOUS
 62
     7
 10
-1228.3403882088
 20
171.6547806728
 30
0.0
  0
SEQEND
  5
717
  8
0
  6
CONTINUOUS
 62
     7
  0
ARC
  5
22B
  8
0
  6
CONTINUOUS
 62
     7
 10
-1238.4032012912
 20
174.0717937909
 30
0.0
 40
10.3490173226725
 50
346.4938336588
 51
2.3635478316
  0
ARC
  5
22C
  8
0
  6
CONTINUOUS
 62
     7
 10
-1227.7690134664
 20
174.4342808698
 30
0.0
 40
0.300925975139016
 50
102.8994713275
 51
167.6610332645
  0
ARC
  5
22D
  8
0
  6
CONTINUOUS
 62
     7
 10
-1237.5285283643
 20
137.3735937711
 30
0.0
 40
9.479383479239782
 50
356.903148544
 51
14.2394699656
  0
POLYLINE
  5
22E
  8
0
  6
CONTINUOUS
 62
     7
 66
     1
 10
0.0
 20
0.0
 30
0.0
  0
VERTEX
  5
718
  8
0
  6
CONTINUOUS
 62
     7
 10
-1228.047550589
 20
139.7589736599
 30
0.0
  0
VERTEX
  5
719
  8
0
  6
CONTINUOUS
 62
     7
 10
-1228.1006583275
 20
139.7492376137
 30
0.0
  0
VERTEX
  5
71A
  8
0
  6
CONTINUOUS
 62
     7
 10
-1228.152007729
 20
139.7398200798
 30
0.0
  0
VERTEX
  5
71B
  8
0
  6
CONTINUOUS
 62
     7
 10
-1228.199989468
 20
139.7310265321
 30
0.0
  0
VERTEX
  5
71C
  8
0
  6
CONTINUOUS
 62
     7
 10
-1228.2429644169
 20
139.7231475431
 30
0.0
  0
VERTEX
  5
71D
  8
0
  6
CONTINUOUS
 62
     7
 10
-1228.2795616688
 20
139.7164382953
 30
0.0
  0
VERTEX
  5
71E
  8
0
  6
CONTINUOUS
 62
     7
 10
-1228.3085891308
 20
139.7111167181
 30
0.0
  0
VERTEX
  5
71F
  8
0
  6
CONTINUOUS
 62
     7
 10
-1228.3290931286
 20
139.7073597628
 30
0.0
  0
VERTEX
  5
720
  8
0
  6
CONTINUOUS
 62
     7
 10
-1228.3403882088
 20
139.7052866388
 30
0.0
  0
SEQEND
  5
721
  8
0
  6
CONTINUOUS
 62
     7
  0
LINE
  5
22F
  8
0
  6
CONTINUOUS
 62
     7
 10
-1229.7870227398
 20
142.9227956552
 30
0.0
 11
-1229.7892281117
 21
142.9840496722
 31
0.0
  0
ARC
  5
230
  8
0
  6
CONTINUOUS
 62
     7
 10
-1230.083987114
 20
168.4800343048
 30
0.0
 40
0.3000274714133917
 50
270.0026800259
 51
351.8057785353
  0
LINE
  5
231
  8
0
  6
CONTINUOUS
 62
     7
 10
-1230.0839730801
 20
143.1800334695
 30
0.0
 11
-1230.0855228009
 21
143.2212482187
 31
0.0
  0
LINE
  5
232
  8
0
  6
CONTINUOUS
 62
     7
 10
-1230.5662938656
 20
150.0960730928
 30
0.0
 11
-1230.5662938656
 21
161.2639998067
 31
0.0
  0
LINE
  5
233
  8
0
  6
CONTINUOUS
 62
     7
 10
-991.251804799
 20
354.179325791
 30
0.0
 11
-991.251804799
 21
354.1800410468
 31
0.0
  0
LINE
  5
234
  8
0
  6
CONTINUOUS
 62
     7
 10
-1025.2517991962
 20
354.1800410468
 30
0.0
 11
-1025.1866736712
 21
354.179325791
 31
0.0
  0
LINE
  5
235
  8
0
  6
CONTINUOUS
 62
     7
 10
-1101.316929728
 20
354.179325791
 30
0.0
 11
-1101.2517967524
 21
354.1800410468
 31
0.0
  0
LINE
  5
236
  8
0
  6
CONTINUOUS
 62
     7
 10
-1135.2518060507
 20
354.1800410468
 30
0.0
 11
-1135.2518060507
 21
354.179325791
 31
0.0
  0
LINE
  5
237
  8
0
  6
CONTINUOUS
 62
     7
 10
-1145.251796514
 20
354.179325791
 30
0.0
 11
-1145.251796514
 21
354.1800410468
 31
0.0
  0
LINE
  5
238
  8
0
  6
CONTINUOUS
 62
     7
 10
-1187.0009013714
 20
-46.3199733776
 30
0.0
 11
-1201.0008999409
 21
-46.3199733776
 31
0.0
  0
LINE
  5
239
  8
0
  6
CONTINUOUS
 62
     7
 10
-1200.5009063782
 20
-44.3199693244
 30
0.0
 11
-1201.0008999409
 21
-44.3199693244
 31
0.0
  0
LINE
  5
23A
  8
0
  6
CONTINUOUS
 62
     7
 10
-1205.5009016098
 20
327.680039497
 30
0.0
 11
-1205.5009016098
 21
272.6800323445
 31
0.0
  0
LINE
  5
23B
  8
0
  6
CONTINUOUS
 62
     7
 10
-1205.5009016098
 20
327.680039497
 30
0.0
 11
-1203.5008975567
 21
327.680039497
 31
0.0
  0
LINE
  5
23C
  8
0
  6
CONTINUOUS
 62
     7
 10
-1205.5009016098
 20
272.6800323445
 30
0.0
 11
-1203.5008975567
 21
272.6800323445
 31
0.0
  0
LINE
  5
23D
  8
0
  6
CONTINUOUS
 62
     7
 10
-1207.7792295517
 20
327.680039497
 30
0.0
 11
-1205.5009016098
 21
327.680039497
 31
0.0
  0
LINE
  5
23E
  8
0
  6
CONTINUOUS
 62
     7
 10
-1207.7792295517
 20
272.6800323445
 30
0.0
 11
-1205.5009016098
 21
272.6800323445
 31
0.0
  0
LINE
  5
23F
  8
0
  6
CONTINUOUS
 62
     7
 10
-1209.7008832993
 20
327.680039497
 30
0.0
 11
-1207.7792295517
 21
327.680039497
 31
0.0
  0
LINE
  5
240
  8
0
  6
CONTINUOUS
 62
     7
 10
-1209.7008832993
 20
272.6800323445
 30
0.0
 11
-1207.7792295517
 21
272.6800323445
 31
0.0
  0
LINE
  5
241
  8
0
  6
CONTINUOUS
 62
     7
 10
-1205.5009016098
 20
38.6800349671
 30
0.0
 11
-1205.5009016098
 21
-16.3199721855
 31
0.0
  0
LINE
  5
242
  8
0
  6
CONTINUOUS
 62
     7
 10
-1205.5009016098
 20
38.6800349671
 30
0.0
 11
-1203.5008975567
 21
38.6800349671
 31
0.0
  0
LINE
  5
243
  8
0
  6
CONTINUOUS
 62
     7
 10
-1205.5009016098
 20
-16.3199721855
 30
0.0
 11
-1203.5008975567
 21
-16.3199721855
 31
0.0
  0
LINE
  5
244
  8
0
  6
CONTINUOUS
 62
     7
 10
-1207.7792295517
 20
38.6800349671
 30
0.0
 11
-1205.5009016098
 21
38.6800349671
 31
0.0
  0
LINE
  5
245
  8
0
  6
CONTINUOUS
 62
     7
 10
-1207.7792295517
 20
-16.3199721855
 30
0.0
 11
-1205.5009016098
 21
-16.3199721855
 31
0.0
  0
LINE
  5
246
  8
0
  6
CONTINUOUS
 62
     7
 10
-1209.7008832993
 20
38.6800349671
 30
0.0
 11
-1207.7792295517
 21
38.6800349671
 31
0.0
  0
LINE
  5
247
  8
0
  6
CONTINUOUS
 62
     7
 10
-1209.7008832993
 20
-16.3199721855
 30
0.0
 11
-1207.7792295517
 21
-16.3199721855
 31
0.0
  0
LINE
  5
248
  8
0
  6
CONTINUOUS
 62
     7
 10
-1205.7209023537
 20
322.6800293643
 30
0.0
 11
-1205.7209023537
 21
317.6800341326
 31
0.0
  0
LINE
  5
249
  8
0
  6
CONTINUOUS
 62
     7
 10
-1206.1209091248
 20
318.0800409037
 30
0.0
 11
-1206.1209091248
 21
322.2800374943
 31
0.0
  0
LINE
  5
24A
  8
0
  6
CONTINUOUS
 62
     7
 10
-1205.7209023537
 20
277.6800350267
 30
0.0
 11
-1205.7209023537
 21
282.6800377089
 31
0.0
  0
LINE
  5
24B
  8
0
  6
CONTINUOUS
 62
     7
 10
-1206.1209091248
 20
278.0800343472
 30
0.0
 11
-1206.1209091248
 21
282.2800309378
 31
0.0
  0
LINE
  5
24C
  8
0
  6
CONTINUOUS
 62
     7
 10
-1205.7209023537
 20
33.6800322849
 30
0.0
 11
-1205.7209023537
 21
28.6800296027
 31
0.0
  0
LINE
  5
24D
  8
0
  6
CONTINUOUS
 62
     7
 10
-1206.1209091248
 20
29.0800363738
 30
0.0
 11
-1206.1209091248
 21
33.2800329644
 31
0.0
  0
LINE
  5
24E
  8
0
  6
CONTINUOUS
 62
     7
 10
-1205.7209023537
 20
-6.319966821
 30
0.0
 11
-1205.7209023537
 21
-11.3199620527
 31
0.0
  0
LINE
  5
24F
  8
0
  6
CONTINUOUS
 62
     7
 10
-1206.1209091248
 20
-10.9199701828
 30
0.0
 11
-1206.1209091248
 21
-6.7199735921
 31
0.0
  0
ARC
  5
250
  8
0
  6
CONTINUOUS
 62
     7
 10
-2042.9212825066
 20
353.1800336558
 30
0.0
 40
2.000000000000227
 50
90.0
 51
180.0
  0
LINE
  5
251
  8
0
  6
CONTINUOUS
 62
     7
 10
-1447.9212682015
 20
355.1800281722
 30
0.0
 11
-2042.9212968117
 21
355.1800281722
 31
0.0
  0
ARC
  5
252
  8
0
  6
CONTINUOUS
 62
     7
 10
-1447.9212825066
 20
353.1800336558
 30
0.0
 40
2.000000000000227
 50
0.0
 51
90.0
  0
ARC
  5
253
  8
0
  6
CONTINUOUS
 62
     7
 10
-1447.9212825066
 20
-41.8199663442
 30
0.0
 40
2.000000000000227
 50
270.0
 51
0.0
  0
LINE
  5
254
  8
0
  6
CONTINUOUS
 62
     7
 10
-2042.9212968117
 20
-43.8199608606
 30
0.0
 11
-1447.9212682015
 21
-43.8199608606
 31
0.0
  0
ARC
  5
255
  8
0
  6
CONTINUOUS
 62
     7
 10
-2042.9212825066
 20
-41.8199663442
 30
0.0
 40
2.000000000000227
 50
180.0
 51
270.0
  0
LINE
  5
256
  8
0
  6
CONTINUOUS
 62
     7
 10
-2044.9212710625
 20
353.1800390202
 30
0.0
 11
-2044.9212710625
 21
-41.8199717086
 31
0.0
  0
LINE
  5
257
  8
0
  6
CONTINUOUS
 62
     7
 10
-1445.9212939507
 20
-41.8199717086
 30
0.0
 11
-1445.9212939507
 21
353.1800390202
 31
0.0
  0
LINE
  5
258
  8
0
  6
CONTINUOUS
 62
     7
 10
-2054.4212679631
 20
355.680036636
 30
0.0
 11
-2054.4212679631
 21
-44.3199693244
 31
0.0
  0
LINE
  5
259
  8
0
  6
CONTINUOUS
 62
     7
 10
-2064.4212882287
 20
-44.3199693244
 30
0.0
 11
-2064.4212882287
 21
355.680036636
 31
0.0
  0
LINE
  5
25A
  8
0
  6
CONTINUOUS
 62
     7
 10
-1426.4212767846
 20
355.680036636
 30
0.0
 11
-1426.4212767846
 21
-44.3199693244
 31
0.0
  0
LINE
  5
25B
  8
0
  6
CONTINUOUS
 62
     7
 10
-1436.4212970502
 20
-44.3199693244
 30
0.0
 11
-1436.4212970502
 21
355.680036636
 31
0.0
  0
POLYLINE
  5
25C
  8
0
  6
CONTINUOUS
 62
     7
 66
     1
 10
0.0
 20
0.0
 30
0.0
  0
VERTEX
  5
722
  8
0
  6
CONTINUOUS
 62
     7
 10
-1445.4212705857
 20
354.179325791
 30
0.0
  0
VERTEX
  5
723
  8
0
  6
CONTINUOUS
 62
     7
 10
-1445.466868139
 20
354.1565419156
 30
0.0
  0
VERTEX
  5
724
  8
0
  6
CONTINUOUS
 62
     7
 10
-1445.6022004849
 20
354.0889055449
 30
0.0
  0
VERTEX
  5
725
  8
0
  6
CONTINUOUS
 62
     7
 10
-1445.8232145077
 20
353.9784581381
 30
0.0
  0
VERTEX
  5
726
  8
0
  6
CONTINUOUS
 62
     7
 10
-1446.0434834725
 20
353.8683832604
 30
0.0
  0
SEQEND
  5
727
  8
0
  6
CONTINUOUS
 62
     7
  0
LINE
  5
25D
  8
0
  6
CONTINUOUS
 62
     7
 10
-1445.4212705857
 20
354.179325791
 30
0.0
 11
-1445.4212705857
 21
-42.8192584795
 31
0.0
  0
POLYLINE
  5
25E
  8
0
  6
CONTINUOUS
 62
     7
 66
     1
 10
0.0
 20
0.0
 30
0.0
  0
VERTEX
  5
728
  8
0
  6
CONTINUOUS
 62
     7
 10
-1446.0434834725
 20
-42.5083159488
 30
0.0
  0
VERTEX
  5
729
  8
0
  6
CONTINUOUS
 62
     7
 10
-1445.8232145077
 20
-42.6183908266
 30
0.0
  0
VERTEX
  5
72A
  8
0
  6
CONTINUOUS
 62
     7
 10
-1445.6022004849
 20
-42.7288382333
 30
0.0
  0
VERTEX
  5
72B
  8
0
  6
CONTINUOUS
 62
     7
 10
-1445.466868139
 20
-42.796474604
 30
0.0
  0
VERTEX
  5
72C
  8
0
  6
CONTINUOUS
 62
     7
 10
-1445.4212705857
 20
-42.8192584795
 30
0.0
  0
SEQEND
  5
72D
  8
0
  6
CONTINUOUS
 62
     7
  0
LINE
  5
25F
  8
0
  6
CONTINUOUS
 62
     7
 10
-1446.1888293988
 20
-42.8192584795
 30
0.0
 11
-1445.4212705857
 21
-42.8192584795
 31
0.0
  0
LINE
  5
260
  8
0
  6
CONTINUOUS
 62
     7
 10
-1446.1888293988
 20
354.179325791
 30
0.0
 11
-1445.4212705857
 21
354.179325791
 31
0.0
  0
POLYLINE
  5
261
  8
0
  6
CONTINUOUS
 62
     7
 66
     1
 10
0.0
 20
0.0
 30
0.0
  0
VERTEX
  5
72E
  8
0
  6
CONTINUOUS
 62
     7
 10
-1446.9219963319
 20
-44.3199693244
 30
0.0
  0
VERTEX
  5
72F
  8
0
  6
CONTINUOUS
 62
     7
 10
-1446.9447653062
 20
-44.2743866724
 30
0.0
  0
VERTEX
  5
730
  8
0
  6
CONTINUOUS
 62
     7
 10
-1447.012416578
 20
-44.1390394252
 30
0.0
  0
VERTEX
  5
731
  8
0
  6
CONTINUOUS
 62
     7
 10
-1447.1228639848
 20
-43.9180403036
 30
0.0
  0
VERTEX
  5
732
  8
0
  6
CONTINUOUS
 62
     7
 10
-1447.2329239613
 20
-43.69778624
 30
0.0
  0
SEQEND
  5
733
  8
0
  6
CONTINUOUS
 62
     7
  0
LINE
  5
262
  8
0
  6
CONTINUOUS
 62
     7
 10
-1446.9219963319
 20
-44.3199693244
 30
0.0
 11
-2043.9205686814
 21
-44.3199693244
 31
0.0
  0
POLYLINE
  5
263
  8
0
  6
CONTINUOUS
 62
     7
 66
     1
 10
0.0
 20
0.0
 30
0.0
  0
VERTEX
  5
734
  8
0
  6
CONTINUOUS
 62
     7
 10
-2043.6096410519
 20
-43.69778624
 30
0.0
  0
VERTEX
  5
735
  8
0
  6
CONTINUOUS
 62
     7
 10
-2043.7197010285
 20
-43.9180403036
 30
0.0
  0
VERTEX
  5
736
  8
0
  6
CONTINUOUS
 62
     7
 10
-2043.8301484353
 20
-44.1390394252
 30
0.0
  0
VERTEX
  5
737
  8
0
  6
CONTINUOUS
 62
     7
 10
-2043.8977997071
 20
-44.2743866724
 30
0.0
  0
VERTEX
  5
738
  8
0
  6
CONTINUOUS
 62
     7
 10
-2043.9205686814
 20
-44.3199693244
 30
0.0
  0
SEQEND
  5
739
  8
0
  6
CONTINUOUS
 62
     7
  0
LINE
  5
264
  8
0
  6
CONTINUOUS
 62
     7
 10
-1446.9219963319
 20
-43.5524254125
 30
0.0
 11
-1446.9219963319
 21
-44.3199693244
 31
0.0
  0
POLYLINE
  5
265
  8
0
  6
CONTINUOUS
 62
     7
 66
     1
 10
0.0
 20
0.0
 30
0.0
  0
VERTEX
  5
73A
  8
0
  6
CONTINUOUS
 62
     7
 10
-1447.2329239613
 20
355.0578535515
 30
0.0
  0
VERTEX
  5
73B
  8
0
  6
CONTINUOUS
 62
     7
 10
-1447.1746604211
 20
355.1744402367
 30
0.0
  0
VERTEX
  5
73C
  8
0
  6
CONTINUOUS
 62
     7
 10
-1447.0361094243
 20
355.4516763407
 30
0.0
  0
VERTEX
  5
73D
  8
0
  6
CONTINUOUS
 62
     7
 10
-1446.9507853753
 20
355.6223840434
 30
0.0
  0
VERTEX
  5
73E
  8
0
  6
CONTINUOUS
 62
     7
 10
-1446.9219963319
 20
355.680036636
 30
0.0
  0
SEQEND
  5
73F
  8
0
  6
CONTINUOUS
 62
     7
  0
LINE
  5
266
  8
0
  6
CONTINUOUS
 62
     7
 10
-1446.9219963319
 20
354.9124927241
 30
0.0
 11
-1446.9219963319
 21
355.680036636
 31
0.0
  0
POLYLINE
  5
267
  8
0
  6
CONTINUOUS
 62
     7
 66
     1
 10
0.0
 20
0.0
 30
0.0
  0
VERTEX
  5
740
  8
0
  6
CONTINUOUS
 62
     7
 10
-2043.9205686814
 20
355.680036636
 30
0.0
  0
VERTEX
  5
741
  8
0
  6
CONTINUOUS
 62
     7
 10
-2043.8977997071
 20
355.6344539839
 30
0.0
  0
VERTEX
  5
742
  8
0
  6
CONTINUOUS
 62
     7
 10
-2043.8301484353
 20
355.4991067368
 30
0.0
  0
VERTEX
  5
743
  8
0
  6
CONTINUOUS
 62
     7
 10
-2043.7197010285
 20
355.2781076151
 30
0.0
  0
VERTEX
  5
744
  8
0
  6
CONTINUOUS
 62
     7
 10
-2043.6096410519
 20
355.0578535515
 30
0.0
  0
SEQEND
  5
745
  8
0
  6
CONTINUOUS
 62
     7
  0
LINE
  5
268
  8
0
  6
CONTINUOUS
 62
     7
 10
-2043.9205686814
 20
355.680036636
 30
0.0
 11
-1446.9219963319
 21
355.680036636
 31
0.0
  0
POLYLINE
  5
269
  8
0
  6
CONTINUOUS
 62
     7
 66
     1
 10
0.0
 20
0.0
 30
0.0
  0
VERTEX
  5
746
  8
0
  6
CONTINUOUS
 62
     7
 10
-2045.4212944276
 20
-42.8192584795
 30
0.0
  0
VERTEX
  5
747
  8
0
  6
CONTINUOUS
 62
     7
 10
-2045.3756968743
 20
-42.796474604
 30
0.0
  0
VERTEX
  5
748
  8
0
  6
CONTINUOUS
 62
     7
 10
-2045.2403645283
 20
-42.7288382333
 30
0.0
  0
VERTEX
  5
749
  8
0
  6
CONTINUOUS
 62
     7
 10
-2045.0193505055
 20
-42.6183908266
 30
0.0
  0
VERTEX
  5
74A
  8
0
  6
CONTINUOUS
 62
     7
 10
-2044.7990815407
 20
-42.5083159488
 30
0.0
  0
SEQEND
  5
74B
  8
0
  6
CONTINUOUS
 62
     7
  0
LINE
  5
26A
  8
0
  6
CONTINUOUS
 62
     7
 10
-2045.4212944276
 20
-42.8192584795
 30
0.0
 11
-2045.4212944276
 21
354.179325791
 31
0.0
  0
POLYLINE
  5
26B
  8
0
  6
CONTINUOUS
 62
     7
 66
     1
 10
0.0
 20
0.0
 30
0.0
  0
VERTEX
  5
74C
  8
0
  6
CONTINUOUS
 62
     7
 10
-2044.7990815407
 20
353.8683832604
 30
0.0
  0
VERTEX
  5
74D
  8
0
  6
CONTINUOUS
 62
     7
 10
-2044.9156980283
 20
353.9266468007
 30
0.0
  0
VERTEX
  5
74E
  8
0
  6
CONTINUOUS
 62
     7
 10
-2045.1929192311
 20
354.0651977974
 30
0.0
  0
VERTEX
  5
74F
  8
0
  6
CONTINUOUS
 62
     7
 10
-2045.3636269337
 20
354.1505218464
 30
0.0
  0
VERTEX
  5
750
  8
0
  6
CONTINUOUS
 62
     7
 10
-2045.4212944276
 20
354.179325791
 30
0.0
  0
SEQEND
  5
751
  8
0
  6
CONTINUOUS
 62
     7
  0
LINE
  5
26C
  8
0
  6
CONTINUOUS
 62
     7
 10
-2044.6537356145
 20
-42.8192584795
 30
0.0
 11
-2045.4212944276
 21
-42.8192584795
 31
0.0
  0
LINE
  5
26D
  8
0
  6
CONTINUOUS
 62
     7
 10
-2044.6537356145
 20
354.179325791
 30
0.0
 11
-2045.4212944276
 21
354.179325791
 31
0.0
  0
LINE
  5
26E
  8
0
  6
CONTINUOUS
 62
     7
 10
-2043.9205686814
 20
354.9124927241
 30
0.0
 11
-2043.9205686814
 21
355.680036636
 31
0.0
  0
LINE
  5
26F
  8
0
  6
CONTINUOUS
 62
     7
 10
-2043.9205686814
 20
-43.5524254125
 30
0.0
 11
-2043.9205686814
 21
-44.3199693244
 31
0.0
  0
LINE
  5
270
  8
0
  6
CONTINUOUS
 62
     7
 10
-1428.6712925202
 20
-44.3199693244
 30
0.0
 11
-1425.7212798363
 21
-44.3199693244
 31
0.0
  0
LINE
  5
271
  8
0
  6
CONTINUOUS
 62
     7
 10
-1425.7212798363
 20
-44.3199693244
 30
0.0
 11
-1425.4212896592
 21
-44.6199595016
 31
0.0
  0
LINE
  5
272
  8
0
  6
CONTINUOUS
 62
     7
 10
-1425.4212896592
 20
-44.6199595016
 30
0.0
 11
-1428.6712925202
 21
-44.6199595016
 31
0.0
  0
LINE
  5
273
  8
0
  6
CONTINUOUS
 62
     7
 10
-1425.7212798363
 20
-48.3199625295
 30
0.0
 11
-1428.6712925202
 21
-48.3199625295
 31
0.0
  0
LINE
  5
274
  8
0
  6
CONTINUOUS
 62
     7
 10
-1428.6712925202
 20
-48.0199723524
 30
0.0
 11
-1425.4212896592
 21
-48.0199723524
 31
0.0
  0
LINE
  5
275
  8
0
  6
CONTINUOUS
 62
     7
 10
-1425.7212798363
 20
-48.3199625295
 30
0.0
 11
-1425.4212896592
 21
-48.0199723524
 31
0.0
  0
LINE
  5
276
  8
0
  6
CONTINUOUS
 62
     7
 10
-1425.4212896592
 20
-44.6199595016
 30
0.0
 11
-1425.4212896592
 21
-48.0199723524
 31
0.0
  0
LINE
  5
277
  8
0
  6
CONTINUOUS
 62
     7
 10
-1428.6712925202
 20
-48.3199625295
 30
0.0
 11
-1434.1712813145
 21
-48.3199625295
 31
0.0
  0
LINE
  5
278
  8
0
  6
CONTINUOUS
 62
     7
 10
-1434.1712813145
 20
-48.0199723524
 30
0.0
 11
-1428.6712925202
 21
-48.0199723524
 31
0.0
  0
LINE
  5
279
  8
0
  6
CONTINUOUS
 62
     7
 10
-1428.6712925202
 20
-44.6199595016
 30
0.0
 11
-1434.1712813145
 21
-44.6199595016
 31
0.0
  0
LINE
  5
27A
  8
0
  6
CONTINUOUS
 62
     7
 10
-1434.1712813145
 20
-44.3199693244
 30
0.0
 11
-1428.6712925202
 21
-44.3199693244
 31
0.0
  0
LINE
  5
27B
  8
0
  6
CONTINUOUS
 62
     7
 10
-1437.1212939984
 20
-44.3199693244
 30
0.0
 11
-1434.1712813145
 21
-44.3199693244
 31
0.0
  0
LINE
  5
27C
  8
0
  6
CONTINUOUS
 62
     7
 10
-1434.1712813145
 20
-44.6199595016
 30
0.0
 11
-1437.4212841756
 21
-44.6199595016
 31
0.0
  0
LINE
  5
27D
  8
0
  6
CONTINUOUS
 62
     7
 10
-1437.1212939984
 20
-44.3199693244
 30
0.0
 11
-1437.4212841756
 21
-44.6199595016
 31
0.0
  0
LINE
  5
27E
  8
0
  6
CONTINUOUS
 62
     7
 10
-1434.1712813145
 20
-48.3199625295
 30
0.0
 11
-1437.1212939984
 21
-48.3199625295
 31
0.0
  0
LINE
  5
27F
  8
0
  6
CONTINUOUS
 62
     7
 10
-1437.4212841756
 20
-48.0199723524
 30
0.0
 11
-1437.1212939984
 21
-48.3199625295
 31
0.0
  0
LINE
  5
280
  8
0
  6
CONTINUOUS
 62
     7
 10
-1437.4212841756
 20
-48.0199723524
 30
0.0
 11
-1434.1712813145
 21
-48.0199723524
 31
0.0
  0
LINE
  5
281
  8
0
  6
CONTINUOUS
 62
     7
 10
-1437.4212841756
 20
-48.0199723524
 30
0.0
 11
-1437.4212841756
 21
-44.6199595016
 31
0.0
  0
LINE
  5
282
  8
0
  6
CONTINUOUS
 62
     7
 10
-1437.4212841756
 20
-44.6199595016
 30
0.0
 11
-1438.2882039315
 21
-44.6199595016
 31
0.0
  0
LINE
  5
283
  8
0
  6
CONTINUOUS
 62
     7
 10
-1438.06823299
 20
-44.3199693244
 30
0.0
 11
-1437.1212939984
 21
-44.3199693244
 31
0.0
  0
LINE
  5
284
  8
0
  6
CONTINUOUS
 62
     7
 10
-1438.2882039315
 20
-48.0199723524
 30
0.0
 11
-1437.4212841756
 21
-48.0199723524
 31
0.0
  0
LINE
  5
285
  8
0
  6
CONTINUOUS
 62
     7
 10
-1437.1212939984
 20
-48.3199625295
 30
0.0
 11
-1438.06823299
 21
-48.3199625295
 31
0.0
  0
LINE
  5
286
  8
0
  6
CONTINUOUS
 62
     7
 10
-1466.5540675885
 20
-48.0199723524
 30
0.0
 11
-1438.2882039315
 21
-48.0199723524
 31
0.0
  0
LINE
  5
287
  8
0
  6
CONTINUOUS
 62
     7
 10
-1438.06823299
 20
-48.3199625295
 30
0.0
 11
-1466.334096647
 21
-48.3199625295
 31
0.0
  0
LINE
  5
288
  8
0
  6
CONTINUOUS
 62
     7
 10
-1438.2882039315
 20
-44.6199595016
 30
0.0
 11
-1466.5540675885
 21
-44.6199595016
 31
0.0
  0
LINE
  5
289
  8
0
  6
CONTINUOUS
 62
     7
 10
-1446.9219963319
 20
-44.3199693244
 30
0.0
 11
-1438.06823299
 21
-44.3199693244
 31
0.0
  0
LINE
  5
28A
  8
0
  6
CONTINUOUS
 62
     7
 10
-1468.4212724931
 20
-48.0199723524
 30
0.0
 11
-1466.5540675885
 21
-48.0199723524
 31
0.0
  0
LINE
  5
28B
  8
0
  6
CONTINUOUS
 62
     7
 10
-1468.4212724931
 20
-48.0199723524
 30
0.0
 11
-1468.1212823159
 21
-48.3199625295
 31
0.0
  0
LINE
  5
28C
  8
0
  6
CONTINUOUS
 62
     7
 10
-1466.334096647
 20
-48.3199625295
 30
0.0
 11
-1468.1212823159
 21
-48.3199625295
 31
0.0
  0
LINE
  5
28D
  8
0
  6
CONTINUOUS
 62
     7
 10
-1466.5540675885
 20
-44.6199595016
 30
0.0
 11
-1468.4212724931
 21
-44.6199595016
 31
0.0
  0
LINE
  5
28E
  8
0
  6
CONTINUOUS
 62
     7
 10
-1468.4212724931
 20
-44.6199595016
 30
0.0
 11
-1468.1212823159
 21
-44.3199693244
 31
0.0
  0
LINE
  5
28F
  8
0
  6
CONTINUOUS
 62
     7
 10
-1468.4212724931
 20
-48.0199723524
 30
0.0
 11
-1468.4212724931
 21
-44.6199595016
 31
0.0
  0
LINE
  5
290
  8
0
  6
CONTINUOUS
 62
     7
 10
-2056.6712836987
 20
-44.3199693244
 30
0.0
 11
-2053.7212710149
 21
-44.3199693244
 31
0.0
  0
LINE
  5
291
  8
0
  6
CONTINUOUS
 62
     7
 10
-2053.4212808377
 20
-44.6199595016
 30
0.0
 11
-2053.7212710149
 21
-44.3199693244
 31
0.0
  0
LINE
  5
292
  8
0
  6
CONTINUOUS
 62
     7
 10
-2053.4212808377
 20
-44.6199595016
 30
0.0
 11
-2056.6712836987
 21
-44.6199595016
 31
0.0
  0
LINE
  5
293
  8
0
  6
CONTINUOUS
 62
     7
 10
-2056.6712836987
 20
-48.0199723524
 30
0.0
 11
-2053.4212808377
 21
-48.0199723524
 31
0.0
  0
LINE
  5
294
  8
0
  6
CONTINUOUS
 62
     7
 10
-2053.4212808377
 20
-44.6199595016
 30
0.0
 11
-2053.4212808377
 21
-48.0199723524
 31
0.0
  0
LINE
  5
295
  8
0
  6
CONTINUOUS
 62
     7
 10
-2053.7212710149
 20
-48.3199625295
 30
0.0
 11
-2056.6712836987
 21
-48.3199625295
 31
0.0
  0
LINE
  5
296
  8
0
  6
CONTINUOUS
 62
     7
 10
-2053.7212710149
 20
-48.3199625295
 30
0.0
 11
-2053.4212808377
 21
-48.0199723524
 31
0.0
  0
LINE
  5
297
  8
0
  6
CONTINUOUS
 62
     7
 10
-2062.1712724931
 20
-48.0199723524
 30
0.0
 11
-2056.6712836987
 21
-48.0199723524
 31
0.0
  0
LINE
  5
298
  8
0
  6
CONTINUOUS
 62
     7
 10
-2056.6712836987
 20
-44.6199595016
 30
0.0
 11
-2062.1712724931
 21
-44.6199595016
 31
0.0
  0
LINE
  5
299
  8
0
  6
CONTINUOUS
 62
     7
 10
-2062.1712724931
 20
-44.3199693244
 30
0.0
 11
-2056.6712836987
 21
-44.3199693244
 31
0.0
  0
LINE
  5
29A
  8
0
  6
CONTINUOUS
 62
     7
 10
-2056.6712836987
 20
-48.3199625295
 30
0.0
 11
-2062.1712724931
 21
-48.3199625295
 31
0.0
  0
LINE
  5
29B
  8
0
  6
CONTINUOUS
 62
     7
 10
-2062.1712724931
 20
-48.3199625295
 30
0.0
 11
-2065.1212851769
 21
-48.3199625295
 31
0.0
  0
LINE
  5
29C
  8
0
  6
CONTINUOUS
 62
     7
 10
-2065.1212851769
 20
-48.3199625295
 30
0.0
 11
-2065.4212753541
 21
-48.0199723524
 31
0.0
  0
LINE
  5
29D
  8
0
  6
CONTINUOUS
 62
     7
 10
-2065.4212753541
 20
-48.0199723524
 30
0.0
 11
-2062.1712724931
 21
-48.0199723524
 31
0.0
  0
LINE
  5
29E
  8
0
  6
CONTINUOUS
 62
     7
 10
-2065.4212753541
 20
-48.0199723524
 30
0.0
 11
-2065.4212753541
 21
-44.6199595016
 31
0.0
  0
LINE
  5
29F
  8
0
  6
CONTINUOUS
 62
     7
 10
-2062.1712724931
 20
-44.6199595016
 30
0.0
 11
-2065.4212753541
 21
-44.6199595016
 31
0.0
  0
LINE
  5
2A0
  8
0
  6
CONTINUOUS
 62
     7
 10
-2065.1212851769
 20
-44.3199693244
 30
0.0
 11
-2062.1712724931
 21
-44.3199693244
 31
0.0
  0
LINE
  5
2A1
  8
0
  6
CONTINUOUS
 62
     7
 10
-2065.1212851769
 20
-44.3199693244
 30
0.0
 11
-2065.4212753541
 21
-44.6199595016
 31
0.0
  0
LINE
  5
2A2
  8
0
  6
CONTINUOUS
 62
     7
 10
-2053.4212808377
 20
-48.0199723524
 30
0.0
 11
-2052.5543610818
 21
-48.0199723524
 31
0.0
  0
LINE
  5
2A3
  8
0
  6
CONTINUOUS
 62
     7
 10
-2052.7743320233
 20
-48.3199625295
 30
0.0
 11
-2053.7212710149
 21
-48.3199625295
 31
0.0
  0
LINE
  5
2A4
  8
0
  6
CONTINUOUS
 62
     7
 10
-2052.5543610818
 20
-44.6199595016
 30
0.0
 11
-2053.4212808377
 21
-44.6199595016
 31
0.0
  0
LINE
  5
2A5
  8
0
  6
CONTINUOUS
 62
     7
 10
-2053.7212710149
 20
-44.3199693244
 30
0.0
 11
-2052.7743320233
 21
-44.3199693244
 31
0.0
  0
LINE
  5
2A6
  8
0
  6
CONTINUOUS
 62
     7
 10
-2024.2884974248
 20
-44.6199595016
 30
0.0
 11
-2052.5543610818
 21
-44.6199595016
 31
0.0
  0
LINE
  5
2A7
  8
0
  6
CONTINUOUS
 62
     7
 10
-2052.7743320233
 20
-44.3199693244
 30
0.0
 11
-2043.9205686814
 21
-44.3199693244
 31
0.0
  0
LINE
  5
2A8
  8
0
  6
CONTINUOUS
 62
     7
 10
-2052.5543610818
 20
-48.0199723524
 30
0.0
 11
-2024.2884974248
 21
-48.0199723524
 31
0.0
  0
LINE
  5
2A9
  8
0
  6
CONTINUOUS
 62
     7
 10
-2024.5084683663
 20
-48.3199625295
 30
0.0
 11
-2052.7743320233
 21
-48.3199625295
 31
0.0
  0
LINE
  5
2AA
  8
0
  6
CONTINUOUS
 62
     7
 10
-2024.2884974248
 20
-48.0199723524
 30
0.0
 11
-2022.4212925202
 21
-48.0199723524
 31
0.0
  0
LINE
  5
2AB
  8
0
  6
CONTINUOUS
 62
     7
 10
-2022.4212925202
 20
-48.0199723524
 30
0.0
 11
-2022.7212826974
 21
-48.3199625295
 31
0.0
  0
LINE
  5
2AC
  8
0
  6
CONTINUOUS
 62
     7
 10
-2022.7212826974
 20
-48.3199625295
 30
0.0
 11
-2024.5084683663
 21
-48.3199625295
 31
0.0
  0
LINE
  5
2AD
  8
0
  6
CONTINUOUS
 62
     7
 10
-2022.4212925202
 20
-44.6199595016
 30
0.0
 11
-2024.2884974248
 21
-44.6199595016
 31
0.0
  0
LINE
  5
2AE
  8
0
  6
CONTINUOUS
 62
     7
 10
-2022.4212925202
 20
-44.6199595016
 30
0.0
 11
-2022.4212925202
 21
-48.0199723524
 31
0.0
  0
LINE
  5
2AF
  8
0
  6
CONTINUOUS
 62
     7
 10
-2022.4212925202
 20
-44.6199595016
 30
0.0
 11
-2022.7212826974
 21
-44.3199693244
 31
0.0
  0
LINE
  5
2B0
  8
0
  6
CONTINUOUS
 62
     7
 10
-2056.6712836987
 20
355.9800268132
 30
0.0
 11
-2053.4212808377
 21
355.9800268132
 31
0.0
  0
LINE
  5
2B1
  8
0
  6
CONTINUOUS
 62
     7
 10
-2053.4212808377
 20
359.3800396639
 30
0.0
 11
-2056.6712836987
 21
359.3800396639
 31
0.0
  0
LINE
  5
2B2
  8
0
  6
CONTINUOUS
 62
     7
 10
-2053.4212808377
 20
359.3800396639
 30
0.0
 11
-2053.4212808377
 21
355.9800268132
 31
0.0
  0
LINE
  5
2B3
  8
0
  6
CONTINUOUS
 62
     7
 10
-2056.6712836987
 20
359.6800298411
 30
0.0
 11
-2053.7212710149
 21
359.6800298411
 31
0.0
  0
LINE
  5
2B4
  8
0
  6
CONTINUOUS
 62
     7
 10
-2053.4212808377
 20
359.3800396639
 30
0.0
 11
-2053.7212710149
 21
359.6800298411
 31
0.0
  0
LINE
  5
2B5
  8
0
  6
CONTINUOUS
 62
     7
 10
-2053.7212710149
 20
355.680036636
 30
0.0
 11
-2056.6712836987
 21
355.680036636
 31
0.0
  0
LINE
  5
2B6
  8
0
  6
CONTINUOUS
 62
     7
 10
-2053.7212710149
 20
355.680036636
 30
0.0
 11
-2053.4212808377
 21
355.9800268132
 31
0.0
  0
LINE
  5
2B7
  8
0
  6
CONTINUOUS
 62
     7
 10
-2056.6712836987
 20
355.680036636
 30
0.0
 11
-2062.1712724931
 21
355.680036636
 31
0.0
  0
LINE
  5
2B8
  8
0
  6
CONTINUOUS
 62
     7
 10
-2062.1712724931
 20
355.9800268132
 30
0.0
 11
-2056.6712836987
 21
355.9800268132
 31
0.0
  0
LINE
  5
2B9
  8
0
  6
CONTINUOUS
 62
     7
 10
-2056.6712836987
 20
359.3800396639
 30
0.0
 11
-2062.1712724931
 21
359.3800396639
 31
0.0
  0
LINE
  5
2BA
  8
0
  6
CONTINUOUS
 62
     7
 10
-2062.1712724931
 20
359.6800298411
 30
0.0
 11
-2056.6712836987
 21
359.6800298411
 31
0.0
  0
LINE
  5
2BB
  8
0
  6
CONTINUOUS
 62
     7
 10
-2065.4212753541
 20
355.9800268132
 30
0.0
 11
-2062.1712724931
 21
355.9800268132
 31
0.0
  0
LINE
  5
2BC
  8
0
  6
CONTINUOUS
 62
     7
 10
-2065.4212753541
 20
355.9800268132
 30
0.0
 11
-2065.4212753541
 21
359.3800396639
 31
0.0
  0
LINE
  5
2BD
  8
0
  6
CONTINUOUS
 62
     7
 10
-2062.1712724931
 20
359.3800396639
 30
0.0
 11
-2065.4212753541
 21
359.3800396639
 31
0.0
  0
LINE
  5
2BE
  8
0
  6
CONTINUOUS
 62
     7
 10
-2065.1212851769
 20
359.6800298411
 30
0.0
 11
-2062.1712724931
 21
359.6800298411
 31
0.0
  0
LINE
  5
2BF
  8
0
  6
CONTINUOUS
 62
     7
 10
-2065.1212851769
 20
359.6800298411
 30
0.0
 11
-2065.4212753541
 21
359.3800396639
 31
0.0
  0
LINE
  5
2C0
  8
0
  6
CONTINUOUS
 62
     7
 10
-2062.1712724931
 20
355.680036636
 30
0.0
 11
-2065.1212851769
 21
355.680036636
 31
0.0
  0
LINE
  5
2C1
  8
0
  6
CONTINUOUS
 62
     7
 10
-2065.1212851769
 20
355.680036636
 30
0.0
 11
-2065.4212753541
 21
355.9800268132
 31
0.0
  0
LINE
  5
2C2
  8
0
  6
CONTINUOUS
 62
     7
 10
-2053.4212808377
 20
355.9800268132
 30
0.0
 11
-2052.5543610818
 21
355.9800268132
 31
0.0
  0
LINE
  5
2C3
  8
0
  6
CONTINUOUS
 62
     7
 10
-2052.7743320233
 20
355.680036636
 30
0.0
 11
-2053.7212710149
 21
355.680036636
 31
0.0
  0
LINE
  5
2C4
  8
0
  6
CONTINUOUS
 62
     7
 10
-2052.5543610818
 20
359.3800396639
 30
0.0
 11
-2053.4212808377
 21
359.3800396639
 31
0.0
  0
LINE
  5
2C5
  8
0
  6
CONTINUOUS
 62
     7
 10
-2053.7212710149
 20
359.6800298411
 30
0.0
 11
-2052.7743320233
 21
359.6800298411
 31
0.0
  0
LINE
  5
2C6
  8
0
  6
CONTINUOUS
 62
     7
 10
-2024.2884974248
 20
359.3800396639
 30
0.0
 11
-2052.5543610818
 21
359.3800396639
 31
0.0
  0
LINE
  5
2C7
  8
0
  6
CONTINUOUS
 62
     7
 10
-2052.7743320233
 20
359.6800298411
 30
0.0
 11
-2024.5084683663
 21
359.6800298411
 31
0.0
  0
LINE
  5
2C8
  8
0
  6
CONTINUOUS
 62
     7
 10
-2052.5543610818
 20
355.9800268132
 30
0.0
 11
-2024.2884974248
 21
355.9800268132
 31
0.0
  0
LINE
  5
2C9
  8
0
  6
CONTINUOUS
 62
     7
 10
-2043.9205686814
 20
355.680036636
 30
0.0
 11
-2052.7743320233
 21
355.680036636
 31
0.0
  0
LINE
  5
2CA
  8
0
  6
CONTINUOUS
 62
     7
 10
-2022.4212925202
 20
359.3800396639
 30
0.0
 11
-2024.2884974248
 21
359.3800396639
 31
0.0
  0
LINE
  5
2CB
  8
0
  6
CONTINUOUS
 62
     7
 10
-2022.4212925202
 20
359.3800396639
 30
0.0
 11
-2022.7212826974
 21
359.6800298411
 31
0.0
  0
LINE
  5
2CC
  8
0
  6
CONTINUOUS
 62
     7
 10
-2024.5084683663
 20
359.6800298411
 30
0.0
 11
-2022.7212826974
 21
359.6800298411
 31
0.0
  0
LINE
  5
2CD
  8
0
  6
CONTINUOUS
 62
     7
 10
-2024.2884974248
 20
355.9800268132
 30
0.0
 11
-2022.4212925202
 21
355.9800268132
 31
0.0
  0
LINE
  5
2CE
  8
0
  6
CONTINUOUS
 62
     7
 10
-2022.4212925202
 20
355.9800268132
 30
0.0
 11
-2022.7212826974
 21
355.680036636
 31
0.0
  0
LINE
  5
2CF
  8
0
  6
CONTINUOUS
 62
     7
 10
-2022.4212925202
 20
359.3800396639
 30
0.0
 11
-2022.4212925202
 21
355.9800268132
 31
0.0
  0
LINE
  5
2D0
  8
0
  6
CONTINUOUS
 62
     7
 10
-1425.4212896592
 20
359.3800396639
 30
0.0
 11
-1428.6712925202
 21
359.3800396639
 31
0.0
  0
LINE
  5
2D1
  8
0
  6
CONTINUOUS
 62
     7
 10
-1425.4212896592
 20
359.3800396639
 30
0.0
 11
-1425.4212896592
 21
355.9800268132
 31
0.0
  0
LINE
  5
2D2
  8
0
  6
CONTINUOUS
 62
     7
 10
-1428.6712925202
 20
355.9800268132
 30
0.0
 11
-1425.4212896592
 21
355.9800268132
 31
0.0
  0
LINE
  5
2D3
  8
0
  6
CONTINUOUS
 62
     7
 10
-1425.7212798363
 20
355.680036636
 30
0.0
 11
-1428.6712925202
 21
355.680036636
 31
0.0
  0
LINE
  5
2D4
  8
0
  6
CONTINUOUS
 62
     7
 10
-1425.7212798363
 20
355.680036636
 30
0.0
 11
-1425.4212896592
 21
355.9800268132
 31
0.0
  0
LINE
  5
2D5
  8
0
  6
CONTINUOUS
 62
     7
 10
-1428.6712925202
 20
359.6800298411
 30
0.0
 11
-1425.7212798363
 21
359.6800298411
 31
0.0
  0
LINE
  5
2D6
  8
0
  6
CONTINUOUS
 62
     7
 10
-1425.7212798363
 20
359.6800298411
 30
0.0
 11
-1425.4212896592
 21
359.3800396639
 31
0.0
  0
LINE
  5
2D7
  8
0
  6
CONTINUOUS
 62
     7
 10
-1434.1712813145
 20
359.6800298411
 30
0.0
 11
-1428.6712925202
 21
359.6800298411
 31
0.0
  0
LINE
  5
2D8
  8
0
  6
CONTINUOUS
 62
     7
 10
-1428.6712925202
 20
359.3800396639
 30
0.0
 11
-1434.1712813145
 21
359.3800396639
 31
0.0
  0
LINE
  5
2D9
  8
0
  6
CONTINUOUS
 62
     7
 10
-1434.1712813145
 20
355.9800268132
 30
0.0
 11
-1428.6712925202
 21
355.9800268132
 31
0.0
  0
LINE
  5
2DA
  8
0
  6
CONTINUOUS
 62
     7
 10
-1428.6712925202
 20
355.680036636
 30
0.0
 11
-1434.1712813145
 21
355.680036636
 31
0.0
  0
LINE
  5
2DB
  8
0
  6
CONTINUOUS
 62
     7
 10
-1437.1212939984
 20
359.6800298411
 30
0.0
 11
-1434.1712813145
 21
359.6800298411
 31
0.0
  0
LINE
  5
2DC
  8
0
  6
CONTINUOUS
 62
     7
 10
-1434.1712813145
 20
359.3800396639
 30
0.0
 11
-1437.4212841756
 21
359.3800396639
 31
0.0
  0
LINE
  5
2DD
  8
0
  6
CONTINUOUS
 62
     7
 10
-1437.1212939984
 20
359.6800298411
 30
0.0
 11
-1437.4212841756
 21
359.3800396639
 31
0.0
  0
LINE
  5
2DE
  8
0
  6
CONTINUOUS
 62
     7
 10
-1437.4212841756
 20
355.9800268132
 30
0.0
 11
-1434.1712813145
 21
355.9800268132
 31
0.0
  0
LINE
  5
2DF
  8
0
  6
CONTINUOUS
 62
     7
 10
-1437.4212841756
 20
355.9800268132
 30
0.0
 11
-1437.4212841756
 21
359.3800396639
 31
0.0
  0
LINE
  5
2E0
  8
0
  6
CONTINUOUS
 62
     7
 10
-1434.1712813145
 20
355.680036636
 30
0.0
 11
-1437.1212939984
 21
355.680036636
 31
0.0
  0
LINE
  5
2E1
  8
0
  6
CONTINUOUS
 62
     7
 10
-1437.4212841756
 20
355.9800268132
 30
0.0
 11
-1437.1212939984
 21
355.680036636
 31
0.0
  0
LINE
  5
2E2
  8
0
  6
CONTINUOUS
 62
     7
 10
-1437.4212841756
 20
359.3800396639
 30
0.0
 11
-1438.2882039315
 21
359.3800396639
 31
0.0
  0
LINE
  5
2E3
  8
0
  6
CONTINUOUS
 62
     7
 10
-1438.06823299
 20
359.6800298411
 30
0.0
 11
-1437.1212939984
 21
359.6800298411
 31
0.0
  0
LINE
  5
2E4
  8
0
  6
CONTINUOUS
 62
     7
 10
-1438.2882039315
 20
355.9800268132
 30
0.0
 11
-1437.4212841756
 21
355.9800268132
 31
0.0
  0
LINE
  5
2E5
  8
0
  6
CONTINUOUS
 62
     7
 10
-1437.1212939984
 20
355.680036636
 30
0.0
 11
-1438.06823299
 21
355.680036636
 31
0.0
  0
LINE
  5
2E6
  8
0
  6
CONTINUOUS
 62
     7
 10
-1466.5540675885
 20
355.9800268132
 30
0.0
 11
-1438.2882039315
 21
355.9800268132
 31
0.0
  0
LINE
  5
2E7
  8
0
  6
CONTINUOUS
 62
     7
 10
-1438.06823299
 20
355.680036636
 30
0.0
 11
-1446.9219963319
 21
355.680036636
 31
0.0
  0
LINE
  5
2E8
  8
0
  6
CONTINUOUS
 62
     7
 10
-1438.2882039315
 20
359.3800396639
 30
0.0
 11
-1466.5540675885
 21
359.3800396639
 31
0.0
  0
LINE
  5
2E9
  8
0
  6
CONTINUOUS
 62
     7
 10
-1466.334096647
 20
359.6800298411
 30
0.0
 11
-1438.06823299
 21
359.6800298411
 31
0.0
  0
LINE
  5
2EA
  8
0
  6
CONTINUOUS
 62
     7
 10
-1466.5540675885
 20
359.3800396639
 30
0.0
 11
-1468.4212724931
 21
359.3800396639
 31
0.0
  0
LINE
  5
2EB
  8
0
  6
CONTINUOUS
 62
     7
 10
-1468.4212724931
 20
359.3800396639
 30
0.0
 11
-1468.1212823159
 21
359.6800298411
 31
0.0
  0
LINE
  5
2EC
  8
0
  6
CONTINUOUS
 62
     7
 10
-1468.1212823159
 20
359.6800298411
 30
0.0
 11
-1466.334096647
 21
359.6800298411
 31
0.0
  0
LINE
  5
2ED
  8
0
  6
CONTINUOUS
 62
     7
 10
-1468.4212724931
 20
355.9800268132
 30
0.0
 11
-1466.5540675885
 21
355.9800268132
 31
0.0
  0
LINE
  5
2EE
  8
0
  6
CONTINUOUS
 62
     7
 10
-1468.4212724931
 20
355.9800268132
 30
0.0
 11
-1468.1212823159
 21
355.680036636
 31
0.0
  0
LINE
  5
2EF
  8
0
  6
CONTINUOUS
 62
     7
 10
-1468.4212724931
 20
355.9800268132
 30
0.0
 11
-1468.4212724931
 21
359.3800396639
 31
0.0
  0
ARC
  5
2F0
  8
0
  6
CONTINUOUS
 62
     7
 10
-1492.9712822871
 20
642.3806979931
 30
0.0
 40
120.0000000000275
 50
276.1072898503
 51
277.0541313733
  0
ARC
  5
2F1
  8
0
  6
CONTINUOUS
 62
     7
 10
-1492.9712822871
 20
642.3806979931
 30
0.0
 40
120.0000000000275
 50
262.9458686267
 51
263.8915999146
  0
ARC
  5
2F2
  8
0
  6
CONTINUOUS
 62
     7
 10
-1478.2712822871
 20
523.5867587537
 30
0.0
 40
0.3000000000022903
 50
277.054127852
 51
359.9999856569
  0
ARC
  5
2F3
  8
0
  6
CONTINUOUS
 62
     7
 10
-1507.6712822871
 20
523.5867587537
 30
0.0
 40
0.3000000000022903
 50
180.0000143431
 51
262.945872148
  0
ARC
  5
2F4
  8
0
  6
CONTINUOUS
 62
     7
 10
-1505.7713023599
 20
522.7635890421
 30
0.0
 40
0.3000306124664411
 50
359.5435827543
 51
84.3706317421
  0
ARC
  5
2F5
  8
0
  6
CONTINUOUS
 62
     7
 10
-1480.1712883103
 20
522.7636211527
 30
0.0
 40
0.2999967741602136
 50
95.6263213578
 51
180.4626016688
  0
ARC
  5
2F6
  8
0
  6
CONTINUOUS
 62
     7
 10
-1492.9712822871
 20
611.880697993
 30
0.0
 40
90.19999999999966
 50
275.4696070839
 51
277.8002470321
  0
ARC
  5
2F7
  8
0
  6
CONTINUOUS
 62
     7
 10
-1492.9712822871
 20
611.880697993
 30
0.0
 40
90.19999999999958
 50
262.1997529669
 51
264.5303929161
  0
ARC
  5
2F8
  8
0
  6
CONTINUOUS
 62
     7
 10
-1501.5212822871
 20
522.5891110433
 30
0.0
 40
0.5000000000001439
 50
264.5304035697
 51
270.0
  0
ARC
  5
2F9
  8
0
  6
CONTINUOUS
 62
     7
 10
-1484.4212822871
 20
522.5891110433
 30
0.0
 40
0.5000000000001222
 50
270.0
 51
275.4695964303
  0
LINE
  5
2FA
  8
0
  6
CONTINUOUS
 62
     7
 10
-1501.5212814576
 20
522.0890970539
 30
0.0
 11
-1484.4212751157
 21
522.0890970539
 31
0.0
  0
ARC
  5
2FB
  8
0
  6
CONTINUOUS
 62
     7
 10
-1480.7693048086
 20
522.8126329234
 30
0.0
 40
0.3000119159548307
 50
272.6658287252
 51
355.7625273191
  0
ARC
  5
2FC
  8
0
  6
CONTINUOUS
 62
     7
 10
-1505.1732586423
 20
522.8126419194
 30
0.0
 40
0.3000205824350884
 50
184.2390727565
 51
267.33556319
  0
LINE
  5
2FD
  8
0
  6
CONTINUOUS
 62
     7
 10
-1464.1712825066
 20
549.5806963753
 30
0.0
 11
-1464.1712825066
 21
548.5807092499
 31
0.0
  0
LINE
  5
2FE
  8
0
  6
CONTINUOUS
 62
     7
 10
-1454.1712920434
 20
548.5807092499
 30
0.0
 11
-1454.1712920434
 21
549.5806963753
 31
0.0
  0
LINE
  5
2FF
  8
0
  6
CONTINUOUS
 62
     7
 10
-1446.9212810761
 20
588.3307041239
 30
0.0
 11
-1446.9219963319
 21
588.3307041239
 31
0.0
  0
LINE
  5
300
  8
0
  6
CONTINUOUS
 62
     7
 10
-1446.9219963319
 20
580.8306963753
 30
0.0
 11
-1446.9212810761
 21
580.8306963753
 31
0.0
  0
LINE
  5
301
  8
0
  6
CONTINUOUS
 62
     7
 10
-2043.9212839371
 20
580.8306963753
 30
0.0
 11
-2043.9205686814
 21
580.8306963753
 31
0.0
  0
LINE
  5
302
  8
0
  6
CONTINUOUS
 62
     7
 10
-2043.9205686814
 20
588.3307041239
 30
0.0
 11
-2043.9212839371
 21
588.3307041239
 31
0.0
  0
LINE
  5
303
  8
0
  6
CONTINUOUS
 62
     7
 10
-2034.1712753541
 20
547.5806923221
 30
0.0
 11
-2034.1712753541
 21
547.3606915783
 31
0.0
  0
LINE
  5
304
  8
0
  6
CONTINUOUS
 62
     7
 10
-2029.1712801224
 20
547.3606915783
 30
0.0
 11
-2029.1712801224
 21
547.5806923221
 31
0.0
  0
LINE
  5
305
  8
0
  6
CONTINUOUS
 62
     7
 10
-2034.1712753541
 20
547.3606915783
 30
0.0
 11
-2033.771268583
 21
546.9606848072
 31
0.0
  0
LINE
  5
306
  8
0
  6
CONTINUOUS
 62
     7
 10
-2029.5712868935
 20
546.9606848072
 30
0.0
 11
-2029.1712801224
 21
547.3606915783
 31
0.0
  0
LINE
  5
307
  8
0
  6
CONTINUOUS
 62
     7
 10
-2043.4212903744
 20
830.5806976148
 30
0.0
 11
-2043.4212903744
 21
829.4091246951
 31
0.0
  0
LINE
  5
308
  8
0
  6
CONTINUOUS
 62
     7
 10
-1447.4212746388
 20
830.5806976148
 30
0.0
 11
-1447.4212746388
 21
829.4091246951
 31
0.0
  0
LINE
  5
309
  8
0
  6
CONTINUOUS
 62
     7
 10
-2044.9212710625
 20
830.5806976148
 30
0.0
 11
-2044.9212710625
 21
833.5806977573
 31
0.0
  0
LINE
  5
30A
  8
0
  6
CONTINUOUS
 62
     7
 10
-2044.9212710625
 20
833.5806977573
 30
0.0
 11
-2042.9212968117
 21
833.5806977573
 31
0.0
  0
LINE
  5
30B
  8
0
  6
CONTINUOUS
 62
     7
 10
-2042.9212968117
 20
830.5806976148
 30
0.0
 11
-2044.9212710625
 21
830.5806976148
 31
0.0
  0
LINE
  5
30C
  8
0
  6
CONTINUOUS
 62
     7
 10
-2042.9212968117
 20
830.5806976148
 30
0.0
 11
-1447.9212682015
 21
830.5806976148
 31
0.0
  0
LINE
  5
30D
  8
0
  6
CONTINUOUS
 62
     7
 10
-2042.9212968117
 20
833.5806977573
 30
0.0
 11
-1447.9212682015
 21
833.5806977573
 31
0.0
  0
LINE
  5
30E
  8
0
  6
CONTINUOUS
 62
     7
 10
-1445.9212939507
 20
833.5806977573
 30
0.0
 11
-1445.9212939507
 21
830.5806976148
 31
0.0
  0
LINE
  5
30F
  8
0
  6
CONTINUOUS
 62
     7
 10
-1447.9212682015
 20
833.5806977573
 30
0.0
 11
-1445.9212939507
 21
833.5806977573
 31
0.0
  0
LINE
  5
310
  8
0
  6
CONTINUOUS
 62
     7
 10
-1445.9212939507
 20
830.5806976148
 30
0.0
 11
-1447.9212682015
 21
830.5806976148
 31
0.0
  0
ARC
  5
311
  8
0
  6
CONTINUOUS
 62
     7
 10
-2042.9712822871
 20
529.880697993
 30
0.0
 40
2.499999999999818
 50
36.8698976458
 51
45.0
  0
LINE
  5
312
  8
0
  6
CONTINUOUS
 62
     7
 10
-2041.2035207516
 20
531.6484601806
 30
0.0
 11
-2036.2212877042
 21
536.6306932281
 31
0.0
  0
LINE
  5
313
  8
0
  6
CONTINUOUS
 62
     7
 10
-2036.2212877042
 20
536.6306932281
 30
0.0
 11
-2029.4712702996
 21
536.6306932281
 31
0.0
  0
LINE
  5
314
  8
0
  6
CONTINUOUS
 62
     7
 10
-2029.4712702996
 20
536.6306932281
 30
0.0
 11
-2029.4712702996
 21
543.3807106327
 31
0.0
  0
LINE
  5
315
  8
0
  6
CONTINUOUS
 62
     7
 10
-2029.4712702996
 20
543.3807106327
 30
0.0
 11
-1462.4712686307
 21
543.3807106327
 31
0.0
  0
LINE
  5
316
  8
0
  6
CONTINUOUS
 62
     7
 10
-1462.4712686307
 20
536.6306932281
 30
0.0
 11
-1462.4712686307
 21
543.3807106327
 31
0.0
  0
LINE
  5
317
  8
0
  6
CONTINUOUS
 62
     7
 10
-1455.7212810284
 20
536.6306932281
 30
0.0
 11
-1462.4712686307
 21
536.6306932281
 31
0.0
  0
LINE
  5
318
  8
0
  6
CONTINUOUS
 62
     7
 10
-1450.739047981
 20
531.6484601806
 30
0.0
 11
-1455.7212810284
 21
536.6306932281
 31
0.0
  0
ARC
  5
319
  8
0
  6
CONTINUOUS
 62
     7
 10
-1448.9712822871
 20
529.880697993
 30
0.0
 40
2.499999999999932
 50
135.0
 51
143.1301023542
  0
LINE
  5
31A
  8
0
  6
CONTINUOUS
 62
     7
 10
-1450.971267677
 20
528.3806951355
 30
0.0
 11
-2040.9712712533
 21
528.3806951355
 31
0.0
  0
POLYLINE
  5
31B
  8
0
  6
CONTINUOUS
 62
     7
 66
     1
 10
0.0
 20
0.0
 30
0.0
  0
VERTEX
  5
752
  8
0
  6
CONTINUOUS
 62
     7
 10
-2040.9712712533
 20
528.3806951355
 30
0.0
  0
VERTEX
  5
753
  8
0
  6
CONTINUOUS
 62
     7
 10
-2040.7567243344
 20
528.4281106304
 30
0.0
  0
VERTEX
  5
754
  8
0
  6
CONTINUOUS
 62
     7
 10
-2040.5996362931
 20
528.5851688694
 30
0.0
  0
VERTEX
  5
755
  8
0
  6
CONTINUOUS
 62
     7
 10
-2040.5034343964
 20
528.8644166302
 30
0.0
  0
VERTEX
  5
756
  8
0
  6
CONTINUOUS
 62
     7
 10
-2040.4712776906
 20
529.2593868088
 30
0.0
  0
VERTEX
  5
757
  8
0
  6
CONTINUOUS
 62
     7
 10
-2040.5032555825
 20
529.747876675
 30
0.0
  0
VERTEX
  5
758
  8
0
  6
CONTINUOUS
 62
     7
 10
-2040.5992488629
 20
530.2906365703
 30
0.0
  0
VERTEX
  5
759
  8
0
  6
CONTINUOUS
 62
     7
 10
-2040.756873346
 20
530.8499367546
 30
0.0
  0
VERTEX
  5
75A
  8
0
  6
CONTINUOUS
 62
     7
 10
-2040.9712712533
 20
531.380686314
 30
0.0
  0
SEQEND
  5
75B
  8
0
  6
CONTINUOUS
 62
     7
  0
POLYLINE
  5
31C
  8
0
  6
CONTINUOUS
 62
     7
 66
     1
 10
0.0
 20
0.0
 30
0.0
  0
VERTEX
  5
75C
  8
0
  6
CONTINUOUS
 62
     7
 10
-1450.971267677
 20
528.3806951355
 30
0.0
  0
VERTEX
  5
75D
  8
0
  6
CONTINUOUS
 62
     7
 10
-1451.1858443982
 20
528.4281106304
 30
0.0
  0
VERTEX
  5
75E
  8
0
  6
CONTINUOUS
 62
     7
 10
-1451.3429324395
 20
528.5851688694
 30
0.0
  0
VERTEX
  5
75F
  8
0
  6
CONTINUOUS
 62
     7
 10
-1451.4391343362
 20
528.8644166302
 30
0.0
  0
VERTEX
  5
760
  8
0
  6
CONTINUOUS
 62
     7
 10
-1451.471291042
 20
529.2593868088
 30
0.0
  0
VERTEX
  5
761
  8
0
  6
CONTINUOUS
 62
     7
 10
-1451.4392833478
 20
529.747876675
 30
0.0
  0
VERTEX
  5
762
  8
0
  6
CONTINUOUS
 62
     7
 10
-1451.3433198697
 20
530.2906365703
 30
0.0
  0
VERTEX
  5
763
  8
0
  6
CONTINUOUS
 62
     7
 10
-1451.1856953866
 20
530.8499367546
 30
0.0
  0
VERTEX
  5
764
  8
0
  6
CONTINUOUS
 62
     7
 10
-1450.971267677
 20
531.380686314
 30
0.0
  0
SEQEND
  5
765
  8
0
  6
CONTINUOUS
 62
     7
  0
POLYLINE
  5
31D
  8
0
  6
CONTINUOUS
 62
     7
 66
     1
 10
0.0
 20
0.0
 30
0.0
  0
VERTEX
  5
766
  8
0
  6
CONTINUOUS
 62
     7
 10
-1450.4712741143
 20
531.880709679
 30
0.0
  0
VERTEX
  5
767
  8
0
  6
CONTINUOUS
 62
     7
 10
-1449.9401073224
 20
532.0952565979
 30
0.0
  0
VERTEX
  5
768
  8
0
  6
CONTINUOUS
 62
     7
 10
-1449.3826846844
 20
532.2523446392
 30
0.0
  0
VERTEX
  5
769
  8
0
  6
CONTINUOUS
 62
     7
 10
-1448.8378088242
 20
532.3485465359
 30
0.0
  0
VERTEX
  5
76A
  8
0
  6
CONTINUOUS
 62
     7
 10
-1448.3499448067
 20
532.3807032417
 30
0.0
  0
VERTEX
  5
76B
  8
0
  6
CONTINUOUS
 62
     7
 10
-1447.9545573956
 20
532.3487253498
 30
0.0
  0
VERTEX
  5
76C
  8
0
  6
CONTINUOUS
 62
     7
 10
-1447.6763229138
 20
532.2527320694
 30
0.0
  0
VERTEX
  5
76D
  8
0
  6
CONTINUOUS
 62
     7
 10
-1447.5186090237
 20
532.0951075863
 30
0.0
  0
VERTEX
  5
76E
  8
0
  6
CONTINUOUS
 62
     7
 10
-1447.4712829358
 20
531.880709679
 30
0.0
  0
SEQEND
  5
76F
  8
0
  6
CONTINUOUS
 62
     7
  0
LINE
  5
31E
  8
0
  6
CONTINUOUS
 62
     7
 10
-1447.4712829358
 20
531.880709679
 30
0.0
 11
-1448.9712934262
 21
531.880709679
 31
0.0
  0
ARC
  5
31F
  8
0
  6
CONTINUOUS
 62
     7
 10
-1449.3855307962
 20
531.9597405999
 30
0.0
 40
0.4217090053445025
 50
349.1985431027
 51
93.4093412852
  0
LINE
  5
320
  8
0
  6
CONTINUOUS
 62
     7
 10
-1447.4712829358
 20
543.3807106327
 30
0.0
 11
-1447.4712829358
 21
531.880709679
 31
0.0
  0
LINE
  5
321
  8
0
  6
CONTINUOUS
 62
     7
 10
-1450.4712741143
 20
543.3807106327
 30
0.0
 11
-1447.4712829358
 21
543.3807106327
 31
0.0
  0
POLYLINE
  5
322
  8
0
  6
CONTINUOUS
 62
     7
 66
     1
 10
0.0
 20
0.0
 30
0.0
  0
VERTEX
  5
770
  8
0
  6
CONTINUOUS
 62
     7
 10
-1450.971267677
 20
529.8807056259
 30
0.0
  0
VERTEX
  5
771
  8
0
  6
CONTINUOUS
 62
     7
 10
-1451.1858443982
 20
529.9043984722
 30
0.0
  0
VERTEX
  5
772
  8
0
  6
CONTINUOUS
 62
     7
 10
-1451.3429324395
 20
529.9829275917
 30
0.0
  0
VERTEX
  5
773
  8
0
  6
CONTINUOUS
 62
     7
 10
-1451.4391343362
 20
530.1225514721
 30
0.0
  0
VERTEX
  5
774
  8
0
  6
CONTINUOUS
 62
     7
 10
-1451.471291042
 20
530.3200514625
 30
0.0
  0
VERTEX
  5
775
  8
0
  6
CONTINUOUS
 62
     7
 10
-1451.471291042
 20
530.3200514625
 30
0.0
  0
SEQEND
  5
776
  8
0
  6
CONTINUOUS
 62
     7
  0
LINE
  5
323
  8
0
  6
CONTINUOUS
 62
     7
 10
-1450.971267677
 20
529.8807056259
 30
0.0
 11
-1450.971267677
 21
528.3806951355
 31
0.0
  0
LINE
  5
324
  8
0
  6
CONTINUOUS
 62
     7
 10
-1462.4712686307
 20
543.3807106327
 30
0.0
 11
-1450.4712741143
 21
543.3807106327
 31
0.0
  0
ARC
  5
325
  8
0
  6
CONTINUOUS
 62
     7
 10
-1448.9712822871
 20
529.880697993
 30
0.0
 40
2.499999999999864
 50
126.8698976458
 51
135.0
  0
LINE
  5
326
  8
0
  6
CONTINUOUS
 62
     7
 10
-2041.4712946183
 20
543.3807106327
 30
0.0
 11
-2029.4712702996
 21
543.3807106327
 31
0.0
  0
ARC
  5
327
  8
0
  6
CONTINUOUS
 62
     7
 10
-2042.9712822871
 20
529.880697993
 30
0.0
 40
2.5
 50
45.0
 51
53.1301023542
  0
LINE
  5
328
  8
0
  6
CONTINUOUS
 62
     7
 10
-2044.4712857968
 20
531.880709679
 30
0.0
 11
-2044.4712857968
 21
543.3807106327
 31
0.0
  0
LINE
  5
329
  8
0
  6
CONTINUOUS
 62
     7
 10
-2044.4712857968
 20
543.3807106327
 30
0.0
 11
-2041.4712946183
 21
543.3807106327
 31
0.0
  0
POLYLINE
  5
32A
  8
0
  6
CONTINUOUS
 62
     7
 66
     1
 10
0.0
 20
0.0
 30
0.0
  0
VERTEX
  5
777
  8
0
  6
CONTINUOUS
 62
     7
 10
-2041.4712946183
 20
531.880709679
 30
0.0
  0
VERTEX
  5
778
  8
0
  6
CONTINUOUS
 62
     7
 10
-2042.0024614102
 20
532.0952565979
 30
0.0
  0
VERTEX
  5
779
  8
0
  6
CONTINUOUS
 62
     7
 10
-2042.5598840482
 20
532.2523446392
 30
0.0
  0
VERTEX
  5
77A
  8
0
  6
CONTINUOUS
 62
     7
 10
-2043.1047599084
 20
532.3485465359
 30
0.0
  0
VERTEX
  5
77B
  8
0
  6
CONTINUOUS
 62
     7
 10
-2043.5925941235
 20
532.3807032417
 30
0.0
  0
VERTEX
  5
77C
  8
0
  6
CONTINUOUS
 62
     7
 10
-2043.988011337
 20
532.3487253498
 30
0.0
  0
VERTEX
  5
77D
  8
0
  6
CONTINUOUS
 62
     7
 10
-2044.2662458188
 20
532.2527320694
 30
0.0
  0
VERTEX
  5
77E
  8
0
  6
CONTINUOUS
 62
     7
 10
-2044.4239597089
 20
532.0951075863
 30
0.0
  0
VERTEX
  5
77F
  8
0
  6
CONTINUOUS
 62
     7
 10
-2044.4712857968
 20
531.880709679
 30
0.0
  0
SEQEND
  5
780
  8
0
  6
CONTINUOUS
 62
     7
  0
ARC
  5
32B
  8
0
  6
CONTINUOUS
 62
     7
 10
-2042.5570379364
 20
531.9597405999
 30
0.0
 40
0.4217090053445221
 50
86.5906587148
 51
190.8014568973
  0
LINE
  5
32C
  8
0
  6
CONTINUOUS
 62
     7
 10
-2044.4712857968
 20
531.880709679
 30
0.0
 11
-2042.9712753064
 21
531.880709679
 31
0.0
  0
LINE
  5
32D
  8
0
  6
CONTINUOUS
 62
     7
 10
-2040.9712712533
 20
529.8807056259
 30
0.0
 11
-2040.9712712533
 21
528.3806951355
 31
0.0
  0
POLYLINE
  5
32E
  8
0
  6
CONTINUOUS
 62
     7
 66
     1
 10
0.0
 20
0.0
 30
0.0
  0
VERTEX
  5
781
  8
0
  6
CONTINUOUS
 62
     7
 10
-2040.9712712533
 20
529.8807056259
 30
0.0
  0
VERTEX
  5
782
  8
0
  6
CONTINUOUS
 62
     7
 10
-2040.7567243344
 20
529.9043984722
 30
0.0
  0
VERTEX
  5
783
  8
0
  6
CONTINUOUS
 62
     7
 10
-2040.5996362931
 20
529.9829275917
 30
0.0
  0
VERTEX
  5
784
  8
0
  6
CONTINUOUS
 62
     7
 10
-2040.5034343964
 20
530.1225514721
 30
0.0
  0
VERTEX
  5
785
  8
0
  6
CONTINUOUS
 62
     7
 10
-2040.4712776906
 20
530.3200514625
 30
0.0
  0
VERTEX
  5
786
  8
0
  6
CONTINUOUS
 62
     7
 10
-2040.4712776906
 20
530.3200514625
 30
0.0
  0
SEQEND
  5
787
  8
0
  6
CONTINUOUS
 62
     7
  0
LINE
  5
32F
  8
0
  6
CONTINUOUS
 62
     7
 10
-1448.9712934262
 20
531.880709679
 30
0.0
 11
-1448.9712934262
 21
531.380686314
 31
0.0
  0
LINE
  5
330
  8
0
  6
CONTINUOUS
 62
     7
 10
-1447.4712829358
 20
531.880709679
 30
0.0
 11
-1447.4712829358
 21
531.380686314
 31
0.0
  0
LINE
  5
331
  8
0
  6
CONTINUOUS
 62
     7
 10
-1447.4712829358
 20
531.380686314
 30
0.0
 11
-1448.9712934262
 21
531.380686314
 31
0.0
  0
LINE
  5
332
  8
0
  6
CONTINUOUS
 62
     7
 10
-1450.4712741143
 20
528.3806951355
 30
0.0
 11
-1450.4712741143
 21
529.8807056259
 31
0.0
  0
LINE
  5
333
  8
0
  6
CONTINUOUS
 62
     7
 10
-1450.4712741143
 20
528.3806951355
 30
0.0
 11
-1450.971267677
 21
528.3806951355
 31
0.0
  0
LINE
  5
334
  8
0
  6
CONTINUOUS
 62
     7
 10
-1450.4712741143
 20
529.8807056259
 30
0.0
 11
-1450.971267677
 21
529.8807056259
 31
0.0
  0
LINE
  5
335
  8
0
  6
CONTINUOUS
 62
     7
 10
-2041.4712946183
 20
528.3806951355
 30
0.0
 11
-2041.4712946183
 21
529.8807056259
 31
0.0
  0
LINE
  5
336
  8
0
  6
CONTINUOUS
 62
     7
 10
-2041.4712946183
 20
528.3806951355
 30
0.0
 11
-2040.9712712533
 21
528.3806951355
 31
0.0
  0
LINE
  5
337
  8
0
  6
CONTINUOUS
 62
     7
 10
-2041.4712946183
 20
529.8807056259
 30
0.0
 11
-2040.9712712533
 21
529.8807056259
 31
0.0
  0
LINE
  5
338
  8
0
  6
CONTINUOUS
 62
     7
 10
-2044.4712857968
 20
531.380686314
 30
0.0
 11
-2042.9712753064
 21
531.380686314
 31
0.0
  0
LINE
  5
339
  8
0
  6
CONTINUOUS
 62
     7
 10
-2044.4712857968
 20
531.880709679
 30
0.0
 11
-2044.4712857968
 21
531.380686314
 31
0.0
  0
LINE
  5
33A
  8
0
  6
CONTINUOUS
 62
     7
 10
-2042.9712753064
 20
531.880709679
 30
0.0
 11
-2042.9712753064
 21
531.380686314
 31
0.0
  0
ARC
  5
33B
  8
0
  6
CONTINUOUS
 62
     7
 10
-1450.4712716551
 20
531.3806838548
 30
0.0
 40
2.999988719276742
 50
269.9999530319
 51
0.0000469681
  0
ARC
  5
33C
  8
0
  6
CONTINUOUS
 62
     7
 10
-1450.4712574832
 20
531.3806696828
 30
0.0
 40
1.49996405704917
 50
269.9993647221
 51
0.0006352779
  0
ARC
  5
33D
  8
0
  6
CONTINUOUS
 62
     7
 10
-2041.4712970775
 20
531.3806838548
 30
0.0
 40
2.999988719276742
 50
179.9999530319
 51
270.0000469681
  0
ARC
  5
33E
  8
0
  6
CONTINUOUS
 62
     7
 10
-2041.4713112494
 20
531.3806696828
 30
0.0
 40
1.499964057049397
 50
179.9993647221
 51
270.0006352779
  0
ARC
  5
33F
  8
0
  6
CONTINUOUS
 62
     7
 10
-2038.9205754
 20
553.0788858253
 30
0.0
 40
4.999999999972844
 50
180.0
 51
185.7183052343
  0
LINE
  5
340
  8
0
  6
CONTINUOUS
 62
     7
 10
-2043.9205686814
 20
826.5806975413
 30
0.0
 11
-2043.9205686814
 21
824.0424477133
 31
0.0
  0
LINE
  5
341
  8
0
  6
CONTINUOUS
 62
     7
 10
-2043.9205686814
 20
779.9217769514
 30
0.0
 11
-2043.9205686814
 21
553.0788929771
 31
0.0
  0
LINE
  5
342
  8
0
  6
CONTINUOUS
 62
     7
 10
-1446.9219963319
 20
553.0788929771
 30
0.0
 11
-1446.9219963319
 21
779.9217769514
 31
0.0
  0
LINE
  5
343
  8
0
  6
CONTINUOUS
 62
     7
 10
-1446.9219963319
 20
824.0424477133
 30
0.0
 11
-1446.9219963319
 21
826.5806975413
 31
0.0
  0
ARC
  5
344
  8
0
  6
CONTINUOUS
 62
     7
 10
-1451.9219896134
 20
553.0788858253
 30
0.0
 40
5.000000000006366
 50
354.2816947658
 51
0.0
  0
LINE
  5
345
  8
0
  6
CONTINUOUS
 62
     7
 10
-1447.9219834573
 20
549.682173283
 30
0.0
 11
-1448.4201888806
 21
549.5806963753
 31
0.0
  0
LINE
  5
346
  8
0
  6
CONTINUOUS
 62
     7
 10
-2042.4930672414
 20
549.5806963753
 30
0.0
 11
-1448.4650711781
 21
549.5806963753
 31
0.0
  0
POLYLINE
  5
347
  8
0
  6
CONTINUOUS
 62
     7
 66
     1
 10
0.0
 20
0.0
 30
0.0
  0
VERTEX
  5
788
  8
0
  6
CONTINUOUS
 62
     7
 10
-2042.4930672414
 20
549.5806963753
 30
0.0
  0
VERTEX
  5
789
  8
0
  6
CONTINUOUS
 62
     7
 10
-2043.0295388467
 20
549.7580797981
 30
0.0
  0
VERTEX
  5
78A
  8
0
  6
CONTINUOUS
 62
     7
 10
-2043.4254030949
 20
550.2763421844
 30
0.0
  0
VERTEX
  5
78B
  8
0
  6
CONTINUOUS
 62
     7
 10
-2043.6674575574
 20
551.0830910515
 30
0.0
  0
VERTEX
  5
78C
  8
0
  6
CONTINUOUS
 62
     7
 10
-2043.7832991845
 20
551.7443449806
 30
0.0
  0
VERTEX
  5
78D
  8
0
  6
CONTINUOUS
 62
     7
 10
-2043.8956837422
 20
552.5806875538
 30
0.0
  0
SEQEND
  5
78E
  8
0
  6
CONTINUOUS
 62
     7
  0
ARC
  5
348
  8
0
  6
CONTINUOUS
 62
     7
 10
-1451.1656960586
 20
552.3866815732
 30
0.0
 40
4.22327320123379
 50
320.1796871534
 51
2.6329428731
  0
POLYLINE
  5
349
  8
0
  6
CONTINUOUS
 62
     7
 66
     1
 10
0.0
 20
0.0
 30
0.0
  0
VERTEX
  5
78F
  8
0
  6
CONTINUOUS
 62
     7
 10
-1446.9219963319
 20
826.5806975413
 30
0.0
  0
VERTEX
  5
790
  8
0
  6
CONTINUOUS
 62
     7
 10
-1446.9447653062
 20
827.1016421366
 30
0.0
  0
VERTEX
  5
791
  8
0
  6
CONTINUOUS
 62
     7
 10
-1447.012416578
 20
827.6067579735
 30
0.0
  0
VERTEX
  5
792
  8
0
  6
CONTINUOUS
 62
     7
 10
-1447.1228639848
 20
828.0806975543
 30
0.0
  0
VERTEX
  5
793
  8
0
  6
CONTINUOUS
 62
     7
 10
-1447.2727696664
 20
828.5090604202
 30
0.0
  0
VERTEX
  5
794
  8
0
  6
CONTINUOUS
 62
     7
 10
-1447.4575440652
 20
828.8788308726
 30
0.0
  0
VERTEX
  5
795
  8
0
  6
CONTINUOUS
 62
     7
 10
-1447.6716439492
 20
829.1787737852
 30
0.0
  0
VERTEX
  5
796
  8
0
  6
CONTINUOUS
 62
     7
 10
-1447.9084830052
 20
829.3997754243
 30
0.0
  0
VERTEX
  5
797
  8
0
  6
CONTINUOUS
 62
     7
 10
-1448.1609384782
 20
829.535120827
 30
0.0
  0
VERTEX
  5
798
  8
0
  6
CONTINUOUS
 62
     7
 10
-1448.4212915665
 20
829.5806975673
 30
0.0
  0
SEQEND
  5
799
  8
0
  6
CONTINUOUS
 62
     7
  0
POLYLINE
  5
34A
  8
0
  6
CONTINUOUS
 62
     7
 66
     1
 10
0.0
 20
0.0
 30
0.0
  0
VERTEX
  5
79A
  8
0
  6
CONTINUOUS
 62
     7
 10
-2042.4212734467
 20
829.5806975673
 30
0.0
  0
VERTEX
  5
79B
  8
0
  6
CONTINUOUS
 62
     7
 10
-2042.6816265351
 20
829.535120827
 30
0.0
  0
VERTEX
  5
79C
  8
0
  6
CONTINUOUS
 62
     7
 10
-2042.9340820081
 20
829.3997754243
 30
0.0
  0
VERTEX
  5
79D
  8
0
  6
CONTINUOUS
 62
     7
 10
-2043.1709210641
 20
829.1787737852
 30
0.0
  0
VERTEX
  5
79E
  8
0
  6
CONTINUOUS
 62
     7
 10
-2043.3850209481
 20
828.8788308726
 30
0.0
  0
VERTEX
  5
79F
  8
0
  6
CONTINUOUS
 62
     7
 10
-2043.5697953469
 20
828.5090604202
 30
0.0
  0
VERTEX
  5
7A0
  8
0
  6
CONTINUOUS
 62
     7
 10
-2043.7197010285
 20
828.0806975543
 30
0.0
  0
VERTEX
  5
7A1
  8
0
  6
CONTINUOUS
 62
     7
 10
-2043.8301484353
 20
827.6067579735
 30
0.0
  0
VERTEX
  5
7A2
  8
0
  6
CONTINUOUS
 62
     7
 10
-2043.8977997071
 20
827.1016421366
 30
0.0
  0
VERTEX
  5
7A3
  8
0
  6
CONTINUOUS
 62
     7
 10
-2043.9205686814
 20
826.5806975413
 30
0.0
  0
SEQEND
  5
7A4
  8
0
  6
CONTINUOUS
 62
     7
  0
LINE
  5
34B
  8
0
  6
CONTINUOUS
 62
     7
 10
-1448.4212915665
 20
829.5806975673
 30
0.0
 11
-1453.4491519696
 21
829.5806975673
 31
0.0
  0
LINE
  5
34C
  8
0
  6
CONTINUOUS
 62
     7
 10
-2037.3934130437
 20
829.5806975673
 30
0.0
 11
-2042.4212734467
 21
829.5806975673
 31
0.0
  0
LINE
  5
34D
  8
0
  6
CONTINUOUS
 62
     7
 10
-1445.4212705857
 20
553.0788929771
 30
0.0
 11
-1445.4212705857
 21
552.5806875538
 31
0.0
  0
LINE
  5
34E
  8
0
  6
CONTINUOUS
 62
     7
 10
-1445.4212705857
 20
552.5806875538
 30
0.0
 11
-1446.9212810761
 21
552.5806875538
 31
0.0
  0
LINE
  5
34F
  8
0
  6
CONTINUOUS
 62
     7
 10
-1446.9212810761
 20
553.0788929771
 30
0.0
 11
-1446.9212810761
 21
552.5806875538
 31
0.0
  0
LINE
  5
350
  8
0
  6
CONTINUOUS
 62
     7
 10
-2045.4212944276
 20
553.0788929771
 30
0.0
 11
-2045.4212944276
 21
552.5806875538
 31
0.0
  0
LINE
  5
351
  8
0
  6
CONTINUOUS
 62
     7
 10
-2043.9212839371
 20
552.5806875538
 30
0.0
 11
-2045.4212944276
 21
552.5806875538
 31
0.0
  0
LINE
  5
352
  8
0
  6
CONTINUOUS
 62
     7
 10
-2043.9212839371
 20
552.5806875538
 30
0.0
 11
-2043.9212839371
 21
553.0788929771
 31
0.0
  0
LINE
  5
353
  8
0
  6
CONTINUOUS
 62
     7
 10
-1445.4212705857
 20
826.5806975413
 30
0.0
 11
-1445.4212705857
 21
825.660796241
 31
0.0
  0
LINE
  5
354
  8
0
  6
CONTINUOUS
 62
     7
 10
-1445.4212705857
 20
781.5401250135
 30
0.0
 11
-1445.4212705857
 21
553.0788929771
 31
0.0
  0
LINE
  5
355
  8
0
  6
CONTINUOUS
 62
     7
 10
-1446.9212810761
 20
826.5806975413
 30
0.0
 11
-1446.9212810761
 21
824.0432100009
 31
0.0
  0
LINE
  5
356
  8
0
  6
CONTINUOUS
 62
     7
 10
-1446.9212810761
 20
779.9225369107
 30
0.0
 11
-1446.9212810761
 21
553.0788929771
 31
0.0
  0
ARC
  5
357
  8
0
  6
CONTINUOUS
 62
     7
 10
-1448.4212910878
 20
826.5806770652
 30
0.0
 40
3.000020502141371
 50
0.0003910613
 51
90.0000091436
  0
LINE
  5
358
  8
0
  6
CONTINUOUS
 62
     7
 10
-2045.4212944276
 20
553.0788929771
 30
0.0
 11
-2045.4212944276
 21
781.5401250135
 31
0.0
  0
LINE
  5
359
  8
0
  6
CONTINUOUS
 62
     7
 10
-2045.4212944276
 20
825.660796241
 30
0.0
 11
-2045.4212944276
 21
826.5806975413
 31
0.0
  0
LINE
  5
35A
  8
0
  6
CONTINUOUS
 62
     7
 10
-2043.9212839371
 20
553.0788929771
 30
0.0
 11
-2043.9212839371
 21
779.9225369107
 31
0.0
  0
LINE
  5
35B
  8
0
  6
CONTINUOUS
 62
     7
 10
-2043.9212839371
 20
824.0432100009
 30
0.0
 11
-2043.9212839371
 21
826.5806975413
 31
0.0
  0
ARC
  5
35C
  8
0
  6
CONTINUOUS
 62
     7
 10
-2042.4212659236
 20
826.5806690633
 30
0.0
 40
3.000028504059051
 50
90.000143679
 51
179.999456116
  0
POLYLINE
  5
35D
  8
0
  6
CONTINUOUS
 62
     7
 66
     1
 10
0.0
 20
0.0
 30
0.0
  0
VERTEX
  5
7A5
  8
0
  6
CONTINUOUS
 62
     7
 10
-1447.0133702523
 20
552.0859690021
 30
0.0
  0
VERTEX
  5
7A6
  8
0
  6
CONTINUOUS
 62
     7
 10
-1446.9807367093
 20
552.1625311683
 30
0.0
  0
VERTEX
  5
7A7
  8
0
  6
CONTINUOUS
 62
     7
 10
-1446.9212810761
 20
552.5806875538
 30
0.0
  0
SEQEND
  5
7A8
  8
0
  6
CONTINUOUS
 62
     7
  0
ARC
  5
35E
  8
0
  6
CONTINUOUS
 62
     7
 10
-1448.4212931168
 20
552.5807189065
 30
0.0
 40
3.000022531270079
 50
270.0000296078
 51
359.9994012109
  0
LINE
  5
35F
  8
0
  6
CONTINUOUS
 62
     7
 10
-2043.1950013406
 20
549.682173283
 30
0.0
 11
-2043.1491057641
 21
549.8540134739
 31
0.0
  0
ARC
  5
360
  8
0
  6
CONTINUOUS
 62
     7
 10
-2042.4212471994
 20
552.5807225583
 30
0.0
 40
3.000047228371499
 50
180.000668527
 51
255.0536785755
  0
POLYLINE
  5
361
  8
0
  6
CONTINUOUS
 62
     7
 66
     1
 10
0.0
 20
0.0
 30
0.0
  0
VERTEX
  5
7A9
  8
0
  6
CONTINUOUS
 62
     7
 10
-2043.9212839371
 20
552.5806875538
 30
0.0
  0
VERTEX
  5
7AA
  8
0
  6
CONTINUOUS
 62
     7
 10
-2043.8800971276
 20
552.231553347
 30
0.0
  0
VERTEX
  5
7AB
  8
0
  6
CONTINUOUS
 62
     7
 10
-2043.8288669354
 20
552.0833463978
 30
0.0
  0
SEQEND
  5
7AC
  8
0
  6
CONTINUOUS
 62
     7
  0
LINE
  5
362
  8
0
  6
CONTINUOUS
 62
     7
 10
-2043.1950013406
 20
549.682173283
 30
0.0
 11
-2042.4212734467
 21
549.5806963753
 31
0.0
  0
LINE
  5
363
  8
0
  6
CONTINUOUS
 62
     7
 10
-1448.4650711781
 20
549.5806963753
 30
0.0
 11
-1448.4212915665
 21
549.5806963753
 31
0.0
  0
LINE
  5
364
  8
0
  6
CONTINUOUS
 62
     7
 10
-2022.9369919068
 20
547.8719504188
 30
0.0
 11
-2021.4515845544
 21
547.6631851505
 31
0.0
  0
LINE
  5
365
  8
0
  6
CONTINUOUS
 62
     7
 10
-2022.053442455
 20
543.3807106327
 30
0.0
 11
-2021.4515845544
 21
547.6631851505
 31
0.0
  0
LINE
  5
366
  8
0
  6
CONTINUOUS
 62
     7
 10
-2023.5681752927
 20
543.3807106327
 30
0.0
 11
-2022.9369919068
 21
547.8719504188
 31
0.0
  0
LINE
  5
367
  8
0
  6
CONTINUOUS
 62
     7
 10
-1467.71158979
 20
547.8719504188
 30
0.0
 11
-1467.0741777188
 21
543.3807106327
 31
0.0
  0
POLYLINE
  5
368
  8
0
  6
CONTINUOUS
 62
     7
 66
     1
 10
0.0
 20
0.0
 30
0.0
  0
VERTEX
  5
7AD
  8
0
  6
CONTINUOUS
 62
     7
 10
-1467.5538759
 20
549.0629108261
 30
0.0
  0
VERTEX
  5
7AE
  8
0
  6
CONTINUOUS
 62
     7
 10
-1467.0433621175
 20
549.4451256107
 30
0.0
  0
VERTEX
  5
7AF
  8
0
  6
CONTINUOUS
 62
     7
 10
-1466.420165754
 20
549.5806963753
 30
0.0
  0
SEQEND
  5
7B0
  8
0
  6
CONTINUOUS
 62
     7
  0
POLYLINE
  5
369
  8
0
  6
CONTINUOUS
 62
     7
 66
     1
 10
0.0
 20
0.0
 30
0.0
  0
VERTEX
  5
7B1
  8
0
  6
CONTINUOUS
 62
     7
 10
-2024.4223992593
 20
549.5806963753
 30
0.0
  0
VERTEX
  5
7B2
  8
0
  6
CONTINUOUS
 62
     7
 10
-2023.7992028958
 20
549.4451256107
 30
0.0
  0
VERTEX
  5
7B3
  8
0
  6
CONTINUOUS
 62
     7
 10
-2023.2886891133
 20
549.0629108261
 30
0.0
  0
SEQEND
  5
7B4
  8
0
  6
CONTINUOUS
 62
     7
  0
POLYLINE
  5
36A
  8
0
  6
CONTINUOUS
 62
     7
 66
     1
 10
0.0
 20
0.0
 30
0.0
  0
VERTEX
  5
7B5
  8
0
  6
CONTINUOUS
 62
     7
 10
-2021.5319018132
 20
548.8572748016
 30
0.0
  0
VERTEX
  5
7B6
  8
0
  6
CONTINUOUS
 62
     7
 10
-2021.5257625348
 20
548.9303500961
 30
0.0
  0
VERTEX
  5
7B7
  8
0
  6
CONTINUOUS
 62
     7
 10
-2021.5139608151
 20
549.0629108261
 30
0.0
  0
SEQEND
  5
7B8
  8
0
  6
CONTINUOUS
 62
     7
  0
ARC
  5
36B
  8
0
  6
CONTINUOUS
 62
     7
 10
-1613.4954463874
 20
536.2940464322
 30
0.0
 40
146.2252855874469
 50
4.6234479417
 51
5.062338643
  0
POLYLINE
  5
36C
  8
0
  6
CONTINUOUS
 62
     7
 66
     1
 10
0.0
 20
0.0
 30
0.0
  0
VERTEX
  5
7B9
  8
0
  6
CONTINUOUS
 62
     7
 10
-1466.4190630681
 20
549.5806963753
 30
0.0
  0
VERTEX
  5
7BA
  8
0
  6
CONTINUOUS
 62
     7
 10
-1467.1705286271
 20
549.4451256107
 30
0.0
  0
VERTEX
  5
7BB
  8
0
  6
CONTINUOUS
 62
     7
 10
-1467.9219941861
 20
549.0629108261
 30
0.0
  0
SEQEND
  5
7BC
  8
0
  6
CONTINUOUS
 62
     7
  0
ARC
  5
36D
  8
0
  6
CONTINUOUS
 62
     7
 10
-1496.1001001974
 20
543.4706798102
 30
0.0
 40
28.72766447381321
 50
8.81280539
 51
11.2250735897
  0
ARC
  5
36E
  8
0
  6
CONTINUOUS
 62
     7
 10
-1993.1699815568
 20
543.4585831396
 30
0.0
 40
28.80113494444376
 50
168.7793991852
 51
171.1855025695
  0
LINE
  5
36F
  8
0
  6
CONTINUOUS
 62
     7
 10
-2021.4205901391
 20
549.0629108261
 30
0.0
 11
-2022.9205708272
 21
549.0629108261
 31
0.0
  0
POLYLINE
  5
370
  8
0
  6
CONTINUOUS
 62
     7
 66
     1
 10
0.0
 20
0.0
 30
0.0
  0
VERTEX
  5
7BD
  8
0
  6
CONTINUOUS
 62
     7
 10
-2022.9205708272
 20
549.0629108261
 30
0.0
  0
VERTEX
  5
7BE
  8
0
  6
CONTINUOUS
 62
     7
 10
-2023.6747781998
 20
549.4451256107
 30
0.0
  0
VERTEX
  5
7BF
  8
0
  6
CONTINUOUS
 62
     7
 10
-2024.4289855725
 20
549.5806963753
 30
0.0
  0
SEQEND
  5
7C0
  8
0
  6
CONTINUOUS
 62
     7
  0
ARC
  5
371
  8
0
  6
CONTINUOUS
 62
     7
 10
-2024.4224008691
 20
548.0807101931
 30
0.0
 40
1.50000680956176
 50
352.000031817
 51
40.90429328
  0
ARC
  5
372
  8
0
  6
CONTINUOUS
 62
     7
 10
-2023.9388563611
 20
548.1066882908
 30
0.0
 40
2.526502736237791
 50
349.8898961263
 51
22.2393606941
  0
POLYLINE
  5
373
  8
0
  6
CONTINUOUS
 62
     7
 66
     1
 10
0.0
 20
0.0
 30
0.0
  0
VERTEX
  5
7C1
  8
0
  6
CONTINUOUS
 62
     7
 10
-1467.8293983704
 20
548.5762090992
 30
0.0
  0
VERTEX
  5
7C2
  8
0
  6
CONTINUOUS
 62
     7
 10
-1467.736176706
 20
548.8005311798
 30
0.0
  0
VERTEX
  5
7C3
  8
0
  6
CONTINUOUS
 62
     7
 10
-1467.5538759
 20
549.0629108261
 30
0.0
  0
SEQEND
  5
7C4
  8
0
  6
CONTINUOUS
 62
     7
  0
POLYLINE
  5
374
  8
0
  6
CONTINUOUS
 62
     7
 66
     1
 10
0.0
 20
0.0
 30
0.0
  0
VERTEX
  5
7C5
  8
0
  6
CONTINUOUS
 62
     7
 10
-2023.0483333832
 20
548.6608178924
 30
0.0
  0
VERTEX
  5
7C6
  8
0
  6
CONTINUOUS
 62
     7
 10
-2023.0783741242
 20
548.3017893146
 30
0.0
  0
VERTEX
  5
7C7
  8
0
  6
CONTINUOUS
 62
     7
 10
-2023.1309752232
 20
547.6631851505
 30
0.0
  0
SEQEND
  5
7C8
  8
0
  6
CONTINUOUS
 62
     7
  0
LINE
  5
375
  8
0
  6
CONTINUOUS
 62
     7
 10
-2023.1309752232
 20
547.8719504188
 30
0.0
 11
-2023.1309752232
 21
547.6631851505
 31
0.0
  0
LINE
  5
376
  8
0
  6
CONTINUOUS
 62
     7
 10
-2023.096106506
 20
548.0836661171
 30
0.0
 11
-2023.1309752232
 21
547.8719504188
 31
0.0
  0
LINE
  5
377
  8
0
  6
CONTINUOUS
 62
     7
 10
-2023.738763786
 20
543.3807106327
 30
0.0
 11
-2023.1309752232
 21
547.6631851505
 31
0.0
  0
LINE
  5
378
  8
0
  6
CONTINUOUS
 62
     7
 10
-2023.1309752232
 20
547.8719504188
 30
0.0
 11
-2023.7683872945
 21
543.3807106327
 31
0.0
  0
LINE
  5
379
  8
0
  6
CONTINUOUS
 62
     7
 10
-1448.3929197556
 20
549.5806963753
 30
0.0
 11
-1448.4201888806
 21
549.5806963753
 31
0.0
  0
LINE
  5
37A
  8
0
  6
CONTINUOUS
 62
     7
 10
-1448.3494977719
 20
549.5806963753
 30
0.0
 11
-1448.3929197556
 21
549.5806963753
 31
0.0
  0
CIRCLE
  5
37B
  8
0
  6
CONTINUOUS
 62
     7
 10
-2029.4212825066
 20
774.5806975673
 30
0.0
 40
3.749999999999831
  0
CIRCLE
  5
37C
  8
0
  6
CONTINUOUS
 62
     7
 10
-2029.4212825066
 20
799.5806975673
 30
0.0
 40
3.749999999999872
  0
CIRCLE
  5
37D
  8
0
  6
CONTINUOUS
 62
     7
 10
-1461.4212825066
 20
799.5806975673
 30
0.0
 40
3.750000000000038
  0
CIRCLE
  5
37E
  8
0
  6
CONTINUOUS
 62
     7
 10
-1461.4212825066
 20
774.5806975673
 30
0.0
 40
3.750000000000124
  0
CIRCLE
  5
37F
  8
0
  6
CONTINUOUS
 62
     7
 10
-1431.4212825066
 20
807.2806975673
 30
0.0
 40
3.060000000000075
  0
CIRCLE
  5
380
  8
0
  6
CONTINUOUS
 62
     7
 10
-2059.4212825066
 20
807.2806975673
 30
0.0
 40
3.059999999999837
  0
CIRCLE
  5
381
  8
0
  6
CONTINUOUS
 62
     7
 10
-2059.4212825066
 20
837.8806975673
 30
0.0
 40
3.059999999999717
  0
CIRCLE
  5
382
  8
0
  6
CONTINUOUS
 62
     7
 10
-1431.4212825066
 20
837.8806975673
 30
0.0
 40
3.060000000000039
  0
ARC
  5
383
  8
0
  6
CONTINUOUS
 62
     7
 10
-1461.4212825066
 20
774.5806975673
 30
0.0
 40
6.700000000000052
 50
180.0
 51
317.16
  0
ARC
  5
384
  8
0
  6
CONTINUOUS
 62
     7
 10
-1461.4212825066
 20
774.5806975673
 30
0.0
 40
7.0
 50
180.0
 51
317.16
  0
LINE
  5
385
  8
0
  6
CONTINUOUS
 62
     7
 10
-1456.508479572
 20
770.0250105571
 30
0.0
 11
-1426.5081803567
 21
802.3770445596
 31
0.0
  0
LINE
  5
386
  8
0
  6
CONTINUOUS
 62
     7
 10
-1426.2882094151
 20
802.1730588387
 30
0.0
 11
-1456.2885086304
 21
769.8210248362
 31
0.0
  0
CIRCLE
  5
387
  8
0
  6
CONTINUOUS
 62
     7
 10
-1461.4212825066
 20
774.5806975673
 30
0.0
 40
3.200000000000045
  0
CIRCLE
  5
388
  8
0
  6
CONTINUOUS
 62
     7
 10
-1461.4212825066
 20
799.5806975673
 30
0.0
 40
3.199999999999932
  0
CIRCLE
  5
389
  8
0
  6
CONTINUOUS
 62
     7
 10
-1431.4212825066
 20
837.8806975673
 30
0.0
 40
2.249999999999886
  0
CIRCLE
  5
38A
  8
0
  6
CONTINUOUS
 62
     7
 10
-1431.4212825066
 20
807.2806975673
 30
0.0
 40
2.25
  0
ARC
  5
38B
  8
0
  6
CONTINUOUS
 62
     7
 10
-1428.6712825066
 20
840.3306975673
 30
0.0
 40
2.950000000000273
 50
0.0
 51
90.0
  0
LINE
  5
38C
  8
0
  6
CONTINUOUS
 62
     7
 10
-1425.7212798363
 20
804.3829066317
 30
0.0
 11
-1425.7212798363
 21
840.3306979324
 31
0.0
  0
ARC
  5
38D
  8
0
  6
CONTINUOUS
 62
     7
 10
-1428.6712825066
 20
804.3829063995
 30
0.0
 40
2.950000000000273
 50
317.16
 51
0.0
  0
LINE
  5
38E
  8
0
  6
CONTINUOUS
 62
     7
 10
-1468.1212823159
 20
798.1117212783
 30
0.0
 11
-1468.1212823159
 21
774.5806978654
 31
0.0
  0
ARC
  5
38F
  8
0
  6
CONTINUOUS
 62
     7
 10
-1461.4212825066
 20
798.1117226357
 30
0.0
 40
6.70000000000013
 50
137.16
 51
180.0
  0
LINE
  5
390
  8
0
  6
CONTINUOUS
 62
     7
 10
-1438.06823299
 20
833.1490565195
 30
0.0
 11
-1466.334096647
 21
802.6674104493
 31
0.0
  0
ARC
  5
391
  8
0
  6
CONTINUOUS
 62
     7
 10
-1440.6712825066
 20
835.5628909525
 30
0.0
 40
3.550000000000034
 50
317.16
 51
0.0
  0
LINE
  5
392
  8
0
  6
CONTINUOUS
 62
     7
 10
-1437.1212939984
 20
840.3306979324
 30
0.0
 11
-1437.1212939984
 21
835.5628907319
 31
0.0
  0
ARC
  5
393
  8
0
  6
CONTINUOUS
 62
     7
 10
-1434.1712825066
 20
840.3306975673
 30
0.0
 40
2.950000000000045
 50
90.0
 51
180.0
  0
LINE
  5
394
  8
0
  6
CONTINUOUS
 62
     7
 10
-1428.6712925202
 20
843.2806975778
 30
0.0
 11
-1434.1712813145
 21
843.2806975778
 31
0.0
  0
LINE
  5
395
  8
0
  6
CONTINUOUS
 62
     7
 10
-1468.4212724931
 20
774.5806978654
 30
0.0
 11
-1468.4212724931
 21
798.1117212783
 31
0.0
  0
ARC
  5
396
  8
0
  6
CONTINUOUS
 62
     7
 10
-1461.4212825066
 20
798.1117226357
 30
0.0
 40
6.999999999999997
 50
137.16
 51
180.0
  0
LINE
  5
397
  8
0
  6
CONTINUOUS
 62
     7
 10
-1466.5540675885
 20
802.8713961701
 30
0.0
 11
-1438.2882039315
 21
833.3530424732
 31
0.0
  0
ARC
  5
398
  8
0
  6
CONTINUOUS
 62
     7
 10
-1428.6712825066
 20
804.3829063995
 30
0.0
 40
3.250000000000227
 50
317.16
 51
0.0
  0
LINE
  5
399
  8
0
  6
CONTINUOUS
 62
     7
 10
-1425.4212896592
 20
840.3306979324
 30
0.0
 11
-1425.4212896592
 21
804.3829066317
 31
0.0
  0
ARC
  5
39A
  8
0
  6
CONTINUOUS
 62
     7
 10
-1440.6712825066
 20
835.5628909525
 30
0.0
 40
3.25
 50
317.16
 51
0.0
  0
ARC
  5
39B
  8
0
  6
CONTINUOUS
 62
     7
 10
-1434.1712825066
 20
840.3306975673
 30
0.0
 40
3.25
 50
90.0
 51
180.0
  0
LINE
  5
39C
  8
0
  6
CONTINUOUS
 62
     7
 10
-1437.4212841756
 20
835.5628907319
 30
0.0
 11
-1437.4212841756
 21
840.3306979324
 31
0.0
  0
ARC
  5
39D
  8
0
  6
CONTINUOUS
 62
     7
 10
-1428.6712825066
 20
840.3306975673
 30
0.0
 40
3.250000000000227
 50
0.0
 51
90.0
  0
LINE
  5
39E
  8
0
  6
CONTINUOUS
 62
     7
 10
-1434.1712813145
 20
843.5806979995
 30
0.0
 11
-1428.6712925202
 21
843.5806979995
 31
0.0
  0
CIRCLE
  5
39F
  8
0
  6
CONTINUOUS
 62
     7
 10
-2029.4212825066
 20
774.5806975673
 30
0.0
 40
3.200000000000045
  0
CIRCLE
  5
3A0
  8
0
  6
CONTINUOUS
 62
     7
 10
-2029.4212825066
 20
799.5806975673
 30
0.0
 40
3.199999999999932
  0
CIRCLE
  5
3A1
  8
0
  6
CONTINUOUS
 62
     7
 10
-2059.4212825066
 20
837.8806975673
 30
0.0
 40
2.249999999999886
  0
CIRCLE
  5
3A2
  8
0
  6
CONTINUOUS
 62
     7
 10
-2059.4212825066
 20
807.2806975673
 30
0.0
 40
2.25
  0
ARC
  5
3A3
  8
0
  6
CONTINUOUS
 62
     7
 10
-2056.6712825066
 20
840.3306975673
 30
0.0
 40
2.950000000000273
 50
0.0
 51
90.0
  0
LINE
  5
3A4
  8
0
  6
CONTINUOUS
 62
     7
 10
-2053.7212710149
 20
835.5628907319
 30
0.0
 11
-2053.7212710149
 21
840.3306979324
 31
0.0
  0
ARC
  5
3A5
  8
0
  6
CONTINUOUS
 62
     7
 10
-2050.1712825066
 20
835.5628909525
 30
0.0
 40
3.549999999999867
 50
180.0
 51
222.84
  0
LINE
  5
3A6
  8
0
  6
CONTINUOUS
 62
     7
 10
-2024.5084683663
 20
802.6674104493
 30
0.0
 11
-2052.7743320233
 21
833.1490565195
 31
0.0
  0
ARC
  5
3A7
  8
0
  6
CONTINUOUS
 62
     7
 10
-2029.4212825066
 20
798.1117226357
 30
0.0
 40
6.700000000000219
 50
0.0
 51
42.84
  0
LINE
  5
3A8
  8
0
  6
CONTINUOUS
 62
     7
 10
-2022.7212826974
 20
774.5806978654
 30
0.0
 11
-2022.7212826974
 21
798.1117212783
 31
0.0
  0
ARC
  5
3A9
  8
0
  6
CONTINUOUS
 62
     7
 10
-2029.4212825066
 20
774.5806975673
 30
0.0
 40
6.699999999999886
 50
222.84
 51
0.0
  0
LINE
  5
3AA
  8
0
  6
CONTINUOUS
 62
     7
 10
-2064.3343846566
 20
802.3770445596
 30
0.0
 11
-2034.3340854413
 21
770.0250105571
 31
0.0
  0
ARC
  5
3AB
  8
0
  6
CONTINUOUS
 62
     7
 10
-2062.1712825066
 20
804.3829063995
 30
0.0
 40
2.949999999999818
 50
180.0
 51
222.84
  0
LINE
  5
3AC
  8
0
  6
CONTINUOUS
 62
     7
 10
-2065.1212851769
 20
840.3306979324
 30
0.0
 11
-2065.1212851769
 21
804.3829066317
 31
0.0
  0
ARC
  5
3AD
  8
0
  6
CONTINUOUS
 62
     7
 10
-2062.1712825066
 20
840.3306975673
 30
0.0
 40
2.949999999999818
 50
90.0
 51
180.0
  0
LINE
  5
3AE
  8
0
  6
CONTINUOUS
 62
     7
 10
-2056.6712836987
 20
843.2806975778
 30
0.0
 11
-2062.1712724931
 21
843.2806975778
 31
0.0
  0
LINE
  5
3AF
  8
0
  6
CONTINUOUS
 62
     7
 10
-2034.5540563828
 20
769.8210248362
 30
0.0
 11
-2064.5543555981
 21
802.1730588387
 31
0.0
  0
ARC
  5
3B0
  8
0
  6
CONTINUOUS
 62
     7
 10
-2029.4212825066
 20
774.5806975673
 30
0.0
 40
7.0
 50
222.84
 51
0.0
  0
LINE
  5
3B1
  8
0
  6
CONTINUOUS
 62
     7
 10
-2022.4212925202
 20
798.1117212783
 30
0.0
 11
-2022.4212925202
 21
774.5806978654
 31
0.0
  0
LINE
  5
3B2
  8
0
  6
CONTINUOUS
 62
     7
 10
-2065.4212753541
 20
804.3829066317
 30
0.0
 11
-2065.4212753541
 21
840.3306979324
 31
0.0
  0
ARC
  5
3B3
  8
0
  6
CONTINUOUS
 62
     7
 10
-2062.1712825066
 20
804.3829063995
 30
0.0
 40
3.25
 50
180.0
 51
222.84
  0
ARC
  5
3B4
  8
0
  6
CONTINUOUS
 62
     7
 10
-2029.4212825066
 20
798.1117226357
 30
0.0
 40
7.000000000000163
 50
0.0
 51
42.84
  0
LINE
  5
3B5
  8
0
  6
CONTINUOUS
 62
     7
 10
-2052.5543610818
 20
833.3530424732
 30
0.0
 11
-2024.2884974248
 21
802.8713961701
 31
0.0
  0
ARC
  5
3B6
  8
0
  6
CONTINUOUS
 62
     7
 10
-2062.1712825066
 20
840.3306975673
 30
0.0
 40
3.25
 50
90.0
 51
180.0
  0
ARC
  5
3B7
  8
0
  6
CONTINUOUS
 62
     7
 10
-2050.1712825066
 20
835.5628909525
 30
0.0
 40
3.25
 50
180.0
 51
222.84
  0
LINE
  5
3B8
  8
0
  6
CONTINUOUS
 62
     7
 10
-2053.4212808377
 20
840.3306979324
 30
0.0
 11
-2053.4212808377
 21
835.5628907319
 31
0.0
  0
ARC
  5
3B9
  8
0
  6
CONTINUOUS
 62
     7
 10
-2056.6712825066
 20
840.3306975673
 30
0.0
 40
3.25
 50
0.0
 51
90.0
  0
LINE
  5
3BA
  8
0
  6
CONTINUOUS
 62
     7
 10
-2062.1712724931
 20
843.5806979995
 30
0.0
 11
-2056.6712836987
 21
843.5806979995
 31
0.0
  0
POLYLINE
  5
3BB
  8
0
  6
CONTINUOUS
 62
     7
 66
     1
 10
0.0
 20
0.0
 30
0.0
  0
VERTEX
  5
7C9
  8
0
  6
CONTINUOUS
 62
     7
 10
-1480.7694177396
 20
528.3806951355
 30
0.0
  0
VERTEX
  5
7CA
  8
0
  6
CONTINUOUS
 62
     7
 10
-1480.7707588441
 20
526.6181857895
 30
0.0
  0
VERTEX
  5
7CB
  8
0
  6
CONTINUOUS
 62
     7
 10
-1480.7721893555
 20
525.2454014133
 30
0.0
  0
SEQEND
  5
7CC
  8
0
  6
CONTINUOUS
 62
     7
  0
LINE
  5
3BC
  8
0
  6
CONTINUOUS
 62
     7
 10
-1507.9712788827
 20
525.0340433429
 30
0.0
 11
-1507.9712788827
 21
528.3806951355
 31
0.0
  0
LINE
  5
3BD
  8
0
  6
CONTINUOUS
 62
     7
 10
-1507.9712788827
 20
525.0340433429
 30
0.0
 11
-1507.8891138798
 21
525.1348645996
 31
0.0
  0
LINE
  5
3BE
  8
0
  6
CONTINUOUS
 62
     7
 10
-1477.9712776906
 20
528.3806951355
 30
0.0
 11
-1477.9712776906
 21
525.0340433429
 31
0.0
  0
LINE
  5
3BF
  8
0
  6
CONTINUOUS
 62
     7
 10
-1478.0534724957
 20
525.1348944019
 30
0.0
 11
-1477.9712776906
 21
525.0340433429
 31
0.0
  0
ARC
  5
3C0
  8
0
  6
CONTINUOUS
 62
     7
 10
-1482.6319099579
 20
525.0447566584
 30
0.0
 40
1.870513040998546
 50
359.1989437991
 51
6.1578072465
  0
POLYLINE
  5
3C1
  8
0
  6
CONTINUOUS
 62
     7
 66
     1
 10
0.0
 20
0.0
 30
0.0
  0
VERTEX
  5
7CD
  8
0
  6
CONTINUOUS
 62
     7
 10
-1480.7615797288
 20
525.01860574
 30
0.0
  0
VERTEX
  5
7CE
  8
0
  6
CONTINUOUS
 62
     7
 10
-1479.7693114049
 20
525.0716538738
 30
0.0
  0
VERTEX
  5
7CF
  8
0
  6
CONTINUOUS
 62
     7
 10
-1478.9873282677
 20
525.0389011215
 30
0.0
  0
VERTEX
  5
7D0
  8
0
  6
CONTINUOUS
 62
     7
 10
-1478.5285513169
 20
524.9561400722
 30
0.0
  0
VERTEX
  5
7D1
  8
0
  6
CONTINUOUS
 62
     7
 10
-1478.2896559006
 20
524.8438449215
 30
0.0
  0
VERTEX
  5
7D2
  8
0
  6
CONTINUOUS
 62
     7
 10
-1478.2344321973
 20
524.7412057232
 30
0.0
  0
SEQEND
  5
7D3
  8
0
  6
CONTINUOUS
 62
     7
  0
POLYLINE
  5
3C2
  8
0
  6
CONTINUOUS
 62
     7
 66
     1
 10
0.0
 20
0.0
 30
0.0
  0
VERTEX
  5
7D4
  8
0
  6
CONTINUOUS
 62
     7
 10
-1507.708124376
 20
524.7412057232
 30
0.0
  0
VERTEX
  5
7D5
  8
0
  6
CONTINUOUS
 62
     7
 10
-1507.6700668103
 20
524.8273046325
 30
0.0
  0
VERTEX
  5
7D6
  8
0
  6
CONTINUOUS
 62
     7
 10
-1507.513902641
 20
524.922195227
 30
0.0
  0
VERTEX
  5
7D7
  8
0
  6
CONTINUOUS
 62
     7
 10
-1507.15393529
 20
525.0126452755
 30
0.0
  0
VERTEX
  5
7D8
  8
0
  6
CONTINUOUS
 62
     7
 10
-1506.6586504943
 20
525.0619383167
 30
0.0
  0
VERTEX
  5
7D9
  8
0
  6
CONTINUOUS
 62
     7
 10
-1505.9707383878
 20
525.0678689789
 30
0.0
  0
VERTEX
  5
7DA
  8
0
  6
CONTINUOUS
 62
     7
 10
-1505.1810066468
 20
525.01860574
 30
0.0
  0
SEQEND
  5
7DB
  8
0
  6
CONTINUOUS
 62
     7
  0
ARC
  5
3C3
  8
0
  6
CONTINUOUS
 62
     7
 10
-1478.2681093767
 20
525.0361281603
 30
0.0
 40
0.296839007442015
 50
276.5143857506
 51
359.597585848
  0
ARC
  5
3C4
  8
0
  6
CONTINUOUS
 62
     7
 10
-1507.6744471966
 20
525.0361281603
 30
0.0
 40
0.2968390074420408
 50
180.402414152
 51
263.4856142493
  0
LINE
  5
3C5
  8
0
  6
CONTINUOUS
 62
     7
 10
-1477.9712776906
 20
525.0340433429
 30
0.0
 11
-1477.9712776906
 21
523.5867531608
 31
0.0
  0
LINE
  5
3C6
  8
0
  6
CONTINUOUS
 62
     7
 10
-1507.9712788827
 20
523.5867531608
 30
0.0
 11
-1507.9712788827
 21
525.0340433429
 31
0.0
  0
LINE
  5
3C7
  8
0
  6
CONTINUOUS
 62
     7
 10
-1482.0781569249
 20
522.5151212524
 30
0.0
 11
-1503.8644145495
 21
522.5151212524
 31
0.0
  0
LINE
  5
3C8
  8
0
  6
CONTINUOUS
 62
     7
 10
-1480.7293634183
 20
522.5153000664
 30
0.0
 11
-1482.077054239
 21
522.5153000664
 31
0.0
  0
LINE
  5
3C9
  8
0
  6
CONTINUOUS
 62
     7
 10
-1503.8655172354
 20
522.5153000664
 30
0.0
 11
-1505.2132080561
 21
522.5153000664
 31
0.0
  0
LINE
  5
3CA
  8
0
  6
CONTINUOUS
 62
     7
 10
-2040.9712712533
 20
531.380686314
 30
0.0
 11
-2040.9712712533
 21
529.9312205623
 31
0.0
  0
ARC
  5
3CB
  8
0
  6
CONTINUOUS
 62
     7
 10
-2040.4712822871
 20
532.380697993
 30
0.0
 40
2.500000000000137
 50
185.5744582289
 51
258.4630409672
  0
LINE
  5
3CC
  8
0
  6
CONTINUOUS
 62
     7
 10
-1459.9656979806
 20
548.5807092499
 30
0.0
 11
-1464.1712825066
 21
548.5807092499
 31
0.0
  0
LINE
  5
3CD
  8
0
  6
CONTINUOUS
 62
     7
 10
-1454.1712920434
 20
548.5807092499
 30
0.0
 11
-1459.9656979806
 21
548.5807092499
 31
0.0
  0
CIRCLE
  5
3CE
  8
0
  6
CONTINUOUS
 62
     7
 10
-1460.4212825066
 20
559.0806975673
 30
0.0
 40
7.000000000000003
  0
CIRCLE
  5
3CF
  8
0
  6
CONTINUOUS
 62
     7
 10
-2030.4212825066
 20
559.0806975673
 30
0.0
 40
7.000000000000089
  0
LINE
  5
3D0
  8
0
  6
CONTINUOUS
 62
     7
 10
-2025.9219031102
 20
543.3807106327
 30
0.0
 11
-2025.6518046624
 21
545.3023643802
 31
0.0
  0
ARC
  5
3D1
  8
0
  6
CONTINUOUS
 62
     7
 10
-2027.6323548384
 20
545.5806975675
 30
0.0
 40
2.000000082123506
 50
352.0000011903
 51
89.9999999999
  0
LINE
  5
3D2
  8
0
  6
CONTINUOUS
 62
     7
 10
-2027.632347799
 20
547.5806923221
 30
0.0
 11
-2036.6712729699
 21
547.5806923221
 31
0.0
  0
LINE
  5
3D3
  8
0
  6
CONTINUOUS
 62
     7
 10
-2036.6712729699
 20
547.5806923221
 30
0.0
 11
-2036.6712729699
 21
549.5806963753
 31
0.0
  0
ARC
  5
3D4
  8
0
  6
CONTINUOUS
 62
     7
 10
-2027.6323548384
 20
545.5806975675
 30
0.0
 40
4.0
 50
352.0000011904
 51
90.0000000001
  0
LINE
  5
3D5
  8
0
  6
CONTINUOUS
 62
     7
 10
-2023.6712913281
 20
545.0240106891
 30
0.0
 11
-2023.9022295243
 21
543.3807106327
 31
0.0
  0
LINE
  5
3D6
  8
0
  6
CONTINUOUS
 62
     7
 10
-2031.6712777383
 20
547.3606915783
 30
0.0
 11
-2029.1712801224
 21
547.3606915783
 31
0.0
  0
LINE
  5
3D7
  8
0
  6
CONTINUOUS
 62
     7
 10
-2034.1712753541
 20
547.3606915783
 30
0.0
 11
-2031.6712777383
 21
547.3606915783
 31
0.0
  0
LINE
  5
3D8
  8
0
  6
CONTINUOUS
 62
     7
 10
-2031.6712777383
 20
546.9606848072
 30
0.0
 11
-2033.771268583
 21
546.9606848072
 31
0.0
  0
LINE
  5
3D9
  8
0
  6
CONTINUOUS
 62
     7
 10
-2029.5712868935
 20
546.9606848072
 30
0.0
 11
-2031.6712777383
 21
546.9606848072
 31
0.0
  0
LINE
  5
3DA
  8
0
  6
CONTINUOUS
 62
     7
 10
-2469.8805363511
 20
-133.1751741807
 30
0.0
 11
-2468.1807074409
 21
-132.1938838383
 31
0.0
  0
LINE
  5
3DB
  8
0
  6
CONTINUOUS
 62
     7
 10
-2890.4875967582
 20
436.9286817113
 30
0.0
 11
-2892.6089172025
 21
435.7040694854
 31
0.0
  0
LINE
  5
3DC
  8
0
  6
CONTINUOUS
 62
     7
 10
-2912.2437677732
 20
440.0063959055
 30
0.0
 11
-2912.2437677732
 21
114.4995390565
 31
0.0
  0
LINE
  5
3DD
  8
0
  6
CONTINUOUS
 62
     7
 10
-2468.1807154258
 20
183.6542523941
 30
0.0
 11
-2468.1807154258
 21
-141.8526044548
 31
0.0
  0
LINE
  5
3DE
  8
0
  6
CONTINUOUS
 62
     7
 10
-2434.6893366786
 20
-129.6064841917
 30
0.0
 11
-2434.6893366786
 21
195.900336155
 31
0.0
  0
POLYLINE
  5
3DF
  8
0
  6
CONTINUOUS
 62
     7
 66
     1
 10
0.0
 20
0.0
 30
0.0
  0
VERTEX
  5
7DC
  8
0
  6
CONTINUOUS
 62
     7
 10
-2269.5370148387
 20
12.2858246789
 30
0.0
  0
VERTEX
  5
7DD
  8
0
  6
CONTINUOUS
 62
     7
 10
-2268.9098486594
 20
12.4755038299
 30
0.0
  0
VERTEX
  5
7DE
  8
0
  6
CONTINUOUS
 62
     7
 10
-2267.8040207216
 20
13.0475441892
 30
0.0
  0
SEQEND
  5
7DF
  8
0
  6
CONTINUOUS
 62
     7
  0
POLYLINE
  5
3E0
  8
0
  6
CONTINUOUS
 62
     7
 66
     1
 10
0.0
 20
0.0
 30
0.0
  0
VERTEX
  5
7E0
  8
0
  6
CONTINUOUS
 62
     7
 10
-2664.552388728
 20
537.0571044655
 30
0.0
  0
VERTEX
  5
7E1
  8
0
  6
CONTINUOUS
 62
     7
 10
-2664.9783458525
 20
536.8367594776
 30
0.0
  0
VERTEX
  5
7E2
  8
0
  6
CONTINUOUS
 62
     7
 10
-2665.8802251903
 20
536.1279439771
 30
0.0
  0
SEQEND
  5
7E3
  8
0
  6
CONTINUOUS
 62
     7
  0
LINE
  5
3E1
  8
0
  6
CONTINUOUS
 62
     7
 10
-2301.4829878475
 20
288.8811813684
 30
0.0
 11
-2301.4829878475
 21
288.882337272
 31
0.0
  0
LINE
  5
3E2
  8
0
  6
CONTINUOUS
 62
     7
 10
-2323.9890677776
 20
275.8898571035
 30
0.0
 11
-2323.9890677776
 21
275.8887072836
 31
0.0
  0
LINE
  5
3E3
  8
0
  6
CONTINUOUS
 62
     7
 10
-2255.9959278352
 20
-4.5932590246
 30
0.0
 11
-2255.9959278352
 21
313.0411156309
 31
0.0
  0
LINE
  5
3E4
  8
0
  6
CONTINUOUS
 62
     7
 10
-2258.2031161448
 20
316.8640049292
 30
0.0
 11
-2674.6890429697
 21
557.2962127417
 31
0.0
  0
LINE
  5
3E5
  8
0
  6
CONTINUOUS
 62
     7
 10
-2265.9813170375
 20
-12.9064081204
 30
0.0
 11
-2258.2031161448
 21
-8.4161483229
 31
0.0
  0
LINE
  5
3E6
  8
0
  6
CONTINUOUS
 62
     7
 10
-2679.1029981205
 20
557.2962127417
 30
0.0
 11
-2686.8811990132
 21
552.8059529443
 31
0.0
  0
LINE
  5
3E7
  8
0
  6
CONTINUOUS
 62
     7
 10
-2269.5370148387
 20
-16.9957300269
 30
0.0
 11
-2269.5370148387
 21
306.4623789561
 31
0.0
  0
LINE
  5
3E8
  8
0
  6
CONTINUOUS
 62
     7
 10
-2270.2833723056
 20
307.7547430031
 30
0.0
 11
-2691.8125699498
 21
551.0983690884
 31
0.0
  0
LINE
  5
3E9
  8
0
  6
CONTINUOUS
 62
     7
 10
-2285.0851558418
 20
298.3486205799
 30
0.0
 11
-2285.0841443174
 21
298.3480366393
 31
0.0
  0
LINE
  5
3EA
  8
0
  6
CONTINUOUS
 62
     7
 10
-2889.3056931003
 20
437.0826803948
 30
0.0
 11
-2889.3056931003
 21
436.724605796
 31
0.0
  0
LINE
  5
3EB
  8
0
  6
CONTINUOUS
 62
     7
 10
-2469.1807040659
 20
-142.0975659009
 30
0.0
 11
-2469.1807040659
 21
-144.8738151544
 31
0.0
  0
LINE
  5
3EC
  8
0
  6
CONTINUOUS
 62
     7
 10
-2913.2437774867
 20
114.2545897759
 30
0.0
 11
-2913.2437774867
 21
111.4783405223
 31
0.0
  0
LINE
  5
3ED
  8
0
  6
CONTINUOUS
 62
     7
 10
-2913.2437774867
 20
444.1370770964
 30
0.0
 11
-2913.2437774867
 21
441.3608278428
 31
0.0
  0
LINE
  5
3EE
  8
0
  6
CONTINUOUS
 62
     7
 10
-2835.3932114424
 20
460.4647766816
 30
0.0
 11
-2835.6053628728
 21
460.5872828214
 31
0.0
  0
LINE
  5
3EF
  8
0
  6
CONTINUOUS
 62
     7
 10
-2833.3437577133
 20
454.8315616149
 30
0.0
 11
-2833.3437577133
 21
457.6078108685
 31
0.0
  0
LINE
  5
3F0
  8
0
  6
CONTINUOUS
 62
     7
 10
-2469.1807040659
 20
187.7849214196
 30
0.0
 11
-2469.1807040659
 21
185.008672166
 31
0.0
  0
LINE
  5
3F1
  8
0
  6
CONTINUOUS
 62
     7
 10
-2433.7565465786
 20
228.6048653327
 30
0.0
 11
-2433.9687190824
 21
228.727383638
 31
0.0
  0
LINE
  5
3F2
  8
0
  6
CONTINUOUS
 62
     7
 10
-2431.7070928495
 20
222.971650266
 30
0.0
 11
-2431.7070928495
 21
225.7478995196
 31
0.0
  0
LINE
  5
3F3
  8
0
  6
CONTINUOUS
 62
     7
 10
-2582.8474828507
 20
394.5920696876
 30
0.0
 11
-2579.5585746005
 21
392.6934233686
 31
0.0
  0
LINE
  5
3F4
  8
0
  6
CONTINUOUS
 62
     7
 10
-2543.9283440488
 20
372.1245290923
 30
0.0
 11
-2542.631935306
 21
371.3761282552
 31
0.0
  0
ARC
  5
3F5
  8
0
  6
CONTINUOUS
 62
     7
 10
-2892.1610682277
 20
434.9282458891
 30
0.0
 40
0.8734043549340165
 50
50.7960392616
 51
189.2154518496
  0
LINE
  5
3F6
  8
0
  6
CONTINUOUS
 62
     7
 10
-2470.8804492586
 20
192.7236226729
 30
0.0
 11
-2891.6090042951
 21
435.605047619
 31
0.0
  0
ARC
  5
3F7
  8
0
  6
CONTINUOUS
 62
     7
 10
-2472.5365998186
 20
190.134472257
 30
0.0
 40
3.073521523260264
 50
2.6047758821
 51
57.3949777847
  0
LINE
  5
3F8
  8
0
  6
CONTINUOUS
 62
     7
 10
-2469.4662539036
 20
-132.2594771493
 30
0.0
 11
-2469.4662539036
 21
190.2741523061
 31
0.0
  0
ARC
  5
3F9
  8
0
  6
CONTINUOUS
 62
     7
 10
-2470.328385326
 20
-132.3993505844
 30
0.0
 40
0.8734043549341654
 50
230.7960392616
 51
9.2154518496
  0
LINE
  5
3FA
  8
0
  6
CONTINUOUS
 62
     7
 10
-2891.6090042951
 20
109.8052726318
 30
0.0
 11
-2470.8804492586
 21
-133.0761523143
 31
0.0
  0
ARC
  5
3FB
  8
0
  6
CONTINUOUS
 62
     7
 10
-2889.952853735
 20
112.3944230477
 30
0.0
 40
3.073521523261868
 50
182.6047758821
 51
237.3949777847
  0
LINE
  5
3FC
  8
0
  6
CONTINUOUS
 62
     7
 10
-2893.02319965
 20
434.788372454
 30
0.0
 11
-2893.02319965
 21
112.2547429986
 31
0.0
  0
ARC
  5
3FD
  8
0
  6
CONTINUOUS
 62
     7
 10
-2470.4152793743
 20
191.3590844829
 30
0.0
 40
3.073521523260479
 50
2.6047758821
 51
57.3949777847
  0
LINE
  5
3FE
  8
0
  6
CONTINUOUS
 62
     7
 10
-2467.3449334593
 20
189.6218812795
 30
0.0
 11
-2467.3449334593
 21
191.498764532
 31
0.0
  0
LINE
  5
3FF
  8
0
  6
CONTINUOUS
 62
     7
 10
-2468.7591288143
 20
193.9482348988
 30
0.0
 11
-2889.4876838507
 21
436.8296598449
 31
0.0
  0
ARC
  5
400
  8
0
  6
CONTINUOUS
 62
     7
 10
-2890.0735286909
 20
436.0118784384
 30
0.0
 40
1.005972467598314
 50
54.3828253669
 51
114.3059964268
  0
ARC
  5
401
  8
0
  6
CONTINUOUS
 62
     7
 10
-2906.1046723266
 20
114.4065729111
 30
0.0
 40
3.458316935833056
 50
242.6096041459
 51
297.3901631093
  0
LINE
  5
402
  8
0
  6
CONTINUOUS
 62
     7
 10
-2907.6956743501
 20
111.3359591956
 30
0.0
 11
-2911.584753723
 21
113.5810769289
 31
0.0
  0
LINE
  5
403
  8
0
  6
CONTINUOUS
 62
     7
 10
-2893.0231973451
 20
117.9692687781
 30
0.0
 11
-2904.5136827764
 21
111.3359527327
 31
0.0
  0
ARC
  5
404
  8
0
  6
CONTINUOUS
 62
     7
 10
-2911.1177263711
 20
114.6118365622
 30
0.0
 40
1.131627133380255
 50
185.6951448735
 51
245.6251734944
  0
ARC
  5
405
  8
0
  6
CONTINUOUS
 62
     7
 10
-2462.0416199792
 20
-141.9455706002
 30
0.0
 40
3.45831693583161
 50
242.6096041459
 51
297.3901631093
  0
LINE
  5
406
  8
0
  6
CONTINUOUS
 62
     7
 10
-2460.450630429
 20
-145.0161907786
 30
0.0
 11
-2435.3483395336
 21
-130.5249466995
 31
0.0
  0
LINE
  5
407
  8
0
  6
CONTINUOUS
 62
     7
 10
-2467.5217013756
 20
-142.7710665825
 30
0.0
 11
-2463.6326220026
 21
-145.0161843158
 31
0.0
  0
ARC
  5
408
  8
0
  6
CONTINUOUS
 62
     7
 10
-2467.0546740237
 20
-141.7403069492
 30
0.0
 40
1.131627133381728
 50
185.6951448736
 51
245.6251734944
  0
ARC
  5
409
  8
0
  6
CONTINUOUS
 62
     7
 10
-2435.815386184
 20
-129.4941869913
 30
0.0
 40
1.131635166355321
 50
294.3757149483
 51
354.3049112183
  0
ARC
  5
40A
  8
0
  6
CONTINUOUS
 62
     7
 10
-2289.7629101747
 20
295.2727147418
 30
0.0
 40
25.41170121888772
 50
23.2823469074
 51
41.1879939887
  0
ARC
  5
40B
  8
0
  6
CONTINUOUS
 62
     7
 10
-2270.3507498239
 20
17.5007190692
 30
0.0
 40
5.163166275125716
 50
299.9149951706
 51
319.5704150446
  0
ARC
  5
40C
  8
0
  6
CONTINUOUS
 62
     7
 10
-2661.8735508033
 20
532.1512016857
 30
0.0
 40
5.622561351037858
 50
88.4060093189
 51
118.7809963285
  0
ARC
  5
40D
  8
0
  6
CONTINUOUS
 62
     7
 10
-2269.9656195444
 20
307.524962991
 30
0.0
 40
4.610504805293904
 50
2.6059919671
 51
57.3938438608
  0
ARC
  5
40E
  8
0
  6
CONTINUOUS
 62
     7
 10
-2280.0856632975
 20
301.6816791736
 30
0.0
 40
25.25805406144966
 50
25.1822075678
 51
34.81762826
  0
ARC
  5
40F
  8
0
  6
CONTINUOUS
 62
     7
 10
-2268.7232971009
 20
308.2421518412
 30
0.0
 40
2.305127920250416
 50
2.6045276086
 51
57.395143899
  0
ARC
  5
410
  8
0
  6
CONTINUOUS
 62
     7
 10
-2253.3281767333
 20
-8.6819560802
 30
0.0
 40
4.313707757289884
 50
145.2980961518
 51
154.7009178277
  0
LINE
  5
411
  8
0
  6
CONTINUOUS
 62
     7
 10
-2265.3598828296
 20
-11.532868656
 30
0.0
 11
-2265.3598828296
 21
307.7345909328
 31
0.0
  0
ARC
  5
412
  8
0
  6
CONTINUOUS
 62
     7
 10
-2256.6422149129
 20
313.0354198211
 30
0.0
 40
0.8432941696307061
 50
225.9869732164
 51
254.0052323332
  0
LINE
  5
413
  8
0
  6
CONTINUOUS
 62
     7
 10
-2267.4811969355
 20
311.4088268996
 30
0.0
 11
-2275.9664744322
 21
316.3072733321
 31
0.0
  0
LINE
  5
414
  8
0
  6
CONTINUOUS
 62
     7
 10
-2275.9664744322
 20
316.3072733321
 30
0.0
 11
-2271.1934913523
 21
319.0626578141
 31
0.0
  0
LINE
  5
415
  8
0
  6
CONTINUOUS
 62
     7
 10
-2271.1934913523
 20
319.0626578141
 30
0.0
 11
-2266.4205293458
 21
316.3072854975
 31
0.0
  0
LINE
  5
416
  8
0
  6
CONTINUOUS
 62
     7
 10
-2266.4205293458
 20
316.3072854975
 30
0.0
 11
-2259.3745877992
 21
316.3072854975
 31
0.0
  0
ARC
  5
417
  8
0
  6
CONTINUOUS
 62
     7
 10
-2258.5271380314
 20
316.307977629
 30
0.0
 40
0.8474500504286631
 50
180.0467947546
 51
193.9851569906
  0
LINE
  5
418
  8
0
  6
CONTINUOUS
 62
     7
 10
-2266.4205504193
 20
-10.9205582899
 30
0.0
 11
-2266.4205504193
 21
308.3469012989
 31
0.0
  0
LINE
  5
419
  8
0
  6
CONTINUOUS
 62
     7
 10
-2267.4811969355
 20
310.1840071159
 30
0.0
 11
-2275.9664744322
 21
315.0824535484
 31
0.0
  0
LINE
  5
41A
  8
0
  6
CONTINUOUS
 62
     7
 10
-2275.9664744322
 20
315.0824535484
 30
0.0
 11
-2275.9664744322
 21
316.3072733321
 31
0.0
  0
ARC
  5
41B
  8
0
  6
CONTINUOUS
 62
     7
 10
-2258.5277695308
 20
316.3065740408
 30
0.0
 40
0.8468185672989172
 50
166.0037024314
 51
179.9518628019
  0
LINE
  5
41C
  8
0
  6
CONTINUOUS
 62
     7
 10
-2275.9664744322
 20
316.3072733321
 30
0.0
 11
-2676.8960205451
 21
547.7589737151
 31
0.0
  0
LINE
  5
41D
  8
0
  6
CONTINUOUS
 62
     7
 10
-2672.1230374652
 20
550.5143581971
 30
0.0
 11
-2676.8960205451
 21
547.7589737151
 31
0.0
  0
LINE
  5
41E
  8
0
  6
CONTINUOUS
 62
     7
 10
-2676.8960205451
 20
553.2697426791
 30
0.0
 11
-2672.1230374652
 21
550.5143581971
 31
0.0
  0
LINE
  5
41F
  8
0
  6
CONTINUOUS
 62
     7
 10
-2676.8960205451
 20
557.337278154
 30
0.0
 11
-2676.8960205451
 21
553.2697426791
 31
0.0
  0
ARC
  5
420
  8
0
  6
CONTINUOUS
 62
     7
 10
-2676.8953449883
 20
561.6384508071
 30
0.0
 40
4.301172706062951
 50
269.99100093
 51
274.7061841466
  0
LINE
  5
421
  8
0
  6
CONTINUOUS
 62
     7
 10
-2256.8745842595
 20
312.2247722137
 30
0.0
 11
-2257.3539203676
 21
312.5014870589
 31
0.0
  0
LINE
  5
422
  8
0
  6
CONTINUOUS
 62
     7
 10
-2259.3494472041
 20
316.1031805851
 30
0.0
 11
-2259.3494472041
 21
316.5113848977
 31
0.0
  0
LINE
  5
423
  8
0
  6
CONTINUOUS
 62
     7
 10
-2676.8960205451
 20
547.7589737151
 30
0.0
 11
-2676.8960205451
 21
546.5341539314
 31
0.0
  0
LINE
  5
424
  8
0
  6
CONTINUOUS
 62
     7
 10
-2275.9664744322
 20
315.0824535484
 30
0.0
 11
-2676.8960205451
 21
546.5341539314
 31
0.0
  0
ARC
  5
425
  8
0
  6
CONTINUOUS
 62
     7
 10
-2258.7819258798
 20
-4.1469100444
 30
0.0
 40
2.821545512406636
 50
312.5312163462
 51
350.8982184217
  0
POLYLINE
  5
426
  8
0
  6
CONTINUOUS
 62
     7
 66
     1
 10
0.0
 20
0.0
 30
0.0
  0
VERTEX
  5
7E4
  8
0
  6
CONTINUOUS
 62
     7
 10
-2256.8745842595
 20
312.2247722137
 30
0.0
  0
VERTEX
  5
7E5
  8
0
  6
CONTINUOUS
 62
     7
 10
-2256.5324993636
 20
312.2857412017
 30
0.0
  0
VERTEX
  5
7E6
  8
0
  6
CONTINUOUS
 62
     7
 10
-2256.2494200555
 20
312.4491385622
 30
0.0
  0
VERTEX
  5
7E7
  8
0
  6
CONTINUOUS
 62
     7
 10
-2256.0615715517
 20
312.706996394
 30
0.0
  0
VERTEX
  5
7E8
  8
0
  6
CONTINUOUS
 62
     7
 10
-2255.9959067617
 20
313.0411277963
 30
0.0
  0
VERTEX
  5
7E9
  8
0
  6
CONTINUOUS
 62
     7
 10
-2256.0617401391
 20
313.4280535071
 30
0.0
  0
VERTEX
  5
7EA
  8
0
  6
CONTINUOUS
 62
     7
 10
-2256.2487878528
 20
313.841544838
 30
0.0
  0
VERTEX
  5
7EB
  8
0
  6
CONTINUOUS
 62
     7
 10
-2256.5327522446
 20
314.2629397147
 30
0.0
  0
VERTEX
  5
7EC
  8
0
  6
CONTINUOUS
 62
     7
 10
-2256.8745842595
 20
314.6739893473
 30
0.0
  0
SEQEND
  5
7ED
  8
0
  6
CONTINUOUS
 62
     7
  0
ARC
  5
427
  8
0
  6
CONTINUOUS
 62
     7
 10
-2259.9442772839
 20
312.5919689149
 30
0.0
 40
2.489222946324459
 50
10.3954713446
 51
36.1874758292
  0
LINE
  5
428
  8
0
  6
CONTINUOUS
 62
     7
 10
-2256.8745842595
 20
314.6739893473
 30
0.0
 11
-2257.9352518491
 21
314.0616789812
 31
0.0
  0
POLYLINE
  5
429
  8
0
  6
CONTINUOUS
 62
     7
 66
     1
 10
0.0
 20
0.0
 30
0.0
  0
VERTEX
  5
7EE
  8
0
  6
CONTINUOUS
 62
     7
 10
-2257.2281330982
 20
315.2863660645
 30
0.0
  0
VERTEX
  5
7EF
  8
0
  6
CONTINUOUS
 62
     7
 10
-2257.4133895709
 20
315.788333486
 30
0.0
  0
VERTEX
  5
7F0
  8
0
  6
CONTINUOUS
 62
     7
 10
-2257.6355245359
 20
316.2435039848
 30
0.0
  0
VERTEX
  5
7F1
  8
0
  6
CONTINUOUS
 62
     7
 10
-2257.9010075347
 20
316.6136972979
 30
0.0
  0
VERTEX
  5
7F2
  8
0
  6
CONTINUOUS
 62
     7
 10
-2258.2030318511
 20
316.8639440803
 30
0.0
  0
VERTEX
  5
7F3
  8
0
  6
CONTINUOUS
 62
     7
 10
-2258.5258134905
 20
316.9743369901
 30
0.0
  0
VERTEX
  5
7F4
  8
0
  6
CONTINUOUS
 62
     7
 10
-2258.8417462669
 20
316.9407851607
 30
0.0
  0
VERTEX
  5
7F5
  8
0
  6
CONTINUOUS
 62
     7
 10
-2259.125773879
 20
316.776925599
 30
0.0
  0
VERTEX
  5
7F6
  8
0
  6
CONTINUOUS
 62
     7
 10
-2259.3494472041
 20
316.5113848977
 30
0.0
  0
SEQEND
  5
7F7
  8
0
  6
CONTINUOUS
 62
     7
  0
LINE
  5
42A
  8
0
  6
CONTINUOUS
 62
     7
 10
-2258.2888006879
 20
314.6740556984
 30
0.0
 11
-2257.2281330982
 21
315.2863660645
 31
0.0
  0
ARC
  5
42B
  8
0
  6
CONTINUOUS
 62
     7
 10
-2260.1295174153
 20
313.9945974208
 30
0.0
 40
1.962116617795397
 50
20.2604660077
 51
53.1603822727
  0
ARC
  5
42C
  8
0
  6
CONTINUOUS
 62
     7
 10
-2675.6956558215
 20
554.6601903231
 30
0.0
 40
2.821650743209061
 50
69.099962233
 51
107.4639803425
  0
ARC
  5
42D
  8
0
  6
CONTINUOUS
 62
     7
 10
-2253.3303142634
 20
317.1284810213
 30
0.0
 40
4.311192315766387
 50
205.2954874814
 51
214.70352676
  0
ARC
  5
42E
  8
0
  6
CONTINUOUS
 62
     7
 10
-2259.6674954013
 20
-6.4210490248
 30
0.0
 40
2.474806862209013
 50
306.2781680917
 51
350.2883987567
  0
ARC
  5
42F
  8
0
  6
CONTINUOUS
 62
     7
 10
-2266.6531177171
 20
-11.7426327206
 30
0.0
 40
1.31013641922155
 50
230.7980467639
 51
9.2131978908
  0
ARC
  5
430
  8
0
  6
CONTINUOUS
 62
     7
 10
-2267.0671470418
 20
-11.0254692538
 30
0.0
 40
0.6550522899728879
 50
230.7957501539
 51
9.2159874081
  0
LINE
  5
431
  8
0
  6
CONTINUOUS
 62
     7
 10
-2266.4205293458
 20
-6.6346091075
 30
0.0
 11
-2269.5369937653
 21
-4.835512493
 31
0.0
  0
LINE
  5
432
  8
0
  6
CONTINUOUS
 62
     7
 10
-2269.5370148387
 20
-10.3462692916
 30
0.0
 11
-2267.4811969355
 21
-11.5330677055
 31
0.0
  0
LINE
  5
433
  8
0
  6
CONTINUOUS
 62
     7
 10
-2269.5370148387
 20
-11.5710890753
 30
0.0
 11
-2267.4811969355
 21
-12.7578874891
 31
0.0
  0
ARC
  5
434
  8
0
  6
CONTINUOUS
 62
     7
 10
-2676.8966961019
 20
561.6384508072
 30
0.0
 40
4.301172706190405
 50
265.2938158534
 51
270.0089990699
  0
LINE
  5
435
  8
0
  6
CONTINUOUS
 62
     7
 10
-2676.8960205451
 20
547.7589737151
 30
0.0
 11
-2685.3813191152
 21
552.657432313
 31
0.0
  0
LINE
  5
436
  8
0
  6
CONTINUOUS
 62
     7
 10
-2676.8960205451
 20
546.5341539314
 30
0.0
 11
-2685.3813191152
 21
551.4326125293
 31
0.0
  0
ARC
  5
437
  8
0
  6
CONTINUOUS
 62
     7
 10
-2678.0963925994
 20
554.6604347278
 30
0.0
 40
2.821419805369557
 50
72.5343881554
 51
110.9016692691
  0
ARC
  5
438
  8
0
  6
CONTINUOUS
 62
     7
 10
-2686.2093983336
 20
551.6421775444
 30
0.0
 40
1.310136419222126
 50
50.7980467639
 51
189.2131978908
  0
ARC
  5
439
  8
0
  6
CONTINUOUS
 62
     7
 10
-2685.79536384
 20
550.925005127
 30
0.0
 40
0.6550559587066587
 50
50.7965953443
 51
189.2151422178
  0
LINE
  5
43A
  8
0
  6
CONTINUOUS
 62
     7
 10
-2686.4419656314
 20
550.8201031137
 30
0.0
 11
-2686.4419656314
 21
547.9979705711
 31
0.0
  0
LINE
  5
43B
  8
0
  6
CONTINUOUS
 62
     7
 10
-2687.5026332211
 20
551.4324134798
 30
0.0
 11
-2687.5026332211
 21
548.6102809372
 31
0.0
  0
ARC
  5
43C
  8
0
  6
CONTINUOUS
 62
     7
 10
-2469.19321722
 20
202.9965388531
 30
0.0
 40
10.53203647646931
 50
278.6911932986
 51
298.5298871786
  0
LINE
  5
43D
  8
0
  6
CONTINUOUS
 62
     7
 10
-2467.3449317306
 20
193.131506546
 30
0.0
 11
-2467.7590353009
 21
192.8924496434
 31
0.0
  0
POLYLINE
  5
43E
  8
0
  6
CONTINUOUS
 62
     7
 66
     1
 10
0.0
 20
0.0
 30
0.0
  0
VERTEX
  5
7F8
  8
0
  6
CONTINUOUS
 62
     7
 10
-2465.22360396
 20
194.3557380173
 30
0.0
  0
VERTEX
  5
7F9
  8
0
  6
CONTINUOUS
 62
     7
 10
-2465.4509065238
 20
194.2245273834
 30
0.0
  0
VERTEX
  5
7FA
  8
0
  6
CONTINUOUS
 62
     7
 10
-2465.7102332839
 20
194.0748342398
 30
0.0
  0
VERTEX
  5
7FB
  8
0
  6
CONTINUOUS
 62
     7
 10
-2465.9916199679
 20
193.9124234407
 30
0.0
  0
VERTEX
  5
7FC
  8
0
  6
CONTINUOUS
 62
     7
 10
-2466.2842684216
 20
193.7435414995
 30
0.0
  0
VERTEX
  5
7FD
  8
0
  6
CONTINUOUS
 62
     7
 10
-2466.5769021403
 20
193.5746626583
 30
0.0
  0
VERTEX
  5
7FE
  8
0
  6
CONTINUOUS
 62
     7
 10
-2466.8582985378
 20
193.4122910681
 30
0.0
  0
VERTEX
  5
7FF
  8
0
  6
CONTINUOUS
 62
     7
 10
-2467.1176103983
 20
193.2626413523
 30
0.0
  0
VERTEX
  5
800
  8
0
  6
CONTINUOUS
 62
     7
 10
-2467.3449317306
 20
193.131506546
 30
0.0
  0
SEQEND
  5
801
  8
0
  6
CONTINUOUS
 62
     7
  0
ARC
  5
43F
  8
0
  6
CONTINUOUS
 62
     7
 10
-2885.373737198
 20
436.6318585509
 30
0.0
 40
3.312712937567496
 50
126.9668937924
 51
184.6950732928
  0
ARC
  5
440
  8
0
  6
CONTINUOUS
 62
     7
 10
-2459.8197941546
 20
186.705259865
 30
0.0
 40
10.39196201869304
 50
121.3354487287
 51
141.4441493125
  0
POLYLINE
  5
441
  8
0
  6
CONTINUOUS
 62
     7
 66
     1
 10
0.0
 20
0.0
 30
0.0
  0
VERTEX
  5
802
  8
0
  6
CONTINUOUS
 62
     7
 10
-2467.3449317306
 20
193.131506546
 30
0.0
  0
VERTEX
  5
803
  8
0
  6
CONTINUOUS
 62
     7
 10
-2467.1177157654
 20
193.2628238535
 30
0.0
  0
VERTEX
  5
804
  8
0
  6
CONTINUOUS
 62
     7
 10
-2466.8584881986
 20
193.4126195702
 30
0.0
  0
VERTEX
  5
805
  8
0
  6
CONTINUOUS
 62
     7
 10
-2466.5771760948
 20
193.5751493289
 30
0.0
  0
VERTEX
  5
806
  8
0
  6
CONTINUOUS
 62
     7
 10
-2466.2846266698
 20
193.7441620036
 30
0.0
  0
VERTEX
  5
807
  8
0
  6
CONTINUOUS
 62
     7
 10
-2465.9920414364
 20
193.9131534456
 30
0.0
  0
VERTEX
  5
808
  8
0
  6
CONTINUOUS
 62
     7
 10
-2465.7106968993
 20
194.0756372451
 30
0.0
  0
VERTEX
  5
809
  8
0
  6
CONTINUOUS
 62
     7
 10
-2465.4513912126
 20
194.225366889
 30
0.0
  0
VERTEX
  5
80A
  8
0
  6
CONTINUOUS
 62
     7
 10
-2465.2241097222
 20
194.3566140231
 30
0.0
  0
SEQEND
  5
80B
  8
0
  6
CONTINUOUS
 62
     7
  0
ARC
  5
442
  8
0
  6
CONTINUOUS
 62
     7
 10
-2273.3059611491
 20
-14.3912588033
 30
0.0
 40
5.067664320707013
 50
300.0544982187
 51
304.7739138542
  0
LINE
  5
443
  8
0
  6
CONTINUOUS
 62
     7
 10
-2434.6893248248
 20
-113.4073648905
 30
0.0
 11
-2270.7679556963
 21
-18.7775727444
 31
0.0
  0
LINE
  5
444
  8
0
  6
CONTINUOUS
 62
     7
 10
-2270.7679556963
 20
305.3879735734
 30
0.0
 11
-2432.4142721865
 21
212.0715413597
 31
0.0
  0
LINE
  5
445
  8
0
  6
CONTINUOUS
 62
     7
 10
-2463.8007927026
 20
193.9524887406
 30
0.0
 11
-2464.1629363704
 21
193.7434276512
 31
0.0
  0
ARC
  5
446
  8
0
  6
CONTINUOUS
 62
     7
 10
-2268.5817968538
 20
301.611167844
 30
0.0
 40
4.363891841223107
 50
114.8496321262
 51
120.0638912443
  0
POLYLINE
  5
447
  8
0
  6
CONTINUOUS
 62
     7
 66
     1
 10
0.0
 20
0.0
 30
0.0
  0
VERTEX
  5
80C
  8
0
  6
CONTINUOUS
 62
     7
 10
-2293.0430919699
 20
7.7199570861
 30
0.0
  0
VERTEX
  5
80D
  8
0
  6
CONTINUOUS
 62
     7
 10
-2292.9619171397
 20
7.7854587845
 30
0.0
  0
VERTEX
  5
80E
  8
0
  6
CONTINUOUS
 62
     7
 10
-2292.8930913361
 20
7.8782896361
 30
0.0
  0
VERTEX
  5
80F
  8
0
  6
CONTINUOUS
 62
     7
 10
-2292.8471091244
 20
7.9843120996
 30
0.0
  0
VERTEX
  5
810
  8
0
  6
CONTINUOUS
 62
     7
 10
-2292.8309668814
 20
8.0873685159
 30
0.0
  0
VERTEX
  5
811
  8
0
  6
CONTINUOUS
 62
     7
 10
-2292.8471091244
 20
8.1717996626
 30
0.0
  0
VERTEX
  5
812
  8
0
  6
CONTINUOUS
 62
     7
 10
-2292.8930913361
 20
8.2247200271
 30
0.0
  0
VERTEX
  5
813
  8
0
  6
CONTINUOUS
 62
     7
 10
-2292.9619171397
 20
8.2380984647
 30
0.0
  0
VERTEX
  5
814
  8
0
  6
CONTINUOUS
 62
     7
 10
-2293.0430919699
 20
8.2098776991
 30
0.0
  0
VERTEX
  5
815
  8
0
  6
CONTINUOUS
 62
     7
 10
-2293.1242773369
 20
8.144369918
 30
0.0
  0
VERTEX
  5
816
  8
0
  6
CONTINUOUS
 62
     7
 10
-2293.1930926038
 20
8.0515329817
 30
0.0
  0
VERTEX
  5
817
  8
0
  6
CONTINUOUS
 62
     7
 10
-2293.2390748155
 20
7.9455226856
 30
0.0
  0
VERTEX
  5
818
  8
0
  6
CONTINUOUS
 62
     7
 10
-2293.2552275952
 20
7.8424480191
 30
0.0
  0
VERTEX
  5
819
  8
0
  6
CONTINUOUS
 62
     7
 10
-2293.2390748155
 20
7.7580351225
 30
0.0
  0
VERTEX
  5
81A
  8
0
  6
CONTINUOUS
 62
     7
 10
-2293.1930926038
 20
7.7051025907
 30
0.0
  0
VERTEX
  5
81B
  8
0
  6
CONTINUOUS
 62
     7
 10
-2293.1242773369
 20
7.6917302377
 30
0.0
  0
VERTEX
  5
81C
  8
0
  6
CONTINUOUS
 62
     7
 10
-2293.0430919699
 20
7.7199570861
 30
0.0
  0
SEQEND
  5
81D
  8
0
  6
CONTINUOUS
 62
     7
  0
ARC
  5
448
  8
0
  6
CONTINUOUS
 62
     7
 10
-2274.0068285039
 20
311.0084069585
 30
0.0
 40
4.364541523570525
 50
299.9307304716
 51
305.1441895431
  0
LINE
  5
449
  8
0
  6
CONTINUOUS
 62
     7
 10
-2465.2241097222
 20
195.5814216394
 30
0.0
 11
-2463.6344221341
 21
196.4991287501
 31
0.0
  0
LINE
  5
44A
  8
0
  6
CONTINUOUS
 62
     7
 10
-2432.2479027704
 20
214.6181807038
 30
0.0
 11
-2271.8291290481
 21
307.2259675615
 31
0.0
  0
LINE
  5
44B
  8
0
  6
CONTINUOUS
 62
     7
 10
-2693.9708679152
 20
550.9232061679
 30
0.0
 11
-2848.8054555301
 21
461.539101332
 31
0.0
  0
LINE
  5
44C
  8
0
  6
CONTINUOUS
 62
     7
 10
-2885.259054402
 20
440.4948866419
 30
0.0
 11
-2887.3658485892
 21
439.2786602457
 31
0.0
  0
ARC
  5
44D
  8
0
  6
CONTINUOUS
 62
     7
 10
-2691.4411848944
 20
546.5310735168
 30
0.0
 40
5.068542730515779
 50
115.2215120208
 51
119.9401265907
  0
POLYLINE
  5
44E
  8
0
  6
CONTINUOUS
 62
     7
 66
     1
 10
0.0
 20
0.0
 30
0.0
  0
VERTEX
  5
81E
  8
0
  6
CONTINUOUS
 62
     7
 10
-2561.7430345634
 20
362.9451654099
 30
0.0
  0
VERTEX
  5
81F
  8
0
  6
CONTINUOUS
 62
     7
 10
-2559.7566601786
 20
364.2365659829
 30
0.0
  0
VERTEX
  5
820
  8
0
  6
CONTINUOUS
 62
     7
 10
-2558.0487921686
 20
365.6545356779
 30
0.0
  0
VERTEX
  5
821
  8
0
  6
CONTINUOUS
 62
     7
 10
-2556.6434278956
 20
367.1791566464
 30
0.0
  0
VERTEX
  5
822
  8
0
  6
CONTINUOUS
 62
     7
 10
-2555.5602920844
 20
368.7890298992
 30
0.0
  0
VERTEX
  5
823
  8
0
  6
CONTINUOUS
 62
     7
 10
-2554.8145760399
 20
370.4615627141
 30
0.0
  0
VERTEX
  5
824
  8
0
  6
CONTINUOUS
 62
     7
 10
-2554.4167637906
 20
372.1732697306
 30
0.0
  0
VERTEX
  5
825
  8
0
  6
CONTINUOUS
 62
     7
 10
-2554.3724358427
 20
373.9001219457
 30
0.0
  0
VERTEX
  5
826
  8
0
  6
CONTINUOUS
 62
     7
 10
-2554.6822026669
 20
375.617885445
 30
0.0
  0
VERTEX
  5
827
  8
0
  6
CONTINUOUS
 62
     7
 10
-2555.34174026
 20
377.3024339019
 30
0.0
  0
VERTEX
  5
828
  8
0
  6
CONTINUOUS
 62
     7
 10
-2556.3417631444
 20
378.9301344501
 30
0.0
  0
VERTEX
  5
829
  8
0
  6
CONTINUOUS
 62
     7
 10
-2557.6682532125
 20
380.4781257778
 30
0.0
  0
VERTEX
  5
82A
  8
0
  6
CONTINUOUS
 62
     7
 10
-2559.3025734901
 20
381.9246879373
 30
0.0
  0
VERTEX
  5
82B
  8
0
  6
CONTINUOUS
 62
     7
 10
-2561.2217964207
 20
383.2495048525
 30
0.0
  0
VERTEX
  5
82C
  8
0
  6
CONTINUOUS
 62
     7
 10
-2563.3989676132
 20
384.4339868926
 30
0.0
  0
VERTEX
  5
82D
  8
0
  6
CONTINUOUS
 62
     7
 10
-2565.8035399865
 20
385.4614971685
 30
0.0
  0
VERTEX
  5
82E
  8
0
  6
CONTINUOUS
 62
     7
 10
-2568.4017387685
 20
386.3176230683
 30
0.0
  0
VERTEX
  5
82F
  8
0
  6
CONTINUOUS
 62
     7
 10
-2571.1571113804
 20
386.9903355491
 30
0.0
  0
VERTEX
  5
830
  8
0
  6
CONTINUOUS
 62
     7
 10
-2574.030958125
 20
387.4702012712
 30
0.0
  0
VERTEX
  5
831
  8
0
  6
CONTINUOUS
 62
     7
 10
-2576.9829556633
 20
387.7504748845
 30
0.0
  0
VERTEX
  5
832
  8
0
  6
CONTINUOUS
 62
     7
 10
-2579.9716532286
 20
387.8272273356
 30
0.0
  0
VERTEX
  5
833
  8
0
  6
CONTINUOUS
 62
     7
 10
-2582.9550877062
 20
387.6993846452
 30
0.0
  0
VERTEX
  5
834
  8
0
  6
CONTINUOUS
 62
     7
 10
-2585.89140069
 20
387.3687313298
 30
0.0
  0
VERTEX
  5
835
  8
0
  6
CONTINUOUS
 62
     7
 10
-2588.7393554401
 20
386.8399168641
 30
0.0
  0
VERTEX
  5
836
  8
0
  6
CONTINUOUS
 62
     7
 10
-2591.4589888416
 20
386.1203575977
 30
0.0
  0
VERTEX
  5
837
  8
0
  6
CONTINUOUS
 62
     7
 10
-2594.0120987275
 20
385.2201652831
 30
0.0
  0
VERTEX
  5
838
  8
0
  6
CONTINUOUS
 62
     7
 10
-2596.3628642279
 20
384.1519699164
 30
0.0
  0
VERTEX
  5
839
  8
0
  6
CONTINUOUS
 62
     7
 10
-2598.4782883116
 20
382.930761587
 30
0.0
  0
VERTEX
  5
83A
  8
0
  6
CONTINUOUS
 62
     7
 10
-2600.3286574505
 20
381.5736935496
 30
0.0
  0
VERTEX
  5
83B
  8
0
  6
CONTINUOUS
 62
     7
 10
-2601.8880052347
 20
380.0998145849
 30
0.0
  0
VERTEX
  5
83C
  8
0
  6
CONTINUOUS
 62
     7
 10
-2603.1344534983
 20
378.5298036408
 30
0.0
  0
VERTEX
  5
83D
  8
0
  6
CONTINUOUS
 62
     7
 10
-2604.0504862748
 20
376.885714359
 30
0.0
  0
VERTEX
  5
83E
  8
0
  6
CONTINUOUS
 62
     7
 10
-2604.6232514093
 20
375.1906199959
 30
0.0
  0
VERTEX
  5
83F
  8
0
  6
CONTINUOUS
 62
     7
 10
-2604.8447159761
 20
373.4683138495
 30
0.0
  0
VERTEX
  5
840
  8
0
  6
CONTINUOUS
 62
     7
 10
-2604.711757157
 20
371.7429785113
 30
0.0
  0
VERTEX
  5
841
  8
0
  6
CONTINUOUS
 62
     7
 10
-2604.2262564138
 20
370.0388266063
 30
0.0
  0
VERTEX
  5
842
  8
0
  6
CONTINUOUS
 62
     7
 10
-2603.3950198038
 20
368.3797871529
 30
0.0
  0
VERTEX
  5
843
  8
0
  6
CONTINUOUS
 62
     7
 10
-2602.2297160773
 20
366.7891474432
 30
0.0
  0
VERTEX
  5
844
  8
0
  6
CONTINUOUS
 62
     7
 10
-2600.7467071018
 20
365.2892361714
 30
0.0
  0
VERTEX
  5
845
  8
0
  6
CONTINUOUS
 62
     7
 10
-2598.966803707
 20
363.9011121702
 30
0.0
  0
VERTEX
  5
846
  8
0
  6
CONTINUOUS
 62
     7
 10
-2596.9150035838
 20
362.6442549523
 30
0.0
  0
VERTEX
  5
847
  8
0
  6
CONTINUOUS
 62
     7
 10
-2594.6201047189
 20
361.5363111377
 30
0.0
  0
VERTEX
  5
848
  8
0
  6
CONTINUOUS
 62
     7
 10
-2592.1143193231
 20
360.5928350825
 30
0.0
  0
VERTEX
  5
849
  8
0
  6
CONTINUOUS
 62
     7
 10
-2589.4328238805
 20
359.8270717074
 30
0.0
  0
VERTEX
  5
84A
  8
0
  6
CONTINUOUS
 62
     7
 10
-2586.6132635939
 20
359.249767743
 30
0.0
  0
VERTEX
  5
84B
  8
0
  6
CONTINUOUS
 62
     7
 10
-2583.6952133663
 20
358.8690308776
 30
0.0
  0
VERTEX
  5
84C
  8
0
  6
CONTINUOUS
 62
     7
 10
-2580.7196425688
 20
358.690203255
 30
0.0
  0
VERTEX
  5
84D
  8
0
  6
CONTINUOUS
 62
     7
 10
-2577.7283226793
 20
358.7157932346
 30
0.0
  0
VERTEX
  5
84E
  8
0
  6
CONTINUOUS
 62
     7
 10
-2574.7632378859
 20
358.9454453579
 30
0.0
  0
VERTEX
  5
84F
  8
0
  6
CONTINUOUS
 62
     7
 10
-2571.8660121528
 20
359.3759380671
 30
0.0
  0
VERTEX
  5
850
  8
0
  6
CONTINUOUS
 62
     7
 10
-2569.0773277254
 20
360.0012190614
 30
0.0
  0
VERTEX
  5
851
  8
0
  6
CONTINUOUS
 62
     7
 10
-2566.436320587
 20
360.8125185872
 30
0.0
  0
VERTEX
  5
852
  8
0
  6
CONTINUOUS
 62
     7
 10
-2563.9800588906
 20
361.7984498032
 30
0.0
  0
VERTEX
  5
853
  8
0
  6
CONTINUOUS
 62
     7
 10
-2561.7430345634
 20
362.9451654099
 30
0.0
  0
SEQEND
  5
854
  8
0
  6
CONTINUOUS
 62
     7
  0
LINE
  5
44F
  8
0
  6
CONTINUOUS
 62
     7
 10
-2616.5238935068
 20
375.1285002748
 30
0.0
 11
-2622.0238899671
 21
375.1285010351
 31
0.0
  0
POLYLINE
  5
450
  8
0
  6
CONTINUOUS
 62
     7
 66
     1
 10
0.0
 20
0.0
 30
0.0
  0
VERTEX
  5
855
  8
0
  6
CONTINUOUS
 62
     7
 10
-2622.0238899671
 20
375.1285010351
 30
0.0
  0
VERTEX
  5
856
  8
0
  6
CONTINUOUS
 62
     7
 10
-2623.1354551447
 20
375.0153534225
 30
0.0
  0
VERTEX
  5
857
  8
0
  6
CONTINUOUS
 62
     7
 10
-2624.1129538313
 20
374.6895556339
 30
0.0
  0
VERTEX
  5
858
  8
0
  6
CONTINUOUS
 62
     7
 10
-2624.8384775841
 20
374.1904065665
 30
0.0
  0
VERTEX
  5
859
  8
0
  6
CONTINUOUS
 62
     7
 10
-2625.2245163747
 20
373.5781114072
 30
0.0
  0
VERTEX
  5
85A
  8
0
  6
CONTINUOUS
 62
     7
 10
-2625.2245163747
 20
372.9265188712
 30
0.0
  0
VERTEX
  5
85B
  8
0
  6
CONTINUOUS
 62
     7
 10
-2624.838476267
 20
372.3142229516
 30
0.0
  0
VERTEX
  5
85C
  8
0
  6
CONTINUOUS
 62
     7
 10
-2624.11294988
 20
371.8150754049
 30
0.0
  0
VERTEX
  5
85D
  8
0
  6
CONTINUOUS
 62
     7
 10
-2623.1354577789
 20
371.4892783766
 30
0.0
  0
VERTEX
  5
85E
  8
0
  6
CONTINUOUS
 62
     7
 10
-2622.0238926013
 20
371.3761307639
 30
0.0
  0
SEQEND
  5
85F
  8
0
  6
CONTINUOUS
 62
     7
  0
LINE
  5
451
  8
0
  6
CONTINUOUS
 62
     7
 10
-2622.0238926013
 20
371.3761307639
 30
0.0
 11
-2616.5238948239
 21
371.3761292433
 31
0.0
  0
POLYLINE
  5
452
  8
0
  6
CONTINUOUS
 62
     7
 66
     1
 10
0.0
 20
0.0
 30
0.0
  0
VERTEX
  5
860
  8
0
  6
CONTINUOUS
 62
     7
 10
-2616.5238948239
 20
371.3761292433
 30
0.0
  0
VERTEX
  5
861
  8
0
  6
CONTINUOUS
 62
     7
 10
-2615.4123296463
 20
371.4892768559
 30
0.0
  0
VERTEX
  5
862
  8
0
  6
CONTINUOUS
 62
     7
 10
-2614.4348322768
 20
371.8150754049
 30
0.0
  0
VERTEX
  5
863
  8
0
  6
CONTINUOUS
 62
     7
 10
-2613.709308524
 20
372.3142244722
 30
0.0
  0
VERTEX
  5
864
  8
0
  6
CONTINUOUS
 62
     7
 10
-2613.3232684163
 20
372.9265188712
 30
0.0
  0
VERTEX
  5
865
  8
0
  6
CONTINUOUS
 62
     7
 10
-2613.3232684163
 20
373.5781114072
 30
0.0
  0
VERTEX
  5
866
  8
0
  6
CONTINUOUS
 62
     7
 10
-2613.709309841
 20
374.1904080871
 30
0.0
  0
VERTEX
  5
867
  8
0
  6
CONTINUOUS
 62
     7
 10
-2614.434836228
 20
374.6895556339
 30
0.0
  0
VERTEX
  5
868
  8
0
  6
CONTINUOUS
 62
     7
 10
-2615.4123283292
 20
375.0153526622
 30
0.0
  0
VERTEX
  5
869
  8
0
  6
CONTINUOUS
 62
     7
 10
-2616.5238935068
 20
375.1285002748
 30
0.0
  0
SEQEND
  5
86A
  8
0
  6
CONTINUOUS
 62
     7
  0
LINE
  5
453
  8
0
  6
CONTINUOUS
 62
     7
 10
-2582.8474828507
 20
397.7445594671
 30
0.0
 11
-2582.8474815336
 21
394.569479094
 31
0.0
  0
POLYLINE
  5
454
  8
0
  6
CONTINUOUS
 62
     7
 66
     1
 10
0.0
 20
0.0
 30
0.0
  0
VERTEX
  5
86B
  8
0
  6
CONTINUOUS
 62
     7
 10
-2582.8474815336
 20
394.569479094
 30
0.0
  0
VERTEX
  5
86C
  8
0
  6
CONTINUOUS
 62
     7
 10
-2582.6514881513
 20
393.9277831345
 30
0.0
  0
VERTEX
  5
86D
  8
0
  6
CONTINUOUS
 62
     7
 10
-2582.0871352643
 20
393.3634859144
 30
0.0
  0
VERTEX
  5
86E
  8
0
  6
CONTINUOUS
 62
     7
 10
-2581.2224873987
 20
392.9446514878
 30
0.0
  0
VERTEX
  5
86F
  8
0
  6
CONTINUOUS
 62
     7
 10
-2580.1618435167
 20
392.7217945169
 30
0.0
  0
VERTEX
  5
870
  8
0
  6
CONTINUOUS
 62
     7
 10
-2579.0331298401
 20
392.7217945169
 30
0.0
  0
VERTEX
  5
871
  8
0
  6
CONTINUOUS
 62
     7
 10
-2577.972484641
 20
392.9446537688
 30
0.0
  0
VERTEX
  5
872
  8
0
  6
CONTINUOUS
 62
     7
 10
-2577.107844678
 20
393.3634866748
 30
0.0
  0
VERTEX
  5
873
  8
0
  6
CONTINUOUS
 62
     7
 10
-2576.5434838885
 20
393.9277838948
 30
0.0
  0
VERTEX
  5
874
  8
0
  6
CONTINUOUS
 62
     7
 10
-2576.3474852378
 20
394.569476813
 30
0.0
  0
SEQEND
  5
875
  8
0
  6
CONTINUOUS
 62
     7
  0
LINE
  5
455
  8
0
  6
CONTINUOUS
 62
     7
 10
-2576.3474852378
 20
394.569476813
 30
0.0
 11
-2576.347487872
 21
397.7445579464
 31
0.0
  0
POLYLINE
  5
456
  8
0
  6
CONTINUOUS
 62
     7
 66
     1
 10
0.0
 20
0.0
 30
0.0
  0
VERTEX
  5
876
  8
0
  6
CONTINUOUS
 62
     7
 10
-2576.347487872
 20
397.7445579464
 30
0.0
  0
VERTEX
  5
877
  8
0
  6
CONTINUOUS
 62
     7
 10
-2576.5434812543
 20
398.386253906
 30
0.0
  0
VERTEX
  5
878
  8
0
  6
CONTINUOUS
 62
     7
 10
-2577.107844678
 20
398.9505450433
 30
0.0
  0
VERTEX
  5
879
  8
0
  6
CONTINUOUS
 62
     7
 10
-2577.9724820069
 20
399.3693855526
 30
0.0
  0
VERTEX
  5
87A
  8
0
  6
CONTINUOUS
 62
     7
 10
-2579.0331245718
 20
399.5922417632
 30
0.0
  0
VERTEX
  5
87B
  8
0
  6
CONTINUOUS
 62
     7
 10
-2580.1618382483
 20
399.5922417632
 30
0.0
  0
VERTEX
  5
87C
  8
0
  6
CONTINUOUS
 62
     7
 10
-2581.2224847645
 20
399.3693832716
 30
0.0
  0
VERTEX
  5
87D
  8
0
  6
CONTINUOUS
 62
     7
 10
-2582.0871352643
 20
398.9505442829
 30
0.0
  0
VERTEX
  5
87E
  8
0
  6
CONTINUOUS
 62
     7
 10
-2582.6514842
 20
398.3862523853
 30
0.0
  0
VERTEX
  5
87F
  8
0
  6
CONTINUOUS
 62
     7
 10
-2582.8474828507
 20
397.7445594671
 30
0.0
  0
SEQEND
  5
880
  8
0
  6
CONTINUOUS
 62
     7
  0
LINE
  5
457
  8
0
  6
CONTINUOUS
 62
     7
 10
-2576.3474852378
 20
348.7600738526
 30
0.0
 11
-2576.3474865549
 21
351.9351542257
 31
0.0
  0
POLYLINE
  5
458
  8
0
  6
CONTINUOUS
 62
     7
 66
     1
 10
0.0
 20
0.0
 30
0.0
  0
VERTEX
  5
881
  8
0
  6
CONTINUOUS
 62
     7
 10
-2576.3474865549
 20
351.9351542257
 30
0.0
  0
VERTEX
  5
882
  8
0
  6
CONTINUOUS
 62
     7
 10
-2576.5434852056
 20
352.5768471439
 30
0.0
  0
VERTEX
  5
883
  8
0
  6
CONTINUOUS
 62
     7
 10
-2577.1078433609
 20
353.1411413226
 30
0.0
  0
VERTEX
  5
884
  8
0
  6
CONTINUOUS
 62
     7
 10
-2577.9724859581
 20
353.5599787906
 30
0.0
  0
VERTEX
  5
885
  8
0
  6
CONTINUOUS
 62
     7
 10
-2579.0331298401
 20
353.7828357614
 30
0.0
  0
VERTEX
  5
886
  8
0
  6
CONTINUOUS
 62
     7
 10
-2580.1618435167
 20
353.7828357614
 30
0.0
  0
VERTEX
  5
887
  8
0
  6
CONTINUOUS
 62
     7
 10
-2581.2224834474
 20
353.5599795509
 30
0.0
  0
VERTEX
  5
888
  8
0
  6
CONTINUOUS
 62
     7
 10
-2582.0871286788
 20
353.1411436036
 30
0.0
  0
VERTEX
  5
889
  8
0
  6
CONTINUOUS
 62
     7
 10
-2582.6514894684
 20
352.5768463836
 30
0.0
  0
VERTEX
  5
88A
  8
0
  6
CONTINUOUS
 62
     7
 10
-2582.847488119
 20
351.9351534654
 30
0.0
  0
SEQEND
  5
88B
  8
0
  6
CONTINUOUS
 62
     7
  0
LINE
  5
459
  8
0
  6
CONTINUOUS
 62
     7
 10
-2582.847488119
 20
351.9351534654
 30
0.0
 11
-2582.8474854848
 21
348.7600723319
 31
0.0
  0
POLYLINE
  5
45A
  8
0
  6
CONTINUOUS
 62
     7
 66
     1
 10
0.0
 20
0.0
 30
0.0
  0
VERTEX
  5
88C
  8
0
  6
CONTINUOUS
 62
     7
 10
-2582.8474854848
 20
348.7600723319
 30
0.0
  0
VERTEX
  5
88D
  8
0
  6
CONTINUOUS
 62
     7
 10
-2582.6514868342
 20
348.1183794138
 30
0.0
  0
VERTEX
  5
88E
  8
0
  6
CONTINUOUS
 62
     7
 10
-2582.0871286788
 20
347.5540852351
 30
0.0
  0
VERTEX
  5
88F
  8
0
  6
CONTINUOUS
 62
     7
 10
-2581.2224860816
 20
347.1352477671
 30
0.0
  0
VERTEX
  5
890
  8
0
  6
CONTINUOUS
 62
     7
 10
-2580.1618435167
 20
346.9123915566
 30
0.0
  0
VERTEX
  5
891
  8
0
  6
CONTINUOUS
 62
     7
 10
-2579.0331298401
 20
346.9123915566
 30
0.0
  0
VERTEX
  5
892
  8
0
  6
CONTINUOUS
 62
     7
 10
-2577.9724885923
 20
347.1352470068
 30
0.0
  0
VERTEX
  5
893
  8
0
  6
CONTINUOUS
 62
     7
 10
-2577.1078433609
 20
347.5540829541
 30
0.0
  0
VERTEX
  5
894
  8
0
  6
CONTINUOUS
 62
     7
 10
-2576.5434838885
 20
348.1183809344
 30
0.0
  0
VERTEX
  5
895
  8
0
  6
CONTINUOUS
 62
     7
 10
-2576.3474852378
 20
348.7600738526
 30
0.0
  0
SEQEND
  5
896
  8
0
  6
CONTINUOUS
 62
     7
  0
LINE
  5
45B
  8
0
  6
CONTINUOUS
 62
     7
 10
-2542.6710745817
 20
371.376133045
 30
0.0
 11
-2537.1710781214
 21
371.3761322846
 31
0.0
  0
POLYLINE
  5
45C
  8
0
  6
CONTINUOUS
 62
     7
 66
     1
 10
0.0
 20
0.0
 30
0.0
  0
VERTEX
  5
897
  8
0
  6
CONTINUOUS
 62
     7
 10
-2537.1710781214
 20
371.3761322846
 30
0.0
  0
VERTEX
  5
898
  8
0
  6
CONTINUOUS
 62
     7
 10
-2536.0595129438
 20
371.4892798972
 30
0.0
  0
VERTEX
  5
899
  8
0
  6
CONTINUOUS
 62
     7
 10
-2535.0820247939
 20
371.8150716032
 30
0.0
  0
VERTEX
  5
89A
  8
0
  6
CONTINUOUS
 62
     7
 10
-2534.3564957727
 20
372.3142237119
 30
0.0
  0
VERTEX
  5
89B
  8
0
  6
CONTINUOUS
 62
     7
 10
-2533.9704517138
 20
372.9265219126
 30
0.0
  0
VERTEX
  5
89C
  8
0
  6
CONTINUOUS
 62
     7
 10
-2533.9704517138
 20
373.5781144485
 30
0.0
  0
VERTEX
  5
89D
  8
0
  6
CONTINUOUS
 62
     7
 10
-2534.3564918215
 20
374.1904103682
 30
0.0
  0
VERTEX
  5
89E
  8
0
  6
CONTINUOUS
 62
     7
 10
-2535.0820234768
 20
374.6895548735
 30
0.0
  0
VERTEX
  5
89F
  8
0
  6
CONTINUOUS
 62
     7
 10
-2536.0595103096
 20
375.0153549432
 30
0.0
  0
VERTEX
  5
8A0
  8
0
  6
CONTINUOUS
 62
     7
 10
-2537.1710807555
 20
375.1284995144
 30
0.0
  0
SEQEND
  5
8A1
  8
0
  6
CONTINUOUS
 62
     7
  0
LINE
  5
45D
  8
0
  6
CONTINUOUS
 62
     7
 10
-2537.1710807555
 20
375.1284995144
 30
0.0
 11
-2542.671078533
 21
375.1285010351
 31
0.0
  0
POLYLINE
  5
45E
  8
0
  6
CONTINUOUS
 62
     7
 66
     1
 10
0.0
 20
0.0
 30
0.0
  0
VERTEX
  5
8A2
  8
0
  6
CONTINUOUS
 62
     7
 10
-2542.671078533
 20
375.1285010351
 30
0.0
  0
VERTEX
  5
8A3
  8
0
  6
CONTINUOUS
 62
     7
 10
-2543.7826437105
 20
375.0153534225
 30
0.0
  0
VERTEX
  5
8A4
  8
0
  6
CONTINUOUS
 62
     7
 10
-2544.7601410801
 20
374.6895548735
 30
0.0
  0
VERTEX
  5
8A5
  8
0
  6
CONTINUOUS
 62
     7
 10
-2545.4856595645
 20
374.1904088475
 30
0.0
  0
VERTEX
  5
8A6
  8
0
  6
CONTINUOUS
 62
     7
 10
-2545.8717049405
 20
373.5781114072
 30
0.0
  0
VERTEX
  5
8A7
  8
0
  6
CONTINUOUS
 62
     7
 10
-2545.8717049405
 20
372.9265188712
 30
0.0
  0
VERTEX
  5
8A8
  8
0
  6
CONTINUOUS
 62
     7
 10
-2545.4856635158
 20
372.3142221912
 30
0.0
  0
VERTEX
  5
8A9
  8
0
  6
CONTINUOUS
 62
     7
 10
-2544.7601423972
 20
371.8150716032
 30
0.0
  0
VERTEX
  5
8AA
  8
0
  6
CONTINUOUS
 62
     7
 10
-2543.7826450276
 20
371.4892776162
 30
0.0
  0
VERTEX
  5
8AB
  8
0
  6
CONTINUOUS
 62
     7
 10
-2542.6710745817
 20
371.376133045
 30
0.0
  0
SEQEND
  5
8AC
  8
0
  6
CONTINUOUS
 62
     7
  0
LINE
  5
45F
  8
0
  6
CONTINUOUS
 62
     7
 10
-2271.8286232859
 20
306.0002839395
 30
0.0
 11
-2432.3311322595
 21
213.3441577501
 31
0.0
  0
LINE
  5
460
  8
0
  6
CONTINUOUS
 62
     7
 10
-2463.7176542573
 20
195.2251042757
 30
0.0
 11
-2465.22360396
 21
194.3557380173
 31
0.0
  0
LINE
  5
461
  8
0
  6
CONTINUOUS
 62
     7
 10
-2465.2241097222
 20
194.3566140231
 30
0.0
 11
-2463.7175814882
 21
195.2263142605
 31
0.0
  0
LINE
  5
462
  8
0
  6
CONTINUOUS
 62
     7
 10
-2432.3310611367
 20
213.3453667845
 30
0.0
 11
-2271.8291290481
 21
306.0011599452
 31
0.0
  0
LINE
  5
463
  8
0
  6
CONTINUOUS
 62
     7
 10
-2271.4763388527
 20
306.1833338455
 30
0.0
 11
-2270.415671263
 21
305.5710234794
 31
0.0
  0
ARC
  5
464
  8
0
  6
CONTINUOUS
 62
     7
 10
-2269.6424644434
 20
302.2234782101
 30
0.0
 40
4.36389184129058
 50
114.8496321262
 51
120.0638912442
  0
LINE
  5
465
  8
0
  6
CONTINUOUS
 62
     7
 10
-2271.4944409241
 20
307.4394951691
 30
0.0
 11
-2271.4944409241
 21
306.2146875528
 31
0.0
  0
ARC
  5
466
  8
0
  6
CONTINUOUS
 62
     7
 10
-2274.0068285039
 20
309.7835993422
 30
0.0
 40
4.364541523570525
 50
299.9307304716
 51
305.1441895431
  0
POLYLINE
  5
467
  8
0
  6
CONTINUOUS
 62
     7
 66
     1
 10
0.0
 20
0.0
 30
0.0
  0
VERTEX
  5
8AD
  8
0
  6
CONTINUOUS
 62
     7
 10
-2271.4763388527
 20
306.1833338455
 30
0.0
  0
VERTEX
  5
8AE
  8
0
  6
CONTINUOUS
 62
     7
 10
-2271.2585871598
 20
306.2741619702
 30
0.0
  0
VERTEX
  5
8AF
  8
0
  6
CONTINUOUS
 62
     7
 10
-2271.1304185935
 20
306.3586398696
 30
0.0
  0
VERTEX
  5
8B0
  8
0
  6
CONTINUOUS
 62
     7
 10
-2271.0418891382
 20
306.4565621247
 30
0.0
  0
VERTEX
  5
8B1
  8
0
  6
CONTINUOUS
 62
     7
 10
-2271.0470099803
 20
306.4621356475
 30
0.0
  0
SEQEND
  5
8B2
  8
0
  6
CONTINUOUS
 62
     7
  0
LINE
  5
468
  8
0
  6
CONTINUOUS
 62
     7
 10
-2269.9403391055
 20
306.8667677304
 30
0.0
 11
-2271.2386727739
 21
306.4330945219
 31
0.0
  0
POLYLINE
  5
469
  8
0
  6
CONTINUOUS
 62
     7
 66
     1
 10
0.0
 20
0.0
 30
0.0
  0
VERTEX
  5
8B3
  8
0
  6
CONTINUOUS
 62
     7
 10
-2270.415671263
 20
305.5710234794
 30
0.0
  0
VERTEX
  5
8B4
  8
0
  6
CONTINUOUS
 62
     7
 10
-2269.9801889508
 20
305.8211943915
 30
0.0
  0
VERTEX
  5
8B5
  8
0
  6
CONTINUOUS
 62
     7
 10
-2269.7237885979
 20
306.0578496407
 30
0.0
  0
VERTEX
  5
8B6
  8
0
  6
CONTINUOUS
 62
     7
 10
-2269.5467929076
 20
306.3866960666
 30
0.0
  0
VERTEX
  5
8B7
  8
0
  6
CONTINUOUS
 62
     7
 10
-2269.5780447957
 20
306.6163597408
 30
0.0
  0
VERTEX
  5
8B8
  8
0
  6
CONTINUOUS
 62
     7
 10
-2269.9403391055
 20
306.8667677304
 30
0.0
  0
SEQEND
  5
8B9
  8
0
  6
CONTINUOUS
 62
     7
  0
LINE
  5
46A
  8
0
  6
CONTINUOUS
 62
     7
 10
-2269.9403391055
 20
306.8667677304
 30
0.0
 11
-2270.4156923365
 21
306.8172369867
 31
0.0
  0
ARC
  5
46B
  8
0
  6
CONTINUOUS
 62
     7
 10
-2271.3054914558
 20
-17.0649885124
 30
0.0
 40
1.734528425629801
 50
300.864139282
 51
2.3471068223
  0
ARC
  5
46C
  8
0
  6
CONTINUOUS
 62
     7
 10
-2692.7409036738
 20
549.6357189553
 30
0.0
 40
1.712370238163309
 50
57.5853946161
 51
120.1507331995
  0
POLYLINE
  5
46D
  8
0
  6
CONTINUOUS
 62
     7
 66
     1
 10
0.0
 20
0.0
 30
0.0
  0
VERTEX
  5
8BA
  8
0
  6
CONTINUOUS
 62
     7
 10
-2270.3649264574
 20
306.7870300805
 30
0.0
  0
VERTEX
  5
8BB
  8
0
  6
CONTINUOUS
 62
     7
 10
-2270.1110127686
 20
307.3254851717
 30
0.0
  0
VERTEX
  5
8BC
  8
0
  6
CONTINUOUS
 62
     7
 10
-2270.197561322
 20
307.6909938711
 30
0.0
  0
VERTEX
  5
8BD
  8
0
  6
CONTINUOUS
 62
     7
 10
-2270.5968605648
 20
307.8169109421
 30
0.0
  0
VERTEX
  5
8BE
  8
0
  6
CONTINUOUS
 62
     7
 10
-2270.9825253021
 20
307.7296491951
 30
0.0
  0
VERTEX
  5
8BF
  8
0
  6
CONTINUOUS
 62
     7
 10
-2271.4944409241
 20
307.4394951691
 30
0.0
  0
SEQEND
  5
8C0
  8
0
  6
CONTINUOUS
 62
     7
  0
ARC
  5
46E
  8
0
  6
CONTINUOUS
 62
     7
 10
-2271.0745093771
 20
305.9381552191
 30
0.0
 40
0.5028047690480453
 50
86.2272917882
 51
146.6343909187
  0
LINE
  5
46F
  8
0
  6
CONTINUOUS
 62
     7
 10
-2271.3462315313
 20
306.3298531094
 30
0.0
 11
-2271.4763599261
 21
306.2049266206
 31
0.0
  0
LINE
  5
470
  8
0
  6
CONTINUOUS
 62
     7
 10
-2278.2986281477
 20
302.265222531
 30
0.0
 11
-2272.1458415413
 21
305.8183053042
 31
0.0
  0
LINE
  5
471
  8
0
  6
CONTINUOUS
 62
     7
 10
-2271.8095096901
 20
306.0125286672
 30
0.0
 11
-2271.4763599261
 21
306.2049266206
 31
0.0
  0
POLYLINE
  5
472
  8
0
  6
CONTINUOUS
 62
     7
 66
     1
 10
0.0
 20
0.0
 30
0.0
  0
VERTEX
  5
8C1
  8
0
  6
CONTINUOUS
 62
     7
 10
-2576.3474865549
 20
350.7103466094
 30
0.0
  0
VERTEX
  5
8C2
  8
0
  6
CONTINUOUS
 62
     7
 10
-2576.5434852056
 20
351.3520395276
 30
0.0
  0
VERTEX
  5
8C3
  8
0
  6
CONTINUOUS
 62
     7
 10
-2577.1078433609
 20
351.9163337063
 30
0.0
  0
VERTEX
  5
8C4
  8
0
  6
CONTINUOUS
 62
     7
 10
-2577.9724859581
 20
352.3351711743
 30
0.0
  0
VERTEX
  5
8C5
  8
0
  6
CONTINUOUS
 62
     7
 10
-2579.0331298401
 20
352.5580281452
 30
0.0
  0
VERTEX
  5
8C6
  8
0
  6
CONTINUOUS
 62
     7
 10
-2580.1618435167
 20
352.5580281452
 30
0.0
  0
VERTEX
  5
8C7
  8
0
  6
CONTINUOUS
 62
     7
 10
-2581.2224834474
 20
352.3351719346
 30
0.0
  0
VERTEX
  5
8C8
  8
0
  6
CONTINUOUS
 62
     7
 10
-2582.0871286788
 20
351.9163359873
 30
0.0
  0
VERTEX
  5
8C9
  8
0
  6
CONTINUOUS
 62
     7
 10
-2582.6514894684
 20
351.3520387673
 30
0.0
  0
VERTEX
  5
8CA
  8
0
  6
CONTINUOUS
 62
     7
 10
-2582.847488119
 20
350.7103458491
 30
0.0
  0
SEQEND
  5
8CB
  8
0
  6
CONTINUOUS
 62
     7
  0
POLYLINE
  5
473
  8
0
  6
CONTINUOUS
 62
     7
 66
     1
 10
0.0
 20
0.0
 30
0.0
  0
VERTEX
  5
8CC
  8
0
  6
CONTINUOUS
 62
     7
 10
-2554.3697805912
 20
372.6399129314
 30
0.0
  0
VERTEX
  5
8CD
  8
0
  6
CONTINUOUS
 62
     7
 10
-2554.3724358427
 20
372.6753143294
 30
0.0
  0
VERTEX
  5
8CE
  8
0
  6
CONTINUOUS
 62
     7
 10
-2554.6822026669
 20
374.3930778287
 30
0.0
  0
VERTEX
  5
8CF
  8
0
  6
CONTINUOUS
 62
     7
 10
-2555.34174026
 20
376.0776262856
 30
0.0
  0
VERTEX
  5
8D0
  8
0
  6
CONTINUOUS
 62
     7
 10
-2556.3417631444
 20
377.7053268339
 30
0.0
  0
VERTEX
  5
8D1
  8
0
  6
CONTINUOUS
 62
     7
 10
-2557.6682532125
 20
379.2533181616
 30
0.0
  0
VERTEX
  5
8D2
  8
0
  6
CONTINUOUS
 62
     7
 10
-2559.3025734901
 20
380.6998803211
 30
0.0
  0
VERTEX
  5
8D3
  8
0
  6
CONTINUOUS
 62
     7
 10
-2561.2217964207
 20
382.0246972362
 30
0.0
  0
VERTEX
  5
8D4
  8
0
  6
CONTINUOUS
 62
     7
 10
-2563.3989676132
 20
383.2091792764
 30
0.0
  0
VERTEX
  5
8D5
  8
0
  6
CONTINUOUS
 62
     7
 10
-2565.8035399865
 20
384.2366895522
 30
0.0
  0
VERTEX
  5
8D6
  8
0
  6
CONTINUOUS
 62
     7
 10
-2568.4017387685
 20
385.092815452
 30
0.0
  0
VERTEX
  5
8D7
  8
0
  6
CONTINUOUS
 62
     7
 10
-2571.1571113804
 20
385.7655279328
 30
0.0
  0
VERTEX
  5
8D8
  8
0
  6
CONTINUOUS
 62
     7
 10
-2574.030958125
 20
386.2453936549
 30
0.0
  0
VERTEX
  5
8D9
  8
0
  6
CONTINUOUS
 62
     7
 10
-2576.9829556633
 20
386.5256672682
 30
0.0
  0
VERTEX
  5
8DA
  8
0
  6
CONTINUOUS
 62
     7
 10
-2579.9716532286
 20
386.6024197193
 30
0.0
  0
VERTEX
  5
8DB
  8
0
  6
CONTINUOUS
 62
     7
 10
-2582.9550877062
 20
386.474577029
 30
0.0
  0
VERTEX
  5
8DC
  8
0
  6
CONTINUOUS
 62
     7
 10
-2585.89140069
 20
386.1439237135
 30
0.0
  0
VERTEX
  5
8DD
  8
0
  6
CONTINUOUS
 62
     7
 10
-2588.7393554401
 20
385.6151092478
 30
0.0
  0
VERTEX
  5
8DE
  8
0
  6
CONTINUOUS
 62
     7
 10
-2591.4589888416
 20
384.8955499814
 30
0.0
  0
VERTEX
  5
8DF
  8
0
  6
CONTINUOUS
 62
     7
 10
-2594.0120987275
 20
383.9953576668
 30
0.0
  0
VERTEX
  5
8E0
  8
0
  6
CONTINUOUS
 62
     7
 10
-2596.3628642279
 20
382.9271623001
 30
0.0
  0
VERTEX
  5
8E1
  8
0
  6
CONTINUOUS
 62
     7
 10
-2598.4782883116
 20
381.7059539707
 30
0.0
  0
VERTEX
  5
8E2
  8
0
  6
CONTINUOUS
 62
     7
 10
-2600.3286574505
 20
380.3488859333
 30
0.0
  0
VERTEX
  5
8E3
  8
0
  6
CONTINUOUS
 62
     7
 10
-2601.8880052347
 20
378.8750069686
 30
0.0
  0
VERTEX
  5
8E4
  8
0
  6
CONTINUOUS
 62
     7
 10
-2603.1344534983
 20
377.3049960245
 30
0.0
  0
VERTEX
  5
8E5
  8
0
  6
CONTINUOUS
 62
     7
 10
-2604.0504862748
 20
375.6609067427
 30
0.0
  0
VERTEX
  5
8E6
  8
0
  6
CONTINUOUS
 62
     7
 10
-2604.6232514093
 20
373.9658123797
 30
0.0
  0
VERTEX
  5
8E7
  8
0
  6
CONTINUOUS
 62
     7
 10
-2604.8251940827
 20
372.6399121711
 30
0.0
  0
SEQEND
  5
8E8
  8
0
  6
CONTINUOUS
 62
     7
  0
LINE
  5
474
  8
0
  6
CONTINUOUS
 62
     7
 10
-2271.8291290481
 20
-19.3903620597
 30
0.0
 11
-2434.6893379957
 21
-113.4075594729
 31
0.0
  0
ARC
  5
475
  8
0
  6
CONTINUOUS
 62
     7
 10
-2543.0317643941
 20
370.414858095
 30
0.0
 40
3.507430142881413
 50
84.0975658598
 51
140.6257939792
  0
ARC
  5
476
  8
0
  6
CONTINUOUS
 62
     7
 10
-2536.8103758133
 20
370.4149005758
 30
0.0
 40
3.507388336956466
 50
39.373933023
 51
95.9028181076
  0
ARC
  5
477
  8
0
  6
CONTINUOUS
 62
     7
 10
-2616.1632065023
 20
370.4148577332
 30
0.0
 40
3.50742986403114
 50
39.3742977427
 51
95.9024533879
  0
ARC
  5
478
  8
0
  6
CONTINUOUS
 62
     7
 10
-2622.3845825667
 20
370.414872094
 30
0.0
 40
3.507416911016988
 50
84.0974328507
 51
140.6258160187
  0
LINE
  5
479
  8
0
  6
CONTINUOUS
 62
     7
 10
-2537.1710807555
 20
373.9036918981
 30
0.0
 11
-2542.671078533
 21
373.9036934188
 31
0.0
  0
LINE
  5
47A
  8
0
  6
CONTINUOUS
 62
     7
 10
-2616.5238935068
 20
373.9036926585
 30
0.0
 11
-2622.0238899671
 21
373.9036934188
 31
0.0
  0
POLYLINE
  5
47B
  8
0
  6
CONTINUOUS
 62
     7
 66
     1
 10
0.0
 20
0.0
 30
0.0
  0
VERTEX
  5
8E9
  8
0
  6
CONTINUOUS
 62
     7
 10
-2576.347487872
 20
396.5197503301
 30
0.0
  0
VERTEX
  5
8EA
  8
0
  6
CONTINUOUS
 62
     7
 10
-2576.5434812543
 20
397.1614462897
 30
0.0
  0
VERTEX
  5
8EB
  8
0
  6
CONTINUOUS
 62
     7
 10
-2577.107844678
 20
397.725737427
 30
0.0
  0
VERTEX
  5
8EC
  8
0
  6
CONTINUOUS
 62
     7
 10
-2577.9724820069
 20
398.1445779364
 30
0.0
  0
VERTEX
  5
8ED
  8
0
  6
CONTINUOUS
 62
     7
 10
-2579.0331245718
 20
398.3674341469
 30
0.0
  0
VERTEX
  5
8EE
  8
0
  6
CONTINUOUS
 62
     7
 10
-2580.1618382483
 20
398.3674341469
 30
0.0
  0
VERTEX
  5
8EF
  8
0
  6
CONTINUOUS
 62
     7
 10
-2581.2224847645
 20
398.1445756553
 30
0.0
  0
VERTEX
  5
8F0
  8
0
  6
CONTINUOUS
 62
     7
 10
-2582.0871352643
 20
397.7257366667
 30
0.0
  0
VERTEX
  5
8F1
  8
0
  6
CONTINUOUS
 62
     7
 10
-2582.6514842
 20
397.161444769
 30
0.0
  0
VERTEX
  5
8F2
  8
0
  6
CONTINUOUS
 62
     7
 10
-2582.8474828507
 20
396.5197518508
 30
0.0
  0
SEQEND
  5
8F3
  8
0
  6
CONTINUOUS
 62
     7
  0
ARC
  5
47C
  8
0
  6
CONTINUOUS
 62
     7
 10
-2887.4745294042
 20
437.0900251955
 30
0.0
 40
1.841339678876087
 50
121.1501335715
 51
191.9978601239
  0
LINE
  5
47D
  8
0
  6
CONTINUOUS
 62
     7
 10
-2888.4270219411
 20
438.6658709304
 30
0.0
 11
-2887.3878920496
 21
439.265747848
 31
0.0
  0
POLYLINE
  5
47E
  8
0
  6
CONTINUOUS
 62
     7
 66
     1
 10
0.0
 20
0.0
 30
0.0
  0
VERTEX
  5
8F4
  8
0
  6
CONTINUOUS
 62
     7
 10
-2454.1727895132
 20
214.0396424112
 30
0.0
  0
VERTEX
  5
8F5
  8
0
  6
CONTINUOUS
 62
     7
 10
-2453.3453019972
 20
214.5197982027
 30
0.0
  0
VERTEX
  5
8F6
  8
0
  6
CONTINUOUS
 62
     7
 10
-2452.8153488411
 20
215.1240786254
 30
0.0
  0
VERTEX
  5
8F7
  8
0
  6
CONTINUOUS
 62
     7
 10
-2452.6347733028
 20
215.7933095125
 30
0.0
  0
VERTEX
  5
8F8
  8
0
  6
CONTINUOUS
 62
     7
 10
-2452.8212941809
 20
216.4620066415
 30
0.0
  0
VERTEX
  5
8F9
  8
0
  6
CONTINUOUS
 62
     7
 10
-2453.3566171089
 20
217.0646971947
 30
0.0
  0
VERTEX
  5
8FA
  8
0
  6
CONTINUOUS
 62
     7
 10
-2454.1883640909
 20
217.5423970903
 30
0.0
  0
VERTEX
  5
8FB
  8
0
  6
CONTINUOUS
 62
     7
 10
-2455.2351126838
 20
217.8483393783
 30
0.0
  0
VERTEX
  5
8FC
  8
0
  6
CONTINUOUS
 62
     7
 10
-2456.3943959964
 20
217.952577335
 30
0.0
  0
VERTEX
  5
8FD
  8
0
  6
CONTINUOUS
 62
     7
 10
-2457.5527336391
 20
217.8449041654
 30
0.0
  0
VERTEX
  5
8FE
  8
0
  6
CONTINUOUS
 62
     7
 10
-2458.5967374185
 20
217.5358627343
 30
0.0
  0
VERTEX
  5
8FF
  8
0
  6
CONTINUOUS
 62
     7
 10
-2459.4242262516
 20
217.0557061824
 30
0.0
  0
VERTEX
  5
900
  8
0
  6
CONTINUOUS
 62
     7
 10
-2459.9541978469
 20
216.4514394458
 30
0.0
  0
VERTEX
  5
901
  8
0
  6
CONTINUOUS
 62
     7
 10
-2460.1347536289
 20
215.7821956329
 30
0.0
  0
VERTEX
  5
902
  8
0
  6
CONTINUOUS
 62
     7
 10
-2459.9482551413
 20
215.1135099091
 30
0.0
  0
VERTEX
  5
903
  8
0
  6
CONTINUOUS
 62
     7
 10
-2459.4129111399
 20
214.5108071904
 30
0.0
  0
VERTEX
  5
904
  8
0
  6
CONTINUOUS
 62
     7
 10
-2458.5811628408
 20
214.0331080552
 30
0.0
  0
VERTEX
  5
905
  8
0
  6
CONTINUOUS
 62
     7
 10
-2457.5344142479
 20
213.7271657671
 30
0.0
  0
VERTEX
  5
906
  8
0
  6
CONTINUOUS
 62
     7
 10
-2456.3751520088
 20
213.6229399759
 30
0.0
  0
VERTEX
  5
907
  8
0
  6
CONTINUOUS
 62
     7
 10
-2455.2167946097
 20
213.7306002198
 30
0.0
  0
VERTEX
  5
908
  8
0
  6
CONTINUOUS
 62
     7
 10
-2454.1727895132
 20
214.0396424112
 30
0.0
  0
SEQEND
  5
909
  8
0
  6
CONTINUOUS
 62
     7
  0
POLYLINE
  5
47F
  8
0
  6
CONTINUOUS
 62
     7
 66
     1
 10
0.0
 20
0.0
 30
0.0
  0
VERTEX
  5
90A
  8
0
  6
CONTINUOUS
 62
     7
 10
-2437.6936075044
 20
223.9085888304
 30
0.0
  0
VERTEX
  5
90B
  8
0
  6
CONTINUOUS
 62
     7
 10
-2436.6275240448
 20
224.1913985554
 30
0.0
  0
VERTEX
  5
90C
  8
0
  6
CONTINUOUS
 62
     7
 10
-2435.7649940583
 20
224.6505431306
 30
0.0
  0
VERTEX
  5
90D
  8
0
  6
CONTINUOUS
 62
     7
 10
-2435.1904692929
 20
225.2410895444
 30
0.0
  0
VERTEX
  5
90E
  8
0
  6
CONTINUOUS
 62
     7
 10
-2434.9601789126
 20
225.9052246376
 30
0.0
  0
VERTEX
  5
90F
  8
0
  6
CONTINUOUS
 62
     7
 10
-2435.0966451397
 20
226.5779272339
 30
0.0
  0
VERTEX
  5
910
  8
0
  6
CONTINUOUS
 62
     7
 10
-2435.5865363992
 20
227.1933656359
 30
0.0
  0
VERTEX
  5
911
  8
0
  6
CONTINUOUS
 62
     7
 10
-2436.38189748
 20
227.6912920777
 30
0.0
  0
VERTEX
  5
912
  8
0
  6
CONTINUOUS
 62
     7
 10
-2437.4048594453
 20
228.0229612065
 30
0.0
  0
VERTEX
  5
913
  8
0
  6
CONTINUOUS
 62
     7
 10
-2438.5552919197
 20
228.1559095753
 30
0.0
  0
VERTEX
  5
914
  8
0
  6
CONTINUOUS
 62
     7
 10
-2439.7205811582
 20
228.0771186545
 30
0.0
  0
VERTEX
  5
915
  8
0
  6
CONTINUOUS
 62
     7
 10
-2440.7866856913
 20
227.7943210949
 30
0.0
  0
VERTEX
  5
916
  8
0
  6
CONTINUOUS
 62
     7
 10
-2441.6491946043
 20
227.3351643542
 30
0.0
  0
VERTEX
  5
917
  8
0
  6
CONTINUOUS
 62
     7
 10
-2442.2237193698
 20
226.7446179404
 30
0.0
  0
VERTEX
  5
918
  8
0
  6
CONTINUOUS
 62
     7
 10
-2442.4540308234
 20
226.0804950127
 30
0.0
  0
VERTEX
  5
919
  8
0
  6
CONTINUOUS
 62
     7
 10
-2442.3175435229
 20
225.4077802509
 30
0.0
  0
VERTEX
  5
91A
  8
0
  6
CONTINUOUS
 62
     7
 10
-2441.8276522634
 20
224.7923418489
 30
0.0
  0
VERTEX
  5
91B
  8
0
  6
CONTINUOUS
 62
     7
 10
-2441.0322911826
 20
224.2944154071
 30
0.0
  0
VERTEX
  5
91C
  8
0
  6
CONTINUOUS
 62
     7
 10
-2440.0093292174
 20
223.9627462783
 30
0.0
  0
VERTEX
  5
91D
  8
0
  6
CONTINUOUS
 62
     7
 10
-2438.8588967429
 20
223.8297979096
 30
0.0
  0
VERTEX
  5
91E
  8
0
  6
CONTINUOUS
 62
     7
 10
-2437.6936075044
 20
223.9085888304
 30
0.0
  0
SEQEND
  5
91F
  8
0
  6
CONTINUOUS
 62
     7
  0
POLYLINE
  5
480
  8
0
  6
CONTINUOUS
 62
     7
 66
     1
 10
0.0
 20
0.0
 30
0.0
  0
VERTEX
  5
920
  8
0
  6
CONTINUOUS
 62
     7
 10
-2861.5294560695
 20
448.4127123877
 30
0.0
  0
VERTEX
  5
921
  8
0
  6
CONTINUOUS
 62
     7
 10
-2861.7672762477
 20
447.7494615692
 30
0.0
  0
VERTEX
  5
922
  8
0
  6
CONTINUOUS
 62
     7
 10
-2861.6384346489
 20
447.0762503059
 30
0.0
  0
VERTEX
  5
923
  8
0
  6
CONTINUOUS
 62
     7
 10
-2861.1555279124
 20
446.4589696017
 30
0.0
  0
VERTEX
  5
924
  8
0
  6
CONTINUOUS
 62
     7
 10
-2860.3658487537
 20
445.9580550265
 30
0.0
  0
VERTEX
  5
925
  8
0
  6
CONTINUOUS
 62
     7
 10
-2859.346669468
 20
445.622523374
 30
0.0
  0
VERTEX
  5
926
  8
0
  6
CONTINUOUS
 62
     7
 10
-2858.1977529631
 20
445.4852205421
 30
0.0
  0
VERTEX
  5
927
  8
0
  6
CONTINUOUS
 62
     7
 10
-2857.0315918116
 20
445.5595999742
 30
0.0
  0
VERTEX
  5
928
  8
0
  6
CONTINUOUS
 62
     7
 10
-2855.9623315333
 20
445.8383799009
 30
0.0
  0
VERTEX
  5
929
  8
0
  6
CONTINUOUS
 62
     7
 10
-2855.0946240699
 20
446.2942603395
 30
0.0
  0
VERTEX
  5
92A
  8
0
  6
CONTINUOUS
 62
     7
 10
-2854.5134005897
 20
446.8826154555
 30
0.0
  0
VERTEX
  5
92B
  8
0
  6
CONTINUOUS
 62
     7
 10
-2854.2755817286
 20
447.5458655136
 30
0.0
  0
VERTEX
  5
92C
  8
0
  6
CONTINUOUS
 62
     7
 10
-2854.4044220104
 20
448.2190775374
 30
0.0
  0
VERTEX
  5
92D
  8
0
  6
CONTINUOUS
 62
     7
 10
-2854.8873089905
 20
448.8363453157
 30
0.0
  0
VERTEX
  5
92E
  8
0
  6
CONTINUOUS
 62
     7
 10
-2855.6770092227
 20
449.3372720564
 30
0.0
  0
VERTEX
  5
92F
  8
0
  6
CONTINUOUS
 62
     7
 10
-2856.6961885083
 20
449.6728037088
 30
0.0
  0
VERTEX
  5
930
  8
0
  6
CONTINUOUS
 62
     7
 10
-2857.8450826227
 20
449.8100951357
 30
0.0
  0
VERTEX
  5
931
  8
0
  6
CONTINUOUS
 62
     7
 10
-2859.0112437742
 20
449.7357157036
 30
0.0
  0
VERTEX
  5
932
  8
0
  6
CONTINUOUS
 62
     7
 10
-2860.080525126
 20
449.4569479423
 30
0.0
  0
VERTEX
  5
933
  8
0
  6
CONTINUOUS
 62
     7
 10
-2860.9482339064
 20
449.0010667434
 30
0.0
  0
VERTEX
  5
934
  8
0
  6
CONTINUOUS
 62
     7
 10
-2861.5294560695
 20
448.4127123877
 30
0.0
  0
SEQEND
  5
935
  8
0
  6
CONTINUOUS
 62
     7
  0
POLYLINE
  5
481
  8
0
  6
CONTINUOUS
 62
     7
 66
     1
 10
0.0
 20
0.0
 30
0.0
  0
VERTEX
  5
936
  8
0
  6
CONTINUOUS
 62
     7
 10
-2843.1669342324
 20
459.2776470309
 30
0.0
  0
VERTEX
  5
937
  8
0
  6
CONTINUOUS
 62
     7
 10
-2843.7914873071
 20
458.7042782026
 30
0.0
  0
VERTEX
  5
938
  8
0
  6
CONTINUOUS
 62
     7
 10
-2844.0785363214
 20
458.0475472937
 30
0.0
  0
VERTEX
  5
939
  8
0
  6
CONTINUOUS
 62
     7
 10
-2844.0000141085
 20
457.3717592404
 30
0.0
  0
VERTEX
  5
93A
  8
0
  6
CONTINUOUS
 62
     7
 10
-2843.563580858
 20
456.7430513968
 30
0.0
  0
VERTEX
  5
93B
  8
0
  6
CONTINUOUS
 62
     7
 10
-2842.811984011
 20
456.2229747504
 30
0.0
  0
VERTEX
  5
93C
  8
0
  6
CONTINUOUS
 62
     7
 10
-2841.8187698182
 20
455.8624294556
 30
0.0
  0
VERTEX
  5
93D
  8
0
  6
CONTINUOUS
 62
     7
 10
-2840.6811789617
 20
455.6967150248
 30
0.0
  0
VERTEX
  5
93E
  8
0
  6
CONTINUOUS
 62
     7
 10
-2839.5105476102
 20
455.7420449335
 30
0.0
  0
VERTEX
  5
93F
  8
0
  6
CONTINUOUS
 62
     7
 10
-2838.421478313
 20
455.9939879241
 30
0.0
  0
VERTEX
  5
940
  8
0
  6
CONTINUOUS
 62
     7
 10
-2837.5205815235
 20
456.4278846724
 30
0.0
  0
VERTEX
  5
941
  8
0
  6
CONTINUOUS
 62
     7
 10
-2836.8960310831
 20
457.00125198
 30
0.0
  0
VERTEX
  5
942
  8
0
  6
CONTINUOUS
 62
     7
 10
-2836.6089609953
 20
457.6579707235
 30
0.0
  0
VERTEX
  5
943
  8
0
  6
CONTINUOUS
 62
     7
 10
-2836.6874832083
 20
458.3337587768
 30
0.0
  0
VERTEX
  5
944
  8
0
  6
CONTINUOUS
 62
     7
 10
-2837.1239138246
 20
458.962468141
 30
0.0
  0
VERTEX
  5
945
  8
0
  6
CONTINUOUS
 62
     7
 10
-2837.8755133057
 20
459.4825432667
 30
0.0
  0
VERTEX
  5
946
  8
0
  6
CONTINUOUS
 62
     7
 10
-2838.8687274985
 20
459.8430885616
 30
0.0
  0
VERTEX
  5
947
  8
0
  6
CONTINUOUS
 62
     7
 10
-2840.0063394284
 20
460.0088151578
 30
0.0
  0
VERTEX
  5
948
  8
0
  6
CONTINUOUS
 62
     7
 10
-2841.1769497066
 20
459.9634730837
 30
0.0
  0
VERTEX
  5
949
  8
0
  6
CONTINUOUS
 62
     7
 10
-2842.2660190037
 20
459.7115300931
 30
0.0
  0
VERTEX
  5
94A
  8
0
  6
CONTINUOUS
 62
     7
 10
-2843.1669342324
 20
459.2776470309
 30
0.0
  0
SEQEND
  5
94B
  8
0
  6
CONTINUOUS
 62
     7
  0
POLYLINE
  5
482
  8
0
  6
CONTINUOUS
 62
     7
 66
     1
 10
0.0
 20
0.0
 30
0.0
  0
VERTEX
  5
94C
  8
0
  6
CONTINUOUS
 62
     7
 10
-2909.0341081106
 20
443.4472640954
 30
0.0
  0
VERTEX
  5
94D
  8
0
  6
CONTINUOUS
 62
     7
 10
-2908.3889774957
 20
442.9597402358
 30
0.0
  0
VERTEX
  5
94E
  8
0
  6
CONTINUOUS
 62
     7
 10
-2907.4939015812
 20
442.6289884564
 30
0.0
  0
VERTEX
  5
94F
  8
0
  6
CONTINUOUS
 62
     7
 10
-2906.4568586172
 20
442.4949125044
 30
0.0
  0
VERTEX
  5
950
  8
0
  6
CONTINUOUS
 62
     7
 10
-2905.402943743
 20
442.5736904994
 30
0.0
  0
VERTEX
  5
951
  8
0
  6
CONTINUOUS
 62
     7
 10
-2904.459240902
 20
442.8558026132
 30
0.0
  0
VERTEX
  5
952
  8
0
  6
CONTINUOUS
 62
     7
 10
-2903.7395725977
 20
443.3072192898
 30
0.0
  0
VERTEX
  5
953
  8
0
  6
CONTINUOUS
 62
     7
 10
-2903.3307886676
 20
443.8735209543
 30
0.0
  0
VERTEX
  5
954
  8
0
  6
CONTINUOUS
 62
     7
 10
-2903.282140997
 20
444.4863724919
 30
0.0
  0
VERTEX
  5
955
  8
0
  6
CONTINUOUS
 62
     7
 10
-2903.59953673
 20
445.0718772859
 30
0.0
  0
VERTEX
  5
956
  8
0
  6
CONTINUOUS
 62
     7
 10
-2904.2446676742
 20
445.5594009554
 30
0.0
  0
VERTEX
  5
957
  8
0
  6
CONTINUOUS
 62
     7
 10
-2905.1397225153
 20
445.8901405694
 30
0.0
  0
VERTEX
  5
958
  8
0
  6
CONTINUOUS
 62
     7
 10
-2906.17676515
 20
446.0242167114
 30
0.0
  0
VERTEX
  5
959
  8
0
  6
CONTINUOUS
 62
     7
 10
-2907.2307014269
 20
445.9454506917
 30
0.0
  0
VERTEX
  5
95A
  8
0
  6
CONTINUOUS
 62
     7
 10
-2908.1744039387
 20
445.6633387681
 30
0.0
  0
VERTEX
  5
95B
  8
0
  6
CONTINUOUS
 62
     7
 10
-2908.8940514988
 20
445.211909736
 30
0.0
  0
VERTEX
  5
95C
  8
0
  6
CONTINUOUS
 62
     7
 10
-2909.3028561731
 20
444.645620427
 30
0.0
  0
VERTEX
  5
95D
  8
0
  6
CONTINUOUS
 62
     7
 10
-2909.3514830995
 20
444.0327565339
 30
0.0
  0
VERTEX
  5
95E
  8
0
  6
CONTINUOUS
 62
     7
 10
-2909.0341081106
 20
443.4472640954
 30
0.0
  0
SEQEND
  5
95F
  8
0
  6
CONTINUOUS
 62
     7
  0
POLYLINE
  5
483
  8
0
  6
CONTINUOUS
 62
     7
 66
     1
 10
0.0
 20
0.0
 30
0.0
  0
VERTEX
  5
960
  8
0
  6
CONTINUOUS
 62
     7
 10
-2437.7787296504
 20
199.7372768799
 30
0.0
  0
VERTEX
  5
961
  8
0
  6
CONTINUOUS
 62
     7
 10
-2437.5581172403
 20
200.3374066103
 30
0.0
  0
VERTEX
  5
962
  8
0
  6
CONTINUOUS
 62
     7
 10
-2437.7063753653
 20
200.9449078303
 30
0.0
  0
VERTEX
  5
963
  8
0
  6
CONTINUOUS
 62
     7
 10
-2438.205620591
 20
201.4865035997
 30
0.0
  0
VERTEX
  5
964
  8
0
  6
CONTINUOUS
 62
     7
 10
-2438.9956053144
 20
201.8968526397
 30
0.0
  0
VERTEX
  5
965
  8
0
  6
CONTINUOUS
 62
     7
 10
-2439.9810868776
 20
202.1264849941
 30
0.0
  0
VERTEX
  5
966
  8
0
  6
CONTINUOUS
 62
     7
 10
-2441.043171655
 20
202.1476862953
 30
0.0
  0
VERTEX
  5
967
  8
0
  6
CONTINUOUS
 62
     7
 10
-2442.0537911791
 20
201.9579170099
 30
0.0
  0
VERTEX
  5
968
  8
0
  6
CONTINUOUS
 62
     7
 10
-2442.8909922267
 20
201.5800367393
 30
0.0
  0
VERTEX
  5
969
  8
0
  6
CONTINUOUS
 62
     7
 10
-2443.4538541689
 20
201.0596536761
 30
0.0
  0
VERTEX
  5
96A
  8
0
  6
CONTINUOUS
 62
     7
 10
-2443.6744678962
 20
200.4595231853
 30
0.0
  0
VERTEX
  5
96B
  8
0
  6
CONTINUOUS
 62
     7
 10
-2443.526208454
 20
199.8520227257
 30
0.0
  0
VERTEX
  5
96C
  8
0
  6
CONTINUOUS
 62
     7
 10
-2443.0269645454
 20
199.3104261959
 30
0.0
  0
VERTEX
  5
96D
  8
0
  6
CONTINUOUS
 62
     7
 10
-2442.2369587485
 20
198.9000649905
 30
0.0
  0
VERTEX
  5
96E
  8
0
  6
CONTINUOUS
 62
     7
 10
-2441.2514982588
 20
198.6704448015
 30
0.0
  0
VERTEX
  5
96F
  8
0
  6
CONTINUOUS
 62
     7
 10
-2440.1893910909
 20
198.6492320953
 30
0.0
  0
VERTEX
  5
970
  8
0
  6
CONTINUOUS
 62
     7
 10
-2439.1787939573
 20
198.8390127857
 30
0.0
  0
VERTEX
  5
971
  8
0
  6
CONTINUOUS
 62
     7
 10
-2438.3415705192
 20
199.2168816513
 30
0.0
  0
VERTEX
  5
972
  8
0
  6
CONTINUOUS
 62
     7
 10
-2437.7787296504
 20
199.7372768799
 30
0.0
  0
SEQEND
  5
973
  8
0
  6
CONTINUOUS
 62
     7
  0
POLYLINE
  5
484
  8
0
  6
CONTINUOUS
 62
     7
 66
     1
 10
0.0
 20
0.0
 30
0.0
  0
VERTEX
  5
974
  8
0
  6
CONTINUOUS
 62
     7
 10
-2887.6813187382
 20
456.4081994878
 30
0.0
  0
VERTEX
  5
975
  8
0
  6
CONTINUOUS
 62
     7
 10
-2887.2974083634
 20
455.836129319
 30
0.0
  0
VERTEX
  5
976
  8
0
  6
CONTINUOUS
 62
     7
 10
-2886.5977206288
 20
455.3743585319
 30
0.0
  0
VERTEX
  5
977
  8
0
  6
CONTINUOUS
 62
     7
 10
-2885.6666387933
 20
455.0785774183
 30
0.0
  0
VERTEX
  5
978
  8
0
  6
CONTINUOUS
 62
     7
 10
-2884.6164881594
 20
454.9844770656
 30
0.0
  0
VERTEX
  5
979
  8
0
  6
CONTINUOUS
 62
     7
 10
-2883.5739173729
 20
455.1033971742
 30
0.0
  0
VERTEX
  5
97A
  8
0
  6
CONTINUOUS
 62
     7
 10
-2882.6646952638
 20
455.4210053482
 30
0.0
  0
VERTEX
  5
97B
  8
0
  6
CONTINUOUS
 62
     7
 10
-2881.9984339312
 20
455.8989629988
 30
0.0
  0
VERTEX
  5
97C
  8
0
  6
CONTINUOUS
 62
     7
 10
-2881.6555521964
 20
456.4796531343
 30
0.0
  0
VERTEX
  5
97D
  8
0
  6
CONTINUOUS
 62
     7
 10
-2881.6773908494
 20
457.0930302564
 30
0.0
  0
VERTEX
  5
97E
  8
0
  6
CONTINUOUS
 62
     7
 10
-2882.0613012241
 20
457.6651004251
 30
0.0
  0
VERTEX
  5
97F
  8
0
  6
CONTINUOUS
 62
     7
 10
-2882.7609678854
 20
458.1268590469
 30
0.0
  0
VERTEX
  5
980
  8
0
  6
CONTINUOUS
 62
     7
 10
-2883.692051038
 20
458.4226394001
 30
0.0
  0
VERTEX
  5
981
  8
0
  6
CONTINUOUS
 62
     7
 10
-2884.7422016718
 20
458.5167397528
 30
0.0
  0
VERTEX
  5
982
  8
0
  6
CONTINUOUS
 62
     7
 10
-2885.7847711413
 20
458.3978204045
 30
0.0
  0
VERTEX
  5
983
  8
0
  6
CONTINUOUS
 62
     7
 10
-2886.6940143238
 20
458.080224396
 30
0.0
  0
VERTEX
  5
984
  8
0
  6
CONTINUOUS
 62
     7
 10
-2887.3602545829
 20
457.6022545799
 30
0.0
  0
VERTEX
  5
985
  8
0
  6
CONTINUOUS
 62
     7
 10
-2887.7031376348
 20
457.0215636841
 30
0.0
  0
VERTEX
  5
986
  8
0
  6
CONTINUOUS
 62
     7
 10
-2887.6813187382
 20
456.4081994878
 30
0.0
  0
SEQEND
  5
987
  8
0
  6
CONTINUOUS
 62
     7
  0
POLYLINE
  5
485
  8
0
  6
CONTINUOUS
 62
     7
 66
     1
 10
0.0
 20
0.0
 30
0.0
  0
VERTEX
  5
988
  8
0
  6
CONTINUOUS
 62
     7
 10
-2459.2093105807
 20
187.7294851619
 30
0.0
  0
VERTEX
  5
989
  8
0
  6
CONTINUOUS
 62
     7
 10
-2459.2875045092
 20
188.3413265887
 30
0.0
  0
VERTEX
  5
98A
  8
0
  6
CONTINUOUS
 62
     7
 10
-2459.7234570222
 20
188.9008230264
 30
0.0
  0
VERTEX
  5
98B
  8
0
  6
CONTINUOUS
 62
     7
 10
-2460.4646096826
 20
189.3405057667
 30
0.0
  0
VERTEX
  5
98C
  8
0
  6
CONTINUOUS
 62
     7
 10
-2461.4215614513
 20
189.6073379116
 30
0.0
  0
VERTEX
  5
98D
  8
0
  6
CONTINUOUS
 62
     7
 10
-2462.4788757323
 20
189.6691276456
 30
0.0
  0
VERTEX
  5
98E
  8
0
  6
CONTINUOUS
 62
     7
 10
-2463.5090481014
 20
189.5184356186
 30
0.0
  0
VERTEX
  5
98F
  8
0
  6
CONTINUOUS
 62
     7
 10
-2464.3878059415
 20
189.1734263368
 30
0.0
  0
VERTEX
  5
990
  8
0
  6
CONTINUOUS
 62
     7
 10
-2465.0091677095
 20
188.675719633
 30
0.0
  0
VERTEX
  5
991
  8
0
  6
CONTINUOUS
 62
     7
 10
-2465.2981877475
 20
188.0853446757
 30
0.0
  0
VERTEX
  5
992
  8
0
  6
CONTINUOUS
 62
     7
 10
-2465.2200145632
 20
187.4735156044
 30
0.0
  0
VERTEX
  5
993
  8
0
  6
CONTINUOUS
 62
     7
 10
-2464.7840416353
 20
186.9140066211
 30
0.0
  0
VERTEX
  5
994
  8
0
  6
CONTINUOUS
 62
     7
 10
-2464.0428886457
 20
186.4743240709
 30
0.0
  0
VERTEX
  5
995
  8
0
  6
CONTINUOUS
 62
     7
 10
-2463.0859576211
 20
186.2075042815
 30
0.0
  0
VERTEX
  5
996
  8
0
  6
CONTINUOUS
 62
     7
 10
-2462.0286222667
 20
186.1457023821
 30
0.0
  0
VERTEX
  5
997
  8
0
  6
CONTINUOUS
 62
     7
 10
-2460.998470971
 20
186.2964065745
 30
0.0
  0
VERTEX
  5
998
  8
0
  6
CONTINUOUS
 62
     7
 10
-2460.119692716
 20
186.6414033107
 30
0.0
  0
VERTEX
  5
999
  8
0
  6
CONTINUOUS
 62
     7
 10
-2459.4983302895
 20
187.1391103946
 30
0.0
  0
VERTEX
  5
99A
  8
0
  6
CONTINUOUS
 62
     7
 10
-2459.2093105807
 20
187.7294851619
 30
0.0
  0
SEQEND
  5
99B
  8
0
  6
CONTINUOUS
 62
     7
  0
ARC
  5
486
  8
0
  6
CONTINUOUS
 62
     7
 10
-2462.0416220676
 20
-141.276016184
 30
0.0
 40
4.534230685702546
 50
242.609642237
 51
297.3902115721
  0
ARC
  5
487
  8
0
  6
CONTINUOUS
 62
     7
 10
-2462.0416297251
 20
-141.2340733878
 30
0.0
 40
4.995285111554392
 50
242.6094301672
 51
297.3905413978
  0
ARC
  5
488
  8
0
  6
CONTINUOUS
 62
     7
 10
-2462.0416297251
 20
-144.0103226414
 30
0.0
 40
4.995285111554973
 50
242.6094301672
 51
297.3905413978
  0
POLYLINE
  5
489
  8
0
  6
CONTINUOUS
 62
     7
 66
     1
 10
0.0
 20
0.0
 30
0.0
  0
VERTEX
  5
99C
  8
0
  6
CONTINUOUS
 62
     7
 10
-2468.1807068647
 20
-140.7512145749
 30
0.0
  0
VERTEX
  5
99D
  8
0
  6
CONTINUOUS
 62
     7
 10
-2468.3835550368
 20
-140.906467117
 30
0.0
  0
VERTEX
  5
99E
  8
0
  6
CONTINUOUS
 62
     7
 10
-2468.6561608529
 20
-141.2008948266
 30
0.0
  0
VERTEX
  5
99F
  8
0
  6
CONTINUOUS
 62
     7
 10
-2468.824038336
 20
-141.5203627906
 30
0.0
  0
VERTEX
  5
9A0
  8
0
  6
CONTINUOUS
 62
     7
 10
-2468.8807027982
 20
-141.8526116781
 30
0.0
  0
VERTEX
  5
9A1
  8
0
  6
CONTINUOUS
 62
     7
 10
-2468.8240185797
 20
-142.1848514415
 30
0.0
  0
VERTEX
  5
9A2
  8
0
  6
CONTINUOUS
 62
     7
 10
-2468.6561522919
 20
-142.5043182649
 30
0.0
  0
VERTEX
  5
9A3
  8
0
  6
CONTINUOUS
 62
     7
 10
-2468.3835438415
 20
-142.7987444538
 30
0.0
  0
VERTEX
  5
9A4
  8
0
  6
CONTINUOUS
 62
     7
 10
-2468.0166759401
 20
-143.0568093164
 30
0.0
  0
SEQEND
  5
9A5
  8
0
  6
CONTINUOUS
 62
     7
  0
LINE
  5
48A
  8
0
  6
CONTINUOUS
 62
     7
 10
-2433.6747948634
 20
-129.4878811446
 30
0.0
 11
-2432.5432494455
 21
-112.1686489238
 31
0.0
  0
ARC
  5
48B
  8
0
  6
CONTINUOUS
 62
     7
 10
-2435.1778272887
 20
-129.2473307801
 30
0.0
 40
1.522159961767121
 50
294.9088224466
 51
350.9073005756
  0
LINE
  5
48C
  8
0
  6
CONTINUOUS
 62
     7
 10
-2459.9556578401
 20
-145.301932372
 30
0.0
 11
-2434.5367308427
 21
-130.627898162
 31
0.0
  0
LINE
  5
48D
  8
0
  6
CONTINUOUS
 62
     7
 10
-2468.0166759401
 20
-143.0568093164
 30
0.0
 11
-2464.1275965672
 21
-145.3019270497
 31
0.0
  0
LINE
  5
48E
  8
0
  6
CONTINUOUS
 62
     7
 10
-2434.3246057541
 20
-130.9953095919
 30
0.0
 11
-2459.7435327516
 21
-145.6693438019
 31
0.0
  0
LINE
  5
48F
  8
0
  6
CONTINUOUS
 62
     7
 10
-2464.3397288997
 20
-145.6693426614
 30
0.0
 11
-2468.2288082727
 21
-143.4242249281
 31
0.0
  0
LINE
  5
490
  8
0
  6
CONTINUOUS
 62
     7
 10
-2459.7435327516
 20
-148.4455930555
 30
0.0
 11
-2434.3246057541
 21
-133.7715588455
 31
0.0
  0
LINE
  5
491
  8
0
  6
CONTINUOUS
 62
     7
 10
-2468.2288082727
 20
-146.2004741817
 30
0.0
 11
-2464.3397288997
 21
-148.445591915
 31
0.0
  0
ARC
  5
492
  8
0
  6
CONTINUOUS
 62
     7
 10
-2462.0416220676
 20
-144.5421738832
 30
0.0
 40
4.534230685702926
 50
242.609642237
 51
297.3902115721
  0
LINE
  5
493
  8
0
  6
CONTINUOUS
 62
     7
 10
-2434.5367308427
 20
-133.8940558612
 30
0.0
 11
-2434.3246057541
 21
-133.7715588455
 31
0.0
  0
LINE
  5
494
  8
0
  6
CONTINUOUS
 62
     7
 10
-2434.5367308427
 20
-133.8940558612
 30
0.0
 11
-2459.9556578401
 21
-148.5680900713
 31
0.0
  0
LINE
  5
495
  8
0
  6
CONTINUOUS
 62
     7
 10
-2468.0166759401
 20
-146.3229670156
 30
0.0
 11
-2468.2288082727
 21
-146.2004741817
 31
0.0
  0
LINE
  5
496
  8
0
  6
CONTINUOUS
 62
     7
 10
-2464.1275965672
 20
-148.5680847489
 30
0.0
 11
-2468.0166759401
 21
-146.3229670156
 31
0.0
  0
ARC
  5
497
  8
0
  6
CONTINUOUS
 62
     7
 10
-2467.725289925
 20
-142.0975607738
 30
0.0
 40
1.4190026443233
 50
110.7837002129
 51
249.2163851105
  0
LINE
  5
498
  8
0
  6
CONTINUOUS
 62
     7
 10
-2468.1807206941
 20
-140.7431268359
 30
0.0
 11
-2468.2288102483
 21
-140.7708973694
 31
0.0
  0
ARC
  5
499
  8
0
  6
CONTINUOUS
 62
     7
 10
-2467.5542403867
 20
-144.711634035
 30
0.0
 40
1.634529539376483
 50
185.6943655446
 51
245.6255366697
  0
ARC
  5
49A
  8
0
  6
CONTINUOUS
 62
     7
 10
-2435.0308909799
 20
-129.474346758
 30
0.0
 40
1.676951627831707
 50
294.9086087094
 51
350.9072520855
  0
ARC
  5
49B
  8
0
  6
CONTINUOUS
 62
     7
 10
-2435.0308909799
 20
-132.2505960116
 30
0.0
 40
1.676951627831707
 50
294.9086087094
 51
350.9072520855
  0
LINE
  5
49C
  8
0
  6
CONTINUOUS
 62
     7
 10
-2432.2146383702
 20
-111.9789369349
 30
0.0
 11
-2433.3750122325
 21
-129.7393605993
 31
0.0
  0
LINE
  5
49D
  8
0
  6
CONTINUOUS
 62
     7
 10
-2433.3750122325
 20
-132.5156098529
 30
0.0
 11
-2432.0261313219
 21
-111.8701395242
 31
0.0
  0
POLYLINE
  5
49E
  8
0
  6
CONTINUOUS
 62
     7
 66
     1
 10
0.0
 20
0.0
 30
0.0
  0
VERTEX
  5
9A6
  8
0
  6
CONTINUOUS
 62
     7
 10
-2912.2437802855
 20
115.6009411019
 30
0.0
  0
VERTEX
  5
9A7
  8
0
  6
CONTINUOUS
 62
     7
 10
-2912.4466073842
 20
115.4456763943
 30
0.0
  0
VERTEX
  5
9A8
  8
0
  6
CONTINUOUS
 62
     7
 10
-2912.7192132004
 20
115.1512486847
 30
0.0
  0
VERTEX
  5
9A9
  8
0
  6
CONTINUOUS
 62
     7
 10
-2912.8870906834
 20
114.8317807208
 30
0.0
  0
VERTEX
  5
9AA
  8
0
  6
CONTINUOUS
 62
     7
 10
-2912.943776219
 20
114.4995439987
 30
0.0
  0
VERTEX
  5
9AB
  8
0
  6
CONTINUOUS
 62
     7
 10
-2912.8870920005
 20
114.1673042353
 30
0.0
  0
VERTEX
  5
9AC
  8
0
  6
CONTINUOUS
 62
     7
 10
-2912.7192046393
 20
113.8478252465
 30
0.0
  0
VERTEX
  5
9AD
  8
0
  6
CONTINUOUS
 62
     7
 10
-2912.4465961889
 20
113.5533990575
 30
0.0
  0
VERTEX
  5
9AE
  8
0
  6
CONTINUOUS
 62
     7
 10
-2912.0797282875
 20
113.295334195
 30
0.0
  0
SEQEND
  5
9AF
  8
0
  6
CONTINUOUS
 62
     7
  0
LINE
  5
49F
  8
0
  6
CONTINUOUS
 62
     7
 10
-2898.2709358621
 20
113.5952419551
 30
0.0
 11
-2893.0232136646
 21
113.7095101059
 31
0.0
  0
ARC
  5
4A0
  8
0
  6
CONTINUOUS
 62
     7
 10
-2898.2597484344
 20
108.5357913131
 30
0.0
 40
5.059463010760739
 50
90.1266918863
 51
118.1583729757
  0
LINE
  5
4A1
  8
0
  6
CONTINUOUS
 62
     7
 10
-2904.0187101875
 20
111.0502111393
 30
0.0
 11
-2900.6473613846
 21
112.9964493764
 31
0.0
  0
ARC
  5
4A2
  8
0
  6
CONTINUOUS
 62
     7
 10
-2906.1046744149
 20
115.0761648155
 30
0.0
 40
4.534263971216439
 50
242.6098601656
 51
297.3899936436
  0
LINE
  5
4A3
  8
0
  6
CONTINUOUS
 62
     7
 10
-2912.0797282875
 20
113.295334195
 30
0.0
 11
-2908.1906489146
 21
111.0502164617
 31
0.0
  0
LINE
  5
4A4
  8
0
  6
CONTINUOUS
 62
     7
 10
-2893.0232143232
 20
113.2912468032
 30
0.0
 11
-2898.2596327688
 21
113.1772268081
 31
0.0
  0
LINE
  5
4A5
  8
0
  6
CONTINUOUS
 62
     7
 10
-2898.2596327688
 20
110.4009775546
 30
0.0
 11
-2892.390763139
 21
110.5287662608
 31
0.0
  0
LINE
  5
4A6
  8
0
  6
CONTINUOUS
 62
     7
 10
-2892.3368073116
 20
110.4582931572
 30
0.0
 11
-2898.2709358621
 21
110.3290842559
 31
0.0
  0
ARC
  5
4A7
  8
0
  6
CONTINUOUS
 62
     7
 10
-2906.1046820725
 20
115.1181339336
 30
0.0
 40
4.995341768068499
 50
242.6097668765
 51
297.3902046885
  0
ARC
  5
4A8
  8
0
  6
CONTINUOUS
 62
     7
 10
-2906.1046820725
 20
112.3418846801
 30
0.0
 40
4.995341768068472
 50
242.6097668765
 51
297.3902046885
  0
LINE
  5
4A9
  8
0
  6
CONTINUOUS
 62
     7
 10
-2908.4027812471
 20
110.68280085
 30
0.0
 11
-2912.2918606201
 21
112.9279185833
 31
0.0
  0
LINE
  5
4AA
  8
0
  6
CONTINUOUS
 62
     7
 10
-2900.4352362961
 20
112.6290379465
 30
0.0
 11
-2903.806585099
 21
110.6827997095
 31
0.0
  0
LINE
  5
4AB
  8
0
  6
CONTINUOUS
 62
     7
 10
-2912.2918606201
 20
110.1516693297
 30
0.0
 11
-2908.4027812471
 21
107.9065515964
 31
0.0
  0
LINE
  5
4AC
  8
0
  6
CONTINUOUS
 62
     7
 10
-2903.806585099
 20
107.9065504559
 30
0.0
 11
-2900.4352362961
 21
109.8527886929
 31
0.0
  0
ARC
  5
4AD
  8
0
  6
CONTINUOUS
 62
     7
 10
-2906.1046744149
 20
111.8100071163
 30
0.0
 40
4.534263971216439
 50
242.6098601656
 51
297.3899936436
  0
LINE
  5
4AE
  8
0
  6
CONTINUOUS
 62
     7
 10
-2912.0797282875
 20
110.0291764958
 30
0.0
 11
-2912.2918606201
 21
110.1516693297
 31
0.0
  0
LINE
  5
4AF
  8
0
  6
CONTINUOUS
 62
     7
 10
-2908.1906489146
 20
107.7840587625
 30
0.0
 11
-2912.0797282875
 21
110.0291764958
 31
0.0
  0
LINE
  5
4B0
  8
0
  6
CONTINUOUS
 62
     7
 10
-2900.6473613846
 20
109.7302916772
 30
0.0
 11
-2904.0187101875
 21
107.7840534401
 31
0.0
  0
ARC
  5
4B1
  8
0
  6
CONTINUOUS
 62
     7
 10
-2898.2493306691
 20
108.5450747704
 30
0.0
 40
4.63216349386856
 50
90.1274279979
 51
118.1575275643
  0
ARC
  5
4B2
  8
0
  6
CONTINUOUS
 62
     7
 10
-2898.2493306691
 20
105.7688255168
 30
0.0
 40
4.632163493868572
 50
90.1274279979
 51
118.1575275643
  0
ARC
  5
4B3
  8
0
  6
CONTINUOUS
 62
     7
 10
-2911.788360793
 20
114.2545827375
 30
0.0
 40
1.418996072578345
 50
110.7830010574
 51
249.2170842661
  0
LINE
  5
4B4
  8
0
  6
CONTINUOUS
 62
     7
 10
-2912.2437730415
 20
115.6090166754
 30
0.0
 11
-2912.2918625957
 21
115.581246142
 31
0.0
  0
ARC
  5
4B5
  8
0
  6
CONTINUOUS
 62
     7
 10
-2911.6172479414
 20
111.6405659647
 30
0.0
 40
1.634599478744742
 50
185.6956824015
 51
245.6249236959
  0
ARC
  5
4B6
  8
0
  6
CONTINUOUS
 62
     7
 10
-2898.2597484344
 20
105.2696336139
 30
0.0
 40
5.059463010760739
 50
90.1266918863
 51
118.1583729757
  0
POLYLINE
  5
4B7
  8
0
  6
CONTINUOUS
 62
     7
 66
     1
 10
0.0
 20
0.0
 30
0.0
  0
VERTEX
  5
9B0
  8
0
  6
CONTINUOUS
 62
     7
 10
-2838.0810160707
 20
459.1590188926
 30
0.0
  0
VERTEX
  5
9B1
  8
0
  6
CONTINUOUS
 62
     7
 10
-2838.9913774618
 20
459.5270048679
 30
0.0
  0
VERTEX
  5
9B2
  8
0
  6
CONTINUOUS
 62
     7
 10
-2840.0648445225
 20
459.6930462446
 30
0.0
  0
VERTEX
  5
9B3
  8
0
  6
CONTINUOUS
 62
     7
 10
-2841.1719632076
 20
459.6371308921
 30
0.0
  0
VERTEX
  5
9B4
  8
0
  6
CONTINUOUS
 62
     7
 10
-2842.1792043983
 20
459.3660030201
 30
0.0
  0
VERTEX
  5
9B5
  8
0
  6
CONTINUOUS
 62
     7
 10
-2842.9650481939
 20
458.9123450533
 30
0.0
  0
VERTEX
  5
9B6
  8
0
  6
CONTINUOUS
 62
     7
 10
-2843.4347063319
 20
458.3308770908
 30
0.0
  0
VERTEX
  5
9B7
  8
0
  6
CONTINUOUS
 62
     7
 10
-2843.5315650582
 20
457.6917510781
 30
0.0
  0
VERTEX
  5
9B8
  8
0
  6
CONTINUOUS
 62
     7
 10
-2843.243941793
 20
457.0720517346
 30
0.0
  0
VERTEX
  5
9B9
  8
0
  6
CONTINUOUS
 62
     7
 10
-2842.6064996853
 20
456.5465128107
 30
0.0
  0
VERTEX
  5
9BA
  8
0
  6
CONTINUOUS
 62
     7
 10
-2841.6961409283
 20
456.1785253147
 30
0.0
  0
VERTEX
  5
9BB
  8
0
  6
CONTINUOUS
 62
     7
 10
-2840.6226527942
 20
456.0124717726
 30
0.0
  0
VERTEX
  5
9BC
  8
0
  6
CONTINUOUS
 62
     7
 10
-2839.5155341092
 20
456.0683871251
 30
0.0
  0
VERTEX
  5
9BD
  8
0
  6
CONTINUOUS
 62
     7
 10
-2838.5083139918
 20
456.3395271624
 30
0.0
  0
VERTEX
  5
9BE
  8
0
  6
CONTINUOUS
 62
     7
 10
-2837.7224701963
 20
456.7931851292
 30
0.0
  0
VERTEX
  5
9BF
  8
0
  6
CONTINUOUS
 62
     7
 10
-2837.2527909848
 20
457.3746409264
 30
0.0
  0
VERTEX
  5
9C0
  8
0
  6
CONTINUOUS
 62
     7
 10
-2837.1559322586
 20
458.013766939
 30
0.0
  0
VERTEX
  5
9C1
  8
0
  6
CONTINUOUS
 62
     7
 10
-2837.4435765971
 20
458.6334784479
 30
0.0
  0
VERTEX
  5
9C2
  8
0
  6
CONTINUOUS
 62
     7
 10
-2838.0810160707
 20
459.1590188926
 30
0.0
  0
SEQEND
  5
9C3
  8
0
  6
CONTINUOUS
 62
     7
  0
POLYLINE
  5
4B8
  8
0
  6
CONTINUOUS
 62
     7
 66
     1
 10
0.0
 20
0.0
 30
0.0
  0
VERTEX
  5
9C4
  8
0
  6
CONTINUOUS
 62
     7
 10
-2855.7586871809
 20
448.9539165824
 30
0.0
  0
VERTEX
  5
9C5
  8
0
  6
CONTINUOUS
 62
     7
 10
-2856.669048572
 20
449.3219025577
 30
0.0
  0
VERTEX
  5
9C6
  8
0
  6
CONTINUOUS
 62
     7
 10
-2857.7425129985
 20
449.487945455
 30
0.0
  0
VERTEX
  5
9C7
  8
0
  6
CONTINUOUS
 62
     7
 10
-2858.8496343177
 20
449.4320285819
 30
0.0
  0
VERTEX
  5
9C8
  8
0
  6
CONTINUOUS
 62
     7
 10
-2859.8568741914
 20
449.1609014703
 30
0.0
  0
VERTEX
  5
9C9
  8
0
  6
CONTINUOUS
 62
     7
 10
-2860.6427166699
 20
448.7072442638
 30
0.0
  0
VERTEX
  5
9CA
  8
0
  6
CONTINUOUS
 62
     7
 10
-2861.1123748079
 20
448.1257763013
 30
0.0
  0
VERTEX
  5
9CB
  8
0
  6
CONTINUOUS
 62
     7
 10
-2861.2092348512
 20
447.4866495283
 30
0.0
  0
VERTEX
  5
9CC
  8
0
  6
CONTINUOUS
 62
     7
 10
-2860.921610269
 20
446.8669509451
 30
0.0
  0
VERTEX
  5
9CD
  8
0
  6
CONTINUOUS
 62
     7
 10
-2860.2841707954
 20
446.3414105005
 30
0.0
  0
VERTEX
  5
9CE
  8
0
  6
CONTINUOUS
 62
     7
 10
-2859.3738094043
 20
445.9734245252
 30
0.0
  0
VERTEX
  5
9CF
  8
0
  6
CONTINUOUS
 62
     7
 10
-2858.3003225873
 20
445.8073702227
 30
0.0
  0
VERTEX
  5
9D0
  8
0
  6
CONTINUOUS
 62
     7
 10
-2857.1932025852
 20
445.8632863355
 30
0.0
  0
VERTEX
  5
9D1
  8
0
  6
CONTINUOUS
 62
     7
 10
-2856.1859824678
 20
446.1344263729
 30
0.0
  0
VERTEX
  5
9D2
  8
0
  6
CONTINUOUS
 62
     7
 10
-2855.4001399893
 20
446.5880835794
 30
0.0
  0
VERTEX
  5
9D3
  8
0
  6
CONTINUOUS
 62
     7
 10
-2854.930462095
 20
447.1695386162
 30
0.0
  0
VERTEX
  5
9D4
  8
0
  6
CONTINUOUS
 62
     7
 10
-2854.8336007346
 20
447.8086661495
 30
0.0
  0
VERTEX
  5
9D5
  8
0
  6
CONTINUOUS
 62
     7
 10
-2855.1212477073
 20
448.4283761377
 30
0.0
  0
VERTEX
  5
9D6
  8
0
  6
CONTINUOUS
 62
     7
 10
-2855.7586871809
 20
448.9539165824
 30
0.0
  0
SEQEND
  5
9D7
  8
0
  6
CONTINUOUS
 62
     7
  0
POLYLINE
  5
4B9
  8
0
  6
CONTINUOUS
 62
     7
 66
     1
 10
0.0
 20
0.0
 30
0.0
  0
VERTEX
  5
9D8
  8
0
  6
CONTINUOUS
 62
     7
 10
-2904.7258322311
 20
445.1780297769
 30
0.0
  0
VERTEX
  5
9D9
  8
0
  6
CONTINUOUS
 62
     7
 10
-2905.4557715249
 20
445.4595876033
 30
0.0
  0
VERTEX
  5
9DA
  8
0
  6
CONTINUOUS
 62
     7
 10
-2906.316806286
 20
445.5584585148
 30
0.0
  0
VERTEX
  5
9DB
  8
0
  6
CONTINUOUS
 62
     7
 10
-2907.1778482911
 20
445.4595883636
 30
0.0
  0
VERTEX
  5
9DC
  8
0
  6
CONTINUOUS
 62
     7
 10
-2907.9078027313
 20
445.1780240744
 30
0.0
  0
VERTEX
  5
9DD
  8
0
  6
CONTINUOUS
 62
     7
 10
-2908.3955392332
 20
444.7566303456
 30
0.0
  0
VERTEX
  5
9DE
  8
0
  6
CONTINUOUS
 62
     7
 10
-2908.5668062448
 20
444.2595611864
 30
0.0
  0
VERTEX
  5
9DF
  8
0
  6
CONTINUOUS
 62
     7
 10
-2908.3955379161
 20
443.7624965892
 30
0.0
  0
VERTEX
  5
9E0
  8
0
  6
CONTINUOUS
 62
     7
 10
-2907.9078126095
 20
443.3411116044
 30
0.0
  0
VERTEX
  5
9E1
  8
0
  6
CONTINUOUS
 62
     7
 10
-2907.1778522424
 20
443.0595416126
 30
0.0
  0
VERTEX
  5
9E2
  8
0
  6
CONTINUOUS
 62
     7
 10
-2906.3168178105
 20
442.9606705109
 30
0.0
  0
VERTEX
  5
9E3
  8
0
  6
CONTINUOUS
 62
     7
 10
-2905.4557754761
 20
443.0595408522
 30
0.0
  0
VERTEX
  5
9E4
  8
0
  6
CONTINUOUS
 62
     7
 10
-2904.7258210359
 20
443.3411051415
 30
0.0
  0
VERTEX
  5
9E5
  8
0
  6
CONTINUOUS
 62
     7
 10
-2904.238084534
 20
443.7624988702
 30
0.0
  0
VERTEX
  5
9E6
  8
0
  6
CONTINUOUS
 62
     7
 10
-2904.0668178517
 20
444.2595678394
 30
0.0
  0
VERTEX
  5
9E7
  8
0
  6
CONTINUOUS
 62
     7
 10
-2904.2380858511
 20
444.7566326266
 30
0.0
  0
VERTEX
  5
9E8
  8
0
  6
CONTINUOUS
 62
     7
 10
-2904.7258322311
 20
445.1780297769
 30
0.0
  0
SEQEND
  5
9E9
  8
0
  6
CONTINUOUS
 62
     7
  0
POLYLINE
  5
4BA
  8
0
  6
CONTINUOUS
 62
     7
 66
     1
 10
0.0
 20
0.0
 30
0.0
  0
VERTEX
  5
9EA
  8
0
  6
CONTINUOUS
 62
     7
 10
-2883.0883646046
 20
457.6690739583
 30
0.0
  0
VERTEX
  5
9EB
  8
0
  6
CONTINUOUS
 62
     7
 10
-2883.8183045569
 20
457.9506314045
 30
0.0
  0
VERTEX
  5
9EC
  8
0
  6
CONTINUOUS
 62
     7
 10
-2884.6793383302
 20
458.0495028864
 30
0.0
  0
VERTEX
  5
9ED
  8
0
  6
CONTINUOUS
 62
     7
 10
-2885.5403813231
 20
457.9506321649
 30
0.0
  0
VERTEX
  5
9EE
  8
0
  6
CONTINUOUS
 62
     7
 10
-2886.2703357633
 20
457.6690678756
 30
0.0
  0
VERTEX
  5
9EF
  8
0
  6
CONTINUOUS
 62
     7
 10
-2886.7580722652
 20
457.2476741469
 30
0.0
  0
VERTEX
  5
9F0
  8
0
  6
CONTINUOUS
 62
     7
 10
-2886.9293386183
 20
456.7506053678
 30
0.0
  0
VERTEX
  5
9F1
  8
0
  6
CONTINUOUS
 62
     7
 10
-2886.7580709481
 20
456.2535403905
 30
0.0
  0
VERTEX
  5
9F2
  8
0
  6
CONTINUOUS
 62
     7
 10
-2886.270344983
 20
455.8321557858
 30
0.0
  0
VERTEX
  5
9F3
  8
0
  6
CONTINUOUS
 62
     7
 10
-2885.5403852744
 20
455.5505854138
 30
0.0
  0
VERTEX
  5
9F4
  8
0
  6
CONTINUOUS
 62
     7
 10
-2884.679350184
 20
455.4517146924
 30
0.0
  0
VERTEX
  5
9F5
  8
0
  6
CONTINUOUS
 62
     7
 10
-2883.8183085081
 20
455.5505846535
 30
0.0
  0
VERTEX
  5
9F6
  8
0
  6
CONTINUOUS
 62
     7
 10
-2883.0883540679
 20
455.8321489428
 30
0.0
  0
VERTEX
  5
9F7
  8
0
  6
CONTINUOUS
 62
     7
 10
-2882.600617566
 20
456.2535426715
 30
0.0
  0
VERTEX
  5
9F8
  8
0
  6
CONTINUOUS
 62
     7
 10
-2882.4293498958
 20
456.7506122109
 30
0.0
  0
VERTEX
  5
9F9
  8
0
  6
CONTINUOUS
 62
     7
 10
-2882.6006188831
 20
457.2476764279
 30
0.0
  0
VERTEX
  5
9FA
  8
0
  6
CONTINUOUS
 62
     7
 10
-2883.0883646046
 20
457.6690739583
 30
0.0
  0
SEQEND
  5
9FB
  8
0
  6
CONTINUOUS
 62
     7
  0
ARC
  5
4BB
  8
0
  6
CONTINUOUS
 62
     7
 10
-2911.6226952922
 20
444.3820277464
 30
0.0
 40
1.288018557896822
 50
110.7837200282
 51
249.2167186394
  0
LINE
  5
4BC
  8
0
  6
CONTINUOUS
 62
     7
 10
-2886.6608105097
 20
460.2602646882
 30
0.0
 11
-2912.0797375071
 21
445.5862304782
 31
0.0
  0
ARC
  5
4BD
  8
0
  6
CONTINUOUS
 62
     7
 10
-2884.6767383526
 20
456.5534962385
 30
0.0
 40
4.204363764512025
 50
90.1266121361
 51
118.1582089737
  0
LINE
  5
4BE
  8
0
  6
CONTINUOUS
 62
     7
 10
-2840.5962715012
 20
461.7178374162
 30
0.0
 11
-2884.6860291424
 21
460.7578497376
 31
0.0
  0
POLYLINE
  5
4BF
  8
0
  6
CONTINUOUS
 62
     7
 66
     1
 10
0.0
 20
0.0
 30
0.0
  0
VERTEX
  5
9FC
  8
0
  6
CONTINUOUS
 62
     7
 10
-2835.6061373211
 20
455.1177941989
 30
0.0
  0
VERTEX
  5
9FD
  8
0
  6
CONTINUOUS
 62
     7
 10
-2834.617904359
 20
455.8442740737
 30
0.0
  0
VERTEX
  5
9FE
  8
0
  6
CONTINUOUS
 62
     7
 10
-2833.9562541551
 20
456.6853112301
 30
0.0
  0
VERTEX
  5
9FF
  8
0
  6
CONTINUOUS
 62
     7
 10
-2833.6588791629
 20
457.5929176133
 30
0.0
  0
VERTEX
  5
A00
  8
0
  6
CONTINUOUS
 62
     7
 10
-2833.7428067092
 20
458.5153658197
 30
0.0
  0
VERTEX
  5
A01
  8
0
  6
CONTINUOUS
 62
     7
 10
-2834.2031872722
 20
459.4000053938
 30
0.0
  0
VERTEX
  5
A02
  8
0
  6
CONTINUOUS
 62
     7
 10
-2835.0137949754
 20
460.1964045503
 30
0.0
  0
VERTEX
  5
A03
  8
0
  6
CONTINUOUS
 62
     7
 10
-2836.1283947261
 20
460.8591375778
 30
0.0
  0
VERTEX
  5
A04
  8
0
  6
CONTINUOUS
 62
     7
 10
-2837.4834132715
 20
461.3504034472
 30
0.0
  0
VERTEX
  5
A05
  8
0
  6
CONTINUOUS
 62
     7
 10
-2839.0015717308
 20
461.6421866968
 30
0.0
  0
VERTEX
  5
A06
  8
0
  6
CONTINUOUS
 62
     7
 10
-2840.5962715012
 20
461.7178374162
 30
0.0
  0
SEQEND
  5
A07
  8
0
  6
CONTINUOUS
 62
     7
  0
LINE
  5
4C0
  8
0
  6
CONTINUOUS
 62
     7
 10
-2852.2450835446
 20
445.512335002
 30
0.0
 11
-2835.6061373211
 21
455.1177941989
 31
0.0
  0
ARC
  5
4C1
  8
0
  6
CONTINUOUS
 62
     7
 10
-2856.7513941842
 20
453.9314948212
 30
0.0
 40
9.549297756414903
 50
270.1273250572
 51
298.1576802648
  0
LINE
  5
4C2
  8
0
  6
CONTINUOUS
 62
     7
 10
-2898.2709358621
 20
443.4777292756
 30
0.0
 11
-2856.7301733562
 21
444.3822206437
 31
0.0
  0
ARC
  5
4C3
  8
0
  6
CONTINUOUS
 62
     7
 10
-2898.2597484344
 20
438.4182786336
 30
0.0
 40
5.059463010765318
 50
90.1266918863
 51
118.1583729757
  0
LINE
  5
4C4
  8
0
  6
CONTINUOUS
 62
     7
 10
-2904.0187101875
 20
440.9326984598
 30
0.0
 11
-2900.6473613846
 21
442.8789366969
 31
0.0
  0
ARC
  5
4C5
  8
0
  6
CONTINUOUS
 62
     7
 10
-2906.1046744149
 20
444.958652136
 30
0.0
 40
4.534263971216439
 50
242.6098601656
 51
297.3899936436
  0
LINE
  5
4C6
  8
0
  6
CONTINUOUS
 62
     7
 10
-2912.0797282875
 20
443.1778215155
 30
0.0
 11
-2908.1906489146
 21
440.9327037822
 31
0.0
  0
LINE
  5
4C7
  8
0
  6
CONTINUOUS
 62
     7
 10
-2856.7188700982
 20
443.9642055918
 30
0.0
 11
-2898.2596327688
 21
443.0597141286
 31
0.0
  0
LINE
  5
4C8
  8
0
  6
CONTINUOUS
 62
     7
 10
-2898.2596327688
 20
440.283464875
 30
0.0
 11
-2856.7188700982
 21
441.1879563382
 31
0.0
  0
LINE
  5
4C9
  8
0
  6
CONTINUOUS
 62
     7
 10
-2856.7301733562
 20
441.1160629445
 30
0.0
 11
-2898.2709358621
 21
440.2115715764
 31
0.0
  0
ARC
  5
4CA
  8
0
  6
CONTINUOUS
 62
     7
 10
-2906.1046820725
 20
445.0006212541
 30
0.0
 40
4.995341768069054
 50
242.6097668765
 51
297.3902046885
  0
ARC
  5
4CB
  8
0
  6
CONTINUOUS
 62
     7
 10
-2906.1046820725
 20
442.2243720005
 30
0.0
 40
4.995341768069156
 50
242.6097668765
 51
297.3902046885
  0
LINE
  5
4CC
  8
0
  6
CONTINUOUS
 62
     7
 10
-2908.4027812471
 20
440.5652881704
 30
0.0
 11
-2912.2918606201
 21
442.8104059037
 31
0.0
  0
LINE
  5
4CD
  8
0
  6
CONTINUOUS
 62
     7
 10
-2900.4352362961
 20
442.511525267
 30
0.0
 11
-2903.806585099
 21
440.5652870299
 31
0.0
  0
LINE
  5
4CE
  8
0
  6
CONTINUOUS
 62
     7
 10
-2912.2918606201
 20
440.0341566502
 30
0.0
 11
-2908.4027812471
 21
437.7890389169
 31
0.0
  0
LINE
  5
4CF
  8
0
  6
CONTINUOUS
 62
     7
 10
-2903.806585099
 20
437.7890377763
 30
0.0
 11
-2900.4352362961
 21
439.7352760134
 31
0.0
  0
ARC
  5
4D0
  8
0
  6
CONTINUOUS
 62
     7
 10
-2906.1046744149
 20
441.6924944368
 30
0.0
 40
4.53426397121765
 50
242.6098601656
 51
297.3899936436
  0
LINE
  5
4D1
  8
0
  6
CONTINUOUS
 62
     7
 10
-2912.0797282875
 20
439.9116638163
 30
0.0
 11
-2912.2918606201
 21
440.0341566502
 31
0.0
  0
LINE
  5
4D2
  8
0
  6
CONTINUOUS
 62
     7
 10
-2908.1906489146
 20
437.666546083
 30
0.0
 11
-2912.0797282875
 21
439.9116638163
 31
0.0
  0
LINE
  5
4D3
  8
0
  6
CONTINUOUS
 62
     7
 10
-2900.6473613846
 20
439.6127789977
 30
0.0
 11
-2904.0187101875
 21
437.6665407606
 31
0.0
  0
ARC
  5
4D4
  8
0
  6
CONTINUOUS
 62
     7
 10
-2898.2493306691
 20
438.4275620909
 30
0.0
 40
4.632163493874943
 50
90.1274279979
 51
118.1575275642
  0
ARC
  5
4D5
  8
0
  6
CONTINUOUS
 62
     7
 10
-2898.2493306691
 20
435.6513128373
 30
0.0
 40
4.632163493868572
 50
90.1274279979
 51
118.1575275643
  0
ARC
  5
4D6
  8
0
  6
CONTINUOUS
 62
     7
 10
-2911.788360793
 20
444.137070058
 30
0.0
 40
1.418996072578318
 50
110.7830010574
 51
249.2170842661
  0
LINE
  5
4D7
  8
0
  6
CONTINUOUS
 62
     7
 10
-2912.0797375071
 20
445.5862304782
 30
0.0
 11
-2912.2918625957
 21
445.4637334624
 31
0.0
  0
ARC
  5
4D8
  8
0
  6
CONTINUOUS
 62
     7
 10
-2911.6172479414
 20
441.5230532852
 30
0.0
 40
1.634599478744244
 50
185.6956824015
 51
245.6249236959
  0
ARC
  5
4D9
  8
0
  6
CONTINUOUS
 62
     7
 10
-2856.7409764967
 20
453.9407793877
 30
0.0
 40
9.976598287884567
 50
270.1269575395
 51
298.1580998491
  0
ARC
  5
4DA
  8
0
  6
CONTINUOUS
 62
     7
 10
-2856.7409764967
 20
451.1645301341
 30
0.0
 40
9.976598287884517
 50
270.1269575395
 51
298.1580998491
  0
ARC
  5
4DB
  8
0
  6
CONTINUOUS
 62
     7
 10
-2898.2597484344
 20
435.1521209344
 30
0.0
 40
5.059463010760764
 50
90.1266918863
 51
118.1583729757
  0
ARC
  5
4DC
  8
0
  6
CONTINUOUS
 62
     7
 10
-2856.7513941842
 20
450.665337122
 30
0.0
 40
9.549297756413422
 50
270.1273250572
 51
298.1576802648
  0
LINE
  5
4DD
  8
0
  6
CONTINUOUS
 62
     7
 10
-2835.3940122325
 20
454.7503827691
 30
0.0
 11
-2852.0329584561
 21
445.1449235722
 31
0.0
  0
LINE
  5
4DE
  8
0
  6
CONTINUOUS
 62
     7
 10
-2852.0329584561
 20
442.3686743186
 30
0.0
 11
-2835.3940122325
 21
451.9741335155
 31
0.0
  0
LINE
  5
4DF
  8
0
  6
CONTINUOUS
 62
     7
 10
-2835.3940122325
 20
451.9741335155
 30
0.0
 11
-2835.6061373211
 21
451.8516364997
 31
0.0
  0
LINE
  5
4E0
  8
0
  6
CONTINUOUS
 62
     7
 10
-2835.6061373211
 20
451.8516364997
 30
0.0
 11
-2852.2450835446
 21
442.2461773028
 31
0.0
  0
POLYLINE
  5
4E1
  8
0
  6
CONTINUOUS
 62
     7
 66
     1
 10
0.0
 20
0.0
 30
0.0
  0
VERTEX
  5
A08
  8
0
  6
CONTINUOUS
 62
     7
 10
-2835.3932114424
 20
460.4647766816
 30
0.0
  0
VERTEX
  5
A09
  8
0
  6
CONTINUOUS
 62
     7
 10
-2834.7751489824
 20
460.0563953997
 30
0.0
  0
VERTEX
  5
A0A
  8
0
  6
CONTINUOUS
 62
     7
 10
-2833.9282423059
 20
459.2243332885
 30
0.0
  0
VERTEX
  5
A0B
  8
0
  6
CONTINUOUS
 62
     7
 10
-2833.4472282264
 20
458.3000724331
 30
0.0
  0
VERTEX
  5
A0C
  8
0
  6
CONTINUOUS
 62
     7
 10
-2833.3595575131
 20
457.3363301991
 30
0.0
  0
VERTEX
  5
A0D
  8
0
  6
CONTINUOUS
 62
     7
 10
-2833.6702351044
 20
456.3880760767
 30
0.0
  0
VERTEX
  5
A0E
  8
0
  6
CONTINUOUS
 62
     7
 10
-2834.3615303479
 20
455.5093899592
 30
0.0
  0
VERTEX
  5
A0F
  8
0
  6
CONTINUOUS
 62
     7
 10
-2835.3940122325
 20
454.7503827691
 30
0.0
  0
SEQEND
  5
A10
  8
0
  6
CONTINUOUS
 62
     7
  0
ARC
  5
4E2
  8
0
  6
CONTINUOUS
 62
     7
 10
-2836.7332679974
 20
455.0993336402
 30
0.0
 40
3.400070855635733
 50
293.1967981891
 51
355.4830026898
  0
ARC
  5
4E3
  8
0
  6
CONTINUOUS
 62
     7
 10
-2462.0416220676
 20
188.6064711364
 30
0.0
 40
4.534230685703038
 50
242.609642237
 51
297.3902115721
  0
ARC
  5
4E4
  8
0
  6
CONTINUOUS
 62
     7
 10
-2462.0416297251
 20
188.6484139326
 30
0.0
 40
4.995285111554392
 50
242.6094301672
 51
297.3905413978
  0
ARC
  5
4E5
  8
0
  6
CONTINUOUS
 62
     7
 10
-2462.0416297251
 20
185.8721646791
 30
0.0
 40
4.995285111554392
 50
242.6094301672
 51
297.3905413978
  0
POLYLINE
  5
4E6
  8
0
  6
CONTINUOUS
 62
     7
 66
     1
 10
0.0
 20
0.0
 30
0.0
  0
VERTEX
  5
A11
  8
0
  6
CONTINUOUS
 62
     7
 10
-2436.4443512069
 20
227.2991075437
 30
0.0
  0
VERTEX
  5
A12
  8
0
  6
CONTINUOUS
 62
     7
 10
-2435.8069117334
 20
226.7735670991
 30
0.0
  0
VERTEX
  5
A13
  8
0
  6
CONTINUOUS
 62
     7
 10
-2435.5192884682
 20
226.1538677556
 30
0.0
  0
VERTEX
  5
A14
  8
0
  6
CONTINUOUS
 62
     7
 10
-2435.6161471945
 20
225.5147417429
 30
0.0
  0
VERTEX
  5
A15
  8
0
  6
CONTINUOUS
 62
     7
 10
-2436.0858053325
 20
224.9332737804
 30
0.0
  0
VERTEX
  5
A16
  8
0
  6
CONTINUOUS
 62
     7
 10
-2436.871649128
 20
224.4796158136
 30
0.0
  0
VERTEX
  5
A17
  8
0
  6
CONTINUOUS
 62
     7
 10
-2437.8788903188
 20
224.2084879416
 30
0.0
  0
VERTEX
  5
A18
  8
0
  6
CONTINUOUS
 62
     7
 10
-2438.9860090039
 20
224.1525725891
 30
0.0
  0
VERTEX
  5
A19
  8
0
  6
CONTINUOUS
 62
     7
 10
-2440.0594760645
 20
224.3186139658
 30
0.0
  0
VERTEX
  5
A1A
  8
0
  6
CONTINUOUS
 62
     7
 10
-2440.9698348215
 20
224.6866014618
 30
0.0
  0
VERTEX
  5
A1B
  8
0
  6
CONTINUOUS
 62
     7
 10
-2441.6072769293
 20
225.2121403858
 30
0.0
  0
VERTEX
  5
A1C
  8
0
  6
CONTINUOUS
 62
     7
 10
-2441.8949212678
 20
225.8318518947
 30
0.0
  0
VERTEX
  5
A1D
  8
0
  6
CONTINUOUS
 62
     7
 10
-2441.7980625416
 20
226.4709779073
 30
0.0
  0
VERTEX
  5
A1E
  8
0
  6
CONTINUOUS
 62
     7
 10
-2441.3283833301
 20
227.0524337045
 30
0.0
  0
VERTEX
  5
A1F
  8
0
  6
CONTINUOUS
 62
     7
 10
-2440.5425395346
 20
227.5060916713
 30
0.0
  0
VERTEX
  5
A20
  8
0
  6
CONTINUOUS
 62
     7
 10
-2439.5353194172
 20
227.7772317086
 30
0.0
  0
VERTEX
  5
A21
  8
0
  6
CONTINUOUS
 62
     7
 10
-2438.4282007322
 20
227.8331470611
 30
0.0
  0
VERTEX
  5
A22
  8
0
  6
CONTINUOUS
 62
     7
 10
-2437.3547125981
 20
227.667093519
 30
0.0
  0
VERTEX
  5
A23
  8
0
  6
CONTINUOUS
 62
     7
 10
-2436.4443512069
 20
227.2991075437
 30
0.0
  0
SEQEND
  5
A24
  8
0
  6
CONTINUOUS
 62
     7
  0
POLYLINE
  5
4E7
  8
0
  6
CONTINUOUS
 62
     7
 66
     1
 10
0.0
 20
0.0
 30
0.0
  0
VERTEX
  5
A25
  8
0
  6
CONTINUOUS
 62
     7
 10
-2454.1220223171
 20
217.0940052335
 30
0.0
  0
VERTEX
  5
A26
  8
0
  6
CONTINUOUS
 62
     7
 10
-2453.4845828435
 20
216.5684647889
 30
0.0
  0
VERTEX
  5
A27
  8
0
  6
CONTINUOUS
 62
     7
 10
-2453.1969569442
 20
215.9487669661
 30
0.0
  0
VERTEX
  5
A28
  8
0
  6
CONTINUOUS
 62
     7
 10
-2453.2938183046
 20
215.3096394327
 30
0.0
  0
VERTEX
  5
A29
  8
0
  6
CONTINUOUS
 62
     7
 10
-2453.7634751256
 20
214.7281722305
 30
0.0
  0
VERTEX
  5
A2A
  8
0
  6
CONTINUOUS
 62
     7
 10
-2454.549317604
 20
214.2745150241
 30
0.0
  0
VERTEX
  5
A2B
  8
0
  6
CONTINUOUS
 62
     7
 10
-2455.5565587948
 20
214.0033871521
 30
0.0
  0
VERTEX
  5
A2C
  8
0
  6
CONTINUOUS
 62
     7
 10
-2456.6636787969
 20
213.9474710393
 30
0.0
  0
VERTEX
  5
A2D
  8
0
  6
CONTINUOUS
 62
     7
 10
-2457.7371445405
 20
214.1135131763
 30
0.0
  0
VERTEX
  5
A2E
  8
0
  6
CONTINUOUS
 62
     7
 10
-2458.6475059317
 20
214.4814991516
 30
0.0
  0
VERTEX
  5
A2F
  8
0
  6
CONTINUOUS
 62
     7
 10
-2459.2849454053
 20
215.0070395963
 30
0.0
  0
VERTEX
  5
A30
  8
0
  6
CONTINUOUS
 62
     7
 10
-2459.5725910609
 20
215.6267503448
 30
0.0
  0
VERTEX
  5
A31
  8
0
  6
CONTINUOUS
 62
     7
 10
-2459.4757310176
 20
216.2658771178
 30
0.0
  0
VERTEX
  5
A32
  8
0
  6
CONTINUOUS
 62
     7
 10
-2459.0060518061
 20
216.847332915
 30
0.0
  0
VERTEX
  5
A33
  8
0
  6
CONTINUOUS
 62
     7
 10
-2458.2202093277
 20
217.3009901214
 30
0.0
  0
VERTEX
  5
A34
  8
0
  6
CONTINUOUS
 62
     7
 10
-2457.2129905274
 20
217.5721293985
 30
0.0
  0
VERTEX
  5
A35
  8
0
  6
CONTINUOUS
 62
     7
 10
-2456.1058692082
 20
217.6280462716
 30
0.0
  0
VERTEX
  5
A36
  8
0
  6
CONTINUOUS
 62
     7
 10
-2455.0323837082
 20
217.4619912088
 30
0.0
  0
VERTEX
  5
A37
  8
0
  6
CONTINUOUS
 62
     7
 10
-2454.1220223171
 20
217.0940052335
 30
0.0
  0
SEQEND
  5
A38
  8
0
  6
CONTINUOUS
 62
     7
  0
POLYLINE
  5
4E8
  8
0
  6
CONTINUOUS
 62
     7
 66
     1
 10
0.0
 20
0.0
 30
0.0
  0
VERTEX
  5
A39
  8
0
  6
CONTINUOUS
 62
     7
 10
-2460.6627588103
 20
188.8258741001
 30
0.0
  0
VERTEX
  5
A3A
  8
0
  6
CONTINUOUS
 62
     7
 10
-2460.1750335037
 20
188.4044891153
 30
0.0
  0
VERTEX
  5
A3B
  8
0
  6
CONTINUOUS
 62
     7
 10
-2460.0037655042
 20
187.907424328
 30
0.0
  0
VERTEX
  5
A3C
  8
0
  6
CONTINUOUS
 62
     7
 10
-2460.1750321866
 20
187.4103553589
 30
0.0
  0
VERTEX
  5
A3D
  8
0
  6
CONTINUOUS
 62
     7
 10
-2460.6627686885
 20
186.9889616301
 30
0.0
  0
VERTEX
  5
A3E
  8
0
  6
CONTINUOUS
 62
     7
 10
-2461.3927231287
 20
186.7073973409
 30
0.0
  0
VERTEX
  5
A3F
  8
0
  6
CONTINUOUS
 62
     7
 10
-2462.2537654631
 20
186.6085269996
 30
0.0
  0
VERTEX
  5
A40
  8
0
  6
CONTINUOUS
 62
     7
 10
-2463.1147998949
 20
186.7073981012
 30
0.0
  0
VERTEX
  5
A41
  8
0
  6
CONTINUOUS
 62
     7
 10
-2463.8447391887
 20
186.9889559276
 30
0.0
  0
VERTEX
  5
A42
  8
0
  6
CONTINUOUS
 62
     7
 10
-2464.3324855687
 20
187.4103530778
 30
0.0
  0
VERTEX
  5
A43
  8
0
  6
CONTINUOUS
 62
     7
 10
-2464.5037538974
 20
187.907417675
 30
0.0
  0
VERTEX
  5
A44
  8
0
  6
CONTINUOUS
 62
     7
 10
-2464.3324868858
 20
188.4044868342
 30
0.0
  0
VERTEX
  5
A45
  8
0
  6
CONTINUOUS
 62
     7
 10
-2463.8447503839
 20
188.825880563
 30
0.0
  0
VERTEX
  5
A46
  8
0
  6
CONTINUOUS
 62
     7
 10
-2463.1147959437
 20
189.1074448522
 30
0.0
  0
VERTEX
  5
A47
  8
0
  6
CONTINUOUS
 62
     7
 10
-2462.2537539386
 20
189.2063150035
 30
0.0
  0
VERTEX
  5
A48
  8
0
  6
CONTINUOUS
 62
     7
 10
-2461.3927191775
 20
189.1074440919
 30
0.0
  0
VERTEX
  5
A49
  8
0
  6
CONTINUOUS
 62
     7
 10
-2460.6627588103
 20
188.8258741001
 30
0.0
  0
SEQEND
  5
A4A
  8
0
  6
CONTINUOUS
 62
     7
  0
POLYLINE
  5
4E9
  8
0
  6
CONTINUOUS
 62
     7
 66
     1
 10
0.0
 20
0.0
 30
0.0
  0
VERTEX
  5
A4B
  8
0
  6
CONTINUOUS
 62
     7
 10
-2439.0252911838
 20
201.3169182815
 30
0.0
  0
VERTEX
  5
A4C
  8
0
  6
CONTINUOUS
 62
     7
 10
-2438.5375665357
 20
200.8955329165
 30
0.0
  0
VERTEX
  5
A4D
  8
0
  6
CONTINUOUS
 62
     7
 10
-2438.3662975484
 20
200.3984686995
 30
0.0
  0
VERTEX
  5
A4E
  8
0
  6
CONTINUOUS
 62
     7
 10
-2438.5375652186
 20
199.9013991601
 30
0.0
  0
VERTEX
  5
A4F
  8
0
  6
CONTINUOUS
 62
     7
 10
-2439.0253017205
 20
199.4800054314
 30
0.0
  0
VERTEX
  5
A50
  8
0
  6
CONTINUOUS
 62
     7
 10
-2439.7552561607
 20
199.1984411421
 30
0.0
  0
VERTEX
  5
A51
  8
0
  6
CONTINUOUS
 62
     7
 10
-2440.6162978366
 20
199.099571181
 30
0.0
  0
VERTEX
  5
A52
  8
0
  6
CONTINUOUS
 62
     7
 10
-2441.4773329269
 20
199.1984419025
 30
0.0
  0
VERTEX
  5
A53
  8
0
  6
CONTINUOUS
 62
     7
 10
-2442.2072715621
 20
199.480000109
 30
0.0
  0
VERTEX
  5
A54
  8
0
  6
CONTINUOUS
 62
     7
 10
-2442.6950186007
 20
199.9013968791
 30
0.0
  0
VERTEX
  5
A55
  8
0
  6
CONTINUOUS
 62
     7
 10
-2442.8662862709
 20
200.3984618565
 30
0.0
  0
VERTEX
  5
A56
  8
0
  6
CONTINUOUS
 62
     7
 10
-2442.6950199178
 20
200.8955306355
 30
0.0
  0
VERTEX
  5
A57
  8
0
  6
CONTINUOUS
 62
     7
 10
-2442.2072834159
 20
201.3169243643
 30
0.0
  0
VERTEX
  5
A58
  8
0
  6
CONTINUOUS
 62
     7
 10
-2441.4773289757
 20
201.5984886535
 30
0.0
  0
VERTEX
  5
A59
  8
0
  6
CONTINUOUS
 62
     7
 10
-2440.6162859828
 20
201.697359375
 30
0.0
  0
VERTEX
  5
A5A
  8
0
  6
CONTINUOUS
 62
     7
 10
-2439.7552522095
 20
201.5984878932
 30
0.0
  0
VERTEX
  5
A5B
  8
0
  6
CONTINUOUS
 62
     7
 10
-2439.0252911838
 20
201.3169182815
 30
0.0
  0
SEQEND
  5
A5C
  8
0
  6
CONTINUOUS
 62
     7
  0
ARC
  5
4EA
  8
0
  6
CONTINUOUS
 62
     7
 10
-2467.5596326103
 20
188.0298842351
 30
0.0
 40
1.288022224974381
 50
110.7841498253
 51
249.2162888423
  0
LINE
  5
4EB
  8
0
  6
CONTINUOUS
 62
     7
 10
-2464.6453363568
 20
191.1803252039
 30
0.0
 11
-2468.0166851597
 21
189.2340869668
 31
0.0
  0
ARC
  5
4EC
  8
0
  6
CONTINUOUS
 62
     7
 10
-2465.4168216244
 20
192.8416925957
 30
0.0
 40
1.831756296178507
 50
294.9086306362
 51
350.9069974594
  0
LINE
  5
4ED
  8
0
  6
CONTINUOUS
 62
     7
 10
-2462.0412900289
 20
216.5331782021
 30
0.0
 11
-2463.6080847989
 21
192.5522064567
 31
0.0
  0
ARC
  5
4EE
  8
0
  6
CONTINUOUS
 62
     7
 10
-2458.6274902883
 20
215.9867324324
 30
0.0
 40
3.457257821983868
 50
114.9099175621
 51
170.9058314262
  0
LINE
  5
4EF
  8
0
  6
CONTINUOUS
 62
     7
 10
-2443.4447162053
 20
228.7278246348
 30
0.0
 11
-2460.0836624288
 21
219.1223654379
 31
0.0
  0
POLYLINE
  5
4F0
  8
0
  6
CONTINUOUS
 62
     7
 66
     1
 10
0.0
 20
0.0
 30
0.0
  0
VERTEX
  5
A5D
  8
0
  6
CONTINUOUS
 62
     7
 10
-2432.0118672478
 20
225.8470814909
 30
0.0
  0
VERTEX
  5
A5E
  8
0
  6
CONTINUOUS
 62
     7
 10
-2432.1429123366
 20
226.7676820728
 30
0.0
  0
VERTEX
  5
A5F
  8
0
  6
CONTINUOUS
 62
     7
 10
-2432.6483505148
 20
227.6440962964
 30
0.0
  0
VERTEX
  5
A60
  8
0
  6
CONTINUOUS
 62
     7
 10
-2433.4993401673
 20
228.4263318523
 30
0.0
  0
VERTEX
  5
A61
  8
0
  6
CONTINUOUS
 62
     7
 10
-2434.6473518321
 20
229.0697765923
 30
0.0
  0
VERTEX
  5
A62
  8
0
  6
CONTINUOUS
 62
     7
 10
-2436.0269051117
 20
229.5377304587
 30
0.0
  0
VERTEX
  5
A63
  8
0
  6
CONTINUOUS
 62
     7
 10
-2437.55931184
 20
229.8035025006
 30
0.0
  0
VERTEX
  5
A64
  8
0
  6
CONTINUOUS
 62
     7
 10
-2439.1572121367
 20
229.8519528418
 30
0.0
  0
VERTEX
  5
A65
  8
0
  6
CONTINUOUS
 62
     7
 10
-2440.7294028558
 20
229.6802819129
 30
0.0
  0
VERTEX
  5
A66
  8
0
  6
CONTINUOUS
 62
     7
 10
-2442.1862797974
 20
229.2983193805
 30
0.0
  0
VERTEX
  5
A67
  8
0
  6
CONTINUOUS
 62
     7
 10
-2443.4447162053
 20
228.7278246348
 30
0.0
  0
SEQEND
  5
A68
  8
0
  6
CONTINUOUS
 62
     7
  0
LINE
  5
4F1
  8
0
  6
CONTINUOUS
 62
     7
 10
-2433.6747948634
 20
200.3946061759
 30
0.0
 11
-2432.0118672478
 21
225.8470814909
 31
0.0
  0
ARC
  5
4F2
  8
0
  6
CONTINUOUS
 62
     7
 10
-2435.1778272887
 20
200.6351565404
 30
0.0
 40
1.522159961767117
 50
294.9088224466
 51
350.9073005756
  0
LINE
  5
4F3
  8
0
  6
CONTINUOUS
 62
     7
 10
-2459.9556578401
 20
184.5805549484
 30
0.0
 11
-2434.5367308427
 21
199.2545891584
 31
0.0
  0
LINE
  5
4F4
  8
0
  6
CONTINUOUS
 62
     7
 10
-2468.0166759401
 20
186.8256780041
 30
0.0
 11
-2464.1275965672
 21
184.5805602708
 31
0.0
  0
LINE
  5
4F5
  8
0
  6
CONTINUOUS
 62
     7
 10
-2434.3246057541
 20
198.8871777286
 30
0.0
 11
-2459.7435327516
 21
184.2131435186
 31
0.0
  0
LINE
  5
4F6
  8
0
  6
CONTINUOUS
 62
     7
 10
-2464.3397288997
 20
184.2131446591
 30
0.0
 11
-2468.2288082727
 21
186.4582623924
 31
0.0
  0
LINE
  5
4F7
  8
0
  6
CONTINUOUS
 62
     7
 10
-2459.7435327516
 20
181.436894265
 30
0.0
 11
-2434.3246057541
 21
196.110928475
 31
0.0
  0
LINE
  5
4F8
  8
0
  6
CONTINUOUS
 62
     7
 10
-2468.2288082727
 20
183.6820131388
 30
0.0
 11
-2464.3397288997
 21
181.4368954055
 31
0.0
  0
ARC
  5
4F9
  8
0
  6
CONTINUOUS
 62
     7
 10
-2462.0416220676
 20
185.3403134372
 30
0.0
 40
4.534230685702926
 50
242.609642237
 51
297.3902115721
  0
LINE
  5
4FA
  8
0
  6
CONTINUOUS
 62
     7
 10
-2434.5367308427
 20
195.9884314592
 30
0.0
 11
-2434.3246057541
 21
196.110928475
 31
0.0
  0
LINE
  5
4FB
  8
0
  6
CONTINUOUS
 62
     7
 10
-2434.5367308427
 20
195.9884314592
 30
0.0
 11
-2459.9556578401
 21
181.3143972492
 31
0.0
  0
LINE
  5
4FC
  8
0
  6
CONTINUOUS
 62
     7
 10
-2468.0166759401
 20
183.5595203049
 30
0.0
 11
-2468.2288082727
 21
183.6820131388
 31
0.0
  0
LINE
  5
4FD
  8
0
  6
CONTINUOUS
 62
     7
 10
-2464.1275965672
 20
181.3144025716
 30
0.0
 11
-2468.0166759401
 21
183.5595203049
 31
0.0
  0
ARC
  5
4FE
  8
0
  6
CONTINUOUS
 62
     7
 10
-2467.725289925
 20
187.7849265466
 30
0.0
 40
1.419002644323327
 50
110.7837002129
 51
249.2163851105
  0
LINE
  5
4FF
  8
0
  6
CONTINUOUS
 62
     7
 10
-2468.0166851597
 20
189.2340869668
 30
0.0
 11
-2468.2288102483
 21
189.1115899511
 31
0.0
  0
ARC
  5
500
  8
0
  6
CONTINUOUS
 62
     7
 10
-2467.5542403867
 20
185.1708532855
 30
0.0
 40
1.634529539376317
 50
185.6943655446
 51
245.6255366697
  0
ARC
  5
501
  8
0
  6
CONTINUOUS
 62
     7
 10
-2465.5638251065
 20
192.5788507192
 30
0.0
 40
1.67703880746717
 50
294.9101801767
 51
350.9056698463
  0
LINE
  5
502
  8
0
  6
CONTINUOUS
 62
     7
 10
-2463.9078675945
 20
192.3137773708
 30
0.0
 11
-2462.3410726598
 21
216.2947492112
 31
0.0
  0
ARC
  5
503
  8
0
  6
CONTINUOUS
 62
     7
 10
-2435.0308909799
 20
200.4081405624
 30
0.0
 40
1.676951627831711
 50
294.9086087094
 51
350.9072520855
  0
ARC
  5
504
  8
0
  6
CONTINUOUS
 62
     7
 10
-2435.0308909799
 20
197.6318913089
 30
0.0
 40
1.676951627831707
 50
294.9086087094
 51
350.9072520855
  0
LINE
  5
505
  8
0
  6
CONTINUOUS
 62
     7
 10
-2431.7120846169
 20
225.5956020362
 30
0.0
 11
-2433.3750122325
 21
200.1431267211
 31
0.0
  0
LINE
  5
506
  8
0
  6
CONTINUOUS
 62
     7
 10
-2433.3750122325
 20
197.3668774676
 30
0.0
 11
-2431.7120846169
 21
222.8193527826
 31
0.0
  0
ARC
  5
507
  8
0
  6
CONTINUOUS
 62
     7
 10
-2458.7744933795
 20
215.7238904574
 30
0.0
 40
3.61197556458729
 50
114.9091479518
 51
170.9064953183
  0
LINE
  5
508
  8
0
  6
CONTINUOUS
 62
     7
 10
-2460.2957875174
 20
218.9998684221
 30
0.0
 11
-2460.0836624288
 21
219.1223654379
 31
0.0
  0
ARC
  5
509
  8
0
  6
CONTINUOUS
 62
     7
 10
-2435.2539855503
 20
225.3883963121
 30
0.0
 40
3.547956656202137
 50
3.3480602242
 51
65.0354945217
  0
LINE
  5
50A
  8
0
  6
CONTINUOUS
 62
     7
 10
-2431.7120846169
 20
222.8193527826
 30
0.0
 11
-2431.7070928495
 21
222.971650266
 31
0.0
  0
POLYLINE
  5
50B
  8
0
  6
CONTINUOUS
 62
     7
 66
     1
 10
0.0
 20
0.0
 30
0.0
  0
VERTEX
  5
A69
  8
0
  6
CONTINUOUS
 62
     7
 10
-2561.7430437831
 20
382.3346580125
 30
0.0
  0
VERTEX
  5
A6A
  8
0
  6
CONTINUOUS
 62
     7
 10
-2563.9800588906
 20
383.4813759003
 30
0.0
  0
VERTEX
  5
A6B
  8
0
  6
CONTINUOUS
 62
     7
 10
-2566.4363179528
 20
384.4673010335
 30
0.0
  0
VERTEX
  5
A6C
  8
0
  6
CONTINUOUS
 62
     7
 10
-2569.0773250913
 20
385.2786020801
 30
0.0
  0
VERTEX
  5
A6D
  8
0
  6
CONTINUOUS
 62
     7
 10
-2571.8660180797
 20
385.9038834545
 30
0.0
  0
VERTEX
  5
A6E
  8
0
  6
CONTINUOUS
 62
     7
 10
-2574.7632411786
 20
386.3343731224
 30
0.0
  0
VERTEX
  5
A6F
  8
0
  6
CONTINUOUS
 62
     7
 10
-2577.7283239963
 20
386.5640256258
 30
0.0
  0
VERTEX
  5
A70
  8
0
  6
CONTINUOUS
 62
     7
 10
-2580.7196478371
 20
386.5896178864
 30
0.0
  0
VERTEX
  5
A71
  8
0
  6
CONTINUOUS
 62
     7
 10
-2583.6952087565
 20
386.4107944457
 30
0.0
  0
VERTEX
  5
A72
  8
0
  6
CONTINUOUS
 62
     7
 10
-2586.6132655695
 20
386.0300522579
 30
0.0
  0
VERTEX
  5
A73
  8
0
  6
CONTINUOUS
 62
     7
 10
-2589.4328225634
 20
385.4527517151
 30
0.0
  0
VERTEX
  5
A74
  8
0
  6
CONTINUOUS
 62
     7
 10
-2592.114314384
 20
384.6869889102
 30
0.0
  0
VERTEX
  5
A75
  8
0
  6
CONTINUOUS
 62
     7
 10
-2594.620107847
 20
383.7435081979
 30
0.0
  0
VERTEX
  5
A76
  8
0
  6
CONTINUOUS
 62
     7
 10
-2596.9150063826
 20
382.6355676147
 30
0.0
  0
VERTEX
  5
A77
  8
0
  6
CONTINUOUS
 62
     7
 10
-2598.9668058473
 20
381.3787122977
 30
0.0
  0
VERTEX
  5
A78
  8
0
  6
CONTINUOUS
 62
     7
 10
-2600.7467054555
 20
379.9905859204
 30
0.0
  0
VERTEX
  5
A79
  8
0
  6
CONTINUOUS
 62
     7
 10
-2602.229710809
 20
378.4906767396
 30
0.0
  0
VERTEX
  5
A7A
  8
0
  6
CONTINUOUS
 62
     7
 10
-2603.3950132184
 20
376.9000377902
 30
0.0
  0
VERTEX
  5
A7B
  8
0
  6
CONTINUOUS
 62
     7
 10
-2604.2262597065
 20
375.2409926343
 30
0.0
  0
VERTEX
  5
A7C
  8
0
  6
CONTINUOUS
 62
     7
 10
-2604.7117584741
 20
373.5368464318
 30
0.0
  0
VERTEX
  5
A7D
  8
0
  6
CONTINUOUS
 62
     7
 10
-2604.8251940827
 20
372.6399121711
 30
0.0
  0
SEQEND
  5
A7E
  8
0
  6
CONTINUOUS
 62
     7
  0
POLYLINE
  5
50C
  8
0
  6
CONTINUOUS
 62
     7
 66
     1
 10
0.0
 20
0.0
 30
0.0
  0
VERTEX
  5
A7F
  8
0
  6
CONTINUOUS
 62
     7
 10
-2554.3697805912
 20
372.6399129314
 30
0.0
  0
VERTEX
  5
A80
  8
0
  6
CONTINUOUS
 62
     7
 10
-2554.4167703761
 20
373.1065521712
 30
0.0
  0
VERTEX
  5
A81
  8
0
  6
CONTINUOUS
 62
     7
 10
-2554.8145832839
 20
374.8182580472
 30
0.0
  0
VERTEX
  5
A82
  8
0
  6
CONTINUOUS
 62
     7
 10
-2555.5602940601
 20
376.4907893414
 30
0.0
  0
VERTEX
  5
A83
  8
0
  6
CONTINUOUS
 62
     7
 10
-2556.6434305297
 20
378.1006675363
 30
0.0
  0
VERTEX
  5
A84
  8
0
  6
CONTINUOUS
 62
     7
 10
-2558.048797437
 20
379.6252885049
 30
0.0
  0
VERTEX
  5
A85
  8
0
  6
CONTINUOUS
 62
     7
 10
-2559.7566549102
 20
381.0432566792
 30
0.0
  0
VERTEX
  5
A86
  8
0
  6
CONTINUOUS
 62
     7
 10
-2561.7430437831
 20
382.3346580125
 30
0.0
  0
SEQEND
  5
A87
  8
0
  6
CONTINUOUS
 62
     7
  0
POLYLINE
  5
50D
  8
0
  6
CONTINUOUS
 62
     7
 66
     1
 10
0.0
 20
0.0
 30
0.0
  0
VERTEX
  5
A88
  8
0
  6
CONTINUOUS
 62
     7
 10
-2576.347487872
 20
396.5197503301
 30
0.0
  0
VERTEX
  5
A89
  8
0
  6
CONTINUOUS
 62
     7
 10
-2576.5434812543
 20
397.1614462897
 30
0.0
  0
VERTEX
  5
A8A
  8
0
  6
CONTINUOUS
 62
     7
 10
-2577.107844678
 20
397.725737427
 30
0.0
  0
VERTEX
  5
A8B
  8
0
  6
CONTINUOUS
 62
     7
 10
-2577.9724820069
 20
398.1445779364
 30
0.0
  0
VERTEX
  5
A8C
  8
0
  6
CONTINUOUS
 62
     7
 10
-2579.0331245718
 20
398.3674341469
 30
0.0
  0
VERTEX
  5
A8D
  8
0
  6
CONTINUOUS
 62
     7
 10
-2580.1618382483
 20
398.3674341469
 30
0.0
  0
VERTEX
  5
A8E
  8
0
  6
CONTINUOUS
 62
     7
 10
-2581.2224847645
 20
398.1445756553
 30
0.0
  0
VERTEX
  5
A8F
  8
0
  6
CONTINUOUS
 62
     7
 10
-2582.0871352643
 20
397.7257366667
 30
0.0
  0
VERTEX
  5
A90
  8
0
  6
CONTINUOUS
 62
     7
 10
-2582.6514842
 20
397.161444769
 30
0.0
  0
VERTEX
  5
A91
  8
0
  6
CONTINUOUS
 62
     7
 10
-2582.8474828507
 20
396.5197518508
 30
0.0
  0
SEQEND
  5
A92
  8
0
  6
CONTINUOUS
 62
     7
  0
POLYLINE
  5
50E
  8
0
  6
CONTINUOUS
 62
     7
 66
     1
 10
0.0
 20
0.0
 30
0.0
  0
VERTEX
  5
A93
  8
0
  6
CONTINUOUS
 62
     7
 10
-2576.3474865549
 20
350.7103466094
 30
0.0
  0
VERTEX
  5
A94
  8
0
  6
CONTINUOUS
 62
     7
 10
-2576.5434852056
 20
351.3520395276
 30
0.0
  0
VERTEX
  5
A95
  8
0
  6
CONTINUOUS
 62
     7
 10
-2577.1078433609
 20
351.9163337063
 30
0.0
  0
VERTEX
  5
A96
  8
0
  6
CONTINUOUS
 62
     7
 10
-2577.9724859581
 20
352.3351711743
 30
0.0
  0
VERTEX
  5
A97
  8
0
  6
CONTINUOUS
 62
     7
 10
-2579.0331298401
 20
352.5580281452
 30
0.0
  0
VERTEX
  5
A98
  8
0
  6
CONTINUOUS
 62
     7
 10
-2580.1618435167
 20
352.5580281452
 30
0.0
  0
VERTEX
  5
A99
  8
0
  6
CONTINUOUS
 62
     7
 10
-2581.2224834474
 20
352.3351719346
 30
0.0
  0
VERTEX
  5
A9A
  8
0
  6
CONTINUOUS
 62
     7
 10
-2582.0871286788
 20
351.9163359873
 30
0.0
  0
VERTEX
  5
A9B
  8
0
  6
CONTINUOUS
 62
     7
 10
-2582.6514894684
 20
351.3520387673
 30
0.0
  0
VERTEX
  5
A9C
  8
0
  6
CONTINUOUS
 62
     7
 10
-2582.847488119
 20
350.7103458491
 30
0.0
  0
SEQEND
  5
A9D
  8
0
  6
CONTINUOUS
 62
     7
  0
POLYLINE
  5
50F
  8
0
  6
CONTINUOUS
 62
     7
 66
     1
 10
0.0
 20
0.0
 30
0.0
  0
VERTEX
  5
A9E
  8
0
  6
CONTINUOUS
 62
     7
 10
-2582.847488119
 20
349.0772609158
 30
0.0
  0
VERTEX
  5
A9F
  8
0
  6
CONTINUOUS
 62
     7
 10
-2582.6514894684
 20
349.718953834
 30
0.0
  0
VERTEX
  5
AA0
  8
0
  6
CONTINUOUS
 62
     7
 10
-2582.0871286788
 20
350.283251054
 30
0.0
  0
VERTEX
  5
AA1
  8
0
  6
CONTINUOUS
 62
     7
 10
-2581.2224834474
 20
350.7020870013
 30
0.0
  0
VERTEX
  5
AA2
  8
0
  6
CONTINUOUS
 62
     7
 10
-2580.1618435167
 20
350.9249432118
 30
0.0
  0
VERTEX
  5
AA3
  8
0
  6
CONTINUOUS
 62
     7
 10
-2579.0331298401
 20
350.9249432118
 30
0.0
  0
VERTEX
  5
AA4
  8
0
  6
CONTINUOUS
 62
     7
 10
-2577.9724859581
 20
350.702086241
 30
0.0
  0
VERTEX
  5
AA5
  8
0
  6
CONTINUOUS
 62
     7
 10
-2577.1078433609
 20
350.283248773
 30
0.0
  0
VERTEX
  5
AA6
  8
0
  6
CONTINUOUS
 62
     7
 10
-2576.5434852056
 20
349.7189545943
 30
0.0
  0
VERTEX
  5
AA7
  8
0
  6
CONTINUOUS
 62
     7
 10
-2576.3474865549
 20
349.0772616761
 30
0.0
  0
SEQEND
  5
AA8
  8
0
  6
CONTINUOUS
 62
     7
  0
POLYLINE
  5
510
  8
0
  6
CONTINUOUS
 62
     7
 66
     1
 10
0.0
 20
0.0
 30
0.0
  0
VERTEX
  5
AA9
  8
0
  6
CONTINUOUS
 62
     7
 10
-2604.7258644975
 20
371.8233708238
 30
0.0
  0
VERTEX
  5
AAA
  8
0
  6
CONTINUOUS
 62
     7
 10
-2604.5127700314
 20
372.7599871928
 30
0.0
  0
VERTEX
  5
AAB
  8
0
  6
CONTINUOUS
 62
     7
 10
-2603.8532337554
 20
374.4445455341
 30
0.0
  0
VERTEX
  5
AAC
  8
0
  6
CONTINUOUS
 62
     7
 10
-2602.8532115295
 20
376.0722411402
 30
0.0
  0
VERTEX
  5
AAD
  8
0
  6
CONTINUOUS
 62
     7
 10
-2601.5267277176
 20
377.6202334183
 30
0.0
  0
VERTEX
  5
AAE
  8
0
  6
CONTINUOUS
 62
     7
 10
-2599.8923941045
 20
379.0667971936
 30
0.0
  0
VERTEX
  5
AAF
  8
0
  6
CONTINUOUS
 62
     7
 10
-2597.9731767715
 20
380.3916139186
 30
0.0
  0
VERTEX
  5
AB0
  8
0
  6
CONTINUOUS
 62
     7
 10
-2595.7960036034
 20
381.5760925372
 30
0.0
  0
VERTEX
  5
AB1
  8
0
  6
CONTINUOUS
 62
     7
 10
-2593.3914376509
 20
382.6036067098
 30
0.0
  0
VERTEX
  5
AB2
  8
0
  6
CONTINUOUS
 62
     7
 10
-2590.7932372225
 20
383.4597274773
 30
0.0
  0
VERTEX
  5
AB3
  8
0
  6
CONTINUOUS
 62
     7
 10
-2588.0378606593
 20
384.1324483219
 30
0.0
  0
VERTEX
  5
AB4
  8
0
  6
CONTINUOUS
 62
     7
 10
-2585.164009305
 20
384.6123106224
 30
0.0
  0
VERTEX
  5
AB5
  8
0
  6
CONTINUOUS
 62
     7
 10
-2582.2120163764
 20
384.8925861366
 30
0.0
  0
VERTEX
  5
AB6
  8
0
  6
CONTINUOUS
 62
     7
 10
-2579.2233214453
 20
384.9693385877
 30
0.0
  0
VERTEX
  5
AB7
  8
0
  6
CONTINUOUS
 62
     7
 10
-2576.2398856507
 20
384.8414875336
 30
0.0
  0
VERTEX
  5
AB8
  8
0
  6
CONTINUOUS
 62
     7
 10
-2573.3035700327
 20
384.5108387802
 30
0.0
  0
VERTEX
  5
AB9
  8
0
  6
CONTINUOUS
 62
     7
 10
-2570.4556106727
 20
383.9820246947
 30
0.0
  0
VERTEX
  5
ABA
  8
0
  6
CONTINUOUS
 62
     7
 10
-2567.7359868202
 20
383.2624678994
 30
0.0
  0
VERTEX
  5
ABB
  8
0
  6
CONTINUOUS
 62
     7
 10
-2565.1828733123
 20
382.3622719732
 30
0.0
  0
VERTEX
  5
ABC
  8
0
  6
CONTINUOUS
 62
     7
 10
-2562.8321096229
 20
381.2940730899
 30
0.0
  0
VERTEX
  5
ABD
  8
0
  6
CONTINUOUS
 62
     7
 10
-2560.7166924538
 20
380.0728687523
 30
0.0
  0
VERTEX
  5
ABE
  8
0
  6
CONTINUOUS
 62
     7
 10
-2558.8663172234
 20
378.7158017604
 30
0.0
  0
VERTEX
  5
ABF
  8
0
  6
CONTINUOUS
 62
     7
 10
-2557.3069631831
 20
377.2419207047
 30
0.0
  0
VERTEX
  5
AC0
  8
0
  6
CONTINUOUS
 62
     7
 10
-2556.0605192
 20
375.6719152731
 30
0.0
  0
VERTEX
  5
AC1
  8
0
  6
CONTINUOUS
 62
     7
 10
-2555.1444870821
 20
374.0278233301
 30
0.0
  0
VERTEX
  5
AC2
  8
0
  6
CONTINUOUS
 62
     7
 10
-2554.5717245817
 20
372.332724405
 30
0.0
  0
VERTEX
  5
AC3
  8
0
  6
CONTINUOUS
 62
     7
 10
-2554.4691009568
 20
371.8233723445
 30
0.0
  0
SEQEND
  5
AC4
  8
0
  6
CONTINUOUS
 62
     7
  0
ARC
  5
511
  8
0
  6
CONTINUOUS
 62
     7
 10
-2537.0557042111
 20
367.6315592326
 30
0.0
 40
4.640482260350066
 50
64.5969957907
 51
91.4246946651
  0
ARC
  5
512
  8
0
  6
CONTINUOUS
 62
     7
 10
-2542.7863214783
 20
367.6309107113
 30
0.0
 40
4.641128782170674
 50
88.5771536603
 51
115.4011476844
  0
ARC
  5
513
  8
0
  6
CONTINUOUS
 62
     7
 10
-2616.4090350403
 20
367.6290683791
 30
0.0
 40
4.642960259155794
 50
64.6043681413
 51
91.4175389014
  0
ARC
  5
514
  8
0
  6
CONTINUOUS
 62
     7
 10
-2622.1389674569
 20
367.6301005327
 30
0.0
 40
4.641934606293211
 50
88.5794435719
 51
115.3986493855
  0
LINE
  5
515
  8
0
  6
CONTINUOUS
 62
     7
 10
-2542.671078533
 20
372.2706084855
 30
0.0
 11
-2537.1710807555
 21
372.2706069648
 31
0.0
  0
LINE
  5
516
  8
0
  6
CONTINUOUS
 62
     7
 10
-2622.0238899671
 20
372.2706084855
 30
0.0
 11
-2616.5238935068
 21
372.2706077252
 31
0.0
  0
POLYLINE
  5
517
  8
0
  6
CONTINUOUS
 62
     7
 66
     1
 10
0.0
 20
0.0
 30
0.0
  0
VERTEX
  5
AC5
  8
0
  6
CONTINUOUS
 62
     7
 10
-2582.8474828507
 20
394.8866669175
 30
0.0
  0
VERTEX
  5
AC6
  8
0
  6
CONTINUOUS
 62
     7
 10
-2582.6514842
 20
395.5283598357
 30
0.0
  0
VERTEX
  5
AC7
  8
0
  6
CONTINUOUS
 62
     7
 10
-2582.0871352643
 20
396.0926517334
 30
0.0
  0
VERTEX
  5
AC8
  8
0
  6
CONTINUOUS
 62
     7
 10
-2581.2224847645
 20
396.511490722
 30
0.0
  0
VERTEX
  5
AC9
  8
0
  6
CONTINUOUS
 62
     7
 10
-2580.1618382483
 20
396.7343492136
 30
0.0
  0
VERTEX
  5
ACA
  8
0
  6
CONTINUOUS
 62
     7
 10
-2579.0331245718
 20
396.7343492136
 30
0.0
  0
VERTEX
  5
ACB
  8
0
  6
CONTINUOUS
 62
     7
 10
-2577.9724820069
 20
396.511493003
 30
0.0
  0
VERTEX
  5
ACC
  8
0
  6
CONTINUOUS
 62
     7
 10
-2577.107844678
 20
396.0926524937
 30
0.0
  0
VERTEX
  5
ACD
  8
0
  6
CONTINUOUS
 62
     7
 10
-2576.5434812543
 20
395.5283613564
 30
0.0
  0
VERTEX
  5
ACE
  8
0
  6
CONTINUOUS
 62
     7
 10
-2576.347487872
 20
394.8866653968
 30
0.0
  0
SEQEND
  5
ACF
  8
0
  6
CONTINUOUS
 62
     7
  0
ARC
  5
518
  8
0
  6
CONTINUOUS
 62
     7
 10
-1492.9712822871
 20
-364.1475742102
 30
0.0
 40
120.0000000000275
 50
96.1072772981
 51
97.0541313733
  0
ARC
  5
519
  8
0
  6
CONTINUOUS
 62
     7
 10
-1492.9712822871
 20
-364.1475742102
 30
0.0
 40
120.0000000000275
 50
82.9458686267
 51
83.8915872211
  0
ARC
  5
51A
  8
0
  6
CONTINUOUS
 62
     7
 10
-1507.6712822871
 20
-245.3536349708
 30
0.0
 40
0.3000000000022339
 50
97.054127852
 51
179.9999856569
  0
ARC
  5
51B
  8
0
  6
CONTINUOUS
 62
     7
 10
-1478.2712822871
 20
-245.3536349708
 30
0.0
 40
0.3000000000022621
 50
0.0000143431
 51
82.945872148
  0
ARC
  5
51C
  8
0
  6
CONTINUOUS
 62
     7
 10
-1480.1712883103
 20
-244.5304973698
 30
0.0
 40
0.2999967741604417
 50
179.5373983311
 51
264.3736786422
  0
ARC
  5
51D
  8
0
  6
CONTINUOUS
 62
     7
 10
-1505.7713023599
 20
-244.5304652592
 30
0.0
 40
0.300030612466328
 50
275.6293682579
 51
0.4564172458
  0
ARC
  5
51E
  8
0
  6
CONTINUOUS
 62
     7
 10
-1492.9712822871
 20
-333.6475742102
 30
0.0
 40
90.19999999999969
 50
82.1997529679
 51
84.5303929161
  0
ARC
  5
51F
  8
0
  6
CONTINUOUS
 62
     7
 10
-1492.9712822871
 20
-333.6475742102
 30
0.0
 40
90.19999999999952
 50
95.4696070839
 51
97.8002470331
  0
ARC
  5
520
  8
0
  6
CONTINUOUS
 62
     7
 10
-1484.4212822871
 20
-244.3559872604
 30
0.0
 40
0.5000000000000939
 50
84.5304035697
 51
90.0
  0
ARC
  5
521
  8
0
  6
CONTINUOUS
 62
     7
 10
-1501.5212822871
 20
-244.3559872604
 30
0.0
 40
0.5000000000001156
 50
90.0
 51
95.4695964303
  0
LINE
  5
522
  8
0
  6
CONTINUOUS
 62
     7
 10
-1484.4212751157
 20
-243.855973271
 30
0.0
 11
-1501.5212814576
 21
-243.855973271
 31
0.0
  0
ARC
  5
523
  8
0
  6
CONTINUOUS
 62
     7
 10
-1505.1732586423
 20
-244.5795181366
 30
0.0
 40
0.3000205824349079
 50
92.6644368099
 51
175.7609272435
  0
ARC
  5
524
  8
0
  6
CONTINUOUS
 62
     7
 10
-1480.7693048086
 20
-244.5795091406
 30
0.0
 40
0.300011915954877
 50
4.237472681
 51
87.3341712748
  0
LINE
  5
525
  8
0
  6
CONTINUOUS
 62
     7
 10
-1454.1712920434
 20
-271.3475725924
 30
0.0
 11
-1454.1712920434
 21
-270.347585467
 31
0.0
  0
LINE
  5
526
  8
0
  6
CONTINUOUS
 62
     7
 10
-1464.1712825066
 20
-270.347585467
 30
0.0
 11
-1464.1712825066
 21
-271.3475725924
 31
0.0
  0
LINE
  5
527
  8
0
  6
CONTINUOUS
 62
     7
 10
-1446.9212810761
 20
-302.5975725924
 30
0.0
 11
-1446.9219963319
 21
-302.5975725924
 31
0.0
  0
LINE
  5
528
  8
0
  6
CONTINUOUS
 62
     7
 10
-1446.9219963319
 20
-310.097580341
 30
0.0
 11
-1446.9212810761
 21
-310.097580341
 31
0.0
  0
LINE
  5
529
  8
0
  6
CONTINUOUS
 62
     7
 10
-2043.9212839371
 20
-310.097580341
 30
0.0
 11
-2043.9205686814
 21
-310.097580341
 31
0.0
  0
LINE
  5
52A
  8
0
  6
CONTINUOUS
 62
     7
 10
-2043.9205686814
 20
-302.5975725924
 30
0.0
 11
-2043.9212839371
 21
-302.5975725924
 31
0.0
  0
LINE
  5
52B
  8
0
  6
CONTINUOUS
 62
     7
 10
-2029.1712801224
 20
-269.3475685393
 30
0.0
 11
-2029.1712801224
 21
-269.1275677954
 31
0.0
  0
LINE
  5
52C
  8
0
  6
CONTINUOUS
 62
     7
 10
-2034.1712753541
 20
-269.1275677954
 30
0.0
 11
-2034.1712753541
 21
-269.3475685393
 31
0.0
  0
LINE
  5
52D
  8
0
  6
CONTINUOUS
 62
     7
 10
-2029.1712801224
 20
-269.1275677954
 30
0.0
 11
-2029.5712868935
 21
-268.7275610243
 31
0.0
  0
LINE
  5
52E
  8
0
  6
CONTINUOUS
 62
     7
 10
-2033.771268583
 20
-268.7275610243
 30
0.0
 11
-2034.1712753541
 21
-269.1275677954
 31
0.0
  0
LINE
  5
52F
  8
0
  6
CONTINUOUS
 62
     7
 10
-1447.4212746388
 20
-552.347573832
 30
0.0
 11
-1447.4212746388
 21
-551.1760009123
 31
0.0
  0
LINE
  5
530
  8
0
  6
CONTINUOUS
 62
     7
 10
-2043.4212903744
 20
-552.347573832
 30
0.0
 11
-2043.4212903744
 21
-551.1760009123
 31
0.0
  0
LINE
  5
531
  8
0
  6
CONTINUOUS
 62
     7
 10
-1445.9212939507
 20
-552.347573832
 30
0.0
 11
-1445.9212939507
 21
-555.3475739745
 31
0.0
  0
LINE
  5
532
  8
0
  6
CONTINUOUS
 62
     7
 10
-1445.9212939507
 20
-555.3475739745
 30
0.0
 11
-1447.9212682015
 21
-555.3475739745
 31
0.0
  0
LINE
  5
533
  8
0
  6
CONTINUOUS
 62
     7
 10
-1447.9212682015
 20
-552.347573832
 30
0.0
 11
-1445.9212939507
 21
-552.347573832
 31
0.0
  0
LINE
  5
534
  8
0
  6
CONTINUOUS
 62
     7
 10
-1447.9212682015
 20
-555.3475739745
 30
0.0
 11
-2042.9212968117
 21
-555.3475739745
 31
0.0
  0
LINE
  5
535
  8
0
  6
CONTINUOUS
 62
     7
 10
-1447.9212682015
 20
-552.347573832
 30
0.0
 11
-2042.9212968117
 21
-552.347573832
 31
0.0
  0
LINE
  5
536
  8
0
  6
CONTINUOUS
 62
     7
 10
-2044.9212710625
 20
-555.3475739745
 30
0.0
 11
-2044.9212710625
 21
-552.347573832
 31
0.0
  0
LINE
  5
537
  8
0
  6
CONTINUOUS
 62
     7
 10
-2042.9212968117
 20
-555.3475739745
 30
0.0
 11
-2044.9212710625
 21
-555.3475739745
 31
0.0
  0
LINE
  5
538
  8
0
  6
CONTINUOUS
 62
     7
 10
-2044.9212710625
 20
-552.347573832
 30
0.0
 11
-2042.9212968117
 21
-552.347573832
 31
0.0
  0
LINE
  5
539
  8
0
  6
CONTINUOUS
 62
     7
 10
-2040.9712712533
 20
-250.1475713526
 30
0.0
 11
-1450.971267677
 21
-250.1475713526
 31
0.0
  0
POLYLINE
  5
53A
  8
0
  6
CONTINUOUS
 62
     7
 66
     1
 10
0.0
 20
0.0
 30
0.0
  0
VERTEX
  5
AD0
  8
0
  6
CONTINUOUS
 62
     7
 10
-1450.971267677
 20
-250.1475713526
 30
0.0
  0
VERTEX
  5
AD1
  8
0
  6
CONTINUOUS
 62
     7
 10
-1451.1858443982
 20
-250.1949868475
 30
0.0
  0
VERTEX
  5
AD2
  8
0
  6
CONTINUOUS
 62
     7
 10
-1451.3429324395
 20
-250.3520450865
 30
0.0
  0
VERTEX
  5
AD3
  8
0
  6
CONTINUOUS
 62
     7
 10
-1451.4391343362
 20
-250.6312928473
 30
0.0
  0
VERTEX
  5
AD4
  8
0
  6
CONTINUOUS
 62
     7
 10
-1451.471291042
 20
-251.0262630259
 30
0.0
  0
VERTEX
  5
AD5
  8
0
  6
CONTINUOUS
 62
     7
 10
-1451.4392833478
 20
-251.5147528921
 30
0.0
  0
VERTEX
  5
AD6
  8
0
  6
CONTINUOUS
 62
     7
 10
-1451.3433198697
 20
-252.0575127875
 30
0.0
  0
VERTEX
  5
AD7
  8
0
  6
CONTINUOUS
 62
     7
 10
-1451.1856953866
 20
-252.6168129717
 30
0.0
  0
VERTEX
  5
AD8
  8
0
  6
CONTINUOUS
 62
     7
 10
-1450.971267677
 20
-253.1475625311
 30
0.0
  0
SEQEND
  5
AD9
  8
0
  6
CONTINUOUS
 62
     7
  0
POLYLINE
  5
53B
  8
0
  6
CONTINUOUS
 62
     7
 66
     1
 10
0.0
 20
0.0
 30
0.0
  0
VERTEX
  5
ADA
  8
0
  6
CONTINUOUS
 62
     7
 10
-2040.9712712533
 20
-250.1475713526
 30
0.0
  0
VERTEX
  5
ADB
  8
0
  6
CONTINUOUS
 62
     7
 10
-2040.7567243344
 20
-250.1949868475
 30
0.0
  0
VERTEX
  5
ADC
  8
0
  6
CONTINUOUS
 62
     7
 10
-2040.5996362931
 20
-250.3520450865
 30
0.0
  0
VERTEX
  5
ADD
  8
0
  6
CONTINUOUS
 62
     7
 10
-2040.5034343964
 20
-250.6312928473
 30
0.0
  0
VERTEX
  5
ADE
  8
0
  6
CONTINUOUS
 62
     7
 10
-2040.4712776906
 20
-251.0262630259
 30
0.0
  0
VERTEX
  5
ADF
  8
0
  6
CONTINUOUS
 62
     7
 10
-2040.5032555825
 20
-251.5147528921
 30
0.0
  0
VERTEX
  5
AE0
  8
0
  6
CONTINUOUS
 62
     7
 10
-2040.5992488629
 20
-252.0575127875
 30
0.0
  0
VERTEX
  5
AE1
  8
0
  6
CONTINUOUS
 62
     7
 10
-2040.756873346
 20
-252.6168129717
 30
0.0
  0
VERTEX
  5
AE2
  8
0
  6
CONTINUOUS
 62
     7
 10
-2040.9712712533
 20
-253.1475625311
 30
0.0
  0
SEQEND
  5
AE3
  8
0
  6
CONTINUOUS
 62
     7
  0
ARC
  5
53C
  8
0
  6
CONTINUOUS
 62
     7
 10
-1448.9712822871
 20
-251.6475742102
 30
0.0
 40
2.499999999999859
 50
216.8698976458
 51
225.0
  0
LINE
  5
53D
  8
0
  6
CONTINUOUS
 62
     7
 10
-1450.739047981
 20
-253.4153363978
 30
0.0
 11
-1455.7212810284
 21
-258.3975694453
 31
0.0
  0
LINE
  5
53E
  8
0
  6
CONTINUOUS
 62
     7
 10
-1455.7212810284
 20
-258.3975694453
 30
0.0
 11
-1462.4712686307
 21
-258.3975694453
 31
0.0
  0
LINE
  5
53F
  8
0
  6
CONTINUOUS
 62
     7
 10
-1462.4712686307
 20
-258.3975694453
 30
0.0
 11
-1462.4712686307
 21
-265.1475868498
 31
0.0
  0
LINE
  5
540
  8
0
  6
CONTINUOUS
 62
     7
 10
-1462.4712686307
 20
-265.1475868498
 30
0.0
 11
-2029.4712702996
 21
-265.1475868498
 31
0.0
  0
LINE
  5
541
  8
0
  6
CONTINUOUS
 62
     7
 10
-2029.4712702996
 20
-258.3975694453
 30
0.0
 11
-2029.4712702996
 21
-265.1475868498
 31
0.0
  0
LINE
  5
542
  8
0
  6
CONTINUOUS
 62
     7
 10
-2036.2212877042
 20
-258.3975694453
 30
0.0
 11
-2029.4712702996
 21
-258.3975694453
 31
0.0
  0
LINE
  5
543
  8
0
  6
CONTINUOUS
 62
     7
 10
-2041.2035207516
 20
-253.4153363978
 30
0.0
 11
-2036.2212877042
 21
-258.3975694453
 31
0.0
  0
ARC
  5
544
  8
0
  6
CONTINUOUS
 62
     7
 10
-2042.9712822871
 20
-251.6475742102
 30
0.0
 40
2.500000000000216
 50
315.0
 51
323.1301023542
  0
POLYLINE
  5
545
  8
0
  6
CONTINUOUS
 62
     7
 66
     1
 10
0.0
 20
0.0
 30
0.0
  0
VERTEX
  5
AE4
  8
0
  6
CONTINUOUS
 62
     7
 10
-2040.9712712533
 20
-251.647581843
 30
0.0
  0
VERTEX
  5
AE5
  8
0
  6
CONTINUOUS
 62
     7
 10
-2040.7567243344
 20
-251.6712746893
 30
0.0
  0
VERTEX
  5
AE6
  8
0
  6
CONTINUOUS
 62
     7
 10
-2040.5996362931
 20
-251.7498038088
 30
0.0
  0
VERTEX
  5
AE7
  8
0
  6
CONTINUOUS
 62
     7
 10
-2040.5034343964
 20
-251.8894276892
 30
0.0
  0
VERTEX
  5
AE8
  8
0
  6
CONTINUOUS
 62
     7
 10
-2040.4712776906
 20
-252.0869276797
 30
0.0
  0
VERTEX
  5
AE9
  8
0
  6
CONTINUOUS
 62
     7
 10
-2040.4712776906
 20
-252.0869276797
 30
0.0
  0
SEQEND
  5
AEA
  8
0
  6
CONTINUOUS
 62
     7
  0
LINE
  5
546
  8
0
  6
CONTINUOUS
 62
     7
 10
-2040.9712712533
 20
-251.647581843
 30
0.0
 11
-2040.9712712533
 21
-250.1475713526
 31
0.0
  0
LINE
  5
547
  8
0
  6
CONTINUOUS
 62
     7
 10
-2044.4712857968
 20
-265.1475868498
 30
0.0
 11
-2044.4712857968
 21
-253.6475858961
 31
0.0
  0
POLYLINE
  5
548
  8
0
  6
CONTINUOUS
 62
     7
 66
     1
 10
0.0
 20
0.0
 30
0.0
  0
VERTEX
  5
AEB
  8
0
  6
CONTINUOUS
 62
     7
 10
-2041.4712946183
 20
-253.6475858961
 30
0.0
  0
VERTEX
  5
AEC
  8
0
  6
CONTINUOUS
 62
     7
 10
-2042.0024614102
 20
-253.862132815
 30
0.0
  0
VERTEX
  5
AED
  8
0
  6
CONTINUOUS
 62
     7
 10
-2042.5598840482
 20
-254.0192208563
 30
0.0
  0
VERTEX
  5
AEE
  8
0
  6
CONTINUOUS
 62
     7
 10
-2043.1047599084
 20
-254.115422753
 30
0.0
  0
VERTEX
  5
AEF
  8
0
  6
CONTINUOUS
 62
     7
 10
-2043.5925941235
 20
-254.1475794588
 30
0.0
  0
VERTEX
  5
AF0
  8
0
  6
CONTINUOUS
 62
     7
 10
-2043.988011337
 20
-254.1156015669
 30
0.0
  0
VERTEX
  5
AF1
  8
0
  6
CONTINUOUS
 62
     7
 10
-2044.2662458188
 20
-254.0196082865
 30
0.0
  0
VERTEX
  5
AF2
  8
0
  6
CONTINUOUS
 62
     7
 10
-2044.4239597089
 20
-253.8619838034
 30
0.0
  0
VERTEX
  5
AF3
  8
0
  6
CONTINUOUS
 62
     7
 10
-2044.4712857968
 20
-253.6475858961
 30
0.0
  0
SEQEND
  5
AF4
  8
0
  6
CONTINUOUS
 62
     7
  0
LINE
  5
549
  8
0
  6
CONTINUOUS
 62
     7
 10
-2041.4712946183
 20
-265.1475868498
 30
0.0
 11
-2044.4712857968
 21
-265.1475868498
 31
0.0
  0
LINE
  5
54A
  8
0
  6
CONTINUOUS
 62
     7
 10
-2044.4712857968
 20
-253.6475858961
 30
0.0
 11
-2042.9712753064
 21
-253.6475858961
 31
0.0
  0
ARC
  5
54B
  8
0
  6
CONTINUOUS
 62
     7
 10
-2042.5570379364
 20
-253.726616817
 30
0.0
 40
0.4217090053445457
 50
169.1985431027
 51
273.4093412852
  0
ARC
  5
54C
  8
0
  6
CONTINUOUS
 62
     7
 10
-2042.9712822871
 20
-251.6475742102
 30
0.0
 40
2.500000000000181
 50
306.8698976458
 51
315.0
  0
LINE
  5
54D
  8
0
  6
CONTINUOUS
 62
     7
 10
-2029.4712702996
 20
-265.1475868498
 30
0.0
 11
-2041.4712946183
 21
-265.1475868498
 31
0.0
  0
LINE
  5
54E
  8
0
  6
CONTINUOUS
 62
     7
 10
-1450.971267677
 20
-251.647581843
 30
0.0
 11
-1450.971267677
 21
-250.1475713526
 31
0.0
  0
POLYLINE
  5
54F
  8
0
  6
CONTINUOUS
 62
     7
 66
     1
 10
0.0
 20
0.0
 30
0.0
  0
VERTEX
  5
AF5
  8
0
  6
CONTINUOUS
 62
     7
 10
-1450.971267677
 20
-251.647581843
 30
0.0
  0
VERTEX
  5
AF6
  8
0
  6
CONTINUOUS
 62
     7
 10
-1451.1858443982
 20
-251.6712746893
 30
0.0
  0
VERTEX
  5
AF7
  8
0
  6
CONTINUOUS
 62
     7
 10
-1451.3429324395
 20
-251.7498038088
 30
0.0
  0
VERTEX
  5
AF8
  8
0
  6
CONTINUOUS
 62
     7
 10
-1451.4391343362
 20
-251.8894276892
 30
0.0
  0
VERTEX
  5
AF9
  8
0
  6
CONTINUOUS
 62
     7
 10
-1451.471291042
 20
-252.0869276797
 30
0.0
  0
VERTEX
  5
AFA
  8
0
  6
CONTINUOUS
 62
     7
 10
-1451.471291042
 20
-252.0869276797
 30
0.0
  0
SEQEND
  5
AFB
  8
0
  6
CONTINUOUS
 62
     7
  0
POLYLINE
  5
550
  8
0
  6
CONTINUOUS
 62
     7
 66
     1
 10
0.0
 20
0.0
 30
0.0
  0
VERTEX
  5
AFC
  8
0
  6
CONTINUOUS
 62
     7
 10
-1450.4712741143
 20
-253.6475858961
 30
0.0
  0
VERTEX
  5
AFD
  8
0
  6
CONTINUOUS
 62
     7
 10
-1449.9401073224
 20
-253.862132815
 30
0.0
  0
VERTEX
  5
AFE
  8
0
  6
CONTINUOUS
 62
     7
 10
-1449.3826846844
 20
-254.0192208563
 30
0.0
  0
VERTEX
  5
AFF
  8
0
  6
CONTINUOUS
 62
     7
 10
-1448.8378088242
 20
-254.115422753
 30
0.0
  0
VERTEX
  5
B00
  8
0
  6
CONTINUOUS
 62
     7
 10
-1448.3499448067
 20
-254.1475794588
 30
0.0
  0
VERTEX
  5
B01
  8
0
  6
CONTINUOUS
 62
     7
 10
-1447.9545573956
 20
-254.1156015669
 30
0.0
  0
VERTEX
  5
B02
  8
0
  6
CONTINUOUS
 62
     7
 10
-1447.6763229138
 20
-254.0196082865
 30
0.0
  0
VERTEX
  5
B03
  8
0
  6
CONTINUOUS
 62
     7
 10
-1447.5186090237
 20
-253.8619838034
 30
0.0
  0
VERTEX
  5
B04
  8
0
  6
CONTINUOUS
 62
     7
 10
-1447.4712829358
 20
-253.6475858961
 30
0.0
  0
SEQEND
  5
B05
  8
0
  6
CONTINUOUS
 62
     7
  0
ARC
  5
551
  8
0
  6
CONTINUOUS
 62
     7
 10
-1449.3855307962
 20
-253.726616817
 30
0.0
 40
0.4217090053445592
 50
266.5906587148
 51
10.8014568973
  0
LINE
  5
552
  8
0
  6
CONTINUOUS
 62
     7
 10
-1447.4712829358
 20
-253.6475858961
 30
0.0
 11
-1448.9712934262
 21
-253.6475858961
 31
0.0
  0
LINE
  5
553
  8
0
  6
CONTINUOUS
 62
     7
 10
-1447.4712829358
 20
-253.6475858961
 30
0.0
 11
-1447.4712829358
 21
-265.1475868498
 31
0.0
  0
LINE
  5
554
  8
0
  6
CONTINUOUS
 62
     7
 10
-1447.4712829358
 20
-265.1475868498
 30
0.0
 11
-1450.4712741143
 21
-265.1475868498
 31
0.0
  0
LINE
  5
555
  8
0
  6
CONTINUOUS
 62
     7
 10
-1450.4712741143
 20
-265.1475868498
 30
0.0
 11
-1462.4712686307
 21
-265.1475868498
 31
0.0
  0
ARC
  5
556
  8
0
  6
CONTINUOUS
 62
     7
 10
-1448.9712822871
 20
-251.6475742102
 30
0.0
 40
2.499999999999932
 50
225.0
 51
233.1301023542
  0
LINE
  5
557
  8
0
  6
CONTINUOUS
 62
     7
 10
-2042.9712753064
 20
-253.6475858961
 30
0.0
 11
-2042.9712753064
 21
-253.1475625311
 31
0.0
  0
LINE
  5
558
  8
0
  6
CONTINUOUS
 62
     7
 10
-2044.4712857968
 20
-253.6475858961
 30
0.0
 11
-2044.4712857968
 21
-253.1475625311
 31
0.0
  0
LINE
  5
559
  8
0
  6
CONTINUOUS
 62
     7
 10
-2044.4712857968
 20
-253.1475625311
 30
0.0
 11
-2042.9712753064
 21
-253.1475625311
 31
0.0
  0
LINE
  5
55A
  8
0
  6
CONTINUOUS
 62
     7
 10
-2041.4712946183
 20
-250.1475713526
 30
0.0
 11
-2041.4712946183
 21
-251.647581843
 31
0.0
  0
LINE
  5
55B
  8
0
  6
CONTINUOUS
 62
     7
 10
-2041.4712946183
 20
-250.1475713526
 30
0.0
 11
-2040.9712712533
 21
-250.1475713526
 31
0.0
  0
LINE
  5
55C
  8
0
  6
CONTINUOUS
 62
     7
 10
-2041.4712946183
 20
-251.647581843
 30
0.0
 11
-2040.9712712533
 21
-251.647581843
 31
0.0
  0
LINE
  5
55D
  8
0
  6
CONTINUOUS
 62
     7
 10
-1450.4712741143
 20
-250.1475713526
 30
0.0
 11
-1450.4712741143
 21
-251.647581843
 31
0.0
  0
LINE
  5
55E
  8
0
  6
CONTINUOUS
 62
     7
 10
-1450.4712741143
 20
-250.1475713526
 30
0.0
 11
-1450.971267677
 21
-250.1475713526
 31
0.0
  0
LINE
  5
55F
  8
0
  6
CONTINUOUS
 62
     7
 10
-1450.4712741143
 20
-251.647581843
 30
0.0
 11
-1450.971267677
 21
-251.647581843
 31
0.0
  0
LINE
  5
560
  8
0
  6
CONTINUOUS
 62
     7
 10
-1447.4712829358
 20
-253.1475625311
 30
0.0
 11
-1448.9712934262
 21
-253.1475625311
 31
0.0
  0
LINE
  5
561
  8
0
  6
CONTINUOUS
 62
     7
 10
-1447.4712829358
 20
-253.6475858961
 30
0.0
 11
-1447.4712829358
 21
-253.1475625311
 31
0.0
  0
LINE
  5
562
  8
0
  6
CONTINUOUS
 62
     7
 10
-1448.9712934262
 20
-253.6475858961
 30
0.0
 11
-1448.9712934262
 21
-253.1475625311
 31
0.0
  0
ARC
  5
563
  8
0
  6
CONTINUOUS
 62
     7
 10
-2041.4713112494
 20
-253.1475459
 30
0.0
 40
1.499964057049397
 50
89.9993647221
 51
180.0006352779
  0
ARC
  5
564
  8
0
  6
CONTINUOUS
 62
     7
 10
-2041.4712970775
 20
-253.1475600719
 30
0.0
 40
2.999988719276742
 50
89.9999530319
 51
180.0000469681
  0
ARC
  5
565
  8
0
  6
CONTINUOUS
 62
     7
 10
-1450.4712716551
 20
-253.1475600719
 30
0.0
 40
2.999988719276657
 50
359.9999530319
 51
90.0000469681
  0
ARC
  5
566
  8
0
  6
CONTINUOUS
 62
     7
 10
-1450.4712574832
 20
-253.1475459
 30
0.0
 40
1.499964057049283
 50
359.9993647221
 51
90.0006352779
  0
ARC
  5
567
  8
0
  6
CONTINUOUS
 62
     7
 10
-1451.9219896133
 20
-274.8457620425
 30
0.0
 40
4.99999999997317
 50
0.0
 51
5.7183052343
  0
LINE
  5
568
  8
0
  6
CONTINUOUS
 62
     7
 10
-1446.9219963319
 20
-548.3475737584
 30
0.0
 11
-1446.9219963319
 21
-545.8093239305
 31
0.0
  0
LINE
  5
569
  8
0
  6
CONTINUOUS
 62
     7
 10
-1446.9219963319
 20
-501.6886531686
 30
0.0
 11
-1446.9219963319
 21
-274.8457691943
 31
0.0
  0
LINE
  5
56A
  8
0
  6
CONTINUOUS
 62
     7
 10
-2043.9205686814
 20
-274.8457691943
 30
0.0
 11
-2043.9205686814
 21
-501.6886531686
 31
0.0
  0
LINE
  5
56B
  8
0
  6
CONTINUOUS
 62
     7
 10
-2043.9205686814
 20
-545.8093239305
 30
0.0
 11
-2043.9205686814
 21
-548.3475737584
 31
0.0
  0
ARC
  5
56C
  8
0
  6
CONTINUOUS
 62
     7
 10
-2038.9205753999
 20
-274.8457620425
 30
0.0
 40
5.000000000006594
 50
174.2816947658
 51
180.0
  0
CIRCLE
  5
56D
  8
0
  6
CONTINUOUS
 62
     7
 10
-1745.4212825066
 20
-411.5966679135
 30
0.0
 40
25.25
  0
LINE
  5
56E
  8
0
  6
CONTINUOUS
 62
     7
 10
-1773.830292306
 20
-435.4094839965
 30
0.0
 11
-1777.7193780309
 21
-439.2985678588
 31
0.0
  0
ARC
  5
56F
  8
0
  6
CONTINUOUS
 62
     7
 10
-1775.4212825066
 20
-441.5966679135
 30
0.0
 40
3.250000000000147
 50
135.0
 51
315.0
  0
LINE
  5
570
  8
0
  6
CONTINUOUS
 62
     7
 10
-1773.1231856412
 20
-443.8947639738
 30
0.0
 11
-1769.2340980536
 21
-440.0056801115
 31
0.0
  0
ARC
  5
571
  8
0
  6
CONTINUOUS
 62
     7
 10
-1771.5321952101
 20
-437.7075806169
 30
0.0
 40
3.250000000000067
 50
315.0
 51
135.0
  0
LINE
  5
572
  8
0
  6
CONTINUOUS
 62
     7
 10
-1777.7193780309
 20
-383.8947615897
 30
0.0
 11
-1773.830292306
 21
-387.783845452
 31
0.0
  0
ARC
  5
573
  8
0
  6
CONTINUOUS
 62
     7
 10
-1771.5321952101
 20
-385.48575521
 30
0.0
 40
3.250000000000147
 50
225.0
 51
45.0
  0
LINE
  5
574
  8
0
  6
CONTINUOUS
 62
     7
 10
-1769.2340980536
 20
-383.1876567875
 30
0.0
 11
-1773.1231856412
 21
-379.2985729252
 31
0.0
  0
ARC
  5
575
  8
0
  6
CONTINUOUS
 62
     7
 10
-1775.4212825066
 20
-381.5966679135
 30
0.0
 40
3.250000000000187
 50
45.0
 51
225.0
  0
LINE
  5
576
  8
0
  6
CONTINUOUS
 62
     7
 10
-1713.1231869823
 20
-439.2985678588
 30
0.0
 11
-1717.0122727073
 21
-435.4094839965
 31
0.0
  0
ARC
  5
577
  8
0
  6
CONTINUOUS
 62
     7
 10
-1719.3103698032
 20
-437.7075806169
 30
0.0
 40
3.250000000000147
 50
45.0
 51
225.0
  0
LINE
  5
578
  8
0
  6
CONTINUOUS
 62
     7
 10
-1721.6084669596
 20
-440.0056801115
 30
0.0
 11
-1717.719379372
 21
-443.8947639738
 31
0.0
  0
ARC
  5
579
  8
0
  6
CONTINUOUS
 62
     7
 10
-1715.4212825066
 20
-441.5966679135
 30
0.0
 40
3.250000000000388
 50
225.0
 51
45.0
  0
LINE
  5
57A
  8
0
  6
CONTINUOUS
 62
     7
 10
-1717.0122727073
 20
-387.783845452
 30
0.0
 11
-1713.1231869823
 21
-383.8947615897
 31
0.0
  0
ARC
  5
57B
  8
0
  6
CONTINUOUS
 62
     7
 10
-1715.4212825066
 20
-381.5966679135
 30
0.0
 40
3.250000000000107
 50
315.0
 51
135.0
  0
LINE
  5
57C
  8
0
  6
CONTINUOUS
 62
     7
 10
-1717.719379372
 20
-379.2985729252
 30
0.0
 11
-1721.6084669596
 21
-383.1876567875
 31
0.0
  0
ARC
  5
57D
  8
0
  6
CONTINUOUS
 62
     7
 10
-1719.3103698032
 20
-385.48575521
 30
0.0
 40
3.250000000000067
 50
135.0
 51
315.0
  0
ARC
  5
57E
  8
0
  6
CONTINUOUS
 62
     7
 10
-2039.6768689546
 20
-274.1535577904
 30
0.0
 40
4.223273201233665
 50
140.1796871534
 51
182.6329428731
  0
LINE
  5
57F
  8
0
  6
CONTINUOUS
 62
     7
 10
-2042.920581556
 20
-271.4490495001
 30
0.0
 11
-2042.4223761327
 21
-271.3475725924
 31
0.0
  0
LINE
  5
580
  8
0
  6
CONTINUOUS
 62
     7
 10
-2042.3774938351
 20
-271.3475725924
 30
0.0
 11
-1448.3494977719
 21
-271.3475725924
 31
0.0
  0
POLYLINE
  5
581
  8
0
  6
CONTINUOUS
 62
     7
 66
     1
 10
0.0
 20
0.0
 30
0.0
  0
VERTEX
  5
B06
  8
0
  6
CONTINUOUS
 62
     7
 10
-1448.3494977719
 20
-271.3475725924
 30
0.0
  0
VERTEX
  5
B07
  8
0
  6
CONTINUOUS
 62
     7
 10
-1447.8130261666
 20
-271.5249560152
 30
0.0
  0
VERTEX
  5
B08
  8
0
  6
CONTINUOUS
 62
     7
 10
-1447.4171619183
 20
-272.0432184016
 30
0.0
  0
VERTEX
  5
B09
  8
0
  6
CONTINUOUS
 62
     7
 10
-1447.1751074559
 20
-272.8499672686
 30
0.0
  0
VERTEX
  5
B0A
  8
0
  6
CONTINUOUS
 62
     7
 10
-1447.0592658288
 20
-273.5112211977
 30
0.0
  0
VERTEX
  5
B0B
  8
0
  6
CONTINUOUS
 62
     7
 10
-1446.9468812711
 20
-274.3475637709
 30
0.0
  0
SEQEND
  5
B0C
  8
0
  6
CONTINUOUS
 62
     7
  0
POLYLINE
  5
582
  8
0
  6
CONTINUOUS
 62
     7
 66
     1
 10
0.0
 20
0.0
 30
0.0
  0
VERTEX
  5
B0D
  8
0
  6
CONTINUOUS
 62
     7
 10
-2043.9205686814
 20
-548.3475737584
 30
0.0
  0
VERTEX
  5
B0E
  8
0
  6
CONTINUOUS
 62
     7
 10
-2043.8977997071
 20
-548.8685183537
 30
0.0
  0
VERTEX
  5
B0F
  8
0
  6
CONTINUOUS
 62
     7
 10
-2043.8301484353
 20
-549.3736341906
 30
0.0
  0
VERTEX
  5
B10
  8
0
  6
CONTINUOUS
 62
     7
 10
-2043.7197010285
 20
-549.8475737714
 30
0.0
  0
VERTEX
  5
B11
  8
0
  6
CONTINUOUS
 62
     7
 10
-2043.5697953469
 20
-550.2759366374
 30
0.0
  0
VERTEX
  5
B12
  8
0
  6
CONTINUOUS
 62
     7
 10
-2043.3850209481
 20
-550.6457070898
 30
0.0
  0
VERTEX
  5
B13
  8
0
  6
CONTINUOUS
 62
     7
 10
-2043.1709210641
 20
-550.9456500023
 30
0.0
  0
VERTEX
  5
B14
  8
0
  6
CONTINUOUS
 62
     7
 10
-2042.9340820081
 20
-551.1666516414
 30
0.0
  0
VERTEX
  5
B15
  8
0
  6
CONTINUOUS
 62
     7
 10
-2042.6816265351
 20
-551.3019970441
 30
0.0
  0
VERTEX
  5
B16
  8
0
  6
CONTINUOUS
 62
     7
 10
-2042.4212734467
 20
-551.3475737845
 30
0.0
  0
SEQEND
  5
B17
  8
0
  6
CONTINUOUS
 62
     7
  0
POLYLINE
  5
583
  8
0
  6
CONTINUOUS
 62
     7
 66
     1
 10
0.0
 20
0.0
 30
0.0
  0
VERTEX
  5
B18
  8
0
  6
CONTINUOUS
 62
     7
 10
-1448.4212915665
 20
-551.3475737845
 30
0.0
  0
VERTEX
  5
B19
  8
0
  6
CONTINUOUS
 62
     7
 10
-1448.1287817723
 20
-551.2899296247
 30
0.0
  0
VERTEX
  5
B1A
  8
0
  6
CONTINUOUS
 62
     7
 10
-1447.8475372559
 20
-551.1192123832
 30
0.0
  0
VERTEX
  5
B1B
  8
0
  6
CONTINUOUS
 62
     7
 10
-1447.5883166558
 20
-550.8419826239
 30
0.0
  0
VERTEX
  5
B1C
  8
0
  6
CONTINUOUS
 62
     7
 10
-1447.3611335522
 20
-550.468894102
 30
0.0
  0
VERTEX
  5
B1D
  8
0
  6
CONTINUOUS
 62
     7
 10
-1447.1746604211
 20
-550.0142844704
 30
0.0
  0
VERTEX
  5
B1E
  8
0
  6
CONTINUOUS
 62
     7
 10
-1447.0361094243
 20
-549.4956240601
 30
0.0
  0
VERTEX
  5
B1F
  8
0
  6
CONTINUOUS
 62
     7
 10
-1446.9507853753
 20
-548.932844804
 30
0.0
  0
VERTEX
  5
B20
  8
0
  6
CONTINUOUS
 62
     7
 10
-1446.9219963319
 20
-548.3475737584
 30
0.0
  0
SEQEND
  5
B21
  8
0
  6
CONTINUOUS
 62
     7
  0
LINE
  5
584
  8
0
  6
CONTINUOUS
 62
     7
 10
-2042.4212734467
 20
-551.3475737845
 30
0.0
 11
-2037.3934130437
 21
-551.3475737845
 31
0.0
  0
LINE
  5
585
  8
0
  6
CONTINUOUS
 62
     7
 10
-1453.4491519696
 20
-551.3475737845
 30
0.0
 11
-1448.4212915665
 21
-551.3475737845
 31
0.0
  0
LINE
  5
586
  8
0
  6
CONTINUOUS
 62
     7
 10
-2045.4212944276
 20
-274.3475637709
 30
0.0
 11
-2045.4212944276
 21
-274.8457691943
 31
0.0
  0
LINE
  5
587
  8
0
  6
CONTINUOUS
 62
     7
 10
-2045.4212944276
 20
-274.3475637709
 30
0.0
 11
-2043.9212839371
 21
-274.3475637709
 31
0.0
  0
LINE
  5
588
  8
0
  6
CONTINUOUS
 62
     7
 10
-2043.9212839371
 20
-274.8457691943
 30
0.0
 11
-2043.9212839371
 21
-274.3475637709
 31
0.0
  0
LINE
  5
589
  8
0
  6
CONTINUOUS
 62
     7
 10
-1446.9212810761
 20
-274.3475637709
 30
0.0
 11
-1445.4212705857
 21
-274.3475637709
 31
0.0
  0
LINE
  5
58A
  8
0
  6
CONTINUOUS
 62
     7
 10
-1446.9212810761
 20
-274.3475637709
 30
0.0
 11
-1446.9212810761
 21
-274.8457691943
 31
0.0
  0
LINE
  5
58B
  8
0
  6
CONTINUOUS
 62
     7
 10
-1445.4212705857
 20
-274.3475637709
 30
0.0
 11
-1445.4212705857
 21
-274.8457691943
 31
0.0
  0
LINE
  5
58C
  8
0
  6
CONTINUOUS
 62
     7
 10
-2045.4212944276
 20
-548.3475737584
 30
0.0
 11
-2045.4212944276
 21
-547.4276724582
 31
0.0
  0
LINE
  5
58D
  8
0
  6
CONTINUOUS
 62
     7
 10
-2045.4212944276
 20
-503.3070012306
 30
0.0
 11
-2045.4212944276
 21
-274.8457691943
 31
0.0
  0
LINE
  5
58E
  8
0
  6
CONTINUOUS
 62
     7
 10
-2043.9212839371
 20
-548.3475737584
 30
0.0
 11
-2043.9212839371
 21
-545.810086218
 31
0.0
  0
LINE
  5
58F
  8
0
  6
CONTINUOUS
 62
     7
 10
-2043.9212839371
 20
-501.6894131278
 30
0.0
 11
-2043.9212839371
 21
-274.8457691943
 31
0.0
  0
LINE
  5
590
  8
0
  6
CONTINUOUS
 62
     7
 10
-1446.9212810761
 20
-274.8457691943
 30
0.0
 11
-1446.9212810761
 21
-501.6894131278
 31
0.0
  0
LINE
  5
591
  8
0
  6
CONTINUOUS
 62
     7
 10
-1446.9212810761
 20
-545.810086218
 30
0.0
 11
-1446.9212810761
 21
-548.3475737584
 31
0.0
  0
LINE
  5
592
  8
0
  6
CONTINUOUS
 62
     7
 10
-1445.4212705857
 20
-274.8457691943
 30
0.0
 11
-1445.4212705857
 21
-503.3070012306
 31
0.0
  0
LINE
  5
593
  8
0
  6
CONTINUOUS
 62
     7
 10
-1445.4212705857
 20
-547.4276724582
 30
0.0
 11
-1445.4212705857
 21
-548.3475737584
 31
0.0
  0
ARC
  5
594
  8
0
  6
CONTINUOUS
 62
     7
 10
-1448.4212990896
 20
-548.3475452804
 30
0.0
 40
3.000028504058829
 50
270.000143679
 51
359.999456116
  0
ARC
  5
595
  8
0
  6
CONTINUOUS
 62
     7
 10
-2042.421262802
 20
-548.3475421588
 30
0.0
 40
3.000031625719443
 50
180.000603502
 51
269.999796703
  0
ARC
  5
596
  8
0
  6
CONTINUOUS
 62
     7
 10
-2042.4212718965
 20
-274.3475951237
 30
0.0
 40
3.000022531270022
 50
90.0000296078
 51
179.9994012109
  0
POLYLINE
  5
597
  8
0
  6
CONTINUOUS
 62
     7
 66
     1
 10
0.0
 20
0.0
 30
0.0
  0
VERTEX
  5
B22
  8
0
  6
CONTINUOUS
 62
     7
 10
-2043.829194761
 20
-273.8528452193
 30
0.0
  0
VERTEX
  5
B23
  8
0
  6
CONTINUOUS
 62
     7
 10
-2043.861828304
 20
-273.9294073855
 30
0.0
  0
VERTEX
  5
B24
  8
0
  6
CONTINUOUS
 62
     7
 10
-2043.9212839371
 20
-274.3475637709
 30
0.0
  0
SEQEND
  5
B25
  8
0
  6
CONTINUOUS
 62
     7
  0
LINE
  5
598
  8
0
  6
CONTINUOUS
 62
     7
 10
-1447.6475636727
 20
-271.4490495001
 30
0.0
 11
-1447.6931016213
 21
-271.6195783888
 31
0.0
  0
ARC
  5
599
  8
0
  6
CONTINUOUS
 62
     7
 10
-1448.4213178139
 20
-274.3475987754
 30
0.0
 40
3.000047228371649
 50
0.000668527
 51
75.0536785755
  0
POLYLINE
  5
59A
  8
0
  6
CONTINUOUS
 62
     7
 66
     1
 10
0.0
 20
0.0
 30
0.0
  0
VERTEX
  5
B26
  8
0
  6
CONTINUOUS
 62
     7
 10
-1446.9212810761
 20
-274.3475637709
 30
0.0
  0
VERTEX
  5
B27
  8
0
  6
CONTINUOUS
 62
     7
 10
-1446.9624678857
 20
-273.9984295641
 30
0.0
  0
VERTEX
  5
B28
  8
0
  6
CONTINUOUS
 62
     7
 10
-1447.0136980778
 20
-273.8502226149
 30
0.0
  0
SEQEND
  5
B29
  8
0
  6
CONTINUOUS
 62
     7
  0
LINE
  5
59B
  8
0
  6
CONTINUOUS
 62
     7
 10
-1447.6475636727
 20
-271.4490495001
 30
0.0
 11
-1448.4212915665
 21
-271.3475725924
 31
0.0
  0
LINE
  5
59C
  8
0
  6
CONTINUOUS
 62
     7
 10
-2042.3774938351
 20
-271.3475725924
 30
0.0
 11
-2042.4212734467
 21
-271.3475725924
 31
0.0
  0
LINE
  5
59D
  8
0
  6
CONTINUOUS
 62
     7
 10
-1467.2743897206
 20
-265.1475868498
 30
0.0
 11
-1467.9055731065
 21
-269.638826636
 31
0.0
  0
LINE
  5
59E
  8
0
  6
CONTINUOUS
 62
     7
 10
-1467.9055731065
 20
-269.638826636
 30
0.0
 11
-1469.3909804589
 21
-269.4300613676
 31
0.0
  0
LINE
  5
59F
  8
0
  6
CONTINUOUS
 62
     7
 10
-1468.7891225583
 20
-265.1475868498
 30
0.0
 11
-1469.3909804589
 21
-269.4300613676
 31
0.0
  0
LINE
  5
5A0
  8
0
  6
CONTINUOUS
 62
     7
 10
-2023.1309752232
 20
-269.638826636
 30
0.0
 11
-2023.7683872945
 21
-265.1475868498
 31
0.0
  0
POLYLINE
  5
5A1
  8
0
  6
CONTINUOUS
 62
     7
 66
     1
 10
0.0
 20
0.0
 30
0.0
  0
VERTEX
  5
B2A
  8
0
  6
CONTINUOUS
 62
     7
 10
-2023.2886891133
 20
-270.8297870432
 30
0.0
  0
VERTEX
  5
B2B
  8
0
  6
CONTINUOUS
 62
     7
 10
-2023.7992028958
 20
-271.2120018278
 30
0.0
  0
VERTEX
  5
B2C
  8
0
  6
CONTINUOUS
 62
     7
 10
-2024.4223992593
 20
-271.3475725924
 30
0.0
  0
SEQEND
  5
B2D
  8
0
  6
CONTINUOUS
 62
     7
  0
POLYLINE
  5
5A2
  8
0
  6
CONTINUOUS
 62
     7
 66
     1
 10
0.0
 20
0.0
 30
0.0
  0
VERTEX
  5
B2E
  8
0
  6
CONTINUOUS
 62
     7
 10
-1466.420165754
 20
-271.3475725924
 30
0.0
  0
VERTEX
  5
B2F
  8
0
  6
CONTINUOUS
 62
     7
 10
-1467.0433621175
 20
-271.2120018278
 30
0.0
  0
VERTEX
  5
B30
  8
0
  6
CONTINUOUS
 62
     7
 10
-1467.5538759
 20
-270.8297870432
 30
0.0
  0
SEQEND
  5
B31
  8
0
  6
CONTINUOUS
 62
     7
  0
POLYLINE
  5
5A3
  8
0
  6
CONTINUOUS
 62
     7
 66
     1
 10
0.0
 20
0.0
 30
0.0
  0
VERTEX
  5
B32
  8
0
  6
CONTINUOUS
 62
     7
 10
-1469.3106632001
 20
-270.6241510187
 30
0.0
  0
VERTEX
  5
B33
  8
0
  6
CONTINUOUS
 62
     7
 10
-1469.3168024785
 20
-270.6972263132
 30
0.0
  0
VERTEX
  5
B34
  8
0
  6
CONTINUOUS
 62
     7
 10
-1469.3286041981
 20
-270.8297870432
 30
0.0
  0
SEQEND
  5
B35
  8
0
  6
CONTINUOUS
 62
     7
  0
ARC
  5
5A4
  8
0
  6
CONTINUOUS
 62
     7
 10
-1877.3471186259
 20
-258.0609226494
 30
0.0
 40
146.2252855874469
 50
184.6234479417
 51
185.062338643
  0
POLYLINE
  5
5A5
  8
0
  6
CONTINUOUS
 62
     7
 66
     1
 10
0.0
 20
0.0
 30
0.0
  0
VERTEX
  5
B36
  8
0
  6
CONTINUOUS
 62
     7
 10
-2024.4235019452
 20
-271.3475725924
 30
0.0
  0
VERTEX
  5
B37
  8
0
  6
CONTINUOUS
 62
     7
 10
-2023.6720363862
 20
-271.2120018278
 30
0.0
  0
VERTEX
  5
B38
  8
0
  6
CONTINUOUS
 62
     7
 10
-2022.9205708272
 20
-270.8297870432
 30
0.0
  0
SEQEND
  5
B39
  8
0
  6
CONTINUOUS
 62
     7
  0
ARC
  5
5A6
  8
0
  6
CONTINUOUS
 62
     7
 10
-1994.7424648158
 20
-265.2375560274
 30
0.0
 40
28.72766447381343
 50
188.81280539
 51
191.2250735897
  0
ARC
  5
5A7
  8
0
  6
CONTINUOUS
 62
     7
 10
-1497.6725834565
 20
-265.2254593567
 30
0.0
 40
28.80113494444422
 50
348.7793991852
 51
351.1855025695
  0
LINE
  5
5A8
  8
0
  6
CONTINUOUS
 62
     7
 10
-1469.4219748742
 20
-270.8297870432
 30
0.0
 11
-1467.9219941861
 21
-270.8297870432
 31
0.0
  0
POLYLINE
  5
5A9
  8
0
  6
CONTINUOUS
 62
     7
 66
     1
 10
0.0
 20
0.0
 30
0.0
  0
VERTEX
  5
B3A
  8
0
  6
CONTINUOUS
 62
     7
 10
-1467.9219941861
 20
-270.8297870432
 30
0.0
  0
VERTEX
  5
B3B
  8
0
  6
CONTINUOUS
 62
     7
 10
-1467.1677868134
 20
-271.2120018278
 30
0.0
  0
VERTEX
  5
B3C
  8
0
  6
CONTINUOUS
 62
     7
 10
-1466.4135794408
 20
-271.3475725924
 30
0.0
  0
SEQEND
  5
B3D
  8
0
  6
CONTINUOUS
 62
     7
  0
ARC
  5
5AA
  8
0
  6
CONTINUOUS
 62
     7
 10
-1466.4201641441
 20
-269.8475864102
 30
0.0
 40
1.500006809561894
 50
172.000031817
 51
220.90429328
  0
ARC
  5
5AB
  8
0
  6
CONTINUOUS
 62
     7
 10
-1466.9037086521
 20
-269.8735645079
 30
0.0
 40
2.52650273623777
 50
169.8898961263
 51
202.2393606941
  0
POLYLINE
  5
5AC
  8
0
  6
CONTINUOUS
 62
     7
 66
     1
 10
0.0
 20
0.0
 30
0.0
  0
VERTEX
  5
B3E
  8
0
  6
CONTINUOUS
 62
     7
 10
-2023.0131666428
 20
-270.3430853163
 30
0.0
  0
VERTEX
  5
B3F
  8
0
  6
CONTINUOUS
 62
     7
 10
-2023.1063883073
 20
-270.5674073969
 30
0.0
  0
VERTEX
  5
B40
  8
0
  6
CONTINUOUS
 62
     7
 10
-2023.2886891133
 20
-270.8297870432
 30
0.0
  0
SEQEND
  5
B41
  8
0
  6
CONTINUOUS
 62
     7
  0
POLYLINE
  5
5AD
  8
0
  6
CONTINUOUS
 62
     7
 66
     1
 10
0.0
 20
0.0
 30
0.0
  0
VERTEX
  5
B42
  8
0
  6
CONTINUOUS
 62
     7
 10
-1467.79423163
 20
-270.4276941096
 30
0.0
  0
VERTEX
  5
B43
  8
0
  6
CONTINUOUS
 62
     7
 10
-1467.764190889
 20
-270.0686655318
 30
0.0
  0
VERTEX
  5
B44
  8
0
  6
CONTINUOUS
 62
     7
 10
-1467.71158979
 20
-269.4300613676
 30
0.0
  0
SEQEND
  5
B45
  8
0
  6
CONTINUOUS
 62
     7
  0
LINE
  5
5AE
  8
0
  6
CONTINUOUS
 62
     7
 10
-1467.71158979
 20
-269.638826636
 30
0.0
 11
-1467.71158979
 21
-269.4300613676
 31
0.0
  0
LINE
  5
5AF
  8
0
  6
CONTINUOUS
 62
     7
 10
-1467.7464585072
 20
-269.8505423342
 30
0.0
 11
-1467.71158979
 21
-269.638826636
 31
0.0
  0
LINE
  5
5B0
  8
0
  6
CONTINUOUS
 62
     7
 10
-1467.1038012273
 20
-265.1475868498
 30
0.0
 11
-1467.71158979
 21
-269.4300613676
 31
0.0
  0
LINE
  5
5B1
  8
0
  6
CONTINUOUS
 62
     7
 10
-1467.71158979
 20
-269.638826636
 30
0.0
 11
-1467.0741777188
 21
-265.1475868498
 31
0.0
  0
LINE
  5
5B2
  8
0
  6
CONTINUOUS
 62
     7
 10
-2042.4223761327
 20
-271.3475725924
 30
0.0
 11
-2042.4496452576
 21
-271.3475725924
 31
0.0
  0
LINE
  5
5B3
  8
0
  6
CONTINUOUS
 62
     7
 10
-2042.4930672414
 20
-271.3475725924
 30
0.0
 11
-2042.4496452576
 21
-271.3475725924
 31
0.0
  0
CIRCLE
  5
5B4
  8
0
  6
CONTINUOUS
 62
     7
 10
-1461.4212825066
 20
-521.3475737845
 30
0.0
 40
3.750000000000096
  0
CIRCLE
  5
5B5
  8
0
  6
CONTINUOUS
 62
     7
 10
-1461.4212825066
 20
-496.3475737845
 30
0.0
 40
3.750000000000084
  0
CIRCLE
  5
5B6
  8
0
  6
CONTINUOUS
 62
     7
 10
-2029.4212825066
 20
-521.3475737845
 30
0.0
 40
3.74999999999983
  0
CIRCLE
  5
5B7
  8
0
  6
CONTINUOUS
 62
     7
 10
-2029.4212825066
 20
-496.3475737845
 30
0.0
 40
3.750000000000128
  0
CIRCLE
  5
5B8
  8
0
  6
CONTINUOUS
 62
     7
 10
-2059.4212825066
 20
-559.6475737845
 30
0.0
 40
3.06
  0
CIRCLE
  5
5B9
  8
0
  6
CONTINUOUS
 62
     7
 10
-1431.4212825066
 20
-529.0475737845
 30
0.0
 40
3.060000000000046
  0
CIRCLE
  5
5BA
  8
0
  6
CONTINUOUS
 62
     7
 10
-2059.4212825066
 20
-529.0475737845
 30
0.0
 40
3.059999999999949
  0
CIRCLE
  5
5BB
  8
0
  6
CONTINUOUS
 62
     7
 10
-1431.4212825066
 20
-559.6475737845
 30
0.0
 40
3.060000000000141
  0
ARC
  5
5BC
  8
0
  6
CONTINUOUS
 62
     7
 10
-2029.4212825066
 20
-496.3475737845
 30
0.0
 40
6.699999999999924
 50
0.0
 51
137.16
  0
ARC
  5
5BD
  8
0
  6
CONTINUOUS
 62
     7
 10
-2029.4212825066
 20
-496.3475737845
 30
0.0
 40
7.0
 50
0.0
 51
137.16
  0
LINE
  5
5BE
  8
0
  6
CONTINUOUS
 62
     7
 10
-2034.3340854413
 20
-491.7918867742
 30
0.0
 11
-2064.3343846566
 21
-524.1439207767
 31
0.0
  0
LINE
  5
5BF
  8
0
  6
CONTINUOUS
 62
     7
 10
-2064.5543555981
 20
-523.9399350559
 30
0.0
 11
-2034.5540563828
 21
-491.5879010533
 31
0.0
  0
CIRCLE
  5
5C0
  8
0
  6
CONTINUOUS
 62
     7
 10
-2029.4212825066
 20
-496.3475737845
 30
0.0
 40
3.199999999999989
  0
CIRCLE
  5
5C1
  8
0
  6
CONTINUOUS
 62
     7
 10
-2029.4212825066
 20
-521.3475737845
 30
0.0
 40
3.199999999999932
  0
CIRCLE
  5
5C2
  8
0
  6
CONTINUOUS
 62
     7
 10
-2059.4212825066
 20
-559.6475737845
 30
0.0
 40
2.25
  0
CIRCLE
  5
5C3
  8
0
  6
CONTINUOUS
 62
     7
 10
-2059.4212825066
 20
-529.0475737845
 30
0.0
 40
2.25
  0
ARC
  5
5C4
  8
0
  6
CONTINUOUS
 62
     7
 10
-2062.1712825066
 20
-562.0975737845
 30
0.0
 40
2.949999999999932
 50
180.0
 51
270.0
  0
LINE
  5
5C5
  8
0
  6
CONTINUOUS
 62
     7
 10
-2065.1212851769
 20
-526.1497828488
 30
0.0
 11
-2065.1212851769
 21
-562.0975741496
 31
0.0
  0
ARC
  5
5C6
  8
0
  6
CONTINUOUS
 62
     7
 10
-2062.1712825066
 20
-526.1497826166
 30
0.0
 40
2.949999999999818
 50
137.16
 51
180.0
  0
LINE
  5
5C7
  8
0
  6
CONTINUOUS
 62
     7
 10
-2022.7212826974
 20
-519.8785974954
 30
0.0
 11
-2022.7212826974
 21
-496.3475740825
 31
0.0
  0
ARC
  5
5C8
  8
0
  6
CONTINUOUS
 62
     7
 10
-2029.4212825066
 20
-519.8785988528
 30
0.0
 40
6.700000000000219
 50
317.16
 51
0.0
  0
LINE
  5
5C9
  8
0
  6
CONTINUOUS
 62
     7
 10
-2052.7743320233
 20
-554.9159327367
 30
0.0
 11
-2024.5084683663
 21
-524.4342866664
 31
0.0
  0
ARC
  5
5CA
  8
0
  6
CONTINUOUS
 62
     7
 10
-2050.1712825066
 20
-557.3297671696
 30
0.0
 40
3.549999999999945
 50
137.16
 51
180.0
  0
LINE
  5
5CB
  8
0
  6
CONTINUOUS
 62
     7
 10
-2053.7212710149
 20
-562.0975741496
 30
0.0
 11
-2053.7212710149
 21
-557.329766949
 31
0.0
  0
ARC
  5
5CC
  8
0
  6
CONTINUOUS
 62
     7
 10
-2056.6712825066
 20
-562.0975737845
 30
0.0
 40
2.950000000000273
 50
270.0
 51
0.0
  0
LINE
  5
5CD
  8
0
  6
CONTINUOUS
 62
     7
 10
-2062.1712724931
 20
-565.0475737949
 30
0.0
 11
-2056.6712836987
 21
-565.0475737949
 31
0.0
  0
LINE
  5
5CE
  8
0
  6
CONTINUOUS
 62
     7
 10
-2022.4212925202
 20
-496.3475740825
 30
0.0
 11
-2022.4212925202
 21
-519.8785974954
 31
0.0
  0
ARC
  5
5CF
  8
0
  6
CONTINUOUS
 62
     7
 10
-2029.4212825066
 20
-519.8785988528
 30
0.0
 40
7.000000000000086
 50
317.16
 51
0.0
  0
LINE
  5
5D0
  8
0
  6
CONTINUOUS
 62
     7
 10
-2024.2884974248
 20
-524.6382723873
 30
0.0
 11
-2052.5543610818
 21
-555.1199186904
 31
0.0
  0
LINE
  5
5D1
  8
0
  6
CONTINUOUS
 62
     7
 10
-2065.4212753541
 20
-562.0975741496
 30
0.0
 11
-2065.4212753541
 21
-526.1497828488
 31
0.0
  0
ARC
  5
5D2
  8
0
  6
CONTINUOUS
 62
     7
 10
-2062.1712825066
 20
-526.1497826166
 30
0.0
 40
3.25
 50
137.16
 51
180.0
  0
ARC
  5
5D3
  8
0
  6
CONTINUOUS
 62
     7
 10
-2050.1712825066
 20
-557.3297671696
 30
0.0
 40
3.250000000000077
 50
137.16
 51
180.0
  0
ARC
  5
5D4
  8
0
  6
CONTINUOUS
 62
     7
 10
-2062.1712825066
 20
-562.0975737845
 30
0.0
 40
3.25
 50
180.0
 51
270.0
  0
ARC
  5
5D5
  8
0
  6
CONTINUOUS
 62
     7
 10
-2056.6712825066
 20
-562.0975737845
 30
0.0
 40
3.25
 50
270.0
 51
0.0
  0
LINE
  5
5D6
  8
0
  6
CONTINUOUS
 62
     7
 10
-2053.4212808377
 20
-557.329766949
 30
0.0
 11
-2053.4212808377
 21
-562.0975741496
 31
0.0
  0
LINE
  5
5D7
  8
0
  6
CONTINUOUS
 62
     7
 10
-2056.6712836987
 20
-565.3475742166
 30
0.0
 11
-2062.1712724931
 21
-565.3475742166
 31
0.0
  0
CIRCLE
  5
5D8
  8
0
  6
CONTINUOUS
 62
     7
 10
-1461.4212825066
 20
-496.3475737845
 30
0.0
 40
3.199999999999989
  0
CIRCLE
  5
5D9
  8
0
  6
CONTINUOUS
 62
     7
 10
-1461.4212825066
 20
-521.3475737845
 30
0.0
 40
3.199999999999932
  0
CIRCLE
  5
5DA
  8
0
  6
CONTINUOUS
 62
     7
 10
-1431.4212825066
 20
-559.6475737845
 30
0.0
 40
2.25
  0
CIRCLE
  5
5DB
  8
0
  6
CONTINUOUS
 62
     7
 10
-1431.4212825066
 20
-529.0475737845
 30
0.0
 40
2.25
  0
ARC
  5
5DC
  8
0
  6
CONTINUOUS
 62
     7
 10
-1434.1712825066
 20
-562.0975737845
 30
0.0
 40
2.950000000000045
 50
180.0
 51
270.0
  0
LINE
  5
5DD
  8
0
  6
CONTINUOUS
 62
     7
 10
-1437.1212939984
 20
-557.329766949
 30
0.0
 11
-1437.1212939984
 21
-562.0975741496
 31
0.0
  0
ARC
  5
5DE
  8
0
  6
CONTINUOUS
 62
     7
 10
-1440.6712825066
 20
-557.3297671696
 30
0.0
 40
3.550000000000111
 50
0.0
 51
42.84
  0
LINE
  5
5DF
  8
0
  6
CONTINUOUS
 62
     7
 10
-1466.334096647
 20
-524.4342866664
 30
0.0
 11
-1438.06823299
 21
-554.9159327367
 31
0.0
  0
ARC
  5
5E0
  8
0
  6
CONTINUOUS
 62
     7
 10
-1461.4212825066
 20
-519.8785988528
 30
0.0
 40
6.700000000000052
 50
180.0
 51
222.84
  0
LINE
  5
5E1
  8
0
  6
CONTINUOUS
 62
     7
 10
-1468.1212823159
 20
-496.3475740825
 30
0.0
 11
-1468.1212823159
 21
-519.8785974954
 31
0.0
  0
ARC
  5
5E2
  8
0
  6
CONTINUOUS
 62
     7
 10
-1461.4212825066
 20
-496.3475737845
 30
0.0
 40
6.699999999999886
 50
42.84
 51
180.0
  0
LINE
  5
5E3
  8
0
  6
CONTINUOUS
 62
     7
 10
-1426.5081803567
 20
-524.1439207767
 30
0.0
 11
-1456.508479572
 21
-491.7918867742
 31
0.0
  0
ARC
  5
5E4
  8
0
  6
CONTINUOUS
 62
     7
 10
-1428.6712825066
 20
-526.1497826166
 30
0.0
 40
2.950000000000056
 50
0.0
 51
42.84
  0
LINE
  5
5E5
  8
0
  6
CONTINUOUS
 62
     7
 10
-1425.7212798363
 20
-562.0975741496
 30
0.0
 11
-1425.7212798363
 21
-526.1497828488
 31
0.0
  0
ARC
  5
5E6
  8
0
  6
CONTINUOUS
 62
     7
 10
-1428.6712825066
 20
-562.0975737845
 30
0.0
 40
2.950000000000045
 50
270.0
 51
0.0
  0
LINE
  5
5E7
  8
0
  6
CONTINUOUS
 62
     7
 10
-1434.1712813145
 20
-565.0475737949
 30
0.0
 11
-1428.6712925202
 21
-565.0475737949
 31
0.0
  0
LINE
  5
5E8
  8
0
  6
CONTINUOUS
 62
     7
 10
-1456.2885086304
 20
-491.5879010533
 30
0.0
 11
-1426.2882094151
 21
-523.9399350559
 31
0.0
  0
ARC
  5
5E9
  8
0
  6
CONTINUOUS
 62
     7
 10
-1461.4212825066
 20
-496.3475737845
 30
0.0
 40
7.0
 50
42.84
 51
180.0
  0
LINE
  5
5EA
  8
0
  6
CONTINUOUS
 62
     7
 10
-1468.4212724931
 20
-519.8785974954
 30
0.0
 11
-1468.4212724931
 21
-496.3475740825
 31
0.0
  0
LINE
  5
5EB
  8
0
  6
CONTINUOUS
 62
     7
 10
-1425.4212896592
 20
-526.1497828488
 30
0.0
 11
-1425.4212896592
 21
-562.0975741496
 31
0.0
  0
ARC
  5
5EC
  8
0
  6
CONTINUOUS
 62
     7
 10
-1428.6712825066
 20
-526.1497826166
 30
0.0
 40
3.250000000000227
 50
0.0
 51
42.84
  0
ARC
  5
5ED
  8
0
  6
CONTINUOUS
 62
     7
 10
-1461.4212825066
 20
-519.8785988528
 30
0.0
 40
6.99999999999992
 50
180.0
 51
222.84
  0
LINE
  5
5EE
  8
0
  6
CONTINUOUS
 62
     7
 10
-1438.2882039315
 20
-555.1199186904
 30
0.0
 11
-1466.5540675885
 21
-524.6382723873
 31
0.0
  0
ARC
  5
5EF
  8
0
  6
CONTINUOUS
 62
     7
 10
-1428.6712825066
 20
-562.0975737845
 30
0.0
 40
3.250000000000227
 50
270.0
 51
0.0
  0
ARC
  5
5F0
  8
0
  6
CONTINUOUS
 62
     7
 10
-1440.6712825066
 20
-557.3297671696
 30
0.0
 40
3.250000000000077
 50
0.0
 51
42.84
  0
LINE
  5
5F1
  8
0
  6
CONTINUOUS
 62
     7
 10
-1437.4212841756
 20
-562.0975741496
 30
0.0
 11
-1437.4212841756
 21
-557.329766949
 31
0.0
  0
ARC
  5
5F2
  8
0
  6
CONTINUOUS
 62
     7
 10
-1434.1712825066
 20
-562.0975737845
 30
0.0
 40
3.25
 50
180.0
 51
270.0
  0
LINE
  5
5F3
  8
0
  6
CONTINUOUS
 62
     7
 10
-1428.6712925202
 20
-565.3475742166
 30
0.0
 11
-1434.1712813145
 21
-565.3475742166
 31
0.0
  0
POLYLINE
  5
5F4
  8
0
  6
CONTINUOUS
 62
     7
 66
     1
 10
0.0
 20
0.0
 30
0.0
  0
VERTEX
  5
B46
  8
0
  6
CONTINUOUS
 62
     7
 10
-1505.1731537348
 20
-250.1475713526
 30
0.0
  0
VERTEX
  5
B47
  8
0
  6
CONTINUOUS
 62
     7
 10
-1505.1717977292
 20
-248.3850620066
 30
0.0
  0
VERTEX
  5
B48
  8
0
  6
CONTINUOUS
 62
     7
 10
-1505.1703821189
 20
-247.0122776305
 30
0.0
  0
SEQEND
  5
B49
  8
0
  6
CONTINUOUS
 62
     7
  0
LINE
  5
5F5
  8
0
  6
CONTINUOUS
 62
     7
 10
-1477.9712776906
 20
-246.8009195601
 30
0.0
 11
-1477.9712776906
 21
-250.1475713526
 31
0.0
  0
LINE
  5
5F6
  8
0
  6
CONTINUOUS
 62
     7
 10
-1477.9712776906
 20
-246.8009195601
 30
0.0
 11
-1478.0534426934
 21
-246.9017408167
 31
0.0
  0
LINE
  5
5F7
  8
0
  6
CONTINUOUS
 62
     7
 10
-1507.9712788827
 20
-250.1475713526
 30
0.0
 11
-1507.9712788827
 21
-246.8009195601
 31
0.0
  0
LINE
  5
5F8
  8
0
  6
CONTINUOUS
 62
     7
 10
-1507.8890840775
 20
-246.901770619
 30
0.0
 11
-1507.9712788827
 21
-246.8009195601
 31
0.0
  0
ARC
  5
5F9
  8
0
  6
CONTINUOUS
 62
     7
 10
-1503.2963277432
 20
-246.8108385051
 30
0.0
 40
1.884849469929745
 50
179.2291867172
 51
186.1350768765
  0
POLYLINE
  5
5FA
  8
0
  6
CONTINUOUS
 62
     7
 66
     1
 10
0.0
 20
0.0
 30
0.0
  0
VERTEX
  5
B4A
  8
0
  6
CONTINUOUS
 62
     7
 10
-1478.2344321973
 20
-246.5080819403
 30
0.0
  0
VERTEX
  5
B4B
  8
0
  6
CONTINUOUS
 62
     7
 10
-1478.2725195653
 20
-246.5941808497
 30
0.0
  0
VERTEX
  5
B4C
  8
0
  6
CONTINUOUS
 62
     7
 10
-1478.4286539323
 20
-246.6890714442
 30
0.0
  0
VERTEX
  5
B4D
  8
0
  6
CONTINUOUS
 62
     7
 10
-1478.7886361844
 20
-246.7795214926
 30
0.0
  0
VERTEX
  5
B4E
  8
0
  6
CONTINUOUS
 62
     7
 10
-1479.2839209801
 20
-246.8288145338
 30
0.0
  0
VERTEX
  5
B4F
  8
0
  6
CONTINUOUS
 62
     7
 10
-1479.9718181855
 20
-246.834745196
 30
0.0
  0
VERTEX
  5
B50
  8
0
  6
CONTINUOUS
 62
     7
 10
-1480.7615797288
 20
-246.7854819571
 30
0.0
  0
SEQEND
  5
B51
  8
0
  6
CONTINUOUS
 62
     7
  0
POLYLINE
  5
5FB
  8
0
  6
CONTINUOUS
 62
     7
 66
     1
 10
0.0
 20
0.0
 30
0.0
  0
VERTEX
  5
B52
  8
0
  6
CONTINUOUS
 62
     7
 10
-1505.1810066468
 20
-246.7854819571
 30
0.0
  0
VERTEX
  5
B53
  8
0
  6
CONTINUOUS
 62
     7
 10
-1506.1732600695
 20
-246.8385300909
 30
0.0
  0
VERTEX
  5
B54
  8
0
  6
CONTINUOUS
 62
     7
 10
-1506.9552283055
 20
-246.8057773386
 30
0.0
  0
VERTEX
  5
B55
  8
0
  6
CONTINUOUS
 62
     7
 10
-1507.4140052563
 20
-246.7230162894
 30
0.0
  0
VERTEX
  5
B56
  8
0
  6
CONTINUOUS
 62
     7
 10
-1507.6529006726
 20
-246.6107211386
 30
0.0
  0
VERTEX
  5
B57
  8
0
  6
CONTINUOUS
 62
     7
 10
-1507.708124376
 20
-246.5080819403
 30
0.0
  0
SEQEND
  5
B58
  8
0
  6
CONTINUOUS
 62
     7
  0
ARC
  5
5FC
  8
0
  6
CONTINUOUS
 62
     7
 10
-1507.6744471966
 20
-246.8030043774
 30
0.0
 40
0.2968390074420291
 50
96.5143857507
 51
179.597585848
  0
ARC
  5
5FD
  8
0
  6
CONTINUOUS
 62
     7
 10
-1478.2681093767
 20
-246.8030043774
 30
0.0
 40
0.2968390074419585
 50
0.402414152
 51
83.4856142494
  0
LINE
  5
5FE
  8
0
  6
CONTINUOUS
 62
     7
 10
-1507.9712788827
 20
-246.8009195601
 30
0.0
 11
-1507.9712788827
 21
-245.353629378
 31
0.0
  0
LINE
  5
5FF
  8
0
  6
CONTINUOUS
 62
     7
 10
-1477.9712776906
 20
-245.353629378
 30
0.0
 11
-1477.9712776906
 21
-246.8009195601
 31
0.0
  0
LINE
  5
600
  8
0
  6
CONTINUOUS
 62
     7
 10
-1503.8644145495
 20
-244.2819974696
 30
0.0
 11
-1482.0781569249
 21
-244.2819974696
 31
0.0
  0
LINE
  5
601
  8
0
  6
CONTINUOUS
 62
     7
 10
-1482.077054239
 20
-244.2821762835
 30
0.0
 11
-1480.7293634183
 21
-244.2821762835
 31
0.0
  0
LINE
  5
602
  8
0
  6
CONTINUOUS
 62
     7
 10
-1505.2132080561
 20
-244.2821762835
 30
0.0
 11
-1503.8655023343
 21
-244.2821762835
 31
0.0
  0
LINE
  5
603
  8
0
  6
CONTINUOUS
 62
     7
 10
-2040.9712712533
 20
-253.1475625311
 30
0.0
 11
-2040.9712712533
 21
-251.6980967795
 31
0.0
  0
ARC
  5
604
  8
0
  6
CONTINUOUS
 62
     7
 10
-2040.4712822871
 20
-254.1475742102
 30
0.0
 40
2.500000000000046
 50
101.5369590328
 51
180.0000000001
  0
LINE
  5
605
  8
0
  6
CONTINUOUS
 62
     7
 10
-1461.3038818604
 20
-270.347585467
 30
0.0
 11
-1454.1712920434
 21
-270.347585467
 31
0.0
  0
LINE
  5
606
  8
0
  6
CONTINUOUS
 62
     7
 10
-1464.1712825066
 20
-270.347585467
 30
0.0
 11
-1461.3038818604
 21
-270.347585467
 31
0.0
  0
ARC
  5
607
  8
0
  6
CONTINUOUS
 62
     7
 10
-2027.6323548384
 20
-267.3475737846
 30
0.0
 40
4.000000000000114
 50
269.9999999999
 51
7.9999988096
  0
LINE
  5
608
  8
0
  6
CONTINUOUS
 62
     7
 10
-2036.6712729699
 20
-269.3475685393
 30
0.0
 11
-2036.6712729699
 21
-271.3475725924
 31
0.0
  0
LINE
  5
609
  8
0
  6
CONTINUOUS
 62
     7
 10
-2027.632347799
 20
-269.3475685393
 30
0.0
 11
-2036.6712729699
 21
-269.3475685393
 31
0.0
  0
ARC
  5
60A
  8
0
  6
CONTINUOUS
 62
     7
 10
-2027.6323548384
 20
-267.3475737846
 30
0.0
 40
2.000000082123677
 50
269.9999999998
 51
7.9999988096
  0
LINE
  5
60B
  8
0
  6
CONTINUOUS
 62
     7
 10
-2025.9219031102
 20
-265.1475868498
 30
0.0
 11
-2025.6518046624
 21
-267.0692405974
 31
0.0
  0
LINE
  5
60C
  8
0
  6
CONTINUOUS
 62
     7
 10
-2023.6712913281
 20
-266.7908869063
 30
0.0
 11
-2023.9022295243
 21
-265.1475868498
 31
0.0
  0
LINE
  5
60D
  8
0
  6
CONTINUOUS
 62
     7
 10
-2031.2138120896
 20
-269.1275677954
 30
0.0
 11
-2034.1712753541
 21
-269.1275677954
 31
0.0
  0
LINE
  5
60E
  8
0
  6
CONTINUOUS
 62
     7
 10
-2029.1712801224
 20
-269.1275677954
 30
0.0
 11
-2031.2138120896
 21
-269.1275677954
 31
0.0
  0
LINE
  5
60F
  8
0
  6
CONTINUOUS
 62
     7
 10
-2031.2870065934
 20
-268.7275610243
 30
0.0
 11
-2029.5712868935
 21
-268.7275610243
 31
0.0
  0
LINE
  5
610
  8
0
  6
CONTINUOUS
 62
     7
 10
-2033.771268583
 20
-268.7275610243
 30
0.0
 11
-2031.2870065934
 21
-268.7275610243
 31
0.0
  0
ENDSEC
  0
EOF
