  0
SECTION
  2
HEADER
  9
$ACADVER
  1
AC1009
  9
$DWGCODEPAGE
  3
ansi_1252
  9
$INSBASE
 10
0.0
 20
0.0
 30
0.0
  9
$EXTMIN
 10
0.0
 20
0.0
 30
0.0
  9
$EXTMAX
 10
297.0
 20
420.0
 30
0.0
  9
$LIMMIN
 10
0.0
 20
0.0
  9
$LIMMAX
 10
297.0
 20
420.0
  9
$ORTHOMODE
 70
     0
  9
$REGENMODE
 70
     1
  9
$FILLMODE
 70
     1
  9
$QTEXTMODE
 70
     0
  9
$MIRRTEXT
 70
     1
  9
$DRAGMODE
 70
     2
  9
$LTSCALE
 40
1.0
  9
$OSMODE
 70
    37
  9
$ATTMODE
 70
     1
  9
$TEXTSIZE
 40
4.2333333333
  9
$TRACEWID
 40
1.0
  9
$TEXTSTYLE
  7
STANDARD
  9
$CLAYER
  8
0
  9
$CELTYPE
  6
BYLAYER
  9
$CECOLOR
 62
   256
  9
$DIMSCALE
 40
1.0
  9
$DIMASZ
 40
3.5
  9
$DIMEXO
 40
1.0
  9
$DIMDLI
 40
3.75
  9
$DIMRND
 40
0.0
  9
$DIMDLE
 40
0.0
  9
$DIMEXE
 40
1.0
  9
$DIMTP
 40
0.0
  9
$DIMTM
 40
0.0
  9
$DIMTXT
 40
3.5277777778
  9
$DIMCEN
 40
2.5
  9
$DIMTSZ
 40
0.0
  9
$DIMTOL
 70
     0
  9
$DIMLIM
 70
     0
  9
$DIMTIH
 70
     1
  9
$DIMTOH
 70
     1
  9
$DIMSE1
 70
     0
  9
$DIMSE2
 70
     0
  9
$DIMTAD
 70
     1
  9
$DIMZIN
 70
     0
  9
$DIMBLK
  1

  9
$DIMASO
 70
     1
  9
$DIMSHO
 70
     1
  9
$DIMPOST
  1

  9
$DIMAPOST
  1

  9
$DIMALT
 70
     0
  9
$DIMALTD
 70
     3
  9
$DIMALTF
 40
0.0393700787
  9
$DIMLFAC
 40
1.0
  9
$DIMTOFL
 70
     1
  9
$DIMTVP
 40
0.0
  9
$DIMTIX
 70
     0
  9
$DIMSOXD
 70
     0
  9
$DIMSAH
 70
     0
  9
$DIMBLK1
  1

  9
$DIMBLK2
  1

  9
$DIMSTYLE
  2
ISO-25
  9
$DIMCLRD
 70
     0
  9
$DIMCLRE
 70
     0
  9
$DIMCLRT
 70
     0
  9
$DIMTFAC
 40
1.0
  9
$DIMGAP
 40
1.524
  9
$LUNITS
 70
     2
  9
$LUPREC
 70
     2
  9
$SKETCHINC
 40
1.0
  9
$FILLETRAD
 40
10.0
  9
$AUNITS
 70
     0
  9
$AUPREC
 70
     2
  9
$MENU
  1
.
  9
$ELEVATION
 40
0.0
  9
$PELEVATION
 40
0.0
  9
$THICKNESS
 40
0.0
  9
$LIMCHECK
 70
     0
  9
$CHAMFERA
 40
10.0
  9
$CHAMFERB
 40
10.0
  9
$SKPOLY
 70
     0
  9
$TDCREATE
 40
2455889.609771597
  9
$TDUPDATE
 40
2455889.609771609
  9
$TDINDWG
 40
0.0000000116
  9
$TDUSRTIMER
 40
0.0000000116
  9
$USRTIMER
 70
     1
  9
$ANGBASE
 50
0.0
  9
$ANGDIR
 70
     0
  9
$PDMODE
 70
     0
  9
$PDSIZE
 40
-1.0
  9
$PLINEWID
 40
0.0
  9
$COORDS
 70
     1
  9
$SPLFRAME
 70
     0
  9
$SPLINETYPE
 70
     6
  9
$SPLINESEGS
 70
     8
  9
$ATTDIA
 70
     0
  9
$ATTREQ
 70
     1
  9
$HANDLING
 70
     1
  9
$HANDSEED
  5
93A
  9
$SURFTAB1
 70
     6
  9
$SURFTAB2
 70
     6
  9
$SURFTYPE
 70
     6
  9
$SURFU
 70
     6
  9
$SURFV
 70
     6
  9
$UCSNAME
  2

  9
$UCSORG
 10
0.0
 20
0.0
 30
0.0
  9
$UCSXDIR
 10
1.0
 20
0.0
 30
0.0
  9
$UCSYDIR
 10
0.0
 20
1.0
 30
0.0
  9
$PUCSNAME
  2

  9
$PUCSORG
 10
0.0
 20
0.0
 30
0.0
  9
$PUCSXDIR
 10
1.0
 20
0.0
 30
0.0
  9
$PUCSYDIR
 10
0.0
 20
1.0
 30
0.0
  9
$USERI1
 70
     0
  9
$USERI2
 70
     0
  9
$USERI3
 70
     0
  9
$USERI4
 70
     0
  9
$USERI5
 70
     0
  9
$USERR1
 40
0.0
  9
$USERR2
 40
0.0
  9
$USERR3
 40
0.0
  9
$USERR4
 40
0.0
  9
$USERR5
 40
0.0
  9
$WORLDVIEW
 70
     1
  9
$SHADEDGE
 70
     3
  9
$SHADEDIF
 70
    70
  9
$TILEMODE
 70
     1
  9
$MAXACTVP
 70
    64
  9
$PLIMCHECK
 70
     0
  9
$PEXTMIN
 10
1.0000000000E+20
 20
1.0000000000E+20
 30
1.0000000000E+20
  9
$PEXTMAX
 10
-1.0000000000E+20
 20
-1.0000000000E+20
 30
-1.0000000000E+20
  9
$PLIMMIN
 10
0.0
 20
0.0
  9
$PLIMMAX
 10
420.0
 20
297.0
  9
$UNITMODE
 70
     0
  9
$VISRETAIN
 70
     1
  9
$PLINEGEN
 70
     0
  9
$PSLTSCALE
 70
     1
  0
ENDSEC
  0
SECTION
  2
TABLES
  0
TABLE
  2
VPORT
 70
     1
  0
VPORT
  2
*ACTIVE
 70
     0
 10
0.0
 20
0.0
 11
1.0
 21
1.0
 12
148.5
 22
210.0
 13
0.0
 23
0.0
 14
10.0
 24
10.0
 15
10.0
 25
10.0
 16
0.0
 26
0.0
 36
1.0
 17
0.0
 27
0.0
 37
0.0
 40
420.0
 41
0.7071428571
 42
50.0
 43
0.0
 44
0.0
 50
0.0
 51
0.0
 71
     0
 72
  2000
 73
     1
 74
     3
 75
     0
 76
     0
 77
     0
 78
     0
  0
ENDTAB
  0
TABLE
  2
LTYPE
 70
     6
  0
LTYPE
  2
CONTINUOUS
 70
     0
  3
Solid line
 72
    65
 73
     0
 40
0.0
  0
LTYPE
  2
HIDDEN
 70
     0
  3
Hidden __ __ __ __ __ __ __ __ __ __ __ __ __ __
 72
    65
 73
     2
 40
1.905
 49
1.27
 49
-0.635
  0
LTYPE
  2
PHANTOM
 70
     0
  3
Phantom ______  __  __  ______  __  __  ______
 72
    65
 73
     6
 40
12.7
 49
6.35
 49
-1.27
 49
1.27
 49
-1.27
 49
1.27
 49
-1.27
  0
LTYPE
  2
CENTER
 70
     0
  3
Center ____ _ ____ _ ____ _ ____ _ ____ _ ____
 72
    65
 73
     4
 40
10.16
 49
6.35
 49
-1.27
 49
1.27
 49
-1.27
  0
LTYPE
  2
CENTERX2
 70
     0
  3
Center (2x) ________  __  ________  __  _____
 72
    65
 73
     4
 40
20.32
 49
12.7
 49
-2.54
 49
2.54
 49
-2.54
  0
LTYPE
  2
DOT2
 70
     0
  3
Dot (.5x) ........................................
 72
    65
 73
     2
 40
0.635
 49
0.0
 49
-0.635
  0
ENDTAB
  0
TABLE
  2
LAYER
 70
     8
  0
LAYER
  2
0
 70
     0
 62
     7
  6
CONTINUOUS
  0
LAYER
  2
SLD-0
 70
     0
 62
     7
  6
CONTINUOUS
  0
LAYER
  2
AM_BOR
 70
     0
 62
     7
  6
CONTINUOUS
  0
LAYER
  2
BIEGLINIE__ZU_
 70
     0
 62
     8
  6
CONTINUOUS
  0
LAYER
  2
BIEGELINIE__WEG_
 70
     0
 62
     8
  6
HIDDEN
  0
LAYER
  2
BIEGELINIE__ZU_
 70
     0
 62
     8
  6
CONTINUOUS
  0
LAYER
  2
LAYER0
 70
     0
 62
     7
  6
CONTINUOUS
  0
LAYER
  2
CK_LEVEL_1
 70
     0
 62
     7
  6
CONTINUOUS
  0
ENDTAB
  0
TABLE
  2
STYLE
 70
     1
  0
STYLE
  2
STANDARD
 70
     0
 40
0.0
 41
1.0
 50
0.0
 71
     0
 42
2.5
  3
txt
  4

  0
ENDTAB
  0
TABLE
  2
VIEW
 70
     0
  0
ENDTAB
  0
TABLE
  2
UCS
 70
     0
  0
ENDTAB
  0
TABLE
  2
APPID
 70
     1
  0
APPID
  2
ACAD
 70
     0
  0
ENDTAB
  0
TABLE
  2
DIMSTYLE
 70
     1
  0
DIMSTYLE
  2
ISO-25
 70
     0
  3

  4

  5

  6

  7

 40
1.0
 41
2.5
 42
0.625
 43
3.75
 44
1.25
 45
0.0
 46
0.0
 47
0.0
 48
0.0
140
2.5
141
2.5
142
0.0
143
0.0393700787
144
1.0
145
0.0
146
1.0
147
0.625
 71
     0
 72
     0
 73
     0
 74
     0
 75
     0
 76
     0
 77
     1
 78
     8
170
     0
171
     3
172
     1
173
     0
174
     0
175
     0
176
     0
177
     0
178
     0
  0
ENDTAB
  0
ENDSEC
  0
SECTION
  2
BLOCKS
  0
BLOCK
  8
0
  2
$MODEL_SPACE
 70
     0
 10
0.0
 20
0.0
 30
0.0
  3
$MODEL_SPACE
  1

  0
ENDBLK
  5
21
  8
0
  0
BLOCK
 67
     1
  8
0
  2
$PAPER_SPACE
 70
     0
 10
0.0
 20
0.0
 30
0.0
  3
$PAPER_SPACE
  1

  0
ENDBLK
  5
1D
 67
     1
  8
0
  0
BLOCK
  8
0
  2
ERDUNG2
 70
     0
 10
0.0
 20
0.0
 30
0.0
  3
ERDUNG2
  1

  0
CIRCLE
  5
4E
  8
CK_LEVEL_1
  6
CONTINUOUS
 62
     7
 10
7.882894401
 20
8.75
 30
0.0
 40
9.354800019675764
  0
LINE
  5
4F
  8
CK_LEVEL_1
  6
CONTINUOUS
 62
     7
 10
8.7487451733
 20
3.8098753807
 30
0.0
 11
9.700327903
 21
3.8098753807
 31
0.0
  0
LINE
  5
50
  8
CK_LEVEL_1
  6
CONTINUOUS
 62
     7
 10
8.7487451733
 20
3.8098753807
 30
0.0
 11
6.6709551936
 21
3.8098753807
 31
0.0
  0
LINE
  5
51
  8
CK_LEVEL_1
  6
CONTINUOUS
 62
     7
 10
7.882894401
 20
8.75
 30
0.0
 11
12.815547
 21
8.75
 31
0.0
  0
LINE
  5
52
  8
CK_LEVEL_1
  6
CONTINUOUS
 62
     7
 10
11.24812514
 20
6.3492067038
 30
0.0
 11
4.4479159892
 21
6.3492067038
 31
0.0
  0
LINE
  5
53
  8
CK_LEVEL_1
  6
CONTINUOUS
 62
     7
 10
7.882894401
 20
8.75
 30
0.0
 11
2.6893228315
 21
8.75
 31
0.0
  0
LINE
  5
54
  8
CK_LEVEL_1
  6
CONTINUOUS
 62
     7
 10
7.882894401
 20
8.75
 30
0.0
 11
7.882894401
 21
15.2853511284
 31
0.0
  0
ENDBLK
  5
4D
  8
0
  0
ENDSEC
  0
SECTION
  2
ENTITIES
  0
LINE
  5
55
  8
0
  6
CONTINUOUS
 62
     7
 10
-1000.1308634371
 20
359.0448978113
 30
0.0
 11
-1000.1308634371
 21
59.0448858903
 31
0.0
  0
LINE
  5
56
  8
0
  6
CONTINUOUS
 62
     7
 10
-1010.1308539004
 20
59.0448858903
 30
0.0
 11
-1010.1308539004
 21
359.0448978113
 31
0.0
  0
LINE
  5
57
  8
0
  6
CONTINUOUS
 62
     7
 10
-1438.1308569998
 20
59.0448858903
 30
0.0
 11
-1438.1308569998
 21
359.0448978113
 31
0.0
  0
LINE
  5
58
  8
0
  6
CONTINUOUS
 62
     7
 10
-1428.1308665365
 20
359.0448978113
 30
0.0
 11
-1428.1308665365
 21
59.0448858903
 31
0.0
  0
LINE
  5
59
  8
0
  6
CONTINUOUS
 62
     7
 10
-1002.3808642716
 20
55.0448926853
 30
0.0
 11
-1007.8808530659
 21
55.0448926853
 31
0.0
  0
LINE
  5
5A
  8
0
  6
CONTINUOUS
 62
     7
 10
-1007.8808530659
 20
55.3448977636
 30
0.0
 11
-1002.3808642716
 21
55.3448977636
 31
0.0
  0
LINE
  5
5B
  8
0
  6
CONTINUOUS
 62
     7
 10
-999.4308664889
 20
55.0448926853
 30
0.0
 11
-1002.3808642716
 21
55.0448926853
 31
0.0
  0
LINE
  5
5C
  8
0
  6
CONTINUOUS
 62
     7
 10
-1002.3808642716
 20
55.3448977636
 30
0.0
 11
-999.1308614105
 21
55.3448977636
 31
0.0
  0
LINE
  5
5D
  8
0
  6
CONTINUOUS
 62
     7
 10
-999.4308664889
 20
55.0448926853
 30
0.0
 11
-999.1308614105
 21
55.3448977636
 31
0.0
  0
LINE
  5
5E
  8
0
  6
CONTINUOUS
 62
     7
 10
-1002.3808642716
 20
58.7448957132
 30
0.0
 11
-1007.8808530659
 21
58.7448957132
 31
0.0
  0
LINE
  5
5F
  8
0
  6
CONTINUOUS
 62
     7
 10
-999.1308614105
 20
58.7448957132
 30
0.0
 11
-1002.3808642716
 21
58.7448957132
 31
0.0
  0
LINE
  5
60
  8
0
  6
CONTINUOUS
 62
     7
 10
-999.1308614105
 20
58.7448957132
 30
0.0
 11
-999.1308614105
 21
55.3448977636
 31
0.0
  0
LINE
  5
61
  8
0
  6
CONTINUOUS
 62
     7
 10
-1007.8808530659
 20
59.0448858903
 30
0.0
 11
-1002.3808642716
 21
59.0448858903
 31
0.0
  0
LINE
  5
62
  8
0
  6
CONTINUOUS
 62
     7
 10
-1002.3808642716
 20
59.0448858903
 30
0.0
 11
-999.4308664889
 21
59.0448858903
 31
0.0
  0
LINE
  5
63
  8
0
  6
CONTINUOUS
 62
     7
 10
-999.4308664889
 20
59.0448858903
 30
0.0
 11
-999.1308614105
 21
58.7448957132
 31
0.0
  0
LINE
  5
64
  8
0
  6
CONTINUOUS
 62
     7
 10
-1007.8808530659
 20
58.7448957132
 30
0.0
 11
-1011.1308559269
 21
58.7448957132
 31
0.0
  0
LINE
  5
65
  8
0
  6
CONTINUOUS
 62
     7
 10
-1011.1308559269
 20
55.3448977636
 30
0.0
 11
-1007.8808530659
 21
55.3448977636
 31
0.0
  0
LINE
  5
66
  8
0
  6
CONTINUOUS
 62
     7
 10
-1011.1308559269
 20
55.3448977636
 30
0.0
 11
-1011.1308559269
 21
58.7448957132
 31
0.0
  0
LINE
  5
67
  8
0
  6
CONTINUOUS
 62
     7
 10
-1010.8308657498
 20
59.0448858903
 30
0.0
 11
-1007.8808530659
 21
59.0448858903
 31
0.0
  0
LINE
  5
68
  8
0
  6
CONTINUOUS
 62
     7
 10
-1010.8308657498
 20
59.0448858903
 30
0.0
 11
-1011.1308559269
 21
58.7448957132
 31
0.0
  0
LINE
  5
69
  8
0
  6
CONTINUOUS
 62
     7
 10
-1007.8808530659
 20
55.0448926853
 30
0.0
 11
-1010.8308657498
 21
55.0448926853
 31
0.0
  0
LINE
  5
6A
  8
0
  6
CONTINUOUS
 62
     7
 10
-1011.1308559269
 20
55.3448977636
 30
0.0
 11
-1010.8308657498
 21
55.0448926853
 31
0.0
  0
LINE
  5
6B
  8
0
  6
CONTINUOUS
 62
     7
 10
-1011.1308559269
 20
58.7448957132
 30
0.0
 11
-1011.9977756828
 21
58.7448957132
 31
0.0
  0
LINE
  5
6C
  8
0
  6
CONTINUOUS
 62
     7
 10
-1011.9977756828
 20
55.3448977636
 30
0.0
 11
-1011.1308559269
 21
55.3448977636
 31
0.0
  0
LINE
  5
6D
  8
0
  6
CONTINUOUS
 62
     7
 10
-1010.8308657498
 20
55.0448926853
 30
0.0
 11
-1011.7778047413
 21
55.0448926853
 31
0.0
  0
LINE
  5
6E
  8
0
  6
CONTINUOUS
 62
     7
 10
-1011.7778047413
 20
59.0448858903
 30
0.0
 11
-1010.8308657498
 21
59.0448858903
 31
0.0
  0
LINE
  5
6F
  8
0
  6
CONTINUOUS
 62
     7
 10
-1011.9977756828
 20
58.7448957132
 30
0.0
 11
-1040.263654241
 21
58.7448957132
 31
0.0
  0
LINE
  5
70
  8
0
  6
CONTINUOUS
 62
     7
 10
-1040.263654241
 20
55.3448977636
 30
0.0
 11
-1011.9977756828
 21
55.3448977636
 31
0.0
  0
LINE
  5
71
  8
0
  6
CONTINUOUS
 62
     7
 10
-1040.0436683983
 20
59.0448858903
 30
0.0
 11
-1011.7778047413
 21
59.0448858903
 31
0.0
  0
LINE
  5
72
  8
0
  6
CONTINUOUS
 62
     7
 10
-1011.7778047413
 20
55.0448926853
 30
0.0
 11
-1040.0436683983
 21
55.0448926853
 31
0.0
  0
LINE
  5
73
  8
0
  6
CONTINUOUS
 62
     7
 10
-1040.263654241
 20
58.7448957132
 30
0.0
 11
-1042.1308591456
 21
58.7448957132
 31
0.0
  0
LINE
  5
74
  8
0
  6
CONTINUOUS
 62
     7
 10
-1042.1308591456
 20
55.3448977636
 30
0.0
 11
-1040.263654241
 21
55.3448977636
 31
0.0
  0
LINE
  5
75
  8
0
  6
CONTINUOUS
 62
     7
 10
-1042.1308591456
 20
55.3448977636
 30
0.0
 11
-1042.1308591456
 21
58.7448957132
 31
0.0
  0
LINE
  5
76
  8
0
  6
CONTINUOUS
 62
     7
 10
-1042.1308591456
 20
55.3448977636
 30
0.0
 11
-1041.8308540672
 21
55.0448926853
 31
0.0
  0
LINE
  5
77
  8
0
  6
CONTINUOUS
 62
     7
 10
-1040.0436683983
 20
55.0448926853
 30
0.0
 11
-1041.8308540672
 21
55.0448926853
 31
0.0
  0
LINE
  5
78
  8
0
  6
CONTINUOUS
 62
     7
 10
-1042.1308591456
 20
58.7448957132
 30
0.0
 11
-1041.8308540672
 21
59.0448858903
 31
0.0
  0
LINE
  5
79
  8
0
  6
CONTINUOUS
 62
     7
 10
-1002.3808642716
 20
362.744885938
 30
0.0
 11
-1007.8808530659
 21
362.744885938
 31
0.0
  0
LINE
  5
7A
  8
0
  6
CONTINUOUS
 62
     7
 10
-1007.8808530659
 20
359.3448879884
 30
0.0
 11
-1002.3808642716
 21
359.3448879884
 31
0.0
  0
LINE
  5
7B
  8
0
  6
CONTINUOUS
 62
     7
 10
-1002.3808642716
 20
359.0448978113
 30
0.0
 11
-1007.8808530659
 21
359.0448978113
 31
0.0
  0
LINE
  5
7C
  8
0
  6
CONTINUOUS
 62
     7
 10
-999.1308614105
 20
362.744885938
 30
0.0
 11
-1002.3808642716
 21
362.744885938
 31
0.0
  0
LINE
  5
7D
  8
0
  6
CONTINUOUS
 62
     7
 10
-999.1308614105
 20
362.744885938
 30
0.0
 11
-999.1308614105
 21
359.3448879884
 31
0.0
  0
LINE
  5
7E
  8
0
  6
CONTINUOUS
 62
     7
 10
-1002.3808642716
 20
359.3448879884
 30
0.0
 11
-999.1308614105
 21
359.3448879884
 31
0.0
  0
LINE
  5
7F
  8
0
  6
CONTINUOUS
 62
     7
 10
-999.4308664889
 20
359.0448978113
 30
0.0
 11
-1002.3808642716
 21
359.0448978113
 31
0.0
  0
LINE
  5
80
  8
0
  6
CONTINUOUS
 62
     7
 10
-999.4308664889
 20
359.0448978113
 30
0.0
 11
-999.1308614105
 21
359.3448879884
 31
0.0
  0
LINE
  5
81
  8
0
  6
CONTINUOUS
 62
     7
 10
-1007.8808530659
 20
363.0448910163
 30
0.0
 11
-1002.3808642716
 21
363.0448910163
 31
0.0
  0
LINE
  5
82
  8
0
  6
CONTINUOUS
 62
     7
 10
-1002.3808642716
 20
363.0448910163
 30
0.0
 11
-999.4308664889
 21
363.0448910163
 31
0.0
  0
LINE
  5
83
  8
0
  6
CONTINUOUS
 62
     7
 10
-999.4308664889
 20
363.0448910163
 30
0.0
 11
-999.1308614105
 21
362.744885938
 31
0.0
  0
LINE
  5
84
  8
0
  6
CONTINUOUS
 62
     7
 10
-1007.8808530659
 20
362.744885938
 30
0.0
 11
-1011.1308559269
 21
362.744885938
 31
0.0
  0
LINE
  5
85
  8
0
  6
CONTINUOUS
 62
     7
 10
-1011.1308559269
 20
359.3448879884
 30
0.0
 11
-1007.8808530659
 21
359.3448879884
 31
0.0
  0
LINE
  5
86
  8
0
  6
CONTINUOUS
 62
     7
 10
-1011.1308559269
 20
359.3448879884
 30
0.0
 11
-1011.1308559269
 21
362.744885938
 31
0.0
  0
LINE
  5
87
  8
0
  6
CONTINUOUS
 62
     7
 10
-1010.8308657498
 20
363.0448910163
 30
0.0
 11
-1007.8808530659
 21
363.0448910163
 31
0.0
  0
LINE
  5
88
  8
0
  6
CONTINUOUS
 62
     7
 10
-1010.8308657498
 20
363.0448910163
 30
0.0
 11
-1011.1308559269
 21
362.744885938
 31
0.0
  0
LINE
  5
89
  8
0
  6
CONTINUOUS
 62
     7
 10
-1007.8808530659
 20
359.0448978113
 30
0.0
 11
-1010.8308657498
 21
359.0448978113
 31
0.0
  0
LINE
  5
8A
  8
0
  6
CONTINUOUS
 62
     7
 10
-1011.1308559269
 20
359.3448879884
 30
0.0
 11
-1010.8308657498
 21
359.0448978113
 31
0.0
  0
LINE
  5
8B
  8
0
  6
CONTINUOUS
 62
     7
 10
-1011.9977756828
 20
359.3448879884
 30
0.0
 11
-1011.1308559269
 21
359.3448879884
 31
0.0
  0
LINE
  5
8C
  8
0
  6
CONTINUOUS
 62
     7
 10
-1010.8308657498
 20
359.0448978113
 30
0.0
 11
-1011.7778047413
 21
359.0448978113
 31
0.0
  0
LINE
  5
8D
  8
0
  6
CONTINUOUS
 62
     7
 10
-1011.1308559269
 20
362.744885938
 30
0.0
 11
-1011.9977756828
 21
362.744885938
 31
0.0
  0
LINE
  5
8E
  8
0
  6
CONTINUOUS
 62
     7
 10
-1011.7778047413
 20
363.0448910163
 30
0.0
 11
-1010.8308657498
 21
363.0448910163
 31
0.0
  0
LINE
  5
8F
  8
0
  6
CONTINUOUS
 62
     7
 10
-1011.9977756828
 20
362.744885938
 30
0.0
 11
-1040.263654241
 21
362.744885938
 31
0.0
  0
LINE
  5
90
  8
0
  6
CONTINUOUS
 62
     7
 10
-1040.263654241
 20
359.3448879884
 30
0.0
 11
-1011.9977756828
 21
359.3448879884
 31
0.0
  0
LINE
  5
91
  8
0
  6
CONTINUOUS
 62
     7
 10
-1040.0436683983
 20
363.0448910163
 30
0.0
 11
-1011.7778047413
 21
363.0448910163
 31
0.0
  0
LINE
  5
92
  8
0
  6
CONTINUOUS
 62
     7
 10
-1011.7778047413
 20
359.0448978113
 30
0.0
 11
-1040.0436683983
 21
359.0448978113
 31
0.0
  0
LINE
  5
93
  8
0
  6
CONTINUOUS
 62
     7
 10
-1040.263654241
 20
362.744885938
 30
0.0
 11
-1042.1308591456
 21
362.744885938
 31
0.0
  0
LINE
  5
94
  8
0
  6
CONTINUOUS
 62
     7
 10
-1042.1308591456
 20
359.3448879884
 30
0.0
 11
-1040.263654241
 21
359.3448879884
 31
0.0
  0
LINE
  5
95
  8
0
  6
CONTINUOUS
 62
     7
 10
-1042.1308591456
 20
359.3448879884
 30
0.0
 11
-1042.1308591456
 21
362.744885938
 31
0.0
  0
LINE
  5
96
  8
0
  6
CONTINUOUS
 62
     7
 10
-1042.1308591456
 20
359.3448879884
 30
0.0
 11
-1041.8308540672
 21
359.0448978113
 31
0.0
  0
LINE
  5
97
  8
0
  6
CONTINUOUS
 62
     7
 10
-1042.1308591456
 20
362.744885938
 30
0.0
 11
-1041.8308540672
 21
363.0448910163
 31
0.0
  0
LINE
  5
98
  8
0
  6
CONTINUOUS
 62
     7
 10
-1041.8308540672
 20
363.0448910163
 30
0.0
 11
-1040.0436683983
 21
363.0448910163
 31
0.0
  0
LINE
  5
99
  8
0
  6
CONTINUOUS
 62
     7
 10
-1438.830853948
 20
363.0448910163
 30
0.0
 11
-1435.8808561653
 21
363.0448910163
 31
0.0
  0
LINE
  5
9A
  8
0
  6
CONTINUOUS
 62
     7
 10
-1435.8808561653
 20
362.744885938
 30
0.0
 11
-1439.1308590264
 21
362.744885938
 31
0.0
  0
LINE
  5
9B
  8
0
  6
CONTINUOUS
 62
     7
 10
-1438.830853948
 20
363.0448910163
 30
0.0
 11
-1439.1308590264
 21
362.744885938
 31
0.0
  0
LINE
  5
9C
  8
0
  6
CONTINUOUS
 62
     7
 10
-1439.1308590264
 20
359.3448879884
 30
0.0
 11
-1435.8808561653
 21
359.3448879884
 31
0.0
  0
LINE
  5
9D
  8
0
  6
CONTINUOUS
 62
     7
 10
-1439.1308590264
 20
359.3448879884
 30
0.0
 11
-1439.1308590264
 21
362.744885938
 31
0.0
  0
LINE
  5
9E
  8
0
  6
CONTINUOUS
 62
     7
 10
-1435.8808561653
 20
363.0448910163
 30
0.0
 11
-1430.380867371
 21
363.0448910163
 31
0.0
  0
LINE
  5
9F
  8
0
  6
CONTINUOUS
 62
     7
 10
-1430.380867371
 20
362.744885938
 30
0.0
 11
-1435.8808561653
 21
362.744885938
 31
0.0
  0
LINE
  5
A0
  8
0
  6
CONTINUOUS
 62
     7
 10
-1435.8808561653
 20
359.3448879884
 30
0.0
 11
-1430.380867371
 21
359.3448879884
 31
0.0
  0
LINE
  5
A1
  8
0
  6
CONTINUOUS
 62
     7
 10
-1435.8808561653
 20
359.0448978113
 30
0.0
 11
-1438.830853948
 21
359.0448978113
 31
0.0
  0
LINE
  5
A2
  8
0
  6
CONTINUOUS
 62
     7
 10
-1438.830853948
 20
359.0448978113
 30
0.0
 11
-1439.1308590264
 21
359.3448879884
 31
0.0
  0
LINE
  5
A3
  8
0
  6
CONTINUOUS
 62
     7
 10
-1430.380867371
 20
359.0448978113
 30
0.0
 11
-1435.8808561653
 21
359.0448978113
 31
0.0
  0
LINE
  5
A4
  8
0
  6
CONTINUOUS
 62
     7
 10
-1430.380867371
 20
359.3448879884
 30
0.0
 11
-1427.13086451
 21
359.3448879884
 31
0.0
  0
LINE
  5
A5
  8
0
  6
CONTINUOUS
 62
     7
 10
-1427.13086451
 20
362.744885938
 30
0.0
 11
-1430.380867371
 21
362.744885938
 31
0.0
  0
LINE
  5
A6
  8
0
  6
CONTINUOUS
 62
     7
 10
-1427.13086451
 20
362.744885938
 30
0.0
 11
-1427.13086451
 21
359.3448879884
 31
0.0
  0
LINE
  5
A7
  8
0
  6
CONTINUOUS
 62
     7
 10
-1427.4308546871
 20
359.0448978113
 30
0.0
 11
-1430.380867371
 21
359.0448978113
 31
0.0
  0
LINE
  5
A8
  8
0
  6
CONTINUOUS
 62
     7
 10
-1427.4308546871
 20
359.0448978113
 30
0.0
 11
-1427.13086451
 21
359.3448879884
 31
0.0
  0
LINE
  5
A9
  8
0
  6
CONTINUOUS
 62
     7
 10
-1430.380867371
 20
363.0448910163
 30
0.0
 11
-1427.4308546871
 21
363.0448910163
 31
0.0
  0
LINE
  5
AA
  8
0
  6
CONTINUOUS
 62
     7
 10
-1427.13086451
 20
362.744885938
 30
0.0
 11
-1427.4308546871
 21
363.0448910163
 31
0.0
  0
LINE
  5
AB
  8
0
  6
CONTINUOUS
 62
     7
 10
-1426.263944754
 20
362.744885938
 30
0.0
 11
-1427.13086451
 21
362.744885938
 31
0.0
  0
LINE
  5
AC
  8
0
  6
CONTINUOUS
 62
     7
 10
-1427.4308546871
 20
363.0448910163
 30
0.0
 11
-1426.4839156956
 21
363.0448910163
 31
0.0
  0
LINE
  5
AD
  8
0
  6
CONTINUOUS
 62
     7
 10
-1427.13086451
 20
359.3448879884
 30
0.0
 11
-1426.263944754
 21
359.3448879884
 31
0.0
  0
LINE
  5
AE
  8
0
  6
CONTINUOUS
 62
     7
 10
-1426.4839156956
 20
359.0448978113
 30
0.0
 11
-1427.4308546871
 21
359.0448978113
 31
0.0
  0
LINE
  5
AF
  8
0
  6
CONTINUOUS
 62
     7
 10
-1426.263944754
 20
359.3448879884
 30
0.0
 11
-1397.9980661959
 21
359.3448879884
 31
0.0
  0
LINE
  5
B0
  8
0
  6
CONTINUOUS
 62
     7
 10
-1397.9980661959
 20
362.744885938
 30
0.0
 11
-1426.263944754
 21
362.744885938
 31
0.0
  0
LINE
  5
B1
  8
0
  6
CONTINUOUS
 62
     7
 10
-1398.2180520386
 20
359.0448978113
 30
0.0
 11
-1426.4839156956
 21
359.0448978113
 31
0.0
  0
LINE
  5
B2
  8
0
  6
CONTINUOUS
 62
     7
 10
-1426.4839156956
 20
363.0448910163
 30
0.0
 11
-1398.2180520386
 21
363.0448910163
 31
0.0
  0
LINE
  5
B3
  8
0
  6
CONTINUOUS
 62
     7
 10
-1397.9980661959
 20
359.3448879884
 30
0.0
 11
-1396.1308612913
 21
359.3448879884
 31
0.0
  0
LINE
  5
B4
  8
0
  6
CONTINUOUS
 62
     7
 10
-1396.1308612913
 20
362.744885938
 30
0.0
 11
-1397.9980661959
 21
362.744885938
 31
0.0
  0
LINE
  5
B5
  8
0
  6
CONTINUOUS
 62
     7
 10
-1396.1308612913
 20
362.744885938
 30
0.0
 11
-1396.1308612913
 21
359.3448879884
 31
0.0
  0
LINE
  5
B6
  8
0
  6
CONTINUOUS
 62
     7
 10
-1396.1308612913
 20
362.744885938
 30
0.0
 11
-1396.4308663696
 21
363.0448910163
 31
0.0
  0
LINE
  5
B7
  8
0
  6
CONTINUOUS
 62
     7
 10
-1398.2180520386
 20
363.0448910163
 30
0.0
 11
-1396.4308663696
 21
363.0448910163
 31
0.0
  0
LINE
  5
B8
  8
0
  6
CONTINUOUS
 62
     7
 10
-1396.1308612913
 20
359.3448879884
 30
0.0
 11
-1396.4308663696
 21
359.0448978113
 31
0.0
  0
LINE
  5
B9
  8
0
  6
CONTINUOUS
 62
     7
 10
-1438.830853948
 20
59.0448858903
 30
0.0
 11
-1435.8808561653
 21
59.0448858903
 31
0.0
  0
LINE
  5
BA
  8
0
  6
CONTINUOUS
 62
     7
 10
-1435.8808561653
 20
58.7448957132
 30
0.0
 11
-1439.1308590264
 21
58.7448957132
 31
0.0
  0
LINE
  5
BB
  8
0
  6
CONTINUOUS
 62
     7
 10
-1438.830853948
 20
59.0448858903
 30
0.0
 11
-1439.1308590264
 21
58.7448957132
 31
0.0
  0
LINE
  5
BC
  8
0
  6
CONTINUOUS
 62
     7
 10
-1439.1308590264
 20
55.3448977636
 30
0.0
 11
-1435.8808561653
 21
55.3448977636
 31
0.0
  0
LINE
  5
BD
  8
0
  6
CONTINUOUS
 62
     7
 10
-1439.1308590264
 20
55.3448977636
 30
0.0
 11
-1439.1308590264
 21
58.7448957132
 31
0.0
  0
LINE
  5
BE
  8
0
  6
CONTINUOUS
 62
     7
 10
-1435.8808561653
 20
59.0448858903
 30
0.0
 11
-1430.380867371
 21
59.0448858903
 31
0.0
  0
LINE
  5
BF
  8
0
  6
CONTINUOUS
 62
     7
 10
-1430.380867371
 20
58.7448957132
 30
0.0
 11
-1435.8808561653
 21
58.7448957132
 31
0.0
  0
LINE
  5
C0
  8
0
  6
CONTINUOUS
 62
     7
 10
-1435.8808561653
 20
55.3448977636
 30
0.0
 11
-1430.380867371
 21
55.3448977636
 31
0.0
  0
LINE
  5
C1
  8
0
  6
CONTINUOUS
 62
     7
 10
-1435.8808561653
 20
55.0448926853
 30
0.0
 11
-1438.830853948
 21
55.0448926853
 31
0.0
  0
LINE
  5
C2
  8
0
  6
CONTINUOUS
 62
     7
 10
-1438.830853948
 20
55.0448926853
 30
0.0
 11
-1439.1308590264
 21
55.3448977636
 31
0.0
  0
LINE
  5
C3
  8
0
  6
CONTINUOUS
 62
     7
 10
-1430.380867371
 20
55.0448926853
 30
0.0
 11
-1435.8808561653
 21
55.0448926853
 31
0.0
  0
LINE
  5
C4
  8
0
  6
CONTINUOUS
 62
     7
 10
-1427.4308546871
 20
55.0448926853
 30
0.0
 11
-1430.380867371
 21
55.0448926853
 31
0.0
  0
LINE
  5
C5
  8
0
  6
CONTINUOUS
 62
     7
 10
-1430.380867371
 20
55.3448977636
 30
0.0
 11
-1427.13086451
 21
55.3448977636
 31
0.0
  0
LINE
  5
C6
  8
0
  6
CONTINUOUS
 62
     7
 10
-1427.4308546871
 20
55.0448926853
 30
0.0
 11
-1427.13086451
 21
55.3448977636
 31
0.0
  0
LINE
  5
C7
  8
0
  6
CONTINUOUS
 62
     7
 10
-1427.13086451
 20
58.7448957132
 30
0.0
 11
-1430.380867371
 21
58.7448957132
 31
0.0
  0
LINE
  5
C8
  8
0
  6
CONTINUOUS
 62
     7
 10
-1427.13086451
 20
58.7448957132
 30
0.0
 11
-1427.13086451
 21
55.3448977636
 31
0.0
  0
LINE
  5
C9
  8
0
  6
CONTINUOUS
 62
     7
 10
-1430.380867371
 20
59.0448858903
 30
0.0
 11
-1427.4308546871
 21
59.0448858903
 31
0.0
  0
LINE
  5
CA
  8
0
  6
CONTINUOUS
 62
     7
 10
-1427.13086451
 20
58.7448957132
 30
0.0
 11
-1427.4308546871
 21
59.0448858903
 31
0.0
  0
LINE
  5
CB
  8
0
  6
CONTINUOUS
 62
     7
 10
-1426.263944754
 20
58.7448957132
 30
0.0
 11
-1427.13086451
 21
58.7448957132
 31
0.0
  0
LINE
  5
CC
  8
0
  6
CONTINUOUS
 62
     7
 10
-1427.4308546871
 20
59.0448858903
 30
0.0
 11
-1426.4839156956
 21
59.0448858903
 31
0.0
  0
LINE
  5
CD
  8
0
  6
CONTINUOUS
 62
     7
 10
-1427.13086451
 20
55.3448977636
 30
0.0
 11
-1426.263944754
 21
55.3448977636
 31
0.0
  0
LINE
  5
CE
  8
0
  6
CONTINUOUS
 62
     7
 10
-1426.4839156956
 20
55.0448926853
 30
0.0
 11
-1427.4308546871
 21
55.0448926853
 31
0.0
  0
LINE
  5
CF
  8
0
  6
CONTINUOUS
 62
     7
 10
-1426.263944754
 20
55.3448977636
 30
0.0
 11
-1397.9980661959
 21
55.3448977636
 31
0.0
  0
LINE
  5
D0
  8
0
  6
CONTINUOUS
 62
     7
 10
-1398.2180520386
 20
55.0448926853
 30
0.0
 11
-1426.4839156956
 21
55.0448926853
 31
0.0
  0
LINE
  5
D1
  8
0
  6
CONTINUOUS
 62
     7
 10
-1397.9980661959
 20
58.7448957132
 30
0.0
 11
-1426.263944754
 21
58.7448957132
 31
0.0
  0
LINE
  5
D2
  8
0
  6
CONTINUOUS
 62
     7
 10
-1426.4839156956
 20
59.0448858903
 30
0.0
 11
-1398.2180520386
 21
59.0448858903
 31
0.0
  0
LINE
  5
D3
  8
0
  6
CONTINUOUS
 62
     7
 10
-1397.9980661959
 20
55.3448977636
 30
0.0
 11
-1396.1308612913
 21
55.3448977636
 31
0.0
  0
LINE
  5
D4
  8
0
  6
CONTINUOUS
 62
     7
 10
-1396.1308612913
 20
58.7448957132
 30
0.0
 11
-1397.9980661959
 21
58.7448957132
 31
0.0
  0
LINE
  5
D5
  8
0
  6
CONTINUOUS
 62
     7
 10
-1396.1308612913
 20
58.7448957132
 30
0.0
 11
-1396.1308612913
 21
55.3448977636
 31
0.0
  0
LINE
  5
D6
  8
0
  6
CONTINUOUS
 62
     7
 10
-1396.1308612913
 20
58.7448957132
 30
0.0
 11
-1396.4308663696
 21
59.0448858903
 31
0.0
  0
LINE
  5
D7
  8
0
  6
CONTINUOUS
 62
     7
 10
-1396.1308612913
 20
55.3448977636
 30
0.0
 11
-1396.4308663696
 21
55.0448926853
 31
0.0
  0
LINE
  5
D8
  8
0
  6
CONTINUOUS
 62
     7
 10
-1396.4308663696
 20
55.0448926853
 30
0.0
 11
-1398.2180520386
 21
55.0448926853
 31
0.0
  0
LINE
  5
D9
  8
0
  6
CONTINUOUS
 62
     7
 10
-1420.7308604807
 20
193.0448910908
 30
0.0
 11
-1419.1308631987
 21
193.0448910908
 31
0.0
  0
LINE
  5
DA
  8
0
  6
CONTINUOUS
 62
     7
 10
-1420.7308604807
 20
193.0448910908
 30
0.0
 11
-1420.7308604807
 21
225.0448926108
 31
0.0
  0
LINE
  5
DB
  8
0
  6
CONTINUOUS
 62
     7
 10
-1419.1308631987
 20
225.0448926108
 30
0.0
 11
-1420.7308604807
 21
225.0448926108
 31
0.0
  0
LINE
  5
DC
  8
0
  6
CONTINUOUS
 62
     7
 10
-1425.1308604569
 20
197.0448917465
 30
0.0
 11
-1420.7308604807
 21
193.0448910908
 31
0.0
  0
LINE
  5
DD
  8
0
  6
CONTINUOUS
 62
     7
 10
-1425.1308604569
 20
221.0448919551
 30
0.0
 11
-1425.1308604569
 21
197.0448917465
 31
0.0
  0
LINE
  5
DE
  8
0
  6
CONTINUOUS
 62
     7
 10
-1420.7308604807
 20
225.0448926108
 30
0.0
 11
-1425.1308604569
 21
221.0448919551
 31
0.0
  0
ARC
  5
DF
  8
0
  6
CONTINUOUS
 62
     7
 10
-1414.080860438
 20
354.5448918508
 30
0.0
 40
2.0
 50
90.0
 51
180.0
  0
LINE
  5
E0
  8
0
  6
CONTINUOUS
 62
     7
 10
-1023.0808570475
 20
356.5448852943
 30
0.0
 11
-1414.0808596701
 21
356.5448852943
 31
0.0
  0
LINE
  5
E1
  8
0
  6
CONTINUOUS
 62
     7
 10
-1021.0808529944
 20
63.5448875593
 30
0.0
 11
-1021.0808529944
 21
354.5448961423
 31
0.0
  0
ARC
  5
E2
  8
0
  6
CONTINUOUS
 62
     7
 10
-1023.080860438
 20
63.5448918508
 30
0.0
 40
2.0
 50
270.0
 51
0.0
  0
ARC
  5
E3
  8
0
  6
CONTINUOUS
 62
     7
 10
-1414.080860438
 20
63.5448918508
 30
0.0
 40
2.0
 50
180.0
 51
270.0
  0
LINE
  5
E4
  8
0
  6
CONTINUOUS
 62
     7
 10
-1416.0808637232
 20
354.5448961423
 30
0.0
 11
-1416.0808637232
 21
63.5448875593
 31
0.0
  0
LINE
  5
E5
  8
0
  6
CONTINUOUS
 62
     7
 10
-1414.0808596701
 20
61.5448984073
 30
0.0
 11
-1023.0808570475
 21
61.5448984073
 31
0.0
  0
ARC
  5
E6
  8
0
  6
CONTINUOUS
 62
     7
 10
-1023.080860438
 20
354.5448918508
 30
0.0
 40
2.0
 50
0.0
 51
90.0
  0
POLYLINE
  5
E7
  8
0
  6
CONTINUOUS
 62
     7
 66
     1
 10
0.0
 20
0.0
 30
0.0
  0
VERTEX
  5
4AF
  8
0
  6
CONTINUOUS
 62
     7
 10
-1413.0808576435
 20
356.6662552522
 30
0.0
  0
VERTEX
  5
4B0
  8
0
  6
CONTINUOUS
 62
     7
 10
-1413.1128504366
 20
357.061612861
 30
0.0
  0
VERTEX
  5
4B1
  8
0
  6
CONTINUOUS
 62
     7
 10
-1413.2088288159
 20
357.3398473428
 30
0.0
  0
VERTEX
  5
4B2
  8
0
  6
CONTINUOUS
 62
     7
 10
-1413.3664383978
 20
357.4975612329
 30
0.0
  0
VERTEX
  5
4B3
  8
0
  6
CONTINUOUS
 62
     7
 10
-1413.5808661074
 20
357.5448873208
 30
0.0
  0
SEQEND
  5
4B4
  8
0
  6
CONTINUOUS
 62
     7
  0
LINE
  5
E8
  8
0
  6
CONTINUOUS
 62
     7
 10
-1023.5808655113
 20
357.5448873208
 30
0.0
 11
-1413.5808661074
 21
357.5448873208
 31
0.0
  0
POLYLINE
  5
E9
  8
0
  6
CONTINUOUS
 62
     7
 66
     1
 10
0.0
 20
0.0
 30
0.0
  0
VERTEX
  5
4B5
  8
0
  6
CONTINUOUS
 62
     7
 10
-1024.080859074
 20
356.6662552522
 30
0.0
  0
VERTEX
  5
4B6
  8
0
  6
CONTINUOUS
 62
     7
 10
-1024.048866281
 20
357.061612861
 30
0.0
  0
VERTEX
  5
4B7
  8
0
  6
CONTINUOUS
 62
     7
 10
-1023.9529028029
 20
357.3398473428
 30
0.0
  0
VERTEX
  5
4B8
  8
0
  6
CONTINUOUS
 62
     7
 10
-1023.7952783198
 20
357.4975612329
 30
0.0
  0
VERTEX
  5
4B9
  8
0
  6
CONTINUOUS
 62
     7
 10
-1023.5808655113
 20
357.5448873208
 30
0.0
  0
SEQEND
  5
4BA
  8
0
  6
CONTINUOUS
 62
     7
  0
LINE
  5
EA
  8
0
  6
CONTINUOUS
 62
     7
 10
-1413.5808661074
 20
356.5448852943
 30
0.0
 11
-1413.5808661074
 21
357.5448873208
 31
0.0
  0
LINE
  5
EB
  8
0
  6
CONTINUOUS
 62
     7
 10
-1023.5808655113
 20
356.5448852943
 30
0.0
 11
-1023.5808655113
 21
357.5448873208
 31
0.0
  0
POLYLINE
  5
EC
  8
0
  6
CONTINUOUS
 62
     7
 66
     1
 10
0.0
 20
0.0
 30
0.0
  0
VERTEX
  5
4BB
  8
0
  6
CONTINUOUS
 62
     7
 10
-1417.0808657498
 20
354.0448876785
 30
0.0
  0
VERTEX
  5
4BC
  8
0
  6
CONTINUOUS
 62
     7
 10
-1417.033465156
 20
353.8303258584
 30
0.0
  0
VERTEX
  5
4BD
  8
0
  6
CONTINUOUS
 62
     7
 10
-1416.8763771147
 20
353.6732378171
 30
0.0
  0
VERTEX
  5
4BE
  8
0
  6
CONTINUOUS
 62
     7
 10
-1416.5971591562
 20
353.5770508216
 30
0.0
  0
VERTEX
  5
4BF
  8
0
  6
CONTINUOUS
 62
     7
 10
-1416.2021740765
 20
353.5448941158
 30
0.0
  0
VERTEX
  5
4C0
  8
0
  6
CONTINUOUS
 62
     7
 10
-1416.2021144718
 20
353.5448941158
 30
0.0
  0
SEQEND
  5
4C1
  8
0
  6
CONTINUOUS
 62
     7
  0
LINE
  5
ED
  8
0
  6
CONTINUOUS
 62
     7
 10
-1417.0808657498
 20
354.0448876785
 30
0.0
 11
-1416.0808637232
 21
354.0448876785
 31
0.0
  0
POLYLINE
  5
EE
  8
0
  6
CONTINUOUS
 62
     7
 66
     1
 10
0.0
 20
0.0
 30
0.0
  0
VERTEX
  5
4C2
  8
0
  6
CONTINUOUS
 62
     7
 10
-1020.080865869
 20
354.0448876785
 30
0.0
  0
VERTEX
  5
4C3
  8
0
  6
CONTINUOUS
 62
     7
 10
-1020.1282664627
 20
353.8303258584
 30
0.0
  0
VERTEX
  5
4C4
  8
0
  6
CONTINUOUS
 62
     7
 10
-1020.2853396029
 20
353.6732378171
 30
0.0
  0
VERTEX
  5
4C5
  8
0
  6
CONTINUOUS
 62
     7
 10
-1020.5645575613
 20
353.5770508216
 30
0.0
  0
VERTEX
  5
4C6
  8
0
  6
CONTINUOUS
 62
     7
 10
-1020.9595426411
 20
353.5448941158
 30
0.0
  0
VERTEX
  5
4C7
  8
0
  6
CONTINUOUS
 62
     7
 10
-1020.9596022457
 20
353.5448941158
 30
0.0
  0
SEQEND
  5
4C8
  8
0
  6
CONTINUOUS
 62
     7
  0
LINE
  5
EF
  8
0
  6
CONTINUOUS
 62
     7
 10
-1020.080865869
 20
64.0448960231
 30
0.0
 11
-1020.080865869
 21
354.0448876785
 31
0.0
  0
POLYLINE
  5
F0
  8
0
  6
CONTINUOUS
 62
     7
 66
     1
 10
0.0
 20
0.0
 30
0.0
  0
VERTEX
  5
4C9
  8
0
  6
CONTINUOUS
 62
     7
 10
-1020.080865869
 20
64.0448960231
 30
0.0
  0
VERTEX
  5
4CA
  8
0
  6
CONTINUOUS
 62
     7
 10
-1020.1282664627
 20
64.2594578432
 30
0.0
  0
VERTEX
  5
4CB
  8
0
  6
CONTINUOUS
 62
     7
 10
-1020.2853396029
 20
64.4165458845
 30
0.0
  0
VERTEX
  5
4CC
  8
0
  6
CONTINUOUS
 62
     7
 10
-1020.5645575613
 20
64.51273288
 30
0.0
  0
VERTEX
  5
4CD
  8
0
  6
CONTINUOUS
 62
     7
 10
-1020.9595426411
 20
64.5448895858
 30
0.0
  0
VERTEX
  5
4CE
  8
0
  6
CONTINUOUS
 62
     7
 10
-1020.9596022457
 20
64.5448895858
 30
0.0
  0
SEQEND
  5
4CF
  8
0
  6
CONTINUOUS
 62
     7
  0
POLYLINE
  5
F1
  8
0
  6
CONTINUOUS
 62
     7
 66
     1
 10
0.0
 20
0.0
 30
0.0
  0
VERTEX
  5
4D0
  8
0
  6
CONTINUOUS
 62
     7
 10
-1417.0808657498
 20
64.0448960231
 30
0.0
  0
VERTEX
  5
4D1
  8
0
  6
CONTINUOUS
 62
     7
 10
-1417.033465156
 20
64.2594578432
 30
0.0
  0
VERTEX
  5
4D2
  8
0
  6
CONTINUOUS
 62
     7
 10
-1416.8763771147
 20
64.4165458845
 30
0.0
  0
VERTEX
  5
4D3
  8
0
  6
CONTINUOUS
 62
     7
 10
-1416.5971591562
 20
64.51273288
 30
0.0
  0
VERTEX
  5
4D4
  8
0
  6
CONTINUOUS
 62
     7
 10
-1416.2021740765
 20
64.5448895858
 30
0.0
  0
VERTEX
  5
4D5
  8
0
  6
CONTINUOUS
 62
     7
 10
-1416.2021144718
 20
64.5448895858
 30
0.0
  0
SEQEND
  5
4D6
  8
0
  6
CONTINUOUS
 62
     7
  0
LINE
  5
F2
  8
0
  6
CONTINUOUS
 62
     7
 10
-1417.0808657498
 20
354.0448876785
 30
0.0
 11
-1417.0808657498
 21
64.0448960231
 31
0.0
  0
LINE
  5
F3
  8
0
  6
CONTINUOUS
 62
     7
 10
-1020.080865869
 20
354.0448876785
 30
0.0
 11
-1021.0808529944
 21
354.0448876785
 31
0.0
  0
LINE
  5
F4
  8
0
  6
CONTINUOUS
 62
     7
 10
-1417.0808657498
 20
64.0448960231
 30
0.0
 11
-1416.0808637232
 21
64.0448960231
 31
0.0
  0
LINE
  5
F5
  8
0
  6
CONTINUOUS
 62
     7
 10
-1020.080865869
 20
64.0448960231
 30
0.0
 11
-1021.0808529944
 21
64.0448960231
 31
0.0
  0
POLYLINE
  5
F6
  8
0
  6
CONTINUOUS
 62
     7
 66
     1
 10
0.0
 20
0.0
 30
0.0
  0
VERTEX
  5
4D7
  8
0
  6
CONTINUOUS
 62
     7
 10
-1024.080859074
 20
61.4235284494
 30
0.0
  0
VERTEX
  5
4D8
  8
0
  6
CONTINUOUS
 62
     7
 10
-1024.048866281
 20
61.0281708406
 30
0.0
  0
VERTEX
  5
4D9
  8
0
  6
CONTINUOUS
 62
     7
 10
-1023.9529028029
 20
60.7499363588
 30
0.0
  0
VERTEX
  5
4DA
  8
0
  6
CONTINUOUS
 62
     7
 10
-1023.7952783198
 20
60.5922224687
 30
0.0
  0
VERTEX
  5
4DB
  8
0
  6
CONTINUOUS
 62
     7
 10
-1023.5808655113
 20
60.5448963807
 30
0.0
  0
SEQEND
  5
4DC
  8
0
  6
CONTINUOUS
 62
     7
  0
LINE
  5
F7
  8
0
  6
CONTINUOUS
 62
     7
 10
-1023.5808655113
 20
61.5448984073
 30
0.0
 11
-1023.5808655113
 21
60.5448963807
 31
0.0
  0
LINE
  5
F8
  8
0
  6
CONTINUOUS
 62
     7
 10
-1413.5808661074
 20
60.5448963807
 30
0.0
 11
-1023.5808655113
 21
60.5448963807
 31
0.0
  0
POLYLINE
  5
F9
  8
0
  6
CONTINUOUS
 62
     7
 66
     1
 10
0.0
 20
0.0
 30
0.0
  0
VERTEX
  5
4DD
  8
0
  6
CONTINUOUS
 62
     7
 10
-1413.0808576435
 20
61.4235284494
 30
0.0
  0
VERTEX
  5
4DE
  8
0
  6
CONTINUOUS
 62
     7
 10
-1413.1128504366
 20
61.0281708406
 30
0.0
  0
VERTEX
  5
4DF
  8
0
  6
CONTINUOUS
 62
     7
 10
-1413.2088288159
 20
60.7499363588
 30
0.0
  0
VERTEX
  5
4E0
  8
0
  6
CONTINUOUS
 62
     7
 10
-1413.3664383978
 20
60.5922224687
 30
0.0
  0
VERTEX
  5
4E1
  8
0
  6
CONTINUOUS
 62
     7
 10
-1413.5808661074
 20
60.5448963807
 30
0.0
  0
SEQEND
  5
4E2
  8
0
  6
CONTINUOUS
 62
     7
  0
LINE
  5
FA
  8
0
  6
CONTINUOUS
 62
     7
 10
-1413.5808661074
 20
61.5448984073
 30
0.0
 11
-1413.5808661074
 21
60.5448963807
 31
0.0
  0
LINE
  5
FB
  8
0
  6
CONTINUOUS
 62
     7
 10
-1415.5808552593
 20
357.5448873208
 30
0.0
 11
-1415.5808552593
 21
356.0448917316
 31
0.0
  0
LINE
  5
FC
  8
0
  6
CONTINUOUS
 62
     7
 10
-1413.5808661074
 20
357.5448873208
 30
0.0
 11
-1415.5808552593
 21
357.5448873208
 31
0.0
  0
LINE
  5
FD
  8
0
  6
CONTINUOUS
 62
     7
 10
-1415.4037400574
 20
356.0448917316
 30
0.0
 11
-1415.5808552593
 21
356.0448917316
 31
0.0
  0
LINE
  5
FE
  8
0
  6
CONTINUOUS
 62
     7
 10
-1021.5808614582
 20
356.0448917316
 30
0.0
 11
-1021.5808614582
 21
357.5448873208
 31
0.0
  0
LINE
  5
FF
  8
0
  6
CONTINUOUS
 62
     7
 10
-1021.7579915613
 20
356.0448917316
 30
0.0
 11
-1021.5808614582
 21
356.0448917316
 31
0.0
  0
LINE
  5
100
  8
0
  6
CONTINUOUS
 62
     7
 10
-1023.5808655113
 20
357.5448873208
 30
0.0
 11
-1021.5808614582
 21
357.5448873208
 31
0.0
  0
LINE
  5
101
  8
0
  6
CONTINUOUS
 62
     7
 10
-1021.5808614582
 20
356.0448917316
 30
0.0
 11
-1021.5808614582
 21
355.8677616285
 31
0.0
  0
LINE
  5
102
  8
0
  6
CONTINUOUS
 62
     7
 10
-1020.080865869
 20
356.0448917316
 30
0.0
 11
-1021.5808614582
 21
356.0448917316
 31
0.0
  0
LINE
  5
103
  8
0
  6
CONTINUOUS
 62
     7
 10
-1020.080865869
 20
356.0448917316
 30
0.0
 11
-1020.080865869
 21
354.0448876785
 31
0.0
  0
LINE
  5
104
  8
0
  6
CONTINUOUS
 62
     7
 10
-1415.5808552593
 20
356.0448917316
 30
0.0
 11
-1417.0808657498
 21
356.0448917316
 31
0.0
  0
LINE
  5
105
  8
0
  6
CONTINUOUS
 62
     7
 10
-1415.5808552593
 20
356.0448917316
 30
0.0
 11
-1415.5808552593
 21
355.8677616285
 31
0.0
  0
LINE
  5
106
  8
0
  6
CONTINUOUS
 62
     7
 10
-1417.0808657498
 20
356.0448917316
 30
0.0
 11
-1417.0808657498
 21
354.0448876785
 31
0.0
  0
LINE
  5
107
  8
0
  6
CONTINUOUS
 62
     7
 10
-1417.0808657498
 20
62.04489197
 30
0.0
 11
-1415.5808552593
 21
62.04489197
 31
0.0
  0
LINE
  5
108
  8
0
  6
CONTINUOUS
 62
     7
 10
-1415.5808552593
 20
62.04489197
 30
0.0
 11
-1415.5808552593
 21
62.2220220731
 31
0.0
  0
LINE
  5
109
  8
0
  6
CONTINUOUS
 62
     7
 10
-1417.0808657498
 20
62.04489197
 30
0.0
 11
-1417.0808657498
 21
64.0448960231
 31
0.0
  0
LINE
  5
10A
  8
0
  6
CONTINUOUS
 62
     7
 10
-1021.5808614582
 20
62.04489197
 30
0.0
 11
-1020.080865869
 21
62.04489197
 31
0.0
  0
LINE
  5
10B
  8
0
  6
CONTINUOUS
 62
     7
 10
-1021.5808614582
 20
62.04489197
 30
0.0
 11
-1021.5808614582
 21
62.2220220731
 31
0.0
  0
LINE
  5
10C
  8
0
  6
CONTINUOUS
 62
     7
 10
-1020.080865869
 20
62.04489197
 30
0.0
 11
-1020.080865869
 21
64.0448960231
 31
0.0
  0
LINE
  5
10D
  8
0
  6
CONTINUOUS
 62
     7
 10
-1413.5808661074
 20
60.5448963807
 30
0.0
 11
-1415.5808552593
 21
60.5448963807
 31
0.0
  0
LINE
  5
10E
  8
0
  6
CONTINUOUS
 62
     7
 10
-1415.5808552593
 20
62.04489197
 30
0.0
 11
-1415.5808552593
 21
60.5448963807
 31
0.0
  0
LINE
  5
10F
  8
0
  6
CONTINUOUS
 62
     7
 10
-1415.4037400574
 20
62.04489197
 30
0.0
 11
-1415.5808552593
 21
62.04489197
 31
0.0
  0
LINE
  5
110
  8
0
  6
CONTINUOUS
 62
     7
 10
-1021.5808614582
 20
60.5448963807
 30
0.0
 11
-1021.5808614582
 21
62.04489197
 31
0.0
  0
LINE
  5
111
  8
0
  6
CONTINUOUS
 62
     7
 10
-1023.5808655113
 20
60.5448963807
 30
0.0
 11
-1021.5808614582
 21
60.5448963807
 31
0.0
  0
LINE
  5
112
  8
0
  6
CONTINUOUS
 62
     7
 10
-1021.7579915613
 20
62.04489197
 30
0.0
 11
-1021.5808614582
 21
62.04489197
 31
0.0
  0
LINE
  5
113
  8
0
  6
CONTINUOUS
 62
     7
 10
-1416.6301503271
 20
61.2711789773
 30
0.0
 11
-1416.1319598049
 21
62.04489197
 31
0.0
  0
LINE
  5
114
  8
0
  6
CONTINUOUS
 62
     7
 10
-1416.6301503271
 20
61.2711789773
 30
0.0
 11
-1416.6301503271
 21
61.6580429243
 31
0.0
  0
ARC
  5
115
  8
0
  6
CONTINUOUS
 62
     7
 10
-1443.9267047227
 20
71.9003812301
 30
0.0
 40
29.29303368378153
 50
333.96893162
 51
338.7241999763
  0
POLYLINE
  5
116
  8
0
  6
CONTINUOUS
 62
     7
 66
     1
 10
0.0
 20
0.0
 30
0.0
  0
VERTEX
  5
4E3
  8
0
  6
CONTINUOUS
 62
     7
 10
-1021.5808614582
 20
61.1389609741
 30
0.0
  0
VERTEX
  5
4E4
  8
0
  6
CONTINUOUS
 62
     7
 10
-1021.522597918
 20
61.0285880731
 30
0.0
  0
VERTEX
  5
4E5
  8
0
  6
CONTINUOUS
 62
     7
 10
-1021.1267187685
 20
60.1239683793
 30
0.0
  0
VERTEX
  5
4E6
  8
0
  6
CONTINUOUS
 62
     7
 10
-1020.8846792072
 20
59.4454440044
 30
0.0
  0
VERTEX
  5
4E7
  8
0
  6
CONTINUOUS
 62
     7
 10
-1020.7688375801
 20
59.163826959
 30
0.0
  0
VERTEX
  5
4E8
  8
0
  6
CONTINUOUS
 62
     7
 10
-1020.6564530224
 20
59.0448858903
 30
0.0
  0
SEQEND
  5
4E9
  8
0
  6
CONTINUOUS
 62
     7
  0
LINE
  5
117
  8
0
  6
CONTINUOUS
 62
     7
 10
-1040.0444283575
 20
59.0448858903
 30
0.0
 11
-1398.2172920794
 21
59.0448858903
 31
0.0
  0
POLYLINE
  5
118
  8
0
  6
CONTINUOUS
 62
     7
 66
     1
 10
0.0
 20
0.0
 30
0.0
  0
VERTEX
  5
4EA
  8
0
  6
CONTINUOUS
 62
     7
 10
-1021.5319558472
 20
61.5455987619
 30
0.0
  0
VERTEX
  5
4EB
  8
0
  6
CONTINUOUS
 62
     7
 10
-1021.522597918
 20
61.536732571
 30
0.0
  0
VERTEX
  5
4EC
  8
0
  6
CONTINUOUS
 62
     7
 10
-1021.1267187685
 20
61.0844376253
 30
0.0
  0
VERTEX
  5
4ED
  8
0
  6
CONTINUOUS
 62
     7
 10
-1020.8846792072
 20
60.7451679872
 30
0.0
  0
VERTEX
  5
4EE
  8
0
  6
CONTINUOUS
 62
     7
 10
-1020.7688375801
 20
60.6043669151
 30
0.0
  0
VERTEX
  5
4EF
  8
0
  6
CONTINUOUS
 62
     7
 10
-1020.6564530224
 20
60.5448963807
 30
0.0
  0
SEQEND
  5
4F0
  8
0
  6
CONTINUOUS
 62
     7
  0
LINE
  5
119
  8
0
  6
CONTINUOUS
 62
     7
 10
-1020.6564530224
 20
59.0448858903
 30
0.0
 11
-1020.6564530224
 21
60.5448963807
 31
0.0
  0
ARC
  5
11A
  8
0
  6
CONTINUOUS
 62
     7
 10
-994.3350157142
 20
346.1894024715
 30
0.0
 40
29.29303368378155
 50
153.96893162
 51
158.7241999763
  0
POLYLINE
  5
11B
  8
0
  6
CONTINUOUS
 62
     7
 66
     1
 10
0.0
 20
0.0
 30
0.0
  0
VERTEX
  5
4F1
  8
0
  6
CONTINUOUS
 62
     7
 10
-1416.2026360125
 20
356.0448917316
 30
0.0
  0
VERTEX
  5
4F2
  8
0
  6
CONTINUOUS
 62
     7
 10
-1416.7391225189
 20
357.0611956285
 30
0.0
  0
VERTEX
  5
4F3
  8
0
  6
CONTINUOUS
 62
     7
 10
-1417.1350016684
 20
357.9658153222
 30
0.0
  0
VERTEX
  5
4F4
  8
0
  6
CONTINUOUS
 62
     7
 10
-1417.3770412296
 20
358.6443396972
 30
0.0
  0
VERTEX
  5
4F5
  8
0
  6
CONTINUOUS
 62
     7
 10
-1417.4928828568
 20
358.9259567426
 30
0.0
  0
VERTEX
  5
4F6
  8
0
  6
CONTINUOUS
 62
     7
 10
-1417.6052674145
 20
359.0448978113
 30
0.0
  0
SEQEND
  5
4F7
  8
0
  6
CONTINUOUS
 62
     7
  0
LINE
  5
11C
  8
0
  6
CONTINUOUS
 62
     7
 10
-1040.0444283575
 20
359.0448978113
 30
0.0
 11
-1398.2172920794
 21
359.0448978113
 31
0.0
  0
POLYLINE
  5
11D
  8
0
  6
CONTINUOUS
 62
     7
 66
     1
 10
0.0
 20
0.0
 30
0.0
  0
VERTEX
  5
4F8
  8
0
  6
CONTINUOUS
 62
     7
 10
-1416.7297645897
 20
356.5441849397
 30
0.0
  0
VERTEX
  5
4F9
  8
0
  6
CONTINUOUS
 62
     7
 10
-1416.7391225189
 20
356.5530511306
 30
0.0
  0
VERTEX
  5
4FA
  8
0
  6
CONTINUOUS
 62
     7
 10
-1417.1350016684
 20
357.0053460763
 30
0.0
  0
VERTEX
  5
4FB
  8
0
  6
CONTINUOUS
 62
     7
 10
-1417.3770412296
 20
357.3446157144
 30
0.0
  0
VERTEX
  5
4FC
  8
0
  6
CONTINUOUS
 62
     7
 10
-1417.4928828568
 20
357.4854167865
 30
0.0
  0
VERTEX
  5
4FD
  8
0
  6
CONTINUOUS
 62
     7
 10
-1417.6052674145
 20
357.5448873208
 30
0.0
  0
SEQEND
  5
4FE
  8
0
  6
CONTINUOUS
 62
     7
  0
LINE
  5
11E
  8
0
  6
CONTINUOUS
 62
     7
 10
-1417.6052674145
 20
359.0448978113
 30
0.0
 11
-1417.6052674145
 21
357.5448873208
 31
0.0
  0
LINE
  5
11F
  8
0
  6
CONTINUOUS
 62
     7
 10
-1021.3571503252
 20
61.5455987619
 30
0.0
 11
-1021.5808614582
 21
61.6896482871
 31
0.0
  0
LINE
  5
120
  8
0
  6
CONTINUOUS
 62
     7
 10
-1021.3571503252
 20
61.5455987619
 30
0.0
 11
-1021.743999371
 21
61.5455987619
 31
0.0
  0
LINE
  5
121
  8
0
  6
CONTINUOUS
 62
     7
 10
-1019.1308572382
 20
60.5704816745
 30
0.0
 11
-1019.1308572382
 21
357.5193020271
 31
0.0
  0
ARC
  5
122
  8
0
  6
CONTINUOUS
 62
     7
 10
-1031.9841082451
 20
34.2541684102
 30
0.0
 40
29.28744449884141
 50
63.9684776141
 51
68.7246539822
  0
POLYLINE
  5
123
  8
0
  6
CONTINUOUS
 62
     7
 66
     1
 10
0.0
 20
0.0
 30
0.0
  0
VERTEX
  5
4FF
  8
0
  6
CONTINUOUS
 62
     7
 10
-1021.5808614582
 20
356.4070048498
 30
0.0
  0
VERTEX
  5
500
  8
0
  6
CONTINUOUS
 62
     7
 10
-1021.114559421
 20
356.6531571315
 30
0.0
  0
VERTEX
  5
501
  8
0
  6
CONTINUOUS
 62
     7
 10
-1020.2099397272
 20
357.0490213798
 30
0.0
  0
VERTEX
  5
502
  8
0
  6
CONTINUOUS
 62
     7
 10
-1019.5314153523
 20
357.2910609411
 30
0.0
  0
VERTEX
  5
503
  8
0
  6
CONTINUOUS
 62
     7
 10
-1019.2497983069
 20
357.4069025682
 30
0.0
  0
VERTEX
  5
504
  8
0
  6
CONTINUOUS
 62
     7
 10
-1019.1308572382
 20
357.5193020271
 30
0.0
  0
SEQEND
  5
505
  8
0
  6
CONTINUOUS
 62
     7
  0
ARC
  5
124
  8
0
  6
CONTINUOUS
 62
     7
 10
-1406.2776121918
 20
383.8356152914
 30
0.0
 40
29.28744449884133
 50
243.9684776141
 51
248.7246539822
  0
LINE
  5
125
  8
0
  6
CONTINUOUS
 62
     7
 10
-1416.9045701117
 20
356.5441849397
 30
0.0
 11
-1416.130857119
 21
356.0459944175
 31
0.0
  0
POLYLINE
  5
126
  8
0
  6
CONTINUOUS
 62
     7
 66
     1
 10
0.0
 20
0.0
 30
0.0
  0
VERTEX
  5
506
  8
0
  6
CONTINUOUS
 62
     7
 10
-1416.130857119
 20
61.9731130765
 30
0.0
  0
VERTEX
  5
507
  8
0
  6
CONTINUOUS
 62
     7
 10
-1417.1471610159
 20
61.4366265701
 30
0.0
  0
VERTEX
  5
508
  8
0
  6
CONTINUOUS
 62
     7
 10
-1418.0517807097
 20
61.0407623218
 30
0.0
  0
VERTEX
  5
509
  8
0
  6
CONTINUOUS
 62
     7
 10
-1418.7303050846
 20
60.7987227605
 30
0.0
  0
VERTEX
  5
50A
  8
0
  6
CONTINUOUS
 62
     7
 10
-1419.01192213
 20
60.6828811334
 30
0.0
  0
VERTEX
  5
50B
  8
0
  6
CONTINUOUS
 62
     7
 10
-1419.1308631987
 20
60.5704816745
 30
0.0
  0
SEQEND
  5
50C
  8
0
  6
CONTINUOUS
 62
     7
  0
LINE
  5
127
  8
0
  6
CONTINUOUS
 62
     7
 10
-1419.1308631987
 20
60.5704816745
 30
0.0
 11
-1419.1308631987
 21
357.5193020271
 31
0.0
  0
POLYLINE
  5
128
  8
0
  6
CONTINUOUS
 62
     7
 66
     1
 10
0.0
 20
0.0
 30
0.0
  0
VERTEX
  5
50D
  8
0
  6
CONTINUOUS
 62
     7
 10
-1416.6301503271
 20
61.4459844993
 30
0.0
  0
VERTEX
  5
50E
  8
0
  6
CONTINUOUS
 62
     7
 10
-1416.639016518
 20
61.4366265701
 30
0.0
  0
VERTEX
  5
50F
  8
0
  6
CONTINUOUS
 62
     7
 10
-1417.0913114638
 20
61.0407623218
 30
0.0
  0
VERTEX
  5
510
  8
0
  6
CONTINUOUS
 62
     7
 10
-1417.4305811018
 20
60.7987227605
 30
0.0
  0
VERTEX
  5
511
  8
0
  6
CONTINUOUS
 62
     7
 10
-1417.5713970751
 20
60.6828811334
 30
0.0
  0
VERTEX
  5
512
  8
0
  6
CONTINUOUS
 62
     7
 10
-1417.6308676094
 20
60.5704816745
 30
0.0
  0
SEQEND
  5
513
  8
0
  6
CONTINUOUS
 62
     7
  0
LINE
  5
129
  8
0
  6
CONTINUOUS
 62
     7
 10
-1419.1308631987
 20
60.5704816745
 30
0.0
 11
-1417.6308676094
 21
60.5704816745
 31
0.0
  0
LINE
  5
12A
  8
0
  6
CONTINUOUS
 62
     7
 10
-1416.0588100046
 20
62.04489197
 30
0.0
 11
-1416.0870775074
 21
62.0165201591
 31
0.0
  0
LINE
  5
12B
  8
0
  6
CONTINUOUS
 62
     7
 10
-1416.130857119
 20
356.0459944175
 30
0.0
 11
-1416.1297544331
 21
356.0448917316
 31
0.0
  0
ARC
  5
12C
  8
0
  6
CONTINUOUS
 62
     7
 10
-1419.6290484766
 20
65.5455989576
 30
0.0
 40
4.999999999972969
 50
314.3979399628
 51
315.1044244628
  0
POLYLINE
  5
12D
  8
0
  6
CONTINUOUS
 62
     7
 66
     1
 10
0.0
 20
0.0
 30
0.0
  0
VERTEX
  5
514
  8
0
  6
CONTINUOUS
 62
     7
 10
-1021.6315701098
 20
356.6437992023
 30
0.0
  0
VERTEX
  5
515
  8
0
  6
CONTINUOUS
 62
     7
 10
-1021.62271882
 20
356.6531571315
 30
0.0
  0
VERTEX
  5
516
  8
0
  6
CONTINUOUS
 62
     7
 10
-1021.1704089731
 20
357.0490213798
 30
0.0
  0
VERTEX
  5
517
  8
0
  6
CONTINUOUS
 62
     7
 10
-1020.8311393351
 20
357.2910609411
 30
0.0
  0
VERTEX
  5
518
  8
0
  6
CONTINUOUS
 62
     7
 10
-1020.6903233618
 20
357.4069025682
 30
0.0
  0
VERTEX
  5
519
  8
0
  6
CONTINUOUS
 62
     7
 10
-1020.6308528275
 20
357.5193020271
 30
0.0
  0
SEQEND
  5
51A
  8
0
  6
CONTINUOUS
 62
     7
  0
LINE
  5
12E
  8
0
  6
CONTINUOUS
 62
     7
 10
-1019.1308572382
 20
357.5193020271
 30
0.0
 11
-1020.6308528275
 21
357.5193020271
 31
0.0
  0
LINE
  5
12F
  8
0
  6
CONTINUOUS
 62
     7
 10
-1416.9045701117
 20
356.5441849397
 30
0.0
 11
-1416.5177210659
 21
356.5441849397
 31
0.0
  0
LINE
  5
130
  8
0
  6
CONTINUOUS
 62
     7
 10
-1417.6052674145
 20
60.5448963807
 30
0.0
 11
-1417.6052674145
 21
59.0448858903
 31
0.0
  0
ARC
  5
131
  8
0
  6
CONTINUOUS
 62
     7
 10
-1427.1618239881
 20
69.9001209492
 30
0.0
 40
13.37340645726046
 50
315.6099392932
 51
321.9532994547
  0
LINE
  5
132
  8
0
  6
CONTINUOUS
 62
     7
 10
-1020.6564530224
 20
357.5448873208
 30
0.0
 11
-1020.6564530224
 21
359.0448978113
 31
0.0
  0
ARC
  5
133
  8
0
  6
CONTINUOUS
 62
     7
 10
-1011.0998964487
 20
348.1896627524
 30
0.0
 40
13.37340645726061
 50
135.6099392932
 51
141.9532994547
  0
LINE
  5
134
  8
0
  6
CONTINUOUS
 62
     7
 10
-1417.6308676094
 20
357.5193020271
 30
0.0
 11
-1419.1308631987
 21
357.5193020271
 31
0.0
  0
ARC
  5
135
  8
0
  6
CONTINUOUS
 62
     7
 10
-1408.2721713558
 20
367.0798217088
 30
0.0
 40
13.37866705437765
 50
225.6111876974
 51
231.9520510504
  0
ARC
  5
136
  8
0
  6
CONTINUOUS
 62
     7
 10
-1028.9276307039
 20
52.126984074
 30
0.0
 40
11.83761694182844
 50
45.5021545632
 51
51.6379126152
  0
LINE
  5
137
  8
0
  6
CONTINUOUS
 62
     7
 10
-1020.6308528275
 20
60.5704816745
 30
0.0
 11
-1019.1308572382
 21
60.5704816745
 31
0.0
  0
LINE
  5
138
  8
0
  6
CONTINUOUS
 62
     7
 10
-1417.6301523537
 20
59.0448858903
 30
0.0
 11
-1417.6301523537
 21
60.5448963807
 31
0.0
  0
LINE
  5
139
  8
0
  6
CONTINUOUS
 62
     7
 10
-1417.6052674145
 20
60.5448963807
 30
0.0
 11
-1417.6301523537
 21
60.5448963807
 31
0.0
  0
LINE
  5
13A
  8
0
  6
CONTINUOUS
 62
     7
 10
-1417.6301523537
 20
357.5448873208
 30
0.0
 11
-1417.6052674145
 21
357.5448873208
 31
0.0
  0
LINE
  5
13B
  8
0
  6
CONTINUOUS
 62
     7
 10
-1417.6301523537
 20
359.0448978113
 30
0.0
 11
-1417.6301523537
 21
357.5448873208
 31
0.0
  0
LINE
  5
13C
  8
0
  6
CONTINUOUS
 62
     7
 10
-1020.6308528275
 20
357.5441869663
 30
0.0
 11
-1020.6308528275
 21
357.5193020271
 31
0.0
  0
LINE
  5
13D
  8
0
  6
CONTINUOUS
 62
     7
 10
-1019.1308572382
 20
357.5441869663
 30
0.0
 11
-1020.6308528275
 21
357.5441869663
 31
0.0
  0
LINE
  5
13E
  8
0
  6
CONTINUOUS
 62
     7
 10
-1019.1308572382
 20
357.5193020271
 30
0.0
 11
-1019.1308572382
 21
357.5441869663
 31
0.0
  0
LINE
  5
13F
  8
0
  6
CONTINUOUS
 62
     7
 10
-1417.6308676094
 20
60.5455967353
 30
0.0
 11
-1417.6308676094
 21
60.5704816745
 31
0.0
  0
LINE
  5
140
  8
0
  6
CONTINUOUS
 62
     7
 10
-1419.1308631987
 20
60.5455967353
 30
0.0
 11
-1417.6308676094
 21
60.5455967353
 31
0.0
  0
LINE
  5
141
  8
0
  6
CONTINUOUS
 62
     7
 10
-1419.1308631987
 20
60.5455967353
 30
0.0
 11
-1419.1308631987
 21
60.5704816745
 31
0.0
  0
LINE
  5
142
  8
0
  6
CONTINUOUS
 62
     7
 10
-1019.1308572382
 20
60.5455967353
 30
0.0
 11
-1020.6308528275
 21
60.5455967353
 31
0.0
  0
LINE
  5
143
  8
0
  6
CONTINUOUS
 62
     7
 10
-1020.6308528275
 20
60.5704816745
 30
0.0
 11
-1020.6308528275
 21
60.5455967353
 31
0.0
  0
LINE
  5
144
  8
0
  6
CONTINUOUS
 62
     7
 10
-1019.1308572382
 20
60.5455967353
 30
0.0
 11
-1019.1308572382
 21
60.5704816745
 31
0.0
  0
LINE
  5
145
  8
0
  6
CONTINUOUS
 62
     7
 10
-1020.6315680832
 20
59.0448858903
 30
0.0
 11
-1020.6315680832
 21
60.5448963807
 31
0.0
  0
LINE
  5
146
  8
0
  6
CONTINUOUS
 62
     7
 10
-1020.6315680832
 20
60.5448963807
 30
0.0
 11
-1020.6564530224
 21
60.5448963807
 31
0.0
  0
LINE
  5
147
  8
0
  6
CONTINUOUS
 62
     7
 10
-1419.1308631987
 20
357.5193020271
 30
0.0
 11
-1419.1308631987
 21
357.5441869663
 31
0.0
  0
LINE
  5
148
  8
0
  6
CONTINUOUS
 62
     7
 10
-1419.1308631987
 20
357.5441869663
 30
0.0
 11
-1417.6308676094
 21
357.5441869663
 31
0.0
  0
LINE
  5
149
  8
0
  6
CONTINUOUS
 62
     7
 10
-1417.6308676094
 20
357.5193020271
 30
0.0
 11
-1417.6308676094
 21
357.5441869663
 31
0.0
  0
LINE
  5
14A
  8
0
  6
CONTINUOUS
 62
     7
 10
-1020.6315680832
 20
359.0448978113
 30
0.0
 11
-1020.6315680832
 21
357.5448873208
 31
0.0
  0
LINE
  5
14B
  8
0
  6
CONTINUOUS
 62
     7
 10
-1020.6564530224
 20
357.5448873208
 30
0.0
 11
-1020.6315680832
 21
357.5448873208
 31
0.0
  0
LINE
  5
14C
  8
0
  6
CONTINUOUS
 62
     7
 10
-732.3740864262
 20
359.3448879884
 30
0.0
 11
-732.0740962491
 21
359.0448978113
 31
0.0
  0
LINE
  5
14D
  8
0
  6
CONTINUOUS
 62
     7
 10
-732.3740864262
 20
362.744885938
 30
0.0
 11
-732.3740864262
 21
359.3448879884
 31
0.0
  0
LINE
  5
14E
  8
0
  6
CONTINUOUS
 62
     7
 10
-732.0740962491
 20
363.0448910163
 30
0.0
 11
-732.3740864262
 21
362.744885938
 31
0.0
  0
LINE
  5
14F
  8
0
  6
CONTINUOUS
 62
     7
 10
-732.3740864262
 20
55.3448977636
 30
0.0
 11
-732.0740962491
 21
55.0448926853
 31
0.0
  0
LINE
  5
150
  8
0
  6
CONTINUOUS
 62
     7
 10
-732.3740864262
 20
58.7448957132
 30
0.0
 11
-732.3740864262
 21
55.3448977636
 31
0.0
  0
LINE
  5
151
  8
0
  6
CONTINUOUS
 62
     7
 10
-732.0740962491
 20
59.0448858903
 30
0.0
 11
-732.3740864262
 21
58.7448957132
 31
0.0
  0
LINE
  5
152
  8
0
  6
CONTINUOUS
 62
     7
 10
-706.5006787047
 20
60.5455967353
 30
0.0
 11
-706.4740950331
 21
60.5448963807
 31
0.0
  0
LINE
  5
153
  8
0
  6
CONTINUOUS
 62
     7
 10
-731.4740860924
 20
357.5448873208
 30
0.0
 11
-731.500669764
 21
357.5441869663
 31
0.0
  0
LINE
  5
154
  8
0
  6
CONTINUOUS
 62
     7
 10
-719.247504519
 20
357.5441869663
 30
0.0
 11
-719.2740881905
 21
357.5448873208
 31
0.0
  0
LINE
  5
155
  8
0
  6
CONTINUOUS
 62
     7
 10
-706.4740950331
 20
357.5448873208
 30
0.0
 11
-706.5006787047
 21
357.5441869663
 31
0.0
  0
LINE
  5
156
  8
0
  6
CONTINUOUS
 62
     7
 10
-719.2740881905
 20
60.5448963807
 30
0.0
 11
-719.247504519
 21
60.5455967353
 31
0.0
  0
LINE
  5
157
  8
0
  6
CONTINUOUS
 62
     7
 10
-731.500669764
 20
60.5455967353
 30
0.0
 11
-731.4740860924
 21
60.5448963807
 31
0.0
  0
LINE
  5
158
  8
0
  6
CONTINUOUS
 62
     7
 10
-719.1240931019
 20
60.5448963807
 30
0.0
 11
-719.1240931019
 21
60.5455967353
 31
0.0
  0
LINE
  5
159
  8
0
  6
CONTINUOUS
 62
     7
 10
-697.3740900025
 20
59.0448858903
 30
0.0
 11
-697.3740900025
 21
359.0448978113
 31
0.0
  0
LINE
  5
15A
  8
0
  6
CONTINUOUS
 62
     7
 10
-657.374083446
 20
359.0448978113
 30
0.0
 11
-657.374083446
 21
59.0448858903
 31
0.0
  0
LINE
  5
15B
  8
0
  6
CONTINUOUS
 62
     7
 10
-695.5718839631
 20
359.3448879884
 30
0.0
 11
-659.6240842805
 21
359.3448879884
 31
0.0
  0
LINE
  5
15C
  8
0
  6
CONTINUOUS
 62
     7
 10
-659.6240842805
 20
362.744885938
 30
0.0
 11
-695.5718839631
 21
362.744885938
 31
0.0
  0
LINE
  5
15D
  8
0
  6
CONTINUOUS
 62
     7
 10
-697.7817261681
 20
359.3448879884
 30
0.0
 11
-695.5718839631
 21
359.3448879884
 31
0.0
  0
LINE
  5
15E
  8
0
  6
CONTINUOUS
 62
     7
 10
-695.5718839631
 20
362.744885938
 30
0.0
 11
-697.7817261681
 21
362.744885938
 31
0.0
  0
LINE
  5
15F
  8
0
  6
CONTINUOUS
 62
     7
 10
-695.5718839631
 20
363.0448910163
 30
0.0
 11
-659.6240842805
 21
363.0448910163
 31
0.0
  0
LINE
  5
160
  8
0
  6
CONTINUOUS
 62
     7
 10
-659.6240842805
 20
359.0448978113
 30
0.0
 11
-695.5718839631
 21
359.0448978113
 31
0.0
  0
LINE
  5
161
  8
0
  6
CONTINUOUS
 62
     7
 10
-695.5718839631
 20
359.0448978113
 30
0.0
 11
-697.5777441725
 21
359.0448978113
 31
0.0
  0
LINE
  5
162
  8
0
  6
CONTINUOUS
 62
     7
 10
-697.5777441725
 20
363.0448910163
 30
0.0
 11
-695.5718839631
 21
363.0448910163
 31
0.0
  0
LINE
  5
163
  8
0
  6
CONTINUOUS
 62
     7
 10
-659.6240842805
 20
363.0448910163
 30
0.0
 11
-656.6740864978
 21
363.0448910163
 31
0.0
  0
LINE
  5
164
  8
0
  6
CONTINUOUS
 62
     7
 10
-656.6740864978
 20
363.0448910163
 30
0.0
 11
-656.3740963206
 21
362.744885938
 31
0.0
  0
LINE
  5
165
  8
0
  6
CONTINUOUS
 62
     7
 10
-656.3740963206
 20
362.744885938
 30
0.0
 11
-659.6240842805
 21
362.744885938
 31
0.0
  0
LINE
  5
166
  8
0
  6
CONTINUOUS
 62
     7
 10
-659.6240842805
 20
359.3448879884
 30
0.0
 11
-656.3740963206
 21
359.3448879884
 31
0.0
  0
LINE
  5
167
  8
0
  6
CONTINUOUS
 62
     7
 10
-656.3740963206
 20
362.744885938
 30
0.0
 11
-656.3740963206
 21
359.3448879884
 31
0.0
  0
LINE
  5
168
  8
0
  6
CONTINUOUS
 62
     7
 10
-656.6740864978
 20
359.0448978113
 30
0.0
 11
-659.6240842805
 21
359.0448978113
 31
0.0
  0
LINE
  5
169
  8
0
  6
CONTINUOUS
 62
     7
 10
-656.6740864978
 20
359.0448978113
 30
0.0
 11
-656.3740963206
 21
359.3448879884
 31
0.0
  0
LINE
  5
16A
  8
0
  6
CONTINUOUS
 62
     7
 10
-697.7817261681
 20
362.744885938
 30
0.0
 11
-730.1337713465
 21
362.744885938
 31
0.0
  0
LINE
  5
16B
  8
0
  6
CONTINUOUS
 62
     7
 10
-729.9297744498
 20
363.0448910163
 30
0.0
 11
-697.5777441725
 21
363.0448910163
 31
0.0
  0
LINE
  5
16C
  8
0
  6
CONTINUOUS
 62
     7
 10
-730.1337713465
 20
359.3448879884
 30
0.0
 11
-697.7817261681
 21
359.3448879884
 31
0.0
  0
LINE
  5
16D
  8
0
  6
CONTINUOUS
 62
     7
 10
-697.5777441725
 20
359.0448978113
 30
0.0
 11
-719.5918107495
 21
359.0448978113
 31
0.0
  0
LINE
  5
16E
  8
0
  6
CONTINUOUS
 62
     7
 10
-732.3740864262
 20
359.3448879884
 30
0.0
 11
-730.1337713465
 21
359.3448879884
 31
0.0
  0
LINE
  5
16F
  8
0
  6
CONTINUOUS
 62
     7
 10
-730.1337713465
 20
362.744885938
 30
0.0
 11
-732.3740864262
 21
362.744885938
 31
0.0
  0
LINE
  5
170
  8
0
  6
CONTINUOUS
 62
     7
 10
-732.0740962491
 20
363.0448910163
 30
0.0
 11
-729.9297744498
 21
363.0448910163
 31
0.0
  0
LINE
  5
171
  8
0
  6
CONTINUOUS
 62
     7
 10
-697.7817261681
 20
55.3448977636
 30
0.0
 11
-695.5718839631
 21
55.3448977636
 31
0.0
  0
LINE
  5
172
  8
0
  6
CONTINUOUS
 62
     7
 10
-695.5718839631
 20
58.7448957132
 30
0.0
 11
-697.7817261681
 21
58.7448957132
 31
0.0
  0
LINE
  5
173
  8
0
  6
CONTINUOUS
 62
     7
 10
-697.5777441725
 20
59.0448858903
 30
0.0
 11
-695.5718839631
 21
59.0448858903
 31
0.0
  0
LINE
  5
174
  8
0
  6
CONTINUOUS
 62
     7
 10
-695.5718839631
 20
55.0448926853
 30
0.0
 11
-697.5777441725
 21
55.0448926853
 31
0.0
  0
LINE
  5
175
  8
0
  6
CONTINUOUS
 62
     7
 10
-659.6240842805
 20
55.0448926853
 30
0.0
 11
-695.5718839631
 21
55.0448926853
 31
0.0
  0
LINE
  5
176
  8
0
  6
CONTINUOUS
 62
     7
 10
-695.5718839631
 20
55.3448977636
 30
0.0
 11
-659.6240842805
 21
55.3448977636
 31
0.0
  0
LINE
  5
177
  8
0
  6
CONTINUOUS
 62
     7
 10
-659.6240842805
 20
58.7448957132
 30
0.0
 11
-695.5718839631
 21
58.7448957132
 31
0.0
  0
LINE
  5
178
  8
0
  6
CONTINUOUS
 62
     7
 10
-695.5718839631
 20
59.0448858903
 30
0.0
 11
-659.6240842805
 21
59.0448858903
 31
0.0
  0
LINE
  5
179
  8
0
  6
CONTINUOUS
 62
     7
 10
-656.6740864978
 20
55.0448926853
 30
0.0
 11
-659.6240842805
 21
55.0448926853
 31
0.0
  0
LINE
  5
17A
  8
0
  6
CONTINUOUS
 62
     7
 10
-659.6240842805
 20
55.3448977636
 30
0.0
 11
-656.3740963206
 21
55.3448977636
 31
0.0
  0
LINE
  5
17B
  8
0
  6
CONTINUOUS
 62
     7
 10
-656.6740864978
 20
55.0448926853
 30
0.0
 11
-656.3740963206
 21
55.3448977636
 31
0.0
  0
LINE
  5
17C
  8
0
  6
CONTINUOUS
 62
     7
 10
-659.6240842805
 20
59.0448858903
 30
0.0
 11
-656.6740864978
 21
59.0448858903
 31
0.0
  0
LINE
  5
17D
  8
0
  6
CONTINUOUS
 62
     7
 10
-656.6740864978
 20
59.0448858903
 30
0.0
 11
-656.3740963206
 21
58.7448957132
 31
0.0
  0
LINE
  5
17E
  8
0
  6
CONTINUOUS
 62
     7
 10
-656.3740963206
 20
58.7448957132
 30
0.0
 11
-659.6240842805
 21
58.7448957132
 31
0.0
  0
LINE
  5
17F
  8
0
  6
CONTINUOUS
 62
     7
 10
-656.3740963206
 20
58.7448957132
 30
0.0
 11
-656.3740963206
 21
55.3448977636
 31
0.0
  0
LINE
  5
180
  8
0
  6
CONTINUOUS
 62
     7
 10
-730.1337713465
 20
55.3448977636
 30
0.0
 11
-697.7817261681
 21
55.3448977636
 31
0.0
  0
LINE
  5
181
  8
0
  6
CONTINUOUS
 62
     7
 10
-697.5777441725
 20
55.0448926853
 30
0.0
 11
-729.9297744498
 21
55.0448926853
 31
0.0
  0
LINE
  5
182
  8
0
  6
CONTINUOUS
 62
     7
 10
-697.7817261681
 20
58.7448957132
 30
0.0
 11
-730.1337713465
 21
58.7448957132
 31
0.0
  0
LINE
  5
183
  8
0
  6
CONTINUOUS
 62
     7
 10
-719.5918107495
 20
59.0448858903
 30
0.0
 11
-697.5777441725
 21
59.0448858903
 31
0.0
  0
LINE
  5
184
  8
0
  6
CONTINUOUS
 62
     7
 10
-732.3740864262
 20
55.3448977636
 30
0.0
 11
-730.1337713465
 21
55.3448977636
 31
0.0
  0
LINE
  5
185
  8
0
  6
CONTINUOUS
 62
     7
 10
-729.9297744498
 20
55.0448926853
 30
0.0
 11
-732.0740962491
 21
55.0448926853
 31
0.0
  0
LINE
  5
186
  8
0
  6
CONTINUOUS
 62
     7
 10
-730.1337713465
 20
58.7448957132
 30
0.0
 11
-732.3740864262
 21
58.7448957132
 31
0.0
  0
ARC
  5
187
  8
0
  6
CONTINUOUS
 62
     7
 10
-721.3740907179
 20
209.0448918508
 30
0.0
 40
15.9999999999996
 50
90.0
 51
270.0
  0
ARC
  5
188
  8
0
  6
CONTINUOUS
 62
     7
 10
-721.3740907179
 20
209.0448918508
 30
0.0
 40
12.00000000000045
 50
90.0
 51
270.0
  0
ARC
  5
189
  8
0
  6
CONTINUOUS
 62
     7
 10
-721.3740907179
 20
209.0448918508
 30
0.0
 40
12.00000000000045
 50
270.0
 51
90.0
  0
ARC
  5
18A
  8
0
  6
CONTINUOUS
 62
     7
 10
-721.3740907179
 20
209.0448918508
 30
0.0
 40
8.349999999999966
 50
90.0
 51
270.0
  0
ARC
  5
18B
  8
0
  6
CONTINUOUS
 62
     7
 10
-721.3740907179
 20
209.0448918508
 30
0.0
 40
8.349999999999966
 50
270.0
 51
90.0
  0
ARC
  5
18C
  8
0
  6
CONTINUOUS
 62
     7
 10
-721.3740907179
 20
209.0448918508
 30
0.0
 40
15.9999999999996
 50
270.0
 51
90.0
  0
ARC
  5
18D
  8
0
  6
CONTINUOUS
 62
     7
 10
-721.3740907179
 20
209.0448918508
 30
0.0
 40
8.049999999999983
 50
90.0
 51
270.0
  0
ARC
  5
18E
  8
0
  6
CONTINUOUS
 62
     7
 10
-721.3740907179
 20
209.0448918508
 30
0.0
 40
8.049999999999983
 50
270.0
 51
90.0
  0
LINE
  5
18F
  8
0
  6
CONTINUOUS
 62
     7
 10
-713.5159665808
 20
207.5448918378
 30
0.0
 11
-716.604396151
 21
207.5448918378
 31
0.0
  0
LINE
  5
190
  8
0
  6
CONTINUOUS
 62
     7
 10
-729.2322063908
 20
207.5448918378
 30
0.0
 11
-726.1437917218
 21
207.5448918378
 31
0.0
  0
ARC
  5
191
  8
0
  6
CONTINUOUS
 62
     7
 10
-721.3740907179
 20
209.0448918508
 30
0.0
 40
5.000000000001148
 50
197.4576031237
 51
342.5423968763
  0
ARC
  5
192
  8
0
  6
CONTINUOUS
 62
     7
 10
-721.3740907179
 20
209.0448918508
 30
0.0
 40
8.00000000000085
 50
190.8069228749
 51
349.1930771251
  0
LINE
  5
193
  8
0
  6
CONTINUOUS
 62
     7
 10
-713.5159665808
 20
210.5448918638
 30
0.0
 11
-716.604396151
 21
210.5448918638
 31
0.0
  0
ARC
  5
194
  8
0
  6
CONTINUOUS
 62
     7
 10
-721.3740907179
 20
209.0448918508
 30
0.0
 40
5.000000000000406
 50
17.4576031237
 51
162.5423968763
  0
LINE
  5
195
  8
0
  6
CONTINUOUS
 62
     7
 10
-729.2322063908
 20
210.5448918638
 30
0.0
 11
-726.1437917218
 21
210.5448918638
 31
0.0
  0
ARC
  5
196
  8
0
  6
CONTINUOUS
 62
     7
 10
-721.3740907179
 20
209.0448918508
 30
0.0
 40
8.000000000000101
 50
10.8069228749
 51
169.1930771251
  0
ARC
  5
197
  8
0
  6
CONTINUOUS
 62
     7
 10
-721.3740907179
 20
209.0448918508
 30
0.0
 40
1.500000000000341
 50
360.0
 51
180.0
  0
ARC
  5
198
  8
0
  6
CONTINUOUS
 62
     7
 10
-721.3740907179
 20
209.0448918508
 30
0.0
 40
1.500000000000341
 50
180.0
 51
360.0
  0
ARC
  5
199
  8
0
  6
CONTINUOUS
 62
     7
 10
-721.3740907179
 20
209.0448918508
 30
0.0
 40
8.000000000000648
 50
169.1930771251
 51
190.8069228749
  0
ARC
  5
19A
  8
0
  6
CONTINUOUS
 62
     7
 10
-721.3740907179
 20
209.0448918508
 30
0.0
 40
8.000000000000096
 50
349.1930771251
 51
10.8069228749
  0
LINE
  5
19B
  8
0
  6
CONTINUOUS
 62
     7
 10
-820.874090688
 20
357.5448873208
 30
0.0
 11
-820.9392236635
 21
357.5441869663
 31
0.0
  0
LINE
  5
19C
  8
0
  6
CONTINUOUS
 62
     7
 10
-744.8089564309
 20
357.5441869663
 30
0.0
 11
-744.8740894065
 21
357.5448873208
 31
0.0
  0
LINE
  5
19D
  8
0
  6
CONTINUOUS
 62
     7
 10
-710.8740950093
 20
357.5441869663
 30
0.0
 11
-710.8740950093
 21
357.5448873208
 31
0.0
  0
LINE
  5
19E
  8
0
  6
CONTINUOUS
 62
     7
 10
-854.8740906731
 20
357.5448873208
 30
0.0
 11
-854.8740906731
 21
357.5441869663
 31
0.0
  0
LINE
  5
19F
  8
0
  6
CONTINUOUS
 62
     7
 10
-864.8740904495
 20
357.5441869663
 30
0.0
 11
-864.8740904495
 21
357.5448873208
 31
0.0
  0
LINE
  5
1A0
  8
0
  6
CONTINUOUS
 62
     7
 10
-874.8740906917
 20
60.5455967353
 30
0.0
 11
-697.3740900025
 21
60.5455967353
 31
0.0
  0
LINE
  5
1A1
  8
0
  6
CONTINUOUS
 62
     7
 10
-697.3740900025
 20
357.5441869663
 30
0.0
 11
-874.8740906917
 21
357.5441869663
 31
0.0
  0
POLYLINE
  5
1A2
  8
0
  6
CONTINUOUS
 62
     7
 66
     1
 10
0.0
 20
0.0
 30
0.0
  0
VERTEX
  5
51B
  8
0
  6
CONTINUOUS
 62
     7
 10
-877.8740907178
 20
62.04489197
 30
0.0
  0
VERTEX
  5
51C
  8
0
  6
CONTINUOUS
 62
     7
 10
-877.8285139774
 20
61.7845388816
 30
0.0
  0
VERTEX
  5
51D
  8
0
  6
CONTINUOUS
 62
     7
 10
-877.6931685747
 20
61.5320983098
 30
0.0
  0
VERTEX
  5
51E
  8
0
  6
CONTINUOUS
 62
     7
 10
-877.4721669356
 20
61.2952443527
 30
0.0
  0
VERTEX
  5
51F
  8
0
  6
CONTINUOUS
 62
     7
 10
-877.172224023
 20
61.0811593698
 30
0.0
  0
VERTEX
  5
520
  8
0
  6
CONTINUOUS
 62
     7
 10
-876.8024535707
 20
60.8963700698
 30
0.0
  0
VERTEX
  5
521
  8
0
  6
CONTINUOUS
 62
     7
 10
-876.3740907047
 20
60.7464643882
 30
0.0
  0
VERTEX
  5
522
  8
0
  6
CONTINUOUS
 62
     7
 10
-875.9001511239
 20
60.6360169814
 30
0.0
  0
VERTEX
  5
523
  8
0
  6
CONTINUOUS
 62
     7
 10
-875.395035287
 20
60.5683806108
 30
0.0
  0
VERTEX
  5
524
  8
0
  6
CONTINUOUS
 62
     7
 10
-874.8740906917
 20
60.5455967353
 30
0.0
  0
SEQEND
  5
525
  8
0
  6
CONTINUOUS
 62
     7
  0
LINE
  5
1A3
  8
0
  6
CONTINUOUS
 62
     7
 10
-877.8740907178
 20
356.0448917316
 30
0.0
 11
-877.8740907178
 21
62.04489197
 31
0.0
  0
POLYLINE
  5
1A4
  8
0
  6
CONTINUOUS
 62
     7
 66
     1
 10
0.0
 20
0.0
 30
0.0
  0
VERTEX
  5
526
  8
0
  6
CONTINUOUS
 62
     7
 10
-874.8740906917
 20
357.5441869663
 30
0.0
  0
VERTEX
  5
527
  8
0
  6
CONTINUOUS
 62
     7
 10
-875.395035287
 20
357.5214030908
 30
0.0
  0
VERTEX
  5
528
  8
0
  6
CONTINUOUS
 62
     7
 10
-875.9001511239
 20
357.4537667201
 30
0.0
  0
VERTEX
  5
529
  8
0
  6
CONTINUOUS
 62
     7
 10
-876.3740907047
 20
357.3433193134
 30
0.0
  0
VERTEX
  5
52A
  8
0
  6
CONTINUOUS
 62
     7
 10
-876.8024535707
 20
357.1934136318
 30
0.0
  0
VERTEX
  5
52B
  8
0
  6
CONTINUOUS
 62
     7
 10
-877.172224023
 20
357.0086243318
 30
0.0
  0
VERTEX
  5
52C
  8
0
  6
CONTINUOUS
 62
     7
 10
-877.4721669356
 20
356.7945393489
 30
0.0
  0
VERTEX
  5
52D
  8
0
  6
CONTINUOUS
 62
     7
 10
-877.6931685747
 20
356.5576853917
 30
0.0
  0
VERTEX
  5
52E
  8
0
  6
CONTINUOUS
 62
     7
 10
-877.8285139774
 20
356.30524482
 30
0.0
  0
VERTEX
  5
52F
  8
0
  6
CONTINUOUS
 62
     7
 10
-877.8740907178
 20
356.0448917316
 30
0.0
  0
SEQEND
  5
530
  8
0
  6
CONTINUOUS
 62
     7
  0
LINE
  5
1A5
  8
0
  6
CONTINUOUS
 62
     7
 10
-719.5918107495
 20
59.0448858903
 30
0.0
 11
-874.8740906917
 21
59.0448858903
 31
0.0
  0
LINE
  5
1A6
  8
0
  6
CONTINUOUS
 62
     7
 10
-697.3740900025
 20
60.5448963807
 30
0.0
 11
-874.8740906917
 21
60.5448963807
 31
0.0
  0
ARC
  5
1A7
  8
0
  6
CONTINUOUS
 62
     7
 10
-874.8740802617
 20
356.0448873552
 30
0.0
 40
3.000010456049276
 50
90.000199197
 51
179.999916418
  0
LINE
  5
1A8
  8
0
  6
CONTINUOUS
 62
     7
 10
-874.8740906917
 20
359.0448978113
 30
0.0
 11
-719.5918107495
 21
359.0448978113
 31
0.0
  0
LINE
  5
1A9
  8
0
  6
CONTINUOUS
 62
     7
 10
-874.8740906917
 20
357.5448873208
 30
0.0
 11
-697.3740900025
 21
357.5448873208
 31
0.0
  0
ARC
  5
1AA
  8
0
  6
CONTINUOUS
 62
     7
 10
-874.8740760537
 20
62.0449005544
 30
0.0
 40
3.000014664104132
 50
180.0001639491
 51
269.9997204359
  0
LINE
  5
1AB
  8
0
  6
CONTINUOUS
 62
     7
 10
-513.1782266489
 20
59.0448858903
 30
0.0
 11
-513.1782266489
 21
359.0448978113
 31
0.0
  0
LINE
  5
1AC
  8
0
  6
CONTINUOUS
 62
     7
 10
-503.1782361856
 20
359.0448978113
 30
0.0
 11
-503.1782361856
 21
59.0448858903
 31
0.0
  0
LINE
  5
1AD
  8
0
  6
CONTINUOUS
 62
     7
 10
-85.1782235494
 20
59.0448858903
 30
0.0
 11
-85.1782235494
 21
359.0448978113
 31
0.0
  0
LINE
  5
1AE
  8
0
  6
CONTINUOUS
 62
     7
 10
-75.1782330862
 20
359.0448978113
 30
0.0
 11
-75.1782330862
 21
59.0448858903
 31
0.0
  0
LINE
  5
1AF
  8
0
  6
CONTINUOUS
 62
     7
 10
-471.1782309404
 20
58.7448957132
 30
0.0
 11
-483.3110246053
 21
58.7448957132
 31
0.0
  0
LINE
  5
1B0
  8
0
  6
CONTINUOUS
 62
     7
 10
-471.1782309404
 20
58.7448957132
 30
0.0
 11
-471.1782309404
 21
55.3448977636
 31
0.0
  0
LINE
  5
1B1
  8
0
  6
CONTINUOUS
 62
     7
 10
-483.3110246053
 20
55.3448977636
 30
0.0
 11
-471.1782309404
 21
55.3448977636
 31
0.0
  0
LINE
  5
1B2
  8
0
  6
CONTINUOUS
 62
     7
 10
-471.1782309404
 20
58.7448957132
 30
0.0
 11
-471.4782360187
 21
59.0448858903
 31
0.0
  0
LINE
  5
1B3
  8
0
  6
CONTINUOUS
 62
     7
 10
-471.4782360187
 20
55.0448926853
 30
0.0
 11
-483.0910387626
 21
55.0448926853
 31
0.0
  0
LINE
  5
1B4
  8
0
  6
CONTINUOUS
 62
     7
 10
-471.1782309404
 20
55.3448977636
 30
0.0
 11
-471.4782360187
 21
55.0448926853
 31
0.0
  0
LINE
  5
1B5
  8
0
  6
CONTINUOUS
 62
     7
 10
-483.3110246053
 20
58.7448957132
 30
0.0
 11
-513.3113089195
 21
58.7448957132
 31
0.0
  0
LINE
  5
1B6
  8
0
  6
CONTINUOUS
 62
     7
 10
-513.3113089195
 20
55.3448977636
 30
0.0
 11
-483.3110246053
 21
55.3448977636
 31
0.0
  0
LINE
  5
1B7
  8
0
  6
CONTINUOUS
 62
     7
 10
-513.0913379779
 20
59.0448858903
 30
0.0
 11
-492.6775220028
 21
59.0448858903
 31
0.0
  0
LINE
  5
1B8
  8
0
  6
CONTINUOUS
 62
     7
 10
-483.0910387626
 20
55.0448926853
 30
0.0
 11
-513.0913379779
 21
55.0448926853
 31
0.0
  0
LINE
  5
1B9
  8
0
  6
CONTINUOUS
 62
     7
 10
-513.3113089195
 20
58.7448957132
 30
0.0
 11
-514.1782286754
 21
58.7448957132
 31
0.0
  0
LINE
  5
1BA
  8
0
  6
CONTINUOUS
 62
     7
 10
-514.1782286754
 20
55.3448977636
 30
0.0
 11
-513.3113089195
 21
55.3448977636
 31
0.0
  0
LINE
  5
1BB
  8
0
  6
CONTINUOUS
 62
     7
 10
-514.1782286754
 20
55.3448977636
 30
0.0
 11
-514.1782286754
 21
58.7448957132
 31
0.0
  0
LINE
  5
1BC
  8
0
  6
CONTINUOUS
 62
     7
 10
-514.1782286754
 20
58.7448957132
 30
0.0
 11
-513.8782235971
 21
59.0448858903
 31
0.0
  0
LINE
  5
1BD
  8
0
  6
CONTINUOUS
 62
     7
 10
-513.8782235971
 20
59.0448858903
 30
0.0
 11
-513.0913379779
 21
59.0448858903
 31
0.0
  0
LINE
  5
1BE
  8
0
  6
CONTINUOUS
 62
     7
 10
-513.8782235971
 20
55.0448926853
 30
0.0
 11
-514.1782286754
 21
55.3448977636
 31
0.0
  0
LINE
  5
1BF
  8
0
  6
CONTINUOUS
 62
     7
 10
-513.0913379779
 20
55.0448926853
 30
0.0
 11
-513.8782235971
 21
55.0448926853
 31
0.0
  0
LINE
  5
1C0
  8
0
  6
CONTINUOUS
 62
     7
 10
-471.1782309404
 20
362.744885938
 30
0.0
 11
-483.3110246053
 21
362.744885938
 31
0.0
  0
LINE
  5
1C1
  8
0
  6
CONTINUOUS
 62
     7
 10
-471.1782309404
 20
362.744885938
 30
0.0
 11
-471.1782309404
 21
359.3448879884
 31
0.0
  0
LINE
  5
1C2
  8
0
  6
CONTINUOUS
 62
     7
 10
-483.3110246053
 20
359.3448879884
 30
0.0
 11
-471.1782309404
 21
359.3448879884
 31
0.0
  0
LINE
  5
1C3
  8
0
  6
CONTINUOUS
 62
     7
 10
-483.0910387626
 20
363.0448910163
 30
0.0
 11
-471.4782360187
 21
363.0448910163
 31
0.0
  0
LINE
  5
1C4
  8
0
  6
CONTINUOUS
 62
     7
 10
-471.1782309404
 20
362.744885938
 30
0.0
 11
-471.4782360187
 21
363.0448910163
 31
0.0
  0
LINE
  5
1C5
  8
0
  6
CONTINUOUS
 62
     7
 10
-471.1782309404
 20
359.3448879884
 30
0.0
 11
-471.4782360187
 21
359.0448978113
 31
0.0
  0
LINE
  5
1C6
  8
0
  6
CONTINUOUS
 62
     7
 10
-483.3110246053
 20
362.744885938
 30
0.0
 11
-513.3113089195
 21
362.744885938
 31
0.0
  0
LINE
  5
1C7
  8
0
  6
CONTINUOUS
 62
     7
 10
-513.3113089195
 20
359.3448879884
 30
0.0
 11
-483.3110246053
 21
359.3448879884
 31
0.0
  0
LINE
  5
1C8
  8
0
  6
CONTINUOUS
 62
     7
 10
-513.0913379779
 20
363.0448910163
 30
0.0
 11
-483.0910387626
 21
363.0448910163
 31
0.0
  0
LINE
  5
1C9
  8
0
  6
CONTINUOUS
 62
     7
 10
-492.6775220028
 20
359.0448978113
 30
0.0
 11
-513.0913379779
 21
359.0448978113
 31
0.0
  0
LINE
  5
1CA
  8
0
  6
CONTINUOUS
 62
     7
 10
-513.3113089195
 20
362.744885938
 30
0.0
 11
-514.1782286754
 21
362.744885938
 31
0.0
  0
LINE
  5
1CB
  8
0
  6
CONTINUOUS
 62
     7
 10
-514.1782286754
 20
359.3448879884
 30
0.0
 11
-513.3113089195
 21
359.3448879884
 31
0.0
  0
LINE
  5
1CC
  8
0
  6
CONTINUOUS
 62
     7
 10
-514.1782286754
 20
359.3448879884
 30
0.0
 11
-514.1782286754
 21
362.744885938
 31
0.0
  0
LINE
  5
1CD
  8
0
  6
CONTINUOUS
 62
     7
 10
-514.1782286754
 20
362.744885938
 30
0.0
 11
-513.8782235971
 21
363.0448910163
 31
0.0
  0
LINE
  5
1CE
  8
0
  6
CONTINUOUS
 62
     7
 10
-513.8782235971
 20
363.0448910163
 30
0.0
 11
-513.0913379779
 21
363.0448910163
 31
0.0
  0
LINE
  5
1CF
  8
0
  6
CONTINUOUS
 62
     7
 10
-513.8782235971
 20
359.0448978113
 30
0.0
 11
-514.1782286754
 21
359.3448879884
 31
0.0
  0
LINE
  5
1D0
  8
0
  6
CONTINUOUS
 62
     7
 10
-513.0913379779
 20
359.0448978113
 30
0.0
 11
-513.8782235971
 21
359.0448978113
 31
0.0
  0
LINE
  5
1D1
  8
0
  6
CONTINUOUS
 62
     7
 10
-117.1782287946
 20
359.3448879884
 30
0.0
 11
-105.0454351297
 21
359.3448879884
 31
0.0
  0
LINE
  5
1D2
  8
0
  6
CONTINUOUS
 62
     7
 10
-117.1782287946
 20
359.3448879884
 30
0.0
 11
-117.1782287946
 21
362.744885938
 31
0.0
  0
LINE
  5
1D3
  8
0
  6
CONTINUOUS
 62
     7
 10
-105.0454351297
 20
362.744885938
 30
0.0
 11
-117.1782287946
 21
362.744885938
 31
0.0
  0
LINE
  5
1D4
  8
0
  6
CONTINUOUS
 62
     7
 10
-117.1782287946
 20
359.3448879884
 30
0.0
 11
-116.8782237163
 21
359.0448978113
 31
0.0
  0
LINE
  5
1D5
  8
0
  6
CONTINUOUS
 62
     7
 10
-116.8782237163
 20
363.0448910163
 30
0.0
 11
-105.2654209724
 21
363.0448910163
 31
0.0
  0
LINE
  5
1D6
  8
0
  6
CONTINUOUS
 62
     7
 10
-117.1782287946
 20
362.744885938
 30
0.0
 11
-116.8782237163
 21
363.0448910163
 31
0.0
  0
LINE
  5
1D7
  8
0
  6
CONTINUOUS
 62
     7
 10
-105.0454351297
 20
359.3448879884
 30
0.0
 11
-75.0451508155
 21
359.3448879884
 31
0.0
  0
LINE
  5
1D8
  8
0
  6
CONTINUOUS
 62
     7
 10
-75.2651217571
 20
359.0448978113
 30
0.0
 11
-95.6789377323
 21
359.0448978113
 31
0.0
  0
LINE
  5
1D9
  8
0
  6
CONTINUOUS
 62
     7
 10
-75.0451508155
 20
362.744885938
 30
0.0
 11
-105.0454351297
 21
362.744885938
 31
0.0
  0
LINE
  5
1DA
  8
0
  6
CONTINUOUS
 62
     7
 10
-105.2654209724
 20
363.0448910163
 30
0.0
 11
-75.2651217571
 21
363.0448910163
 31
0.0
  0
LINE
  5
1DB
  8
0
  6
CONTINUOUS
 62
     7
 10
-75.0451508155
 20
359.3448879884
 30
0.0
 11
-74.1782310596
 21
359.3448879884
 31
0.0
  0
LINE
  5
1DC
  8
0
  6
CONTINUOUS
 62
     7
 10
-74.1782310596
 20
362.744885938
 30
0.0
 11
-75.0451508155
 21
362.744885938
 31
0.0
  0
LINE
  5
1DD
  8
0
  6
CONTINUOUS
 62
     7
 10
-74.1782310596
 20
362.744885938
 30
0.0
 11
-74.1782310596
 21
359.3448879884
 31
0.0
  0
LINE
  5
1DE
  8
0
  6
CONTINUOUS
 62
     7
 10
-74.1782310596
 20
359.3448879884
 30
0.0
 11
-74.4782361379
 21
359.0448978113
 31
0.0
  0
LINE
  5
1DF
  8
0
  6
CONTINUOUS
 62
     7
 10
-74.4782361379
 20
359.0448978113
 30
0.0
 11
-75.2651217571
 21
359.0448978113
 31
0.0
  0
LINE
  5
1E0
  8
0
  6
CONTINUOUS
 62
     7
 10
-74.4782361379
 20
363.0448910163
 30
0.0
 11
-74.1782310596
 21
362.744885938
 31
0.0
  0
LINE
  5
1E1
  8
0
  6
CONTINUOUS
 62
     7
 10
-75.2651217571
 20
363.0448910163
 30
0.0
 11
-74.4782361379
 21
363.0448910163
 31
0.0
  0
LINE
  5
1E2
  8
0
  6
CONTINUOUS
 62
     7
 10
-117.1782287946
 20
55.3448977636
 30
0.0
 11
-105.0454351297
 21
55.3448977636
 31
0.0
  0
LINE
  5
1E3
  8
0
  6
CONTINUOUS
 62
     7
 10
-105.2654209724
 20
55.0448926853
 30
0.0
 11
-116.8782237163
 21
55.0448926853
 31
0.0
  0
LINE
  5
1E4
  8
0
  6
CONTINUOUS
 62
     7
 10
-117.1782287946
 20
55.3448977636
 30
0.0
 11
-116.8782237163
 21
55.0448926853
 31
0.0
  0
LINE
  5
1E5
  8
0
  6
CONTINUOUS
 62
     7
 10
-117.1782287946
 20
55.3448977636
 30
0.0
 11
-117.1782287946
 21
58.7448957132
 31
0.0
  0
LINE
  5
1E6
  8
0
  6
CONTINUOUS
 62
     7
 10
-105.0454351297
 20
58.7448957132
 30
0.0
 11
-117.1782287946
 21
58.7448957132
 31
0.0
  0
LINE
  5
1E7
  8
0
  6
CONTINUOUS
 62
     7
 10
-117.1782287946
 20
58.7448957132
 30
0.0
 11
-116.8782237163
 21
59.0448858903
 31
0.0
  0
LINE
  5
1E8
  8
0
  6
CONTINUOUS
 62
     7
 10
-105.0454351297
 20
55.3448977636
 30
0.0
 11
-75.0451508155
 21
55.3448977636
 31
0.0
  0
LINE
  5
1E9
  8
0
  6
CONTINUOUS
 62
     7
 10
-75.0451508155
 20
58.7448957132
 30
0.0
 11
-105.0454351297
 21
58.7448957132
 31
0.0
  0
LINE
  5
1EA
  8
0
  6
CONTINUOUS
 62
     7
 10
-75.2651217571
 20
55.0448926853
 30
0.0
 11
-105.2654209724
 21
55.0448926853
 31
0.0
  0
LINE
  5
1EB
  8
0
  6
CONTINUOUS
 62
     7
 10
-95.6789377323
 20
59.0448858903
 30
0.0
 11
-75.2651217571
 21
59.0448858903
 31
0.0
  0
LINE
  5
1EC
  8
0
  6
CONTINUOUS
 62
     7
 10
-75.0451508155
 20
55.3448977636
 30
0.0
 11
-74.1782310596
 21
55.3448977636
 31
0.0
  0
LINE
  5
1ED
  8
0
  6
CONTINUOUS
 62
     7
 10
-74.1782310596
 20
58.7448957132
 30
0.0
 11
-75.0451508155
 21
58.7448957132
 31
0.0
  0
LINE
  5
1EE
  8
0
  6
CONTINUOUS
 62
     7
 10
-74.1782310596
 20
58.7448957132
 30
0.0
 11
-74.1782310596
 21
55.3448977636
 31
0.0
  0
LINE
  5
1EF
  8
0
  6
CONTINUOUS
 62
     7
 10
-74.1782310596
 20
55.3448977636
 30
0.0
 11
-74.4782361379
 21
55.0448926853
 31
0.0
  0
LINE
  5
1F0
  8
0
  6
CONTINUOUS
 62
     7
 10
-74.4782361379
 20
55.0448926853
 30
0.0
 11
-75.2651217571
 21
55.0448926853
 31
0.0
  0
LINE
  5
1F1
  8
0
  6
CONTINUOUS
 62
     7
 10
-74.4782361379
 20
59.0448858903
 30
0.0
 11
-74.1782310596
 21
58.7448957132
 31
0.0
  0
LINE
  5
1F2
  8
0
  6
CONTINUOUS
 62
     7
 10
-75.2651217571
 20
59.0448858903
 30
0.0
 11
-74.4782361379
 21
59.0448858903
 31
0.0
  0
LINE
  5
1F3
  8
0
  6
CONTINUOUS
 62
     7
 10
-92.5782296053
 20
193.0448910908
 30
0.0
 11
-94.1782268873
 21
193.0448910908
 31
0.0
  0
LINE
  5
1F4
  8
0
  6
CONTINUOUS
 62
     7
 10
-94.1782268873
 20
225.0448926108
 30
0.0
 11
-92.5782296053
 21
225.0448926108
 31
0.0
  0
LINE
  5
1F5
  8
0
  6
CONTINUOUS
 62
     7
 10
-92.5782296053
 20
225.0448926108
 30
0.0
 11
-92.5782296053
 21
193.0448910908
 31
0.0
  0
LINE
  5
1F6
  8
0
  6
CONTINUOUS
 62
     7
 10
-88.1782296291
 20
197.0448917465
 30
0.0
 11
-92.5782296053
 21
193.0448910908
 31
0.0
  0
LINE
  5
1F7
  8
0
  6
CONTINUOUS
 62
     7
 10
-92.5782296053
 20
225.0448926108
 30
0.0
 11
-88.1782296291
 21
221.0448919551
 31
0.0
  0
LINE
  5
1F8
  8
0
  6
CONTINUOUS
 62
     7
 10
-88.1782296291
 20
197.0448917465
 30
0.0
 11
-88.1782296291
 21
221.0448919551
 31
0.0
  0
POLYLINE
  5
1F9
  8
0
  6
CONTINUOUS
 62
     7
 66
     1
 10
0.0
 20
0.0
 30
0.0
  0
VERTEX
  5
531
  8
0
  6
CONTINUOUS
 62
     7
 10
-491.1782267681
 20
356.0448917316
 30
0.0
  0
VERTEX
  5
532
  8
0
  6
CONTINUOUS
 62
     7
 10
-491.6991713634
 20
356.30524482
 30
0.0
  0
VERTEX
  5
533
  8
0
  6
CONTINUOUS
 62
     7
 10
-492.2042909256
 20
356.5576853917
 30
0.0
  0
VERTEX
  5
534
  8
0
  6
CONTINUOUS
 62
     7
 10
-492.6782372585
 20
356.7945393489
 30
0.0
  0
VERTEX
  5
535
  8
0
  6
CONTINUOUS
 62
     7
 10
-493.1065860382
 20
357.0086243318
 30
0.0
  0
VERTEX
  5
536
  8
0
  6
CONTINUOUS
 62
     7
 10
-493.4763583532
 20
357.1934136318
 30
0.0
  0
VERTEX
  5
537
  8
0
  6
CONTINUOUS
 62
     7
 10
-493.7763038269
 20
357.3433193134
 30
0.0
  0
VERTEX
  5
538
  8
0
  6
CONTINUOUS
 62
     7
 10
-493.9973029485
 20
357.4537667201
 30
0.0
  0
VERTEX
  5
539
  8
0
  6
CONTINUOUS
 62
     7
 10
-494.1326501957
 20
357.5214030908
 30
0.0
  0
VERTEX
  5
53A
  8
0
  6
CONTINUOUS
 62
     7
 10
-494.1782328478
 20
357.5441869663
 30
0.0
  0
SEQEND
  5
53B
  8
0
  6
CONTINUOUS
 62
     7
  0
LINE
  5
1FA
  8
0
  6
CONTINUOUS
 62
     7
 10
-492.6782372585
 20
357.5441869663
 30
0.0
 11
-494.1782328478
 21
357.5441869663
 31
0.0
  0
POLYLINE
  5
1FB
  8
0
  6
CONTINUOUS
 62
     7
 66
     1
 10
0.0
 20
0.0
 30
0.0
  0
VERTEX
  5
53C
  8
0
  6
CONTINUOUS
 62
     7
 10
-491.1782267681
 20
356.0448917316
 30
0.0
  0
VERTEX
  5
53D
  8
0
  6
CONTINUOUS
 62
     7
 10
-491.4386990657
 20
356.30524482
 30
0.0
  0
VERTEX
  5
53E
  8
0
  6
CONTINUOUS
 62
     7
 10
-491.6912588468
 20
356.5576853917
 30
0.0
  0
VERTEX
  5
53F
  8
0
  6
CONTINUOUS
 62
     7
 10
-491.9282320133
 20
356.7945393489
 30
0.0
  0
VERTEX
  5
540
  8
0
  6
CONTINUOUS
 62
     7
 10
-492.1424064031
 20
357.0086243318
 30
0.0
  0
VERTEX
  5
541
  8
0
  6
CONTINUOUS
 62
     7
 10
-492.3273000112
 20
357.1934136318
 30
0.0
  0
VERTEX
  5
542
  8
0
  6
CONTINUOUS
 62
     7
 10
-492.4772652975
 20
357.3433193134
 30
0.0
  0
VERTEX
  5
543
  8
0
  6
CONTINUOUS
 62
     7
 10
-492.5877723089
 20
357.4537667201
 30
0.0
  0
VERTEX
  5
544
  8
0
  6
CONTINUOUS
 62
     7
 10
-492.6554384819
 20
357.5214030908
 30
0.0
  0
VERTEX
  5
545
  8
0
  6
CONTINUOUS
 62
     7
 10
-492.6782372585
 20
357.5441869663
 30
0.0
  0
SEQEND
  5
546
  8
0
  6
CONTINUOUS
 62
     7
  0
POLYLINE
  5
1FC
  8
0
  6
CONTINUOUS
 62
     7
 66
     1
 10
0.0
 20
0.0
 30
0.0
  0
VERTEX
  5
547
  8
0
  6
CONTINUOUS
 62
     7
 10
-494.1782328478
 20
60.5455967353
 30
0.0
  0
VERTEX
  5
548
  8
0
  6
CONTINUOUS
 62
     7
 10
-494.1326501957
 20
60.5683806108
 30
0.0
  0
VERTEX
  5
549
  8
0
  6
CONTINUOUS
 62
     7
 10
-493.9973029485
 20
60.6360169814
 30
0.0
  0
VERTEX
  5
54A
  8
0
  6
CONTINUOUS
 62
     7
 10
-493.7763038269
 20
60.7464643882
 30
0.0
  0
VERTEX
  5
54B
  8
0
  6
CONTINUOUS
 62
     7
 10
-493.4763583532
 20
60.8963700698
 30
0.0
  0
VERTEX
  5
54C
  8
0
  6
CONTINUOUS
 62
     7
 10
-493.1065860382
 20
61.0811593698
 30
0.0
  0
VERTEX
  5
54D
  8
0
  6
CONTINUOUS
 62
     7
 10
-492.6782372585
 20
61.2952443527
 30
0.0
  0
VERTEX
  5
54E
  8
0
  6
CONTINUOUS
 62
     7
 10
-492.2042909256
 20
61.5320983098
 30
0.0
  0
VERTEX
  5
54F
  8
0
  6
CONTINUOUS
 62
     7
 10
-491.6991713634
 20
61.7845388816
 30
0.0
  0
VERTEX
  5
550
  8
0
  6
CONTINUOUS
 62
     7
 10
-491.1782267681
 20
62.04489197
 30
0.0
  0
SEQEND
  5
551
  8
0
  6
CONTINUOUS
 62
     7
  0
LINE
  5
1FD
  8
0
  6
CONTINUOUS
 62
     7
 10
-494.1782328478
 20
60.5455967353
 30
0.0
 11
-494.1782328478
 21
357.5441869663
 31
0.0
  0
POLYLINE
  5
1FE
  8
0
  6
CONTINUOUS
 62
     7
 66
     1
 10
0.0
 20
0.0
 30
0.0
  0
VERTEX
  5
552
  8
0
  6
CONTINUOUS
 62
     7
 10
-492.6782372585
 20
60.5455967353
 30
0.0
  0
VERTEX
  5
553
  8
0
  6
CONTINUOUS
 62
     7
 10
-492.6554384819
 20
60.5683806108
 30
0.0
  0
VERTEX
  5
554
  8
0
  6
CONTINUOUS
 62
     7
 10
-492.5877723089
 20
60.6360169814
 30
0.0
  0
VERTEX
  5
555
  8
0
  6
CONTINUOUS
 62
     7
 10
-492.4772652975
 20
60.7464643882
 30
0.0
  0
VERTEX
  5
556
  8
0
  6
CONTINUOUS
 62
     7
 10
-492.3273000112
 20
60.8963700698
 30
0.0
  0
VERTEX
  5
557
  8
0
  6
CONTINUOUS
 62
     7
 10
-492.1424064031
 20
61.0811593698
 30
0.0
  0
VERTEX
  5
558
  8
0
  6
CONTINUOUS
 62
     7
 10
-491.9282320133
 20
61.2952443527
 30
0.0
  0
VERTEX
  5
559
  8
0
  6
CONTINUOUS
 62
     7
 10
-491.6912588468
 20
61.5320983098
 30
0.0
  0
VERTEX
  5
55A
  8
0
  6
CONTINUOUS
 62
     7
 10
-491.4386990657
 20
61.7845388816
 30
0.0
  0
VERTEX
  5
55B
  8
0
  6
CONTINUOUS
 62
     7
 10
-491.1782267681
 20
62.04489197
 30
0.0
  0
SEQEND
  5
55C
  8
0
  6
CONTINUOUS
 62
     7
  0
LINE
  5
1FF
  8
0
  6
CONTINUOUS
 62
     7
 10
-492.6782372585
 20
60.5455967353
 30
0.0
 11
-494.1782328478
 21
60.5455967353
 31
0.0
  0
POLYLINE
  5
200
  8
0
  6
CONTINUOUS
 62
     7
 66
     1
 10
0.0
 20
0.0
 30
0.0
  0
VERTEX
  5
55D
  8
0
  6
CONTINUOUS
 62
     7
 10
-492.6775220028
 20
359.0448978113
 30
0.0
  0
VERTEX
  5
55E
  8
0
  6
CONTINUOUS
 62
     7
 10
-492.6547381273
 20
358.9993151592
 30
0.0
  0
VERTEX
  5
55F
  8
0
  6
CONTINUOUS
 62
     7
 10
-492.5871017566
 20
358.863967912
 30
0.0
  0
VERTEX
  5
560
  8
0
  6
CONTINUOUS
 62
     7
 10
-492.4766543499
 20
358.6429687904
 30
0.0
  0
VERTEX
  5
561
  8
0
  6
CONTINUOUS
 62
     7
 10
-492.3267486683
 20
358.3430233167
 30
0.0
  0
VERTEX
  5
562
  8
0
  6
CONTINUOUS
 62
     7
 10
-492.1419593683
 20
357.9732510017
 30
0.0
  0
VERTEX
  5
563
  8
0
  6
CONTINUOUS
 62
     7
 10
-491.9278743854
 20
357.5448873208
 30
0.0
  0
VERTEX
  5
564
  8
0
  6
CONTINUOUS
 62
     7
 10
-491.6910204282
 20
357.0709558891
 30
0.0
  0
VERTEX
  5
565
  8
0
  6
CONTINUOUS
 62
     7
 10
-491.4385798565
 20
356.5658363269
 30
0.0
  0
VERTEX
  5
566
  8
0
  6
CONTINUOUS
 62
     7
 10
-491.1782267681
 20
356.0448917316
 30
0.0
  0
SEQEND
  5
567
  8
0
  6
CONTINUOUS
 62
     7
  0
POLYLINE
  5
201
  8
0
  6
CONTINUOUS
 62
     7
 66
     1
 10
0.0
 20
0.0
 30
0.0
  0
VERTEX
  5
568
  8
0
  6
CONTINUOUS
 62
     7
 10
-492.6775220028
 20
357.5448873208
 30
0.0
  0
VERTEX
  5
569
  8
0
  6
CONTINUOUS
 62
     7
 10
-492.6487180582
 20
357.5160684751
 30
0.0
  0
VERTEX
  5
56A
  8
0
  6
CONTINUOUS
 62
     7
 10
-492.5633940092
 20
357.4307146238
 30
0.0
  0
VERTEX
  5
56B
  8
0
  6
CONTINUOUS
 62
     7
 10
-492.4248430124
 20
357.2920891212
 30
0.0
  0
VERTEX
  5
56C
  8
0
  6
CONTINUOUS
 62
     7
 10
-492.2383847824
 20
357.1055563854
 30
0.0
  0
VERTEX
  5
56D
  8
0
  6
CONTINUOUS
 62
     7
 10
-492.0111867777
 20
356.8782540725
 30
0.0
  0
VERTEX
  5
56E
  8
0
  6
CONTINUOUS
 62
     7
 10
-491.7519810787
 20
356.6189142631
 30
0.0
  0
VERTEX
  5
56F
  8
0
  6
CONTINUOUS
 62
     7
 10
-491.4707216612
 20
356.3375207351
 30
0.0
  0
VERTEX
  5
570
  8
0
  6
CONTINUOUS
 62
     7
 10
-491.1782267681
 20
356.0448917316
 30
0.0
  0
SEQEND
  5
571
  8
0
  6
CONTINUOUS
 62
     7
  0
LINE
  5
202
  8
0
  6
CONTINUOUS
 62
     7
 10
-492.6775220028
 20
357.5448873208
 30
0.0
 11
-492.6775220028
 21
359.0448978113
 31
0.0
  0
LINE
  5
203
  8
0
  6
CONTINUOUS
 62
     7
 10
-492.6775220028
 20
359.0448978113
 30
0.0
 11
-95.6789377323
 21
359.0448978113
 31
0.0
  0
POLYLINE
  5
204
  8
0
  6
CONTINUOUS
 62
     7
 66
     1
 10
0.0
 20
0.0
 30
0.0
  0
VERTEX
  5
572
  8
0
  6
CONTINUOUS
 62
     7
 10
-97.178232967
 20
356.0448917316
 30
0.0
  0
VERTEX
  5
573
  8
0
  6
CONTINUOUS
 62
     7
 10
-96.8857380739
 20
356.6301646398
 30
0.0
  0
VERTEX
  5
574
  8
0
  6
CONTINUOUS
 62
     7
 10
-96.6044786564
 20
357.1929367946
 30
0.0
  0
VERTEX
  5
575
  8
0
  6
CONTINUOUS
 62
     7
 10
-96.3452729574
 20
357.7116015123
 30
0.0
  0
VERTEX
  5
576
  8
0
  6
CONTINUOUS
 62
     7
 10
-96.1180749527
 20
358.166206138
 30
0.0
  0
VERTEX
  5
577
  8
0
  6
CONTINUOUS
 62
     7
 10
-95.9316167226
 20
358.539301412
 30
0.0
  0
VERTEX
  5
578
  8
0
  6
CONTINUOUS
 62
     7
 10
-95.7930657259
 20
358.816537516
 30
0.0
  0
VERTEX
  5
579
  8
0
  6
CONTINUOUS
 62
     7
 10
-95.7077416769
 20
358.9872452186
 30
0.0
  0
VERTEX
  5
57A
  8
0
  6
CONTINUOUS
 62
     7
 10
-95.6789377323
 20
359.0448978113
 30
0.0
  0
SEQEND
  5
57B
  8
0
  6
CONTINUOUS
 62
     7
  0
POLYLINE
  5
205
  8
0
  6
CONTINUOUS
 62
     7
 66
     1
 10
0.0
 20
0.0
 30
0.0
  0
VERTEX
  5
57C
  8
0
  6
CONTINUOUS
 62
     7
 10
-95.6789377323
 20
59.0448858903
 30
0.0
  0
VERTEX
  5
57D
  8
0
  6
CONTINUOUS
 62
     7
 10
-95.7017216077
 20
59.0904685424
 30
0.0
  0
VERTEX
  5
57E
  8
0
  6
CONTINUOUS
 62
     7
 10
-95.7693579784
 20
59.2258157895
 30
0.0
  0
VERTEX
  5
57F
  8
0
  6
CONTINUOUS
 62
     7
 10
-95.8798053852
 20
59.4468149112
 30
0.0
  0
VERTEX
  5
580
  8
0
  6
CONTINUOUS
 62
     7
 10
-96.0297110668
 20
59.7467603849
 30
0.0
  0
VERTEX
  5
581
  8
0
  6
CONTINUOUS
 62
     7
 10
-96.2145003668
 20
60.1165326999
 30
0.0
  0
VERTEX
  5
582
  8
0
  6
CONTINUOUS
 62
     7
 10
-96.4285853496
 20
60.5448963807
 30
0.0
  0
VERTEX
  5
583
  8
0
  6
CONTINUOUS
 62
     7
 10
-96.6654393068
 20
61.0188278125
 30
0.0
  0
VERTEX
  5
584
  8
0
  6
CONTINUOUS
 62
     7
 10
-96.9178798786
 20
61.5239473747
 30
0.0
  0
VERTEX
  5
585
  8
0
  6
CONTINUOUS
 62
     7
 10
-97.178232967
 20
62.04489197
 30
0.0
  0
SEQEND
  5
586
  8
0
  6
CONTINUOUS
 62
     7
  0
LINE
  5
206
  8
0
  6
CONTINUOUS
 62
     7
 10
-95.6789377323
 20
59.0448858903
 30
0.0
 11
-492.6775220028
 21
59.0448858903
 31
0.0
  0
POLYLINE
  5
207
  8
0
  6
CONTINUOUS
 62
     7
 66
     1
 10
0.0
 20
0.0
 30
0.0
  0
VERTEX
  5
587
  8
0
  6
CONTINUOUS
 62
     7
 10
-491.1782267681
 20
62.04489197
 30
0.0
  0
VERTEX
  5
588
  8
0
  6
CONTINUOUS
 62
     7
 10
-491.4385798565
 20
61.5239473747
 30
0.0
  0
VERTEX
  5
589
  8
0
  6
CONTINUOUS
 62
     7
 10
-491.6910204282
 20
61.0188278125
 30
0.0
  0
VERTEX
  5
58A
  8
0
  6
CONTINUOUS
 62
     7
 10
-491.9278743854
 20
60.5448963807
 30
0.0
  0
VERTEX
  5
58B
  8
0
  6
CONTINUOUS
 62
     7
 10
-492.1419593683
 20
60.1165326999
 30
0.0
  0
VERTEX
  5
58C
  8
0
  6
CONTINUOUS
 62
     7
 10
-492.3267486683
 20
59.7467603849
 30
0.0
  0
VERTEX
  5
58D
  8
0
  6
CONTINUOUS
 62
     7
 10
-492.4766543499
 20
59.4468149112
 30
0.0
  0
VERTEX
  5
58E
  8
0
  6
CONTINUOUS
 62
     7
 10
-492.5871017566
 20
59.2258157895
 30
0.0
  0
VERTEX
  5
58F
  8
0
  6
CONTINUOUS
 62
     7
 10
-492.6547381273
 20
59.0904685424
 30
0.0
  0
VERTEX
  5
590
  8
0
  6
CONTINUOUS
 62
     7
 10
-492.6775220028
 20
59.0448858903
 30
0.0
  0
SEQEND
  5
591
  8
0
  6
CONTINUOUS
 62
     7
  0
LINE
  5
208
  8
0
  6
CONTINUOUS
 62
     7
 10
-492.6775220028
 20
60.5448963807
 30
0.0
 11
-492.6775220028
 21
59.0448858903
 31
0.0
  0
POLYLINE
  5
209
  8
0
  6
CONTINUOUS
 62
     7
 66
     1
 10
0.0
 20
0.0
 30
0.0
  0
VERTEX
  5
592
  8
0
  6
CONTINUOUS
 62
     7
 10
-491.1782267681
 20
62.04489197
 30
0.0
  0
VERTEX
  5
593
  8
0
  6
CONTINUOUS
 62
     7
 10
-491.4385798565
 20
61.7844196723
 30
0.0
  0
VERTEX
  5
594
  8
0
  6
CONTINUOUS
 62
     7
 10
-491.6910204282
 20
61.5318598913
 30
0.0
  0
VERTEX
  5
595
  8
0
  6
CONTINUOUS
 62
     7
 10
-491.9278743854
 20
61.2948867248
 30
0.0
  0
VERTEX
  5
596
  8
0
  6
CONTINUOUS
 62
     7
 10
-492.1419593683
 20
61.080712335
 30
0.0
  0
VERTEX
  5
597
  8
0
  6
CONTINUOUS
 62
     7
 10
-492.3267486683
 20
60.8958187269
 30
0.0
  0
VERTEX
  5
598
  8
0
  6
CONTINUOUS
 62
     7
 10
-492.4766543499
 20
60.7458534406
 30
0.0
  0
VERTEX
  5
599
  8
0
  6
CONTINUOUS
 62
     7
 10
-492.5871017566
 20
60.6353464292
 30
0.0
  0
VERTEX
  5
59A
  8
0
  6
CONTINUOUS
 62
     7
 10
-492.6547381273
 20
60.5676802562
 30
0.0
  0
VERTEX
  5
59B
  8
0
  6
CONTINUOUS
 62
     7
 10
-492.6775220028
 20
60.5448963807
 30
0.0
  0
SEQEND
  5
59C
  8
0
  6
CONTINUOUS
 62
     7
  0
CIRCLE
  5
20A
  8
0
  6
CONTINUOUS
 62
     7
 10
-474.1782298675
 20
339.0448918508
 30
0.0
 40
4.500000000000057
  0
CIRCLE
  5
20B
  8
0
  6
CONTINUOUS
 62
     7
 10
-114.1782298675
 20
339.0448918508
 30
0.0
 40
4.500000000000028
  0
CIRCLE
  5
20C
  8
0
  6
CONTINUOUS
 62
     7
 10
-114.1782298675
 20
79.0448918508
 30
0.0
 40
4.500000000000043
  0
CIRCLE
  5
20D
  8
0
  6
CONTINUOUS
 62
     7
 10
-474.1782298675
 20
79.0448918508
 30
0.0
 40
4.500000000000057
  0
LINE
  5
20E
  8
0
  6
CONTINUOUS
 62
     7
 10
-95.6789377323
 20
357.5448873208
 30
0.0
 11
-95.6789377323
 21
359.0448978113
 31
0.0
  0
POLYLINE
  5
20F
  8
0
  6
CONTINUOUS
 62
     7
 66
     1
 10
0.0
 20
0.0
 30
0.0
  0
VERTEX
  5
59D
  8
0
  6
CONTINUOUS
 62
     7
 10
-97.178232967
 20
356.0448917316
 30
0.0
  0
VERTEX
  5
59E
  8
0
  6
CONTINUOUS
 62
     7
 10
-96.9178798786
 20
356.3053640293
 30
0.0
  0
VERTEX
  5
59F
  8
0
  6
CONTINUOUS
 62
     7
 10
-96.6654393068
 20
356.5579238103
 30
0.0
  0
VERTEX
  5
5A0
  8
0
  6
CONTINUOUS
 62
     7
 10
-96.4285853496
 20
356.7948969768
 30
0.0
  0
VERTEX
  5
5A1
  8
0
  6
CONTINUOUS
 62
     7
 10
-96.2145003668
 20
357.0090713666
 30
0.0
  0
VERTEX
  5
5A2
  8
0
  6
CONTINUOUS
 62
     7
 10
-96.0297110668
 20
357.1939649747
 30
0.0
  0
VERTEX
  5
5A3
  8
0
  6
CONTINUOUS
 62
     7
 10
-95.8798053852
 20
357.343930261
 30
0.0
  0
VERTEX
  5
5A4
  8
0
  6
CONTINUOUS
 62
     7
 10
-95.7693579784
 20
357.4544372724
 30
0.0
  0
VERTEX
  5
5A5
  8
0
  6
CONTINUOUS
 62
     7
 10
-95.7017216077
 20
357.5221034454
 30
0.0
  0
VERTEX
  5
5A6
  8
0
  6
CONTINUOUS
 62
     7
 10
-95.6789377323
 20
357.5448873208
 30
0.0
  0
SEQEND
  5
5A7
  8
0
  6
CONTINUOUS
 62
     7
  0
POLYLINE
  5
210
  8
0
  6
CONTINUOUS
 62
     7
 66
     1
 10
0.0
 20
0.0
 30
0.0
  0
VERTEX
  5
5A8
  8
0
  6
CONTINUOUS
 62
     7
 10
-94.1782268873
 20
357.5441869663
 30
0.0
  0
VERTEX
  5
5A9
  8
0
  6
CONTINUOUS
 62
     7
 10
-94.2238095394
 20
357.5214030908
 30
0.0
  0
VERTEX
  5
5AA
  8
0
  6
CONTINUOUS
 62
     7
 10
-94.3591567865
 20
357.4537667201
 30
0.0
  0
VERTEX
  5
5AB
  8
0
  6
CONTINUOUS
 62
     7
 10
-94.5801559082
 20
357.3433193134
 30
0.0
  0
VERTEX
  5
5AC
  8
0
  6
CONTINUOUS
 62
     7
 10
-94.8801013818
 20
357.1934136318
 30
0.0
  0
VERTEX
  5
5AD
  8
0
  6
CONTINUOUS
 62
     7
 10
-95.2498736969
 20
357.0086243318
 30
0.0
  0
VERTEX
  5
5AE
  8
0
  6
CONTINUOUS
 62
     7
 10
-95.6782224765
 20
356.7945393489
 30
0.0
  0
VERTEX
  5
5AF
  8
0
  6
CONTINUOUS
 62
     7
 10
-96.1521688095
 20
356.5576853917
 30
0.0
  0
VERTEX
  5
5B0
  8
0
  6
CONTINUOUS
 62
     7
 10
-96.6572883716
 20
356.30524482
 30
0.0
  0
VERTEX
  5
5B1
  8
0
  6
CONTINUOUS
 62
     7
 10
-97.178232967
 20
356.0448917316
 30
0.0
  0
SEQEND
  5
5B2
  8
0
  6
CONTINUOUS
 62
     7
  0
POLYLINE
  5
211
  8
0
  6
CONTINUOUS
 62
     7
 66
     1
 10
0.0
 20
0.0
 30
0.0
  0
VERTEX
  5
5B3
  8
0
  6
CONTINUOUS
 62
     7
 10
-95.6782224765
 20
357.5441869663
 30
0.0
  0
VERTEX
  5
5B4
  8
0
  6
CONTINUOUS
 62
     7
 10
-95.7010212532
 20
357.5214030908
 30
0.0
  0
VERTEX
  5
5B5
  8
0
  6
CONTINUOUS
 62
     7
 10
-95.7686874262
 20
357.4537667201
 30
0.0
  0
VERTEX
  5
5B6
  8
0
  6
CONTINUOUS
 62
     7
 10
-95.8791944376
 20
357.3433193134
 30
0.0
  0
VERTEX
  5
5B7
  8
0
  6
CONTINUOUS
 62
     7
 10
-96.0291597238
 20
357.1934136318
 30
0.0
  0
VERTEX
  5
5B8
  8
0
  6
CONTINUOUS
 62
     7
 10
-96.2140533319
 20
357.0086243318
 30
0.0
  0
VERTEX
  5
5B9
  8
0
  6
CONTINUOUS
 62
     7
 10
-96.4282277218
 20
356.7945393489
 30
0.0
  0
VERTEX
  5
5BA
  8
0
  6
CONTINUOUS
 62
     7
 10
-96.6652008882
 20
356.5576853917
 30
0.0
  0
VERTEX
  5
5BB
  8
0
  6
CONTINUOUS
 62
     7
 10
-96.9177606693
 20
356.30524482
 30
0.0
  0
VERTEX
  5
5BC
  8
0
  6
CONTINUOUS
 62
     7
 10
-97.178232967
 20
356.0448917316
 30
0.0
  0
SEQEND
  5
5BD
  8
0
  6
CONTINUOUS
 62
     7
  0
LINE
  5
212
  8
0
  6
CONTINUOUS
 62
     7
 10
-95.6782224765
 20
357.5441869663
 30
0.0
 11
-94.1782268873
 21
357.5441869663
 31
0.0
  0
LINE
  5
213
  8
0
  6
CONTINUOUS
 62
     7
 10
-94.1782268873
 20
357.5441869663
 30
0.0
 11
-94.1782268873
 21
60.5455967353
 31
0.0
  0
POLYLINE
  5
214
  8
0
  6
CONTINUOUS
 62
     7
 66
     1
 10
0.0
 20
0.0
 30
0.0
  0
VERTEX
  5
5BE
  8
0
  6
CONTINUOUS
 62
     7
 10
-97.178232967
 20
62.04489197
 30
0.0
  0
VERTEX
  5
5BF
  8
0
  6
CONTINUOUS
 62
     7
 10
-96.6572883716
 20
61.7845388816
 30
0.0
  0
VERTEX
  5
5C0
  8
0
  6
CONTINUOUS
 62
     7
 10
-96.1521688095
 20
61.5320983098
 30
0.0
  0
VERTEX
  5
5C1
  8
0
  6
CONTINUOUS
 62
     7
 10
-95.6782224765
 20
61.2952443527
 30
0.0
  0
VERTEX
  5
5C2
  8
0
  6
CONTINUOUS
 62
     7
 10
-95.2498736969
 20
61.0811593698
 30
0.0
  0
VERTEX
  5
5C3
  8
0
  6
CONTINUOUS
 62
     7
 10
-94.8801013818
 20
60.8963700698
 30
0.0
  0
VERTEX
  5
5C4
  8
0
  6
CONTINUOUS
 62
     7
 10
-94.5801559082
 20
60.7464643882
 30
0.0
  0
VERTEX
  5
5C5
  8
0
  6
CONTINUOUS
 62
     7
 10
-94.3591567865
 20
60.6360169814
 30
0.0
  0
VERTEX
  5
5C6
  8
0
  6
CONTINUOUS
 62
     7
 10
-94.2238095394
 20
60.5683806108
 30
0.0
  0
VERTEX
  5
5C7
  8
0
  6
CONTINUOUS
 62
     7
 10
-94.1782268873
 20
60.5455967353
 30
0.0
  0
SEQEND
  5
5C8
  8
0
  6
CONTINUOUS
 62
     7
  0
LINE
  5
215
  8
0
  6
CONTINUOUS
 62
     7
 10
-95.6782224765
 20
60.5455967353
 30
0.0
 11
-94.1782268873
 21
60.5455967353
 31
0.0
  0
POLYLINE
  5
216
  8
0
  6
CONTINUOUS
 62
     7
 66
     1
 10
0.0
 20
0.0
 30
0.0
  0
VERTEX
  5
5C9
  8
0
  6
CONTINUOUS
 62
     7
 10
-97.178232967
 20
62.04489197
 30
0.0
  0
VERTEX
  5
5CA
  8
0
  6
CONTINUOUS
 62
     7
 10
-96.8855890623
 20
61.7523970769
 30
0.0
  0
VERTEX
  5
5CB
  8
0
  6
CONTINUOUS
 62
     7
 10
-96.6042104355
 20
61.4711376594
 30
0.0
  0
VERTEX
  5
5CC
  8
0
  6
CONTINUOUS
 62
     7
 10
-96.344870626
 20
61.2119319604
 30
0.0
  0
VERTEX
  5
5CD
  8
0
  6
CONTINUOUS
 62
     7
 10
-96.1175683132
 20
60.9847339557
 30
0.0
  0
VERTEX
  5
5CE
  8
0
  6
CONTINUOUS
 62
     7
 10
-95.9310206762
 20
60.7982757257
 30
0.0
  0
VERTEX
  5
5CF
  8
0
  6
CONTINUOUS
 62
     7
 10
-95.7924100748
 20
60.6597247289
 30
0.0
  0
VERTEX
  5
5D0
  8
0
  6
CONTINUOUS
 62
     7
 10
-95.7070562235
 20
60.5744006799
 30
0.0
  0
VERTEX
  5
5D1
  8
0
  6
CONTINUOUS
 62
     7
 10
-95.6782224765
 20
60.5455967353
 30
0.0
  0
SEQEND
  5
5D2
  8
0
  6
CONTINUOUS
 62
     7
  0
POLYLINE
  5
217
  8
0
  6
CONTINUOUS
 62
     7
 66
     1
 10
0.0
 20
0.0
 30
0.0
  0
VERTEX
  5
5D3
  8
0
  6
CONTINUOUS
 62
     7
 10
-95.6789377323
 20
60.5448963807
 30
0.0
  0
VERTEX
  5
5D4
  8
0
  6
CONTINUOUS
 62
     7
 10
-95.7077416769
 20
60.5737152265
 30
0.0
  0
VERTEX
  5
5D5
  8
0
  6
CONTINUOUS
 62
     7
 10
-95.7930657259
 20
60.6590690778
 30
0.0
  0
VERTEX
  5
5D6
  8
0
  6
CONTINUOUS
 62
     7
 10
-95.9316167226
 20
60.7976945804
 30
0.0
  0
VERTEX
  5
5D7
  8
0
  6
CONTINUOUS
 62
     7
 10
-96.1180749527
 20
60.9842273162
 30
0.0
  0
VERTEX
  5
5D8
  8
0
  6
CONTINUOUS
 62
     7
 10
-96.3452729574
 20
61.2115296291
 30
0.0
  0
VERTEX
  5
5D9
  8
0
  6
CONTINUOUS
 62
     7
 10
-96.6044786564
 20
61.4708694385
 30
0.0
  0
VERTEX
  5
5DA
  8
0
  6
CONTINUOUS
 62
     7
 10
-96.8857380739
 20
61.7522629665
 30
0.0
  0
VERTEX
  5
5DB
  8
0
  6
CONTINUOUS
 62
     7
 10
-97.178232967
 20
62.04489197
 30
0.0
  0
SEQEND
  5
5DC
  8
0
  6
CONTINUOUS
 62
     7
  0
LINE
  5
218
  8
0
  6
CONTINUOUS
 62
     7
 10
-95.6789377323
 20
60.5448963807
 30
0.0
 11
-95.6789377323
 21
59.0448858903
 31
0.0
  0
LINE
  5
219
  8
0
  6
CONTINUOUS
 62
     7
 10
-473.1793376794
 20
80.0426783727
 30
0.0
 11
-477.3596647373
 21
75.862366216
 31
0.0
  0
LINE
  5
21A
  8
0
  6
CONTINUOUS
 62
     7
 10
-477.3492786279
 20
342.2377588914
 30
0.0
 11
-473.1793376794
 21
338.0525889562
 31
0.0
  0
ARC
  5
21B
  8
0
  6
CONTINUOUS
 62
     7
 10
-480.3720105948
 20
93.3558939054
 30
0.0
 40
15.13196125707263
 50
298.380828875
 51
308.6948120512
  0
ARC
  5
21C
  8
0
  6
CONTINUOUS
 62
     7
 10
-480.3902115552
 20
324.7549391168
 30
0.0
 40
15.12693601837717
 50
51.2015381923
 51
61.5304935622
  0
ARC
  5
21D
  8
0
  6
CONTINUOUS
 62
     7
 10
-107.9844491403
 20
324.7338897962
 30
0.0
 40
15.13196125707262
 50
118.380828875
 51
128.6948120512
  0
ARC
  5
21E
  8
0
  6
CONTINUOUS
 62
     7
 10
-107.9662481799
 20
93.3348445848
 30
0.0
 40
15.12693601837714
 50
231.2015381923
 51
241.5304935622
  0
LINE
  5
21F
  8
0
  6
CONTINUOUS
 62
     7
 10
-111.0071811071
 20
75.8520248102
 30
0.0
 11
-115.1771220556
 21
80.0371947454
 31
0.0
  0
LINE
  5
220
  8
0
  6
CONTINUOUS
 62
     7
 10
-115.1771220556
 20
338.0471053289
 30
0.0
 11
-110.9967949978
 21
342.2274174856
 31
0.0
  0
LINE
  5
221
  8
0
  6
CONTINUOUS
 62
     7
 10
-110.985350906
 20
342.2159435914
 30
0.0
 11
-115.1705357423
 21
338.046002643
 31
0.0
  0
LINE
  5
222
  8
0
  6
CONTINUOUS
 62
     7
 10
-473.1804403654
 20
338.046002643
 30
0.0
 11
-477.3607674232
 21
342.2263147996
 31
0.0
  0
LINE
  5
223
  8
0
  6
CONTINUOUS
 62
     7
 10
-477.3711088291
 20
75.8738401101
 30
0.0
 11
-473.1859239927
 21
80.0437810586
 31
0.0
  0
LINE
  5
224
  8
0
  6
CONTINUOUS
 62
     7
 10
-115.1760193697
 20
80.0437810586
 30
0.0
 11
-110.9956923118
 21
75.863468902
 31
0.0
  0
ARC
  5
225
  8
0
  6
CONTINUOUS
 62
     7
 10
-459.8679509736
 20
345.2381942465
 30
0.0
 40
15.13109361109454
 50
208.380532362
 51
218.6951085642
  0
ARC
  5
226
  8
0
  6
CONTINUOUS
 62
     7
 10
-128.467371218
 20
345.2563347601
 30
0.0
 40
15.12596188365362
 50
321.2012046884
 51
331.5308270661
  0
ARC
  5
227
  8
0
  6
CONTINUOUS
 62
     7
 10
-128.4885087614
 20
72.8515894551
 30
0.0
 40
15.13109361109459
 50
28.380532362
 51
38.6951085642
  0
ARC
  5
228
  8
0
  6
CONTINUOUS
 62
     7
 10
-459.8890885171
 20
72.8334489415
 30
0.0
 40
15.12596188365362
 50
141.2012046884
 51
151.5308270661
  0
LINE
  5
229
  8
0
  6
CONTINUOUS
 62
     7
 10
-1420.7308604807
 20
641.6513001703
 30
0.0
 11
-1419.1308631987
 21
641.6513001703
 31
0.0
  0
LINE
  5
22A
  8
0
  6
CONTINUOUS
 62
     7
 10
-1425.1308604569
 20
645.6513082765
 30
0.0
 11
-1420.7308604807
 21
641.6513001703
 31
0.0
  0
ARC
  5
22B
  8
0
  6
CONTINUOUS
 62
     7
 10
-1022.880860438
 20
710.3513055859
 30
0.0
 40
0.5000000000000778
 50
342.9285700805
 51
90.0
  0
ARC
  5
22C
  8
0
  6
CONTINUOUS
 62
     7
 10
-1414.280860438
 20
710.3513055859
 30
0.0
 40
0.5000000000000313
 50
90.0000000001
 51
265.5948036765
  0
ARC
  5
22D
  8
0
  6
CONTINUOUS
 62
     7
 10
-1409.080860438
 20
777.8513055859
 30
0.0
 40
68.20000000000027
 50
265.5948036765
 51
266.4059665061
  0
LINE
  5
22E
  8
0
  6
CONTINUOUS
 62
     7
 10
-1221.3308604394
 20
713.3513068937
 30
0.0
 11
-1221.3308604394
 21
712.3513048672
 31
0.0
  0
LINE
  5
22F
  8
0
  6
CONTINUOUS
 62
     7
 10
-1215.8308604692
 20
712.3513048672
 30
0.0
 11
-1215.8308604692
 21
713.3513068937
 31
0.0
  0
LINE
  5
230
  8
0
  6
CONTINUOUS
 62
     7
 10
-1038.3308544249
 20
713.3513068937
 30
0.0
 11
-1038.3308544249
 21
712.3513048672
 31
0.0
  0
LINE
  5
231
  8
0
  6
CONTINUOUS
 62
     7
 10
-1032.8308656305
 20
712.3513048672
 30
0.0
 11
-1032.8308656305
 21
713.3513068937
 31
0.0
  0
LINE
  5
232
  8
0
  6
CONTINUOUS
 62
     7
 10
-1404.3308659882
 20
713.3513068937
 30
0.0
 11
-1404.3308659882
 21
712.3513048672
 31
0.0
  0
LINE
  5
233
  8
0
  6
CONTINUOUS
 62
     7
 10
-1398.8308622927
 20
712.3513048672
 30
0.0
 11
-1398.8308622927
 21
713.3513068937
 31
0.0
  0
LINE
  5
234
  8
0
  6
CONTINUOUS
 62
     7
 10
-1030.8308615774
 20
713.3513068937
 30
0.0
 11
-1030.8308615774
 21
712.3513048672
 31
0.0
  0
LINE
  5
235
  8
0
  6
CONTINUOUS
 62
     7
 10
-1025.3308578819
 20
712.3513048672
 30
0.0
 11
-1025.3308578819
 21
713.3513068937
 31
0.0
  0
LINE
  5
236
  8
0
  6
CONTINUOUS
 62
     7
 10
-1411.8308588356
 20
713.3513068937
 30
0.0
 11
-1411.8308588356
 21
712.3513048672
 31
0.0
  0
LINE
  5
237
  8
0
  6
CONTINUOUS
 62
     7
 10
-1406.3308551401
 20
712.3513048672
 30
0.0
 11
-1406.3308551401
 21
713.3513068937
 31
0.0
  0
LINE
  5
238
  8
0
  6
CONTINUOUS
 62
     7
 10
-1030.3808614105
 20
693.1513076805
 30
0.0
 11
-1030.3808614105
 21
693.3713084244
 31
0.0
  0
LINE
  5
239
  8
0
  6
CONTINUOUS
 62
     7
 10
-1035.3808566422
 20
693.3713084244
 30
0.0
 11
-1035.3808566422
 21
693.1513076805
 31
0.0
  0
LINE
  5
23A
  8
0
  6
CONTINUOUS
 62
     7
 10
-1030.3808614105
 20
693.3713084244
 30
0.0
 11
-1030.7808532805
 21
693.7713002943
 31
0.0
  0
LINE
  5
23B
  8
0
  6
CONTINUOUS
 62
     7
 10
-1034.9808647722
 20
693.7713002943
 30
0.0
 11
-1035.3808566422
 21
693.3713084244
 31
0.0
  0
CIRCLE
  5
23C
  8
0
  6
CONTINUOUS
 62
     7
 10
-1035.1308602184
 20
678.6513060116
 30
0.0
 40
3.750000000000038
  0
CIRCLE
  5
23D
  8
0
  6
CONTINUOUS
 62
     7
 10
-1403.1308602184
 20
653.6513060116
 30
0.0
 40
3.749999999999886
  0
CIRCLE
  5
23E
  8
0
  6
CONTINUOUS
 62
     7
 10
-1403.1308602184
 20
678.6513060116
 30
0.0
 40
3.750000000000096
  0
CIRCLE
  5
23F
  8
0
  6
CONTINUOUS
 62
     7
 10
-1035.1308602184
 20
653.6513060116
 30
0.0
 40
3.750000000000359
  0
CIRCLE
  5
240
  8
0
  6
CONTINUOUS
 62
     7
 10
-1005.1308602184
 20
716.9513060116
 30
0.0
 40
3.060000000000039
  0
CIRCLE
  5
241
  8
0
  6
CONTINUOUS
 62
     7
 10
-1433.1308602184
 20
716.9513060116
 30
0.0
 40
3.060000000000141
  0
CIRCLE
  5
242
  8
0
  6
CONTINUOUS
 62
     7
 10
-1433.1308602184
 20
686.3513060116
 30
0.0
 40
3.059999999999881
  0
CIRCLE
  5
243
  8
0
  6
CONTINUOUS
 62
     7
 10
-1005.1308602184
 20
686.3513060116
 30
0.0
 40
3.060000000000138
  0
CIRCLE
  5
244
  8
0
  6
CONTINUOUS
 62
     7
 10
-1035.1308602184
 20
653.6513060116
 30
0.0
 40
3.199999999999932
  0
CIRCLE
  5
245
  8
0
  6
CONTINUOUS
 62
     7
 10
-1035.1308602184
 20
678.6513060116
 30
0.0
 40
3.199999999999932
  0
CIRCLE
  5
246
  8
0
  6
CONTINUOUS
 62
     7
 10
-1005.1308602184
 20
716.9513060116
 30
0.0
 40
2.25
  0
CIRCLE
  5
247
  8
0
  6
CONTINUOUS
 62
     7
 10
-1005.1308602184
 20
686.3513060116
 30
0.0
 40
2.249999999999886
  0
ARC
  5
248
  8
0
  6
CONTINUOUS
 62
     7
 10
-1002.3808602184
 20
719.4013060116
 30
0.0
 40
2.950000000000045
 50
360.0
 51
90.0
  0
LINE
  5
249
  8
0
  6
CONTINUOUS
 62
     7
 10
-999.4308664889
 20
683.4535127662
 30
0.0
 11
-999.4308664889
 21
719.4013124489
 31
0.0
  0
ARC
  5
24A
  8
0
  6
CONTINUOUS
 62
     7
 10
-1002.3808602184
 20
683.4535148437
 30
0.0
 40
2.950000000000045
 50
317.16
 51
0.0
  0
LINE
  5
24B
  8
0
  6
CONTINUOUS
 62
     7
 10
-1030.2180513233
 20
649.0956222795
 30
0.0
 11
-1000.217752108
 21
681.4476525568
 31
0.0
  0
ARC
  5
24C
  8
0
  6
CONTINUOUS
 62
     7
 10
-1035.1308602184
 20
653.6513060116
 30
0.0
 40
6.700000000000065
 50
180.0
 51
317.16
  0
LINE
  5
24D
  8
0
  6
CONTINUOUS
 62
     7
 10
-1041.8308540672
 20
677.1823292755
 30
0.0
 11
-1041.8308540672
 21
653.6513095878
 31
0.0
  0
ARC
  5
24E
  8
0
  6
CONTINUOUS
 62
     7
 10
-1035.1308602184
 20
677.1823310799
 30
0.0
 40
6.70000000000013
 50
137.16
 51
180.0
  0
LINE
  5
24F
  8
0
  6
CONTINUOUS
 62
     7
 10
-1011.7778047413
 20
712.2196680092
 30
0.0
 11
-1040.0436683983
 21
681.7380165838
 31
0.0
  0
ARC
  5
250
  8
0
  6
CONTINUOUS
 62
     7
 10
-1014.3808602184
 20
714.6334993967
 30
0.0
 40
3.549999999999955
 50
317.16
 51
360.0
  0
LINE
  5
251
  8
0
  6
CONTINUOUS
 62
     7
 10
-1010.8308657498
 20
719.4013124489
 30
0.0
 11
-1010.8308657498
 21
714.6334922098
 31
0.0
  0
ARC
  5
252
  8
0
  6
CONTINUOUS
 62
     7
 10
-1007.8808602184
 20
719.4013060116
 30
0.0
 40
2.950000000000045
 50
90.0
 51
180.0
  0
LINE
  5
253
  8
0
  6
CONTINUOUS
 62
     7
 10
-1002.3808642716
 20
722.3513102316
 30
0.0
 11
-1007.8808530659
 21
722.3513102316
 31
0.0
  0
ARC
  5
254
  8
0
  6
CONTINUOUS
 62
     7
 10
-1035.1308602184
 20
653.6513060116
 30
0.0
 40
7.000000000000099
 50
180.0
 51
317.16
  0
LINE
  5
255
  8
0
  6
CONTINUOUS
 62
     7
 10
-1042.1308591456
 20
653.6513095878
 30
0.0
 11
-1042.1308591456
 21
677.1823292755
 31
0.0
  0
ARC
  5
256
  8
0
  6
CONTINUOUS
 62
     7
 10
-1035.1308602184
 20
677.1823310799
 30
0.0
 40
7.000000000000086
 50
137.16
 51
180.0
  0
LINE
  5
257
  8
0
  6
CONTINUOUS
 62
     7
 10
-999.9977811665
 20
681.2436705612
 30
0.0
 11
-1029.9980654806
 21
648.8916253828
 31
0.0
  0
LINE
  5
258
  8
0
  6
CONTINUOUS
 62
     7
 10
-1040.263654241
 20
681.9419985794
 30
0.0
 11
-1011.9977756828
 21
712.4236500047
 31
0.0
  0
ARC
  5
259
  8
0
  6
CONTINUOUS
 62
     7
 10
-1002.3808602184
 20
683.4535148437
 30
0.0
 40
3.25
 50
317.16
 51
0.0
  0
LINE
  5
25A
  8
0
  6
CONTINUOUS
 62
     7
 10
-999.1308614105
 20
719.4013124489
 30
0.0
 11
-999.1308614105
 21
683.4535127662
 31
0.0
  0
ARC
  5
25B
  8
0
  6
CONTINUOUS
 62
     7
 10
-1014.3808602184
 20
714.6334993967
 30
0.0
 40
3.25
 50
317.16
 51
0.0
  0
LINE
  5
25C
  8
0
  6
CONTINUOUS
 62
     7
 10
-1011.1308559269
 20
714.6334922098
 30
0.0
 11
-1011.1308559269
 21
719.4013124489
 31
0.0
  0
ARC
  5
25D
  8
0
  6
CONTINUOUS
 62
     7
 10
-1007.8808602184
 20
719.4013060116
 30
0.0
 40
3.25
 50
90.0
 51
180.0
  0
LINE
  5
25E
  8
0
  6
CONTINUOUS
 62
     7
 10
-1007.8808530659
 20
722.6513004087
 30
0.0
 11
-1002.3808642716
 21
722.6513004087
 31
0.0
  0
ARC
  5
25F
  8
0
  6
CONTINUOUS
 62
     7
 10
-1002.3808602184
 20
719.4013060116
 30
0.0
 40
3.25
 50
360.0
 51
90.0
  0
CIRCLE
  5
260
  8
0
  6
CONTINUOUS
 62
     7
 10
-1403.1308602184
 20
653.6513060116
 30
0.0
 40
3.199999999999932
  0
CIRCLE
  5
261
  8
0
  6
CONTINUOUS
 62
     7
 10
-1403.1308602184
 20
678.6513060116
 30
0.0
 40
3.199999999999932
  0
CIRCLE
  5
262
  8
0
  6
CONTINUOUS
 62
     7
 10
-1433.1308602184
 20
716.9513060116
 30
0.0
 40
2.25
  0
CIRCLE
  5
263
  8
0
  6
CONTINUOUS
 62
     7
 10
-1433.1308602184
 20
686.3513060116
 30
0.0
 40
2.250000000000114
  0
ARC
  5
264
  8
0
  6
CONTINUOUS
 62
     7
 10
-1430.3808602184
 20
719.4013060116
 30
0.0
 40
2.950000000000045
 50
0.0
 51
90.0
  0
LINE
  5
265
  8
0
  6
CONTINUOUS
 62
     7
 10
-1427.4308546871
 20
714.6334922098
 30
0.0
 11
-1427.4308546871
 21
719.4013124489
 31
0.0
  0
ARC
  5
266
  8
0
  6
CONTINUOUS
 62
     7
 10
-1423.8808602184
 20
714.6334993967
 30
0.0
 40
3.549999999999955
 50
180.0
 51
222.84
  0
LINE
  5
267
  8
0
  6
CONTINUOUS
 62
     7
 10
-1398.2180520386
 20
681.7380165838
 30
0.0
 11
-1426.4839156956
 21
712.2196680092
 31
0.0
  0
ARC
  5
268
  8
0
  6
CONTINUOUS
 62
     7
 10
-1403.1308602184
 20
677.1823310799
 30
0.0
 40
6.700000000000142
 50
360.0
 51
42.84
  0
LINE
  5
269
  8
0
  6
CONTINUOUS
 62
     7
 10
-1396.4308663696
 20
653.6513095878
 30
0.0
 11
-1396.4308663696
 21
677.1823292755
 31
0.0
  0
ARC
  5
26A
  8
0
  6
CONTINUOUS
 62
     7
 10
-1403.1308602184
 20
653.6513060116
 30
0.0
 40
6.700000000000045
 50
222.84
 51
0.0
  0
LINE
  5
26B
  8
0
  6
CONTINUOUS
 62
     7
 10
-1438.0439683289
 20
681.4476525568
 30
0.0
 11
-1408.0436691136
 21
649.0956222795
 31
0.0
  0
ARC
  5
26C
  8
0
  6
CONTINUOUS
 62
     7
 10
-1435.8808602184
 20
683.4535148437
 30
0.0
 40
2.950000000000045
 50
180.0
 51
222.84
  0
LINE
  5
26D
  8
0
  6
CONTINUOUS
 62
     7
 10
-1438.830853948
 20
719.4013124489
 30
0.0
 11
-1438.830853948
 21
683.4535127662
 31
0.0
  0
ARC
  5
26E
  8
0
  6
CONTINUOUS
 62
     7
 10
-1435.8808602184
 20
719.4013060116
 30
0.0
 40
2.950000000000045
 50
90.0
 51
180.0
  0
LINE
  5
26F
  8
0
  6
CONTINUOUS
 62
     7
 10
-1430.380867371
 20
722.3513102316
 30
0.0
 11
-1435.8808561653
 21
722.3513102316
 31
0.0
  0
LINE
  5
270
  8
0
  6
CONTINUOUS
 62
     7
 10
-1426.263944754
 20
712.4236500047
 30
0.0
 11
-1397.9980661959
 21
681.9419985794
 31
0.0
  0
LINE
  5
271
  8
0
  6
CONTINUOUS
 62
     7
 10
-1439.1308590264
 20
683.4535127662
 30
0.0
 11
-1439.1308590264
 21
719.4013124489
 31
0.0
  0
ARC
  5
272
  8
0
  6
CONTINUOUS
 62
     7
 10
-1403.1308602184
 20
653.6513060116
 30
0.0
 40
7.000000000000253
 50
222.84
 51
0.0
  0
LINE
  5
273
  8
0
  6
CONTINUOUS
 62
     7
 10
-1408.2636549563
 20
648.8916253828
 30
0.0
 11
-1438.2639392704
 21
681.2436705612
 31
0.0
  0
LINE
  5
274
  8
0
  6
CONTINUOUS
 62
     7
 10
-1396.1308612913
 20
677.1823292755
 30
0.0
 11
-1396.1308612913
 21
653.6513095878
 31
0.0
  0
ARC
  5
275
  8
0
  6
CONTINUOUS
 62
     7
 10
-1435.8808602184
 20
719.4013060116
 30
0.0
 40
3.250000000000227
 50
90.0
 51
180.0
  0
ARC
  5
276
  8
0
  6
CONTINUOUS
 62
     7
 10
-1423.8808602184
 20
714.6334993967
 30
0.0
 40
3.25
 50
180.0
 51
222.84
  0
ARC
  5
277
  8
0
  6
CONTINUOUS
 62
     7
 10
-1403.1308602184
 20
677.1823310799
 30
0.0
 40
7.000000000000227
 50
0.0
 51
42.84
  0
LINE
  5
278
  8
0
  6
CONTINUOUS
 62
     7
 10
-1435.8808561653
 20
722.6513004087
 30
0.0
 11
-1430.380867371
 21
722.6513004087
 31
0.0
  0
ARC
  5
279
  8
0
  6
CONTINUOUS
 62
     7
 10
-1435.8808602184
 20
683.4535148437
 30
0.0
 40
3.250000000000227
 50
180.0
 51
222.84
  0
ARC
  5
27A
  8
0
  6
CONTINUOUS
 62
     7
 10
-1430.3808602184
 20
719.4013060116
 30
0.0
 40
3.25
 50
0.0
 51
90.0
  0
LINE
  5
27B
  8
0
  6
CONTINUOUS
 62
     7
 10
-1427.13086451
 20
719.4013124489
 30
0.0
 11
-1427.13086451
 21
714.6334922098
 31
0.0
  0
LINE
  5
27C
  8
0
  6
CONTINUOUS
 62
     7
 10
-1420.7308604807
 20
641.6513001703
 30
0.0
 11
-1420.7308604807
 21
657.6513027929
 31
0.0
  0
LINE
  5
27D
  8
0
  6
CONTINUOUS
 62
     7
 10
-1420.7308604807
 20
657.6513027929
 30
0.0
 11
-1420.7308604807
 21
662.3361533665
 31
0.0
  0
LINE
  5
27E
  8
0
  6
CONTINUOUS
 62
     7
 10
-1425.1308604569
 20
657.6513027929
 30
0.0
 11
-1425.1308604569
 21
645.6513082765
 31
0.0
  0
LINE
  5
27F
  8
0
  6
CONTINUOUS
 62
     7
 10
-1425.1308604569
 20
667.0810705208
 30
0.0
 11
-1425.1308604569
 21
657.6513027929
 31
0.0
  0
LINE
  5
280
  8
0
  6
CONTINUOUS
 62
     7
 10
-1417.6308676094
 20
651.9514447235
 30
0.0
 11
-1417.6301523537
 21
651.9514447235
 31
0.0
  0
LINE
  5
281
  8
0
  6
CONTINUOUS
 62
     7
 10
-1417.6308676094
 20
642.2362005495
 30
0.0
 11
-1417.6301523537
 21
642.2362005495
 31
0.0
  0
LINE
  5
282
  8
0
  6
CONTINUOUS
 62
     7
 10
-1416.0808637232
 20
713.3513068937
 30
0.0
 11
-1416.0808637232
 21
716.3513129734
 31
0.0
  0
LINE
  5
283
  8
0
  6
CONTINUOUS
 62
     7
 10
-1414.0808596701
 20
713.3513068937
 30
0.0
 11
-1416.0808637232
 21
713.3513068937
 31
0.0
  0
LINE
  5
284
  8
0
  6
CONTINUOUS
 62
     7
 10
-1416.0808637232
 20
716.3513129734
 30
0.0
 11
-1414.0808596701
 21
716.3513129734
 31
0.0
  0
LINE
  5
285
  8
0
  6
CONTINUOUS
 62
     7
 10
-1021.0808529944
 20
716.3513129734
 30
0.0
 11
-1021.0808529944
 21
713.3513068937
 31
0.0
  0
LINE
  5
286
  8
0
  6
CONTINUOUS
 62
     7
 10
-1021.0808529944
 20
713.3513068937
 30
0.0
 11
-1023.0808570475
 21
713.3513068937
 31
0.0
  0
LINE
  5
287
  8
0
  6
CONTINUOUS
 62
     7
 10
-1023.0808570475
 20
716.3513129734
 30
0.0
 11
-1021.0808529944
 21
716.3513129734
 31
0.0
  0
LINE
  5
288
  8
0
  6
CONTINUOUS
 62
     7
 10
-1414.0808596701
 20
713.3513068937
 30
0.0
 11
-1023.0808570475
 21
713.3513068937
 31
0.0
  0
LINE
  5
289
  8
0
  6
CONTINUOUS
 62
     7
 10
-1414.0808596701
 20
716.3513129734
 30
0.0
 11
-1023.0808570475
 21
716.3513129734
 31
0.0
  0
LINE
  5
28A
  8
0
  6
CONTINUOUS
 62
     7
 10
-1023.5808655113
 20
709.3512987875
 30
0.0
 11
-1023.5808655113
 21
710.8007943414
 31
0.0
  0
ARC
  5
28B
  8
0
  6
CONTINUOUS
 62
     7
 10
-1024.080860438
 20
708.3513055859
 30
0.0
 40
2.500000000000003
 50
0.0
 51
78.4630409672
  0
LINE
  5
28C
  8
0
  6
CONTINUOUS
 62
     7
 10
-1413.5808661074
 20
712.3513048672
 30
0.0
 11
-1023.5808655113
 21
712.3513048672
 31
0.0
  0
POLYLINE
  5
28D
  8
0
  6
CONTINUOUS
 62
     7
 66
     1
 10
0.0
 20
0.0
 30
0.0
  0
VERTEX
  5
5DD
  8
0
  6
CONTINUOUS
 62
     7
 10
-1023.5808655113
 20
712.3513048672
 30
0.0
  0
VERTEX
  5
5DE
  8
0
  6
CONTINUOUS
 62
     7
 10
-1023.7954273314
 20
712.3039042734
 30
0.0
  0
VERTEX
  5
5DF
  8
0
  6
CONTINUOUS
 62
     7
 10
-1023.9525153727
 20
712.1468311333
 30
0.0
  0
VERTEX
  5
5E0
  8
0
  6
CONTINUOUS
 62
     7
 10
-1024.0487023682
 20
711.8675982736
 30
0.0
  0
VERTEX
  5
5E1
  8
0
  6
CONTINUOUS
 62
     7
 10
-1024.080859074
 20
711.4726131939
 30
0.0
  0
VERTEX
  5
5E2
  8
0
  6
CONTINUOUS
 62
     7
 10
-1024.048866281
 20
710.9841233276
 30
0.0
  0
VERTEX
  5
5E3
  8
0
  6
CONTINUOUS
 62
     7
 10
-1023.9529028029
 20
710.4413634323
 30
0.0
  0
VERTEX
  5
5E4
  8
0
  6
CONTINUOUS
 62
     7
 10
-1023.7952783198
 20
709.882063248
 30
0.0
  0
VERTEX
  5
5E5
  8
0
  6
CONTINUOUS
 62
     7
 10
-1023.5808655113
 20
709.3512987875
 30
0.0
  0
SEQEND
  5
5E6
  8
0
  6
CONTINUOUS
 62
     7
  0
POLYLINE
  5
28E
  8
0
  6
CONTINUOUS
 62
     7
 66
     1
 10
0.0
 20
0.0
 30
0.0
  0
VERTEX
  5
5E7
  8
0
  6
CONTINUOUS
 62
     7
 10
-1413.5808661074
 20
712.3513048672
 30
0.0
  0
VERTEX
  5
5E8
  8
0
  6
CONTINUOUS
 62
     7
 10
-1413.3662893862
 20
712.3039042734
 30
0.0
  0
VERTEX
  5
5E9
  8
0
  6
CONTINUOUS
 62
     7
 10
-1413.209216246
 20
712.1468311333
 30
0.0
  0
VERTEX
  5
5EA
  8
0
  6
CONTINUOUS
 62
     7
 10
-1413.1130143494
 20
711.8675982736
 30
0.0
  0
VERTEX
  5
5EB
  8
0
  6
CONTINUOUS
 62
     7
 10
-1413.0808576435
 20
711.4726131939
 30
0.0
  0
VERTEX
  5
5EC
  8
0
  6
CONTINUOUS
 62
     7
 10
-1413.1128504366
 20
710.9841233276
 30
0.0
  0
VERTEX
  5
5ED
  8
0
  6
CONTINUOUS
 62
     7
 10
-1413.2088288159
 20
710.4413634323
 30
0.0
  0
VERTEX
  5
5EE
  8
0
  6
CONTINUOUS
 62
     7
 10
-1413.3664383978
 20
709.882063248
 30
0.0
  0
VERTEX
  5
5EF
  8
0
  6
CONTINUOUS
 62
     7
 10
-1413.5808661074
 20
709.3512987875
 30
0.0
  0
SEQEND
  5
5F0
  8
0
  6
CONTINUOUS
 62
     7
  0
ARC
  5
28F
  8
0
  6
CONTINUOUS
 62
     7
 10
-1413.5127261019
 20
710.4246608195
 30
0.0
 40
0.4320555142427762
 50
358.3139548834
 51
99.0740725652
  0
LINE
  5
290
  8
0
  6
CONTINUOUS
 62
     7
 10
-1413.5808661074
 20
710.8513092779
 30
0.0
 11
-1413.5808661074
 21
712.3513048672
 31
0.0
  0
ARC
  5
291
  8
0
  6
CONTINUOUS
 62
     7
 10
-1021.580860438
 20
710.8513055858
 30
0.0
 40
2.50000000000025
 50
216.8698976458
 51
270.0
  0
LINE
  5
292
  8
0
  6
CONTINUOUS
 62
     7
 10
-1021.5808614582
 20
708.3513116621
 30
0.0
 11
-1021.5808614582
 21
702.0893519901
 31
0.0
  0
LINE
  5
293
  8
0
  6
CONTINUOUS
 62
     7
 10
-1025.9744837374
 20
697.3513042711
 30
0.0
 11
-1412.2872366995
 21
697.3513042711
 31
0.0
  0
LINE
  5
294
  8
0
  6
CONTINUOUS
 62
     7
 10
-1415.5808552593
 20
708.3513116621
 30
0.0
 11
-1415.5808552593
 21
700.903115251
 31
0.0
  0
ARC
  5
295
  8
0
  6
CONTINUOUS
 62
     7
 10
-1415.580860438
 20
710.8513055858
 30
0.0
 40
2.5
 50
270.0
 51
323.1301023542
  0
LINE
  5
296
  8
0
  6
CONTINUOUS
 62
     7
 10
-1023.5808655113
 20
710.8513092779
 30
0.0
 11
-1023.5808655113
 21
712.3513048672
 31
0.0
  0
ARC
  5
297
  8
0
  6
CONTINUOUS
 62
     7
 10
-1023.6489937048
 20
710.4246620242
 30
0.0
 40
0.4320524618949554
 50
80.9274490647
 51
181.6862168579
  0
LINE
  5
298
  8
0
  6
CONTINUOUS
 62
     7
 10
-1415.5808552593
 20
708.3513116621
 30
0.0
 11
-1415.5808552593
 21
709.3512987875
 31
0.0
  0
LINE
  5
299
  8
0
  6
CONTINUOUS
 62
     7
 10
-1417.0808657498
 20
708.3513116621
 30
0.0
 11
-1415.5808552593
 21
708.3513116621
 31
0.0
  0
LINE
  5
29A
  8
0
  6
CONTINUOUS
 62
     7
 10
-1417.0808657498
 20
709.3512987875
 30
0.0
 11
-1415.5808552593
 21
709.3512987875
 31
0.0
  0
LINE
  5
29B
  8
0
  6
CONTINUOUS
 62
     7
 10
-1417.0808657498
 20
708.3513116621
 30
0.0
 11
-1417.0808657498
 21
709.3512987875
 31
0.0
  0
LINE
  5
29C
  8
0
  6
CONTINUOUS
 62
     7
 10
-1021.5808614582
 20
708.3513116621
 30
0.0
 11
-1020.080865869
 21
708.3513116621
 31
0.0
  0
LINE
  5
29D
  8
0
  6
CONTINUOUS
 62
     7
 10
-1020.080865869
 20
709.3512987875
 30
0.0
 11
-1021.5808614582
 21
709.3512987875
 31
0.0
  0
LINE
  5
29E
  8
0
  6
CONTINUOUS
 62
     7
 10
-1020.080865869
 20
708.3513116621
 30
0.0
 11
-1020.080865869
 21
709.3512987875
 31
0.0
  0
LINE
  5
29F
  8
0
  6
CONTINUOUS
 62
     7
 10
-1021.5808614582
 20
708.3513116621
 30
0.0
 11
-1021.5808614582
 21
709.3512987875
 31
0.0
  0
LINE
  5
2A0
  8
0
  6
CONTINUOUS
 62
     7
 10
-1417.0808657498
 20
702.5207108043
 30
0.0
 11
-1417.0808657498
 21
708.3513116621
 31
0.0
  0
LINE
  5
2A1
  8
0
  6
CONTINUOUS
 62
     7
 10
-1020.080865869
 20
703.7069326423
 30
0.0
 11
-1020.080865869
 21
708.3513116621
 31
0.0
  0
LINE
  5
2A2
  8
0
  6
CONTINUOUS
 62
     7
 10
-1414.0808596701
 20
710.8513092779
 30
0.0
 11
-1413.5808661074
 21
710.8513092779
 31
0.0
  0
LINE
  5
2A3
  8
0
  6
CONTINUOUS
 62
     7
 10
-1414.0808596701
 20
712.3513048672
 30
0.0
 11
-1414.0808596701
 21
710.8513092779
 31
0.0
  0
LINE
  5
2A4
  8
0
  6
CONTINUOUS
 62
     7
 10
-1414.0808596701
 20
712.3513048672
 30
0.0
 11
-1413.5808661074
 21
712.3513048672
 31
0.0
  0
LINE
  5
2A5
  8
0
  6
CONTINUOUS
 62
     7
 10
-1023.0808570475
 20
712.3513048672
 30
0.0
 11
-1023.0808570475
 21
710.8513092779
 31
0.0
  0
LINE
  5
2A6
  8
0
  6
CONTINUOUS
 62
     7
 10
-1023.0808570475
 20
710.8513092779
 30
0.0
 11
-1023.5808655113
 21
710.8513092779
 31
0.0
  0
LINE
  5
2A7
  8
0
  6
CONTINUOUS
 62
     7
 10
-1023.0808570475
 20
712.3513048672
 30
0.0
 11
-1023.5808655113
 21
712.3513048672
 31
0.0
  0
ARC
  5
2A8
  8
0
  6
CONTINUOUS
 62
     7
 10
-1414.0808467278
 20
709.3512858452
 30
0.0
 40
3.000019021984436
 50
90.0002471778
 51
179.9997528222
  0
ARC
  5
2A9
  8
0
  6
CONTINUOUS
 62
     7
 10
-1414.0808608996
 20
709.3513149181
 30
0.0
 40
1.499994359800315
 50
89.9999530348
 51
180.0006161465
  0
ARC
  5
2AA
  8
0
  6
CONTINUOUS
 62
     7
 10
-1023.0808545883
 20
709.3513161477
 30
0.0
 40
2.99998871942328
 50
359.9996684424
 51
90.0000469663
  0
ARC
  5
2AB
  8
0
  6
CONTINUOUS
 62
     7
 10
-1023.0808642974
 20
709.3513064388
 30
0.0
 40
1.500002839161158
 50
359.9997077434
 51
89.9997230753
  0
LINE
  5
2AC
  8
0
  6
CONTINUOUS
 62
     7
 10
-1038.6302485556
 20
697.3513042711
 30
0.0
 11
-1038.9003172011
 21
695.4296505235
 31
0.0
  0
ARC
  5
2AD
  8
0
  6
CONTINUOUS
 62
     7
 10
-1036.9197878867
 20
695.1513060114
 30
0.0
 40
2.000000082123506
 50
172.0000011903
 51
270.0
  0
LINE
  5
2AE
  8
0
  6
CONTINUOUS
 62
     7
 10
-1036.9197889656
 20
693.1513076805
 30
0.0
 11
-1029.8691704363
 21
693.1513076805
 31
0.0
  0
ARC
  5
2AF
  8
0
  6
CONTINUOUS
 62
     7
 10
-1036.9197878867
 20
695.1513060114
 30
0.0
 40
4.0
 50
172.0000011904
 51
270.0000000001
  0
LINE
  5
2B0
  8
0
  6
CONTINUOUS
 62
     7
 10
-1040.8808603377
 20
695.7080042146
 30
0.0
 11
-1040.6499072403
 21
697.3513042711
 31
0.0
  0
LINE
  5
2B1
  8
0
  6
CONTINUOUS
 62
     7
 10
-1020.6315680832
 20
504.1513060376
 30
0.0
 11
-1020.6315680832
 21
658.992377498
 31
0.0
  0
LINE
  5
2B2
  8
0
  6
CONTINUOUS
 62
     7
 10
-1417.6301523537
 20
658.992377498
 30
0.0
 11
-1417.6301523537
 21
504.1513060376
 31
0.0
  0
LINE
  5
2B3
  8
0
  6
CONTINUOUS
 62
     7
 10
-1031.7237838596
 20
691.1513036274
 30
0.0
 11
-1406.5379365772
 21
691.1513036274
 31
0.0
  0
POLYLINE
  5
2B4
  8
0
  6
CONTINUOUS
 62
     7
 66
     1
 10
0.0
 20
0.0
 30
0.0
  0
VERTEX
  5
5F1
  8
0
  6
CONTINUOUS
 62
     7
 10
-1022.1308633179
 20
501.1513060116
 30
0.0
  0
VERTEX
  5
5F2
  8
0
  6
CONTINUOUS
 62
     7
 10
-1021.8705102295
 20
501.1968827519
 30
0.0
  0
VERTEX
  5
5F3
  8
0
  6
CONTINUOUS
 62
     7
 10
-1021.6180696577
 20
501.3322281546
 30
0.0
  0
VERTEX
  5
5F4
  8
0
  6
CONTINUOUS
 62
     7
 10
-1021.3812157005
 20
501.5532297938
 30
0.0
  0
VERTEX
  5
5F5
  8
0
  6
CONTINUOUS
 62
     7
 10
-1021.1671307177
 20
501.8531727063
 30
0.0
  0
VERTEX
  5
5F6
  8
0
  6
CONTINUOUS
 62
     7
 10
-1020.9823414177
 20
502.2229431587
 30
0.0
  0
VERTEX
  5
5F7
  8
0
  6
CONTINUOUS
 62
     7
 10
-1020.8324357361
 20
502.6513060246
 30
0.0
  0
VERTEX
  5
5F8
  8
0
  6
CONTINUOUS
 62
     7
 10
-1020.7219883293
 20
503.1252456054
 30
0.0
  0
VERTEX
  5
5F9
  8
0
  6
CONTINUOUS
 62
     7
 10
-1020.6543519587
 20
503.6303614423
 30
0.0
  0
VERTEX
  5
5FA
  8
0
  6
CONTINUOUS
 62
     7
 10
-1020.6315680832
 20
504.1513060376
 30
0.0
  0
SEQEND
  5
5FB
  8
0
  6
CONTINUOUS
 62
     7
  0
POLYLINE
  5
2B5
  8
0
  6
CONTINUOUS
 62
     7
 66
     1
 10
0.0
 20
0.0
 30
0.0
  0
VERTEX
  5
5FC
  8
0
  6
CONTINUOUS
 62
     7
 10
-1417.6301523537
 20
504.1513060376
 30
0.0
  0
VERTEX
  5
5FD
  8
0
  6
CONTINUOUS
 62
     7
 10
-1417.6073684782
 20
503.6303614423
 30
0.0
  0
VERTEX
  5
5FE
  8
0
  6
CONTINUOUS
 62
     7
 10
-1417.5397321076
 20
503.1252456054
 30
0.0
  0
VERTEX
  5
5FF
  8
0
  6
CONTINUOUS
 62
     7
 10
-1417.4292847008
 20
502.6513060246
 30
0.0
  0
VERTEX
  5
600
  8
0
  6
CONTINUOUS
 62
     7
 10
-1417.2793790192
 20
502.2229431587
 30
0.0
  0
VERTEX
  5
601
  8
0
  6
CONTINUOUS
 62
     7
 10
-1417.0945897192
 20
501.8531727063
 30
0.0
  0
VERTEX
  5
602
  8
0
  6
CONTINUOUS
 62
     7
 10
-1416.8805047363
 20
501.5532297938
 30
0.0
  0
VERTEX
  5
603
  8
0
  6
CONTINUOUS
 62
     7
 10
-1416.6436507792
 20
501.3322281546
 30
0.0
  0
VERTEX
  5
604
  8
0
  6
CONTINUOUS
 62
     7
 10
-1416.3912102074
 20
501.1968827519
 30
0.0
  0
VERTEX
  5
605
  8
0
  6
CONTINUOUS
 62
     7
 10
-1416.130857119
 20
501.1513060116
 30
0.0
  0
SEQEND
  5
606
  8
0
  6
CONTINUOUS
 62
     7
  0
LINE
  5
2B6
  8
0
  6
CONTINUOUS
 62
     7
 10
-1416.130857119
 20
501.1513060116
 30
0.0
 11
-1022.1308633179
 21
501.1513060116
 31
0.0
  0
ARC
  5
2B7
  8
0
  6
CONTINUOUS
 62
     7
 10
-1022.1308719023
 20
504.1513206757
 30
0.0
 40
3.000014664104132
 50
270.0001639491
 51
359.9997204359
  0
LINE
  5
2B8
  8
0
  6
CONTINUOUS
 62
     7
 10
-1020.6308528275
 20
658.9931523584
 30
0.0
 11
-1020.6308528275
 21
504.1513060376
 31
0.0
  0
LINE
  5
2B9
  8
0
  6
CONTINUOUS
 62
     7
 10
-1019.1308572382
 20
660.6107330107
 30
0.0
 11
-1019.1308572382
 21
504.1513060376
 31
0.0
  0
ARC
  5
2BA
  8
0
  6
CONTINUOUS
 62
     7
 10
-1416.1308487269
 20
504.1513204833
 30
0.0
 40
3.000014471762511
 50
180.0002758907
 51
269.9998397244
  0
LINE
  5
2BB
  8
0
  6
CONTINUOUS
 62
     7
 10
-1417.6308676094
 20
504.1513060376
 30
0.0
 11
-1417.6308676094
 21
658.9931523584
 31
0.0
  0
LINE
  5
2BC
  8
0
  6
CONTINUOUS
 62
     7
 10
-1419.1308631987
 20
504.1513060376
 30
0.0
 11
-1419.1308631987
 21
660.6107330107
 31
0.0
  0
LINE
  5
2BD
  8
0
  6
CONTINUOUS
 62
     7
 10
-1041.615159759
 20
692.860064485
 30
0.0
 11
-1043.1005522103
 21
693.0688297533
 31
0.0
  0
LINE
  5
2BE
  8
0
  6
CONTINUOUS
 62
     7
 10
-1040.983961472
 20
697.3513042711
 30
0.0
 11
-1041.615159759
 21
692.860064485
 31
0.0
  0
LINE
  5
2BF
  8
0
  6
CONTINUOUS
 62
     7
 10
-1042.4986943096
 20
697.3513042711
 30
0.0
 11
-1043.1005522103
 21
693.0688297533
 31
0.0
  0
LINE
  5
2C0
  8
0
  6
CONTINUOUS
 62
     7
 10
-1396.8405588955
 20
692.860064485
 30
0.0
 11
-1397.4779560656
 21
697.3513042711
 31
0.0
  0
POLYLINE
  5
2C1
  8
0
  6
CONTINUOUS
 62
     7
 66
     1
 10
0.0
 20
0.0
 30
0.0
  0
VERTEX
  5
607
  8
0
  6
CONTINUOUS
 62
     7
 10
-1396.9982727856
 20
691.6691040777
 30
0.0
  0
VERTEX
  5
608
  8
0
  6
CONTINUOUS
 62
     7
 10
-1397.5087865681
 20
691.2868743919
 30
0.0
  0
VERTEX
  5
609
  8
0
  6
CONTINUOUS
 62
     7
 10
-1398.1319680304
 20
691.1513036274
 30
0.0
  0
SEQEND
  5
60A
  8
0
  6
CONTINUOUS
 62
     7
  0
POLYLINE
  5
2C2
  8
0
  6
CONTINUOUS
 62
     7
 66
     1
 10
0.0
 20
0.0
 30
0.0
  0
VERTEX
  5
60B
  8
0
  6
CONTINUOUS
 62
     7
 10
-1040.1297524065
 20
691.1513036274
 30
0.0
  0
VERTEX
  5
60C
  8
0
  6
CONTINUOUS
 62
     7
 10
-1040.7529338688
 20
691.2868743919
 30
0.0
  0
VERTEX
  5
60D
  8
0
  6
CONTINUOUS
 62
     7
 10
-1041.2634476513
 20
691.6691040777
 30
0.0
  0
SEQEND
  5
60E
  8
0
  6
CONTINUOUS
 62
     7
  0
POLYLINE
  5
2C3
  8
0
  6
CONTINUOUS
 62
     7
 66
     1
 10
0.0
 20
0.0
 30
0.0
  0
VERTEX
  5
60F
  8
0
  6
CONTINUOUS
 62
     7
 10
-1398.1330707163
 20
691.1513036274
 30
0.0
  0
VERTEX
  5
610
  8
0
  6
CONTINUOUS
 62
     7
 10
-1397.3816051573
 20
691.2868743919
 30
0.0
  0
VERTEX
  5
611
  8
0
  6
CONTINUOUS
 62
     7
 10
-1396.6301544995
 20
691.6691040777
 30
0.0
  0
SEQEND
  5
612
  8
0
  6
CONTINUOUS
 62
     7
  0
ARC
  5
2C4
  8
0
  6
CONTINUOUS
 62
     7
 10
-1368.4587007394
 20
697.2601598547
 30
0.0
 40
28.72091070378014
 50
188.8125217237
 51
191.225357256
  0
ARC
  5
2C5
  8
0
  6
CONTINUOUS
 62
     7
 10
-1071.30323473
 20
697.2598435101
 30
0.0
 40
28.72106436876815
 50
348.775346968
 51
351.1881644166
  0
LINE
  5
2C6
  8
0
  6
CONTINUOUS
 62
     7
 10
-1043.1315615267
 20
691.6691040777
 30
0.0
 11
-1041.6315659374
 21
691.6691040777
 31
0.0
  0
POLYLINE
  5
2C7
  8
0
  6
CONTINUOUS
 62
     7
 66
     1
 10
0.0
 20
0.0
 30
0.0
  0
VERTEX
  5
613
  8
0
  6
CONTINUOUS
 62
     7
 10
-1041.6315659374
 20
691.6691040777
 30
0.0
  0
VERTEX
  5
614
  8
0
  6
CONTINUOUS
 62
     7
 10
-1040.8773585648
 20
691.2868743919
 30
0.0
  0
VERTEX
  5
615
  8
0
  6
CONTINUOUS
 62
     7
 10
-1040.1231660933
 20
691.1513036274
 30
0.0
  0
SEQEND
  5
616
  8
0
  6
CONTINUOUS
 62
     7
  0
POLYLINE
  5
2C8
  8
0
  6
CONTINUOUS
 62
     7
 66
     1
 10
0.0
 20
0.0
 30
0.0
  0
VERTEX
  5
617
  8
0
  6
CONTINUOUS
 62
     7
 10
-1043.0202498526
 20
691.874725201
 30
0.0
  0
VERTEX
  5
618
  8
0
  6
CONTINUOUS
 62
     7
 10
-1043.0263593287
 20
691.8016499065
 30
0.0
  0
VERTEX
  5
619
  8
0
  6
CONTINUOUS
 62
     7
 10
-1043.0381759495
 20
691.6691040777
 30
0.0
  0
SEQEND
  5
61A
  8
0
  6
CONTINUOUS
 62
     7
  0
ARC
  5
2C9
  8
0
  6
CONTINUOUS
 62
     7
 10
-1254.279024386
 20
704.1646145388
 30
0.0
 40
142.991400534918
 50
184.6183503062
 51
185.0671788829
  0
ARC
  5
2CA
  8
0
  6
CONTINUOUS
 62
     7
 10
-1040.6138044434
 20
692.6252709365
 30
0.0
 40
2.525996611197448
 50
169.8865662948
 51
202.2426905257
  0
ARC
  5
2CB
  8
0
  6
CONTINUOUS
 62
     7
 10
-1040.1298152338
 20
692.651299866
 30
0.0
 40
1.499943673803045
 50
171.9995059972
 51
220.9061378494
  0
POLYLINE
  5
2CC
  8
0
  6
CONTINUOUS
 62
     7
 66
     1
 10
0.0
 20
0.0
 30
0.0
  0
VERTEX
  5
61B
  8
0
  6
CONTINUOUS
 62
     7
 10
-1396.7579170555
 20
692.0711970114
 30
0.0
  0
VERTEX
  5
61C
  8
0
  6
CONTINUOUS
 62
     7
 10
-1396.8159719795
 20
691.9314688228
 30
0.0
  0
VERTEX
  5
61D
  8
0
  6
CONTINUOUS
 62
     7
 10
-1396.9982727856
 20
691.6691040777
 30
0.0
  0
SEQEND
  5
61E
  8
0
  6
CONTINUOUS
 62
     7
  0
POLYLINE
  5
2CD
  8
0
  6
CONTINUOUS
 62
     7
 66
     1
 10
0.0
 20
0.0
 30
0.0
  0
VERTEX
  5
61F
  8
0
  6
CONTINUOUS
 62
     7
 10
-1041.5038033814
 20
692.0711970114
 30
0.0
  0
VERTEX
  5
620
  8
0
  6
CONTINUOUS
 62
     7
 10
-1041.4737626404
 20
692.4302255892
 30
0.0
  0
VERTEX
  5
621
  8
0
  6
CONTINUOUS
 62
     7
 10
-1041.4211615414
 20
693.0688297533
 30
0.0
  0
SEQEND
  5
622
  8
0
  6
CONTINUOUS
 62
     7
  0
LINE
  5
2CE
  8
0
  6
CONTINUOUS
 62
     7
 10
-1041.4211615414
 20
692.860064485
 30
0.0
 11
-1041.4211615414
 21
693.0688297533
 31
0.0
  0
LINE
  5
2CF
  8
0
  6
CONTINUOUS
 62
     7
 10
-1041.4560451597
 20
692.6483189844
 30
0.0
 11
-1041.4211615414
 21
692.860064485
 31
0.0
  0
LINE
  5
2D0
  8
0
  6
CONTINUOUS
 62
     7
 10
-1040.8133878798
 20
697.3513042711
 30
0.0
 11
-1041.4211615414
 21
693.0688297533
 31
0.0
  0
LINE
  5
2D1
  8
0
  6
CONTINUOUS
 62
     7
 10
-1041.4211615414
 20
692.860064485
 30
0.0
 11
-1040.7837643713
 21
697.3513042711
 31
0.0
  0
LINE
  5
2D2
  8
0
  6
CONTINUOUS
 62
     7
 10
-1032.1755274624
 20
693.3713084244
 30
0.0
 11
-1035.3808566422
 21
693.3713084244
 31
0.0
  0
LINE
  5
2D3
  8
0
  6
CONTINUOUS
 62
     7
 10
-1030.3808614105
 20
693.3713084244
 30
0.0
 11
-1032.1755274624
 21
693.3713084244
 31
0.0
  0
LINE
  5
2D4
  8
0
  6
CONTINUOUS
 62
     7
 10
-1032.2883888573
 20
693.7713002943
 30
0.0
 11
-1030.7808532805
 21
693.7713002943
 31
0.0
  0
LINE
  5
2D5
  8
0
  6
CONTINUOUS
 62
     7
 10
-1034.9808647722
 20
693.7713002943
 30
0.0
 11
-1032.2883888573
 21
693.7713002943
 31
0.0
  0
LINE
  5
2D6
  8
0
  6
CONTINUOUS
 62
     7
 10
-1419.1308631987
 20
-220.6784946438
 30
0.0
 11
-1420.7308604807
 21
-220.6784946438
 31
0.0
  0
LINE
  5
2D7
  8
0
  6
CONTINUOUS
 62
     7
 10
-1420.7308604807
 20
-220.6784946438
 30
0.0
 11
-1425.1308604569
 21
-224.67850275
 31
0.0
  0
ARC
  5
2D8
  8
0
  6
CONTINUOUS
 62
     7
 10
-1022.880860438
 20
-289.3785000593
 30
0.0
 40
0.5000000000000244
 50
270.0
 51
17.0714297344
  0
ARC
  5
2D9
  8
0
  6
CONTINUOUS
 62
     7
 10
-1414.280860438
 20
-289.3785000593
 30
0.0
 40
0.5000000000000313
 50
94.4051963235
 51
269.9999999999
  0
ARC
  5
2DA
  8
0
  6
CONTINUOUS
 62
     7
 10
-1409.080860438
 20
-356.8785000593
 30
0.0
 40
68.20000000000023
 50
93.5967559811
 51
94.4051963235
  0
LINE
  5
2DB
  8
0
  6
CONTINUOUS
 62
     7
 10
-1398.8308622927
 20
-292.3785013672
 30
0.0
 11
-1398.8308622927
 21
-291.3784993406
 31
0.0
  0
LINE
  5
2DC
  8
0
  6
CONTINUOUS
 62
     7
 10
-1404.3308659882
 20
-291.3784993406
 30
0.0
 11
-1404.3308659882
 21
-292.3785013672
 31
0.0
  0
LINE
  5
2DD
  8
0
  6
CONTINUOUS
 62
     7
 10
-1032.8308656305
 20
-292.3785013672
 30
0.0
 11
-1032.8308656305
 21
-291.3784993406
 31
0.0
  0
LINE
  5
2DE
  8
0
  6
CONTINUOUS
 62
     7
 10
-1038.3308544249
 20
-291.3784993406
 30
0.0
 11
-1038.3308544249
 21
-292.3785013672
 31
0.0
  0
LINE
  5
2DF
  8
0
  6
CONTINUOUS
 62
     7
 10
-1215.8308604692
 20
-292.3785013672
 30
0.0
 11
-1215.8308604692
 21
-291.3784993406
 31
0.0
  0
LINE
  5
2E0
  8
0
  6
CONTINUOUS
 62
     7
 10
-1221.3308604394
 20
-291.3784993406
 30
0.0
 11
-1221.3308604394
 21
-292.3785013672
 31
0.0
  0
LINE
  5
2E1
  8
0
  6
CONTINUOUS
 62
     7
 10
-1406.3308551401
 20
-292.3785013672
 30
0.0
 11
-1406.3308551401
 21
-291.3784993406
 31
0.0
  0
LINE
  5
2E2
  8
0
  6
CONTINUOUS
 62
     7
 10
-1411.8308588356
 20
-291.3784993406
 30
0.0
 11
-1411.8308588356
 21
-292.3785013672
 31
0.0
  0
LINE
  5
2E3
  8
0
  6
CONTINUOUS
 62
     7
 10
-1025.3308578819
 20
-292.3785013672
 30
0.0
 11
-1025.3308578819
 21
-291.3784993406
 31
0.0
  0
LINE
  5
2E4
  8
0
  6
CONTINUOUS
 62
     7
 10
-1030.8308615774
 20
-291.3784993406
 30
0.0
 11
-1030.8308615774
 21
-292.3785013672
 31
0.0
  0
LINE
  5
2E5
  8
0
  6
CONTINUOUS
 62
     7
 10
-1035.3808566422
 20
-272.178502154
 30
0.0
 11
-1035.3808566422
 21
-272.3985028978
 31
0.0
  0
LINE
  5
2E6
  8
0
  6
CONTINUOUS
 62
     7
 10
-1030.3808614105
 20
-272.3985028978
 30
0.0
 11
-1030.3808614105
 21
-272.178502154
 31
0.0
  0
LINE
  5
2E7
  8
0
  6
CONTINUOUS
 62
     7
 10
-1035.3808566422
 20
-272.3985028978
 30
0.0
 11
-1034.9808647722
 21
-272.7984947678
 31
0.0
  0
LINE
  5
2E8
  8
0
  6
CONTINUOUS
 62
     7
 10
-1030.7808532805
 20
-272.7984947678
 30
0.0
 11
-1030.3808614105
 21
-272.3985028978
 31
0.0
  0
CIRCLE
  5
2E9
  8
0
  6
CONTINUOUS
 62
     7
 10
-1403.1308602184
 20
-232.6785004851
 30
0.0
 40
3.749999999999901
  0
CIRCLE
  5
2EA
  8
0
  6
CONTINUOUS
 62
     7
 10
-1403.1308602184
 20
-257.6785004851
 30
0.0
 40
3.750000000000268
  0
CIRCLE
  5
2EB
  8
0
  6
CONTINUOUS
 62
     7
 10
-1035.1308602184
 20
-232.6785004851
 30
0.0
 40
3.750000000000297
  0
CIRCLE
  5
2EC
  8
0
  6
CONTINUOUS
 62
     7
 10
-1035.1308602184
 20
-257.6785004851
 30
0.0
 40
3.750000000000087
  0
CIRCLE
  5
2ED
  8
0
  6
CONTINUOUS
 62
     7
 10
-1005.1308602184
 20
-265.3785004851
 30
0.0
 40
3.060000000000068
  0
CIRCLE
  5
2EE
  8
0
  6
CONTINUOUS
 62
     7
 10
-1433.1308602184
 20
-265.3785004851
 30
0.0
 40
3.060000000000075
  0
CIRCLE
  5
2EF
  8
0
  6
CONTINUOUS
 62
     7
 10
-1433.1308602184
 20
-295.9785004851
 30
0.0
 40
3.060000000000039
  0
CIRCLE
  5
2F0
  8
0
  6
CONTINUOUS
 62
     7
 10
-1005.1308602184
 20
-295.9785004851
 30
0.0
 40
3.060000000000053
  0
CIRCLE
  5
2F1
  8
0
  6
CONTINUOUS
 62
     7
 10
-1035.1308602184
 20
-232.6785004851
 30
0.0
 40
3.199999999999989
  0
CIRCLE
  5
2F2
  8
0
  6
CONTINUOUS
 62
     7
 10
-1035.1308602184
 20
-257.6785004851
 30
0.0
 40
3.200000000000017
  0
CIRCLE
  5
2F3
  8
0
  6
CONTINUOUS
 62
     7
 10
-1005.1308602184
 20
-295.9785004851
 30
0.0
 40
2.249999999999943
  0
CIRCLE
  5
2F4
  8
0
  6
CONTINUOUS
 62
     7
 10
-1005.1308602184
 20
-265.3785004851
 30
0.0
 40
2.25
  0
ARC
  5
2F5
  8
0
  6
CONTINUOUS
 62
     7
 10
-1007.8808602184
 20
-298.4285004851
 30
0.0
 40
2.950000000000045
 50
180.0
 51
270.0
  0
LINE
  5
2F6
  8
0
  6
CONTINUOUS
 62
     7
 10
-1010.8308657498
 20
-293.6606866833
 30
0.0
 11
-1010.8308657498
 21
-298.4285069223
 31
0.0
  0
ARC
  5
2F7
  8
0
  6
CONTINUOUS
 62
     7
 10
-1014.3808602184
 20
-293.6606938702
 30
0.0
 40
3.550000000000182
 50
0.0
 51
42.84
  0
LINE
  5
2F8
  8
0
  6
CONTINUOUS
 62
     7
 10
-1040.0436683983
 20
-260.7652110573
 30
0.0
 11
-1011.7778047413
 21
-291.2468624827
 31
0.0
  0
ARC
  5
2F9
  8
0
  6
CONTINUOUS
 62
     7
 10
-1035.1308602184
 20
-256.2095255534
 30
0.0
 40
6.700000000000052
 50
180.0
 51
222.84
  0
LINE
  5
2FA
  8
0
  6
CONTINUOUS
 62
     7
 10
-1041.8308540672
 20
-232.6785040613
 30
0.0
 11
-1041.8308540672
 21
-256.209523749
 31
0.0
  0
ARC
  5
2FB
  8
0
  6
CONTINUOUS
 62
     7
 10
-1035.1308602184
 20
-232.6785004851
 30
0.0
 40
6.699999999999988
 50
42.84
 51
180.0
  0
LINE
  5
2FC
  8
0
  6
CONTINUOUS
 62
     7
 10
-1000.217752108
 20
-260.4748470303
 30
0.0
 11
-1030.2180513233
 21
-228.122816753
 31
0.0
  0
ARC
  5
2FD
  8
0
  6
CONTINUOUS
 62
     7
 10
-1002.3808602184
 20
-262.4807093172
 30
0.0
 40
2.950000000000045
 50
0.0
 51
42.84
  0
LINE
  5
2FE
  8
0
  6
CONTINUOUS
 62
     7
 10
-999.4308664889
 20
-298.4285069223
 30
0.0
 11
-999.4308664889
 21
-262.4807072397
 31
0.0
  0
ARC
  5
2FF
  8
0
  6
CONTINUOUS
 62
     7
 10
-1002.3808602184
 20
-298.4285004851
 30
0.0
 40
2.949999999999932
 50
270.0
 51
0.0
  0
LINE
  5
300
  8
0
  6
CONTINUOUS
 62
     7
 10
-1007.8808530659
 20
-301.3785047051
 30
0.0
 11
-1002.3808642716
 21
-301.3785047051
 31
0.0
  0
LINE
  5
301
  8
0
  6
CONTINUOUS
 62
     7
 10
-999.1308614105
 20
-262.4807072397
 30
0.0
 11
-999.1308614105
 21
-298.4285069223
 31
0.0
  0
LINE
  5
302
  8
0
  6
CONTINUOUS
 62
     7
 10
-1011.9977756828
 20
-291.4508444782
 30
0.0
 11
-1040.263654241
 21
-260.9691930529
 31
0.0
  0
ARC
  5
303
  8
0
  6
CONTINUOUS
 62
     7
 10
-1035.1308602184
 20
-232.6785004851
 30
0.0
 40
7.000000000000253
 50
42.84
 51
180.0
  0
ARC
  5
304
  8
0
  6
CONTINUOUS
 62
     7
 10
-1014.3808602184
 20
-293.6606938702
 30
0.0
 40
3.25
 50
0.0
 51
42.84
  0
ARC
  5
305
  8
0
  6
CONTINUOUS
 62
     7
 10
-1002.3808602184
 20
-298.4285004851
 30
0.0
 40
3.250000000000057
 50
270.0
 51
0.0
  0
LINE
  5
306
  8
0
  6
CONTINUOUS
 62
     7
 10
-1029.9980654806
 20
-227.9188198563
 30
0.0
 11
-999.9977811665
 21
-260.2708650347
 31
0.0
  0
LINE
  5
307
  8
0
  6
CONTINUOUS
 62
     7
 10
-1042.1308591456
 20
-256.209523749
 30
0.0
 11
-1042.1308591456
 21
-232.6785040613
 31
0.0
  0
ARC
  5
308
  8
0
  6
CONTINUOUS
 62
     7
 10
-1035.1308602184
 20
-256.2095255534
 30
0.0
 40
7.000000000000086
 50
180.0
 51
222.84
  0
LINE
  5
309
  8
0
  6
CONTINUOUS
 62
     7
 10
-1002.3808642716
 20
-301.6784948822
 30
0.0
 11
-1007.8808530659
 21
-301.6784948822
 31
0.0
  0
ARC
  5
30A
  8
0
  6
CONTINUOUS
 62
     7
 10
-1002.3808602184
 20
-262.4807093172
 30
0.0
 40
3.25
 50
360.0
 51
42.84
  0
ARC
  5
30B
  8
0
  6
CONTINUOUS
 62
     7
 10
-1007.8808602184
 20
-298.4285004851
 30
0.0
 40
3.25
 50
180.0
 51
270.0
  0
LINE
  5
30C
  8
0
  6
CONTINUOUS
 62
     7
 10
-1011.1308559269
 20
-298.4285069223
 30
0.0
 11
-1011.1308559269
 21
-293.6606866833
 31
0.0
  0
ARC
  5
30D
  8
0
  6
CONTINUOUS
 62
     7
 10
-1403.1308602184
 20
-232.6785004851
 30
0.0
 40
6.700000000000273
 50
0.0
 51
137.16
  0
ARC
  5
30E
  8
0
  6
CONTINUOUS
 62
     7
 10
-1403.1308602184
 20
-232.6785004851
 30
0.0
 40
7.000000000000227
 50
0.0
 51
137.16
  0
CIRCLE
  5
30F
  8
0
  6
CONTINUOUS
 62
     7
 10
-1403.1308602184
 20
-232.6785004851
 30
0.0
 40
3.200000000000045
  0
CIRCLE
  5
310
  8
0
  6
CONTINUOUS
 62
     7
 10
-1403.1308602184
 20
-257.6785004851
 30
0.0
 40
3.199999999999989
  0
CIRCLE
  5
311
  8
0
  6
CONTINUOUS
 62
     7
 10
-1433.1308602184
 20
-295.9785004851
 30
0.0
 40
2.25
  0
CIRCLE
  5
312
  8
0
  6
CONTINUOUS
 62
     7
 10
-1433.1308602184
 20
-265.3785004851
 30
0.0
 40
2.25
  0
ARC
  5
313
  8
0
  6
CONTINUOUS
 62
     7
 10
-1435.8808602184
 20
-298.4285004851
 30
0.0
 40
2.950000000000045
 50
180.0
 51
270.0
  0
LINE
  5
314
  8
0
  6
CONTINUOUS
 62
     7
 10
-1438.830853948
 20
-262.4807072397
 30
0.0
 11
-1438.830853948
 21
-298.4285069223
 31
0.0
  0
ARC
  5
315
  8
0
  6
CONTINUOUS
 62
     7
 10
-1435.8808602184
 20
-262.4807093172
 30
0.0
 40
2.950000000000045
 50
137.16
 51
180.0
  0
LINE
  5
316
  8
0
  6
CONTINUOUS
 62
     7
 10
-1408.0436691136
 20
-228.122816753
 30
0.0
 11
-1438.0439683289
 21
-260.4748470303
 31
0.0
  0
LINE
  5
317
  8
0
  6
CONTINUOUS
 62
     7
 10
-1396.4308663696
 20
-256.209523749
 30
0.0
 11
-1396.4308663696
 21
-232.6785040613
 31
0.0
  0
ARC
  5
318
  8
0
  6
CONTINUOUS
 62
     7
 10
-1403.1308602184
 20
-256.2095255534
 30
0.0
 40
6.700000000000347
 50
317.16
 51
0.0
  0
LINE
  5
319
  8
0
  6
CONTINUOUS
 62
     7
 10
-1426.4839156956
 20
-291.2468624827
 30
0.0
 11
-1398.2180520386
 21
-260.7652110573
 31
0.0
  0
ARC
  5
31A
  8
0
  6
CONTINUOUS
 62
     7
 10
-1423.8808602184
 20
-293.6606938702
 30
0.0
 40
3.549999999999955
 50
137.16
 51
180.0
  0
LINE
  5
31B
  8
0
  6
CONTINUOUS
 62
     7
 10
-1427.4308546871
 20
-298.4285069223
 30
0.0
 11
-1427.4308546871
 21
-293.6606866833
 31
0.0
  0
ARC
  5
31C
  8
0
  6
CONTINUOUS
 62
     7
 10
-1430.3808602184
 20
-298.4285004851
 30
0.0
 40
2.950000000000045
 50
270.0
 51
360.0
  0
LINE
  5
31D
  8
0
  6
CONTINUOUS
 62
     7
 10
-1435.8808561653
 20
-301.3785047051
 30
0.0
 11
-1430.380867371
 21
-301.3785047051
 31
0.0
  0
LINE
  5
31E
  8
0
  6
CONTINUOUS
 62
     7
 10
-1396.1308612913
 20
-232.6785040613
 30
0.0
 11
-1396.1308612913
 21
-256.209523749
 31
0.0
  0
LINE
  5
31F
  8
0
  6
CONTINUOUS
 62
     7
 10
-1438.2639392704
 20
-260.2708650347
 30
0.0
 11
-1408.2636549563
 21
-227.9188198563
 31
0.0
  0
ARC
  5
320
  8
0
  6
CONTINUOUS
 62
     7
 10
-1403.1308602184
 20
-256.2095255534
 30
0.0
 40
7.000000000000253
 50
317.16
 51
0.0
  0
LINE
  5
321
  8
0
  6
CONTINUOUS
 62
     7
 10
-1397.9980661959
 20
-260.9691930529
 30
0.0
 11
-1426.263944754
 21
-291.4508444782
 31
0.0
  0
ARC
  5
322
  8
0
  6
CONTINUOUS
 62
     7
 10
-1435.8808602184
 20
-262.4807093172
 30
0.0
 40
3.25
 50
137.16
 51
180.0
  0
LINE
  5
323
  8
0
  6
CONTINUOUS
 62
     7
 10
-1439.1308590264
 20
-298.4285069223
 30
0.0
 11
-1439.1308590264
 21
-262.4807072397
 31
0.0
  0
ARC
  5
324
  8
0
  6
CONTINUOUS
 62
     7
 10
-1430.3808602184
 20
-298.4285004851
 30
0.0
 40
3.25
 50
270.0
 51
360.0
  0
ARC
  5
325
  8
0
  6
CONTINUOUS
 62
     7
 10
-1423.8808602184
 20
-293.6606938702
 30
0.0
 40
3.25
 50
137.16
 51
180.0
  0
LINE
  5
326
  8
0
  6
CONTINUOUS
 62
     7
 10
-1427.13086451
 20
-293.6606866833
 30
0.0
 11
-1427.13086451
 21
-298.4285069223
 31
0.0
  0
LINE
  5
327
  8
0
  6
CONTINUOUS
 62
     7
 10
-1430.380867371
 20
-301.6784948822
 30
0.0
 11
-1435.8808561653
 21
-301.6784948822
 31
0.0
  0
ARC
  5
328
  8
0
  6
CONTINUOUS
 62
     7
 10
-1435.8808602184
 20
-298.4285004851
 30
0.0
 40
3.250000000000057
 50
180.0
 51
270.0
  0
LINE
  5
329
  8
0
  6
CONTINUOUS
 62
     7
 10
-1420.7308604807
 20
-241.3633478399
 30
0.0
 11
-1420.7308604807
 21
-236.6784972664
 31
0.0
  0
LINE
  5
32A
  8
0
  6
CONTINUOUS
 62
     7
 10
-1420.7308604807
 20
-236.6784972664
 30
0.0
 11
-1420.7308604807
 21
-220.6784946438
 31
0.0
  0
LINE
  5
32B
  8
0
  6
CONTINUOUS
 62
     7
 10
-1425.1308604569
 20
-236.6784972664
 30
0.0
 11
-1425.1308604569
 21
-246.1082649942
 31
0.0
  0
LINE
  5
32C
  8
0
  6
CONTINUOUS
 62
     7
 10
-1425.1308604569
 20
-224.67850275
 30
0.0
 11
-1425.1308604569
 21
-236.6784972664
 31
0.0
  0
LINE
  5
32D
  8
0
  6
CONTINUOUS
 62
     7
 10
-1417.6301523537
 20
-226.9632530924
 30
0.0
 11
-1417.6308676094
 21
-226.9632530924
 31
0.0
  0
LINE
  5
32E
  8
0
  6
CONTINUOUS
 62
     7
 10
-1417.6308676094
 20
-221.263395023
 30
0.0
 11
-1417.6301523537
 21
-221.263395023
 31
0.0
  0
LINE
  5
32F
  8
0
  6
CONTINUOUS
 62
     7
 10
-1023.0808570475
 20
-292.3785013672
 30
0.0
 11
-1414.0808596701
 21
-292.3785013672
 31
0.0
  0
LINE
  5
330
  8
0
  6
CONTINUOUS
 62
     7
 10
-1023.0808570475
 20
-295.3785074469
 30
0.0
 11
-1414.0808596701
 21
-295.3785074469
 31
0.0
  0
LINE
  5
331
  8
0
  6
CONTINUOUS
 62
     7
 10
-1416.0808637232
 20
-295.3785074469
 30
0.0
 11
-1416.0808637232
 21
-292.3785013672
 31
0.0
  0
LINE
  5
332
  8
0
  6
CONTINUOUS
 62
     7
 10
-1416.0808637232
 20
-292.3785013672
 30
0.0
 11
-1414.0808596701
 21
-292.3785013672
 31
0.0
  0
LINE
  5
333
  8
0
  6
CONTINUOUS
 62
     7
 10
-1414.0808596701
 20
-295.3785074469
 30
0.0
 11
-1416.0808637232
 21
-295.3785074469
 31
0.0
  0
LINE
  5
334
  8
0
  6
CONTINUOUS
 62
     7
 10
-1021.0808529944
 20
-292.3785013672
 30
0.0
 11
-1021.0808529944
 21
-295.3785074469
 31
0.0
  0
LINE
  5
335
  8
0
  6
CONTINUOUS
 62
     7
 10
-1023.0808570475
 20
-292.3785013672
 30
0.0
 11
-1021.0808529944
 21
-292.3785013672
 31
0.0
  0
LINE
  5
336
  8
0
  6
CONTINUOUS
 62
     7
 10
-1021.0808529944
 20
-295.3785074469
 30
0.0
 11
-1023.0808570475
 21
-295.3785074469
 31
0.0
  0
LINE
  5
337
  8
0
  6
CONTINUOUS
 62
     7
 10
-1023.5808655113
 20
-288.378493261
 30
0.0
 11
-1023.5808655113
 21
-289.8279888149
 31
0.0
  0
ARC
  5
338
  8
0
  6
CONTINUOUS
 62
     7
 10
-1024.080860438
 20
-287.3785000594
 30
0.0
 40
2.500000000000114
 50
281.5369590328
 51
0.0000000001
  0
ARC
  5
339
  8
0
  6
CONTINUOUS
 62
     7
 10
-1415.580860438
 20
-289.8785000594
 30
0.0
 40
2.5
 50
36.8698976458
 51
90.0
  0
LINE
  5
33A
  8
0
  6
CONTINUOUS
 62
     7
 10
-1415.5808552593
 20
-287.3785061356
 30
0.0
 11
-1415.5808552593
 21
-279.9303097244
 31
0.0
  0
LINE
  5
33B
  8
0
  6
CONTINUOUS
 62
     7
 10
-1412.2872366995
 20
-276.3784987446
 30
0.0
 11
-1025.9744837374
 21
-276.3784987446
 31
0.0
  0
LINE
  5
33C
  8
0
  6
CONTINUOUS
 62
     7
 10
-1021.5808614582
 20
-287.3785061356
 30
0.0
 11
-1021.5808614582
 21
-281.1165464636
 31
0.0
  0
ARC
  5
33D
  8
0
  6
CONTINUOUS
 62
     7
 10
-1021.580860438
 20
-289.8785000594
 30
0.0
 40
2.500000000000057
 50
90.0
 51
143.1301023542
  0
LINE
  5
33E
  8
0
  6
CONTINUOUS
 62
     7
 10
-1023.5808655113
 20
-291.3784993406
 30
0.0
 11
-1413.5808661074
 21
-291.3784993406
 31
0.0
  0
POLYLINE
  5
33F
  8
0
  6
CONTINUOUS
 62
     7
 66
     1
 10
0.0
 20
0.0
 30
0.0
  0
VERTEX
  5
623
  8
0
  6
CONTINUOUS
 62
     7
 10
-1413.5808661074
 20
-291.3784993406
 30
0.0
  0
VERTEX
  5
624
  8
0
  6
CONTINUOUS
 62
     7
 10
-1413.3662893862
 20
-291.3310987469
 30
0.0
  0
VERTEX
  5
625
  8
0
  6
CONTINUOUS
 62
     7
 10
-1413.209216246
 20
-291.1740256067
 30
0.0
  0
VERTEX
  5
626
  8
0
  6
CONTINUOUS
 62
     7
 10
-1413.1130143494
 20
-290.8947927471
 30
0.0
  0
VERTEX
  5
627
  8
0
  6
CONTINUOUS
 62
     7
 10
-1413.0808576435
 20
-290.4998076674
 30
0.0
  0
VERTEX
  5
628
  8
0
  6
CONTINUOUS
 62
     7
 10
-1413.1128504366
 20
-290.0113178011
 30
0.0
  0
VERTEX
  5
629
  8
0
  6
CONTINUOUS
 62
     7
 10
-1413.2088288159
 20
-289.4685579058
 30
0.0
  0
VERTEX
  5
62A
  8
0
  6
CONTINUOUS
 62
     7
 10
-1413.3664383978
 20
-288.9092577215
 30
0.0
  0
VERTEX
  5
62B
  8
0
  6
CONTINUOUS
 62
     7
 10
-1413.5808661074
 20
-288.378493261
 30
0.0
  0
SEQEND
  5
62C
  8
0
  6
CONTINUOUS
 62
     7
  0
POLYLINE
  5
340
  8
0
  6
CONTINUOUS
 62
     7
 66
     1
 10
0.0
 20
0.0
 30
0.0
  0
VERTEX
  5
62D
  8
0
  6
CONTINUOUS
 62
     7
 10
-1023.5808655113
 20
-291.3784993406
 30
0.0
  0
VERTEX
  5
62E
  8
0
  6
CONTINUOUS
 62
     7
 10
-1023.7954273314
 20
-291.3310987469
 30
0.0
  0
VERTEX
  5
62F
  8
0
  6
CONTINUOUS
 62
     7
 10
-1023.9525153727
 20
-291.1740256067
 30
0.0
  0
VERTEX
  5
630
  8
0
  6
CONTINUOUS
 62
     7
 10
-1024.0487023682
 20
-290.8947927471
 30
0.0
  0
VERTEX
  5
631
  8
0
  6
CONTINUOUS
 62
     7
 10
-1024.080859074
 20
-290.4998076674
 30
0.0
  0
VERTEX
  5
632
  8
0
  6
CONTINUOUS
 62
     7
 10
-1024.048866281
 20
-290.0113178011
 30
0.0
  0
VERTEX
  5
633
  8
0
  6
CONTINUOUS
 62
     7
 10
-1023.9529028029
 20
-289.4685579058
 30
0.0
  0
VERTEX
  5
634
  8
0
  6
CONTINUOUS
 62
     7
 10
-1023.7952783198
 20
-288.9092577215
 30
0.0
  0
VERTEX
  5
635
  8
0
  6
CONTINUOUS
 62
     7
 10
-1023.5808655113
 20
-288.378493261
 30
0.0
  0
SEQEND
  5
636
  8
0
  6
CONTINUOUS
 62
     7
  0
ARC
  5
341
  8
0
  6
CONTINUOUS
 62
     7
 10
-1023.6489937048
 20
-289.4518564977
 30
0.0
 40
0.4320524618948993
 50
178.3137831421
 51
279.0725509353
  0
LINE
  5
342
  8
0
  6
CONTINUOUS
 62
     7
 10
-1023.5808655113
 20
-289.8785037514
 30
0.0
 11
-1023.5808655113
 21
-291.3784993406
 31
0.0
  0
LINE
  5
343
  8
0
  6
CONTINUOUS
 62
     7
 10
-1413.5808661074
 20
-289.8785037514
 30
0.0
 11
-1413.5808661074
 21
-291.3784993406
 31
0.0
  0
ARC
  5
344
  8
0
  6
CONTINUOUS
 62
     7
 10
-1413.5127261019
 20
-289.451855293
 30
0.0
 40
0.432055514242873
 50
260.9259274348
 51
1.6860451166
  0
LINE
  5
345
  8
0
  6
CONTINUOUS
 62
     7
 10
-1020.080865869
 20
-287.3785061356
 30
0.0
 11
-1021.5808614582
 21
-287.3785061356
 31
0.0
  0
LINE
  5
346
  8
0
  6
CONTINUOUS
 62
     7
 10
-1020.080865869
 20
-288.378493261
 30
0.0
 11
-1021.5808614582
 21
-288.378493261
 31
0.0
  0
LINE
  5
347
  8
0
  6
CONTINUOUS
 62
     7
 10
-1021.5808614582
 20
-287.3785061356
 30
0.0
 11
-1021.5808614582
 21
-288.378493261
 31
0.0
  0
LINE
  5
348
  8
0
  6
CONTINUOUS
 62
     7
 10
-1020.080865869
 20
-287.3785061356
 30
0.0
 11
-1020.080865869
 21
-288.378493261
 31
0.0
  0
LINE
  5
349
  8
0
  6
CONTINUOUS
 62
     7
 10
-1415.5808552593
 20
-287.3785061356
 30
0.0
 11
-1417.0808657498
 21
-287.3785061356
 31
0.0
  0
LINE
  5
34A
  8
0
  6
CONTINUOUS
 62
     7
 10
-1417.0808657498
 20
-288.378493261
 30
0.0
 11
-1415.5808552593
 21
-288.378493261
 31
0.0
  0
LINE
  5
34B
  8
0
  6
CONTINUOUS
 62
     7
 10
-1417.0808657498
 20
-287.3785061356
 30
0.0
 11
-1417.0808657498
 21
-288.378493261
 31
0.0
  0
LINE
  5
34C
  8
0
  6
CONTINUOUS
 62
     7
 10
-1415.5808552593
 20
-287.3785061356
 30
0.0
 11
-1415.5808552593
 21
-288.378493261
 31
0.0
  0
LINE
  5
34D
  8
0
  6
CONTINUOUS
 62
     7
 10
-1020.080865869
 20
-282.7341271158
 30
0.0
 11
-1020.080865869
 21
-287.3785061356
 31
0.0
  0
LINE
  5
34E
  8
0
  6
CONTINUOUS
 62
     7
 10
-1417.0808657498
 20
-281.5479052778
 30
0.0
 11
-1417.0808657498
 21
-287.3785061356
 31
0.0
  0
LINE
  5
34F
  8
0
  6
CONTINUOUS
 62
     7
 10
-1023.0808570475
 20
-291.3784993406
 30
0.0
 11
-1023.0808570475
 21
-289.8785037514
 31
0.0
  0
LINE
  5
350
  8
0
  6
CONTINUOUS
 62
     7
 10
-1023.0808570475
 20
-291.3784993406
 30
0.0
 11
-1023.5808655113
 21
-291.3784993406
 31
0.0
  0
LINE
  5
351
  8
0
  6
CONTINUOUS
 62
     7
 10
-1023.0808570475
 20
-289.8785037514
 30
0.0
 11
-1023.5808655113
 21
-289.8785037514
 31
0.0
  0
LINE
  5
352
  8
0
  6
CONTINUOUS
 62
     7
 10
-1414.0808596701
 20
-291.3784993406
 30
0.0
 11
-1414.0808596701
 21
-289.8785037514
 31
0.0
  0
LINE
  5
353
  8
0
  6
CONTINUOUS
 62
     7
 10
-1414.0808596701
 20
-291.3784993406
 30
0.0
 11
-1413.5808661074
 21
-291.3784993406
 31
0.0
  0
LINE
  5
354
  8
0
  6
CONTINUOUS
 62
     7
 10
-1414.0808596701
 20
-289.8785037514
 30
0.0
 11
-1413.5808661074
 21
-289.8785037514
 31
0.0
  0
ARC
  5
355
  8
0
  6
CONTINUOUS
 62
     7
 10
-1023.0808545883
 20
-288.3785106212
 30
0.0
 40
2.99998871942328
 50
269.9999530337
 51
0.0003315576
  0
ARC
  5
356
  8
0
  6
CONTINUOUS
 62
     7
 10
-1023.0808642974
 20
-288.3785009122
 30
0.0
 40
1.500002839161158
 50
270.0002769247
 51
0.0002922566
  0
ARC
  5
357
  8
0
  6
CONTINUOUS
 62
     7
 10
-1414.0808467278
 20
-288.3784803187
 30
0.0
 40
3.000019021984379
 50
180.0002471778
 51
269.9997528222
  0
ARC
  5
358
  8
0
  6
CONTINUOUS
 62
     7
 10
-1414.0808608996
 20
-288.3785093916
 30
0.0
 40
1.499994359800431
 50
179.9993838535
 51
270.0000469652
  0
LINE
  5
359
  8
0
  6
CONTINUOUS
 62
     7
 10
-1040.8808603377
 20
-274.7351986881
 30
0.0
 11
-1040.6499072403
 21
-276.3784987446
 31
0.0
  0
ARC
  5
35A
  8
0
  6
CONTINUOUS
 62
     7
 10
-1036.9197878867
 20
-274.1785004849
 30
0.0
 40
4.000000000000114
 50
89.9999999999
 51
187.9999988096
  0
LINE
  5
35B
  8
0
  6
CONTINUOUS
 62
     7
 10
-1036.9197889656
 20
-272.178502154
 30
0.0
 11
-1029.8691704363
 21
-272.178502154
 31
0.0
  0
ARC
  5
35C
  8
0
  6
CONTINUOUS
 62
     7
 10
-1036.9197878867
 20
-274.1785004849
 30
0.0
 40
2.000000082123677
 50
89.9999999998
 51
187.9999988096
  0
LINE
  5
35D
  8
0
  6
CONTINUOUS
 62
     7
 10
-1038.6302485556
 20
-276.3784987446
 30
0.0
 11
-1038.9003172011
 21
-274.456844997
 31
0.0
  0
LINE
  5
35E
  8
0
  6
CONTINUOUS
 62
     7
 10
-1417.6301523537
 20
-83.1785005111
 30
0.0
 11
-1417.6301523537
 21
-238.0195719715
 31
0.0
  0
LINE
  5
35F
  8
0
  6
CONTINUOUS
 62
     7
 10
-1020.6315680832
 20
-238.0195719715
 30
0.0
 11
-1020.6315680832
 21
-83.1785005111
 31
0.0
  0
CIRCLE
  5
360
  8
0
  6
CONTINUOUS
 62
     7
 10
-1219.1308602184
 20
-175.178500485
 30
0.0
 40
25.25
  0
LINE
  5
361
  8
0
  6
CONTINUOUS
 62
     7
 10
-1190.7218504191
 20
-151.365683746
 30
0.0
 11
-1186.8327646941
 21
-147.4765998837
 31
0.0
  0
ARC
  5
362
  8
0
  6
CONTINUOUS
 62
     7
 10
-1189.1308602184
 20
-145.178500485
 30
0.0
 40
3.250000000000107
 50
315.0
 51
135.0
  0
LINE
  5
363
  8
0
  6
CONTINUOUS
 62
     7
 10
-1191.4289570839
 20
-142.8804037686
 30
0.0
 11
-1195.3180446715
 21
-146.7694876309
 31
0.0
  0
ARC
  5
364
  8
0
  6
CONTINUOUS
 62
     7
 10
-1193.019947515
 20
-149.0675877816
 30
0.0
 40
3.250000000000408
 50
135.0
 51
315.0
  0
LINE
  5
365
  8
0
  6
CONTINUOUS
 62
     7
 10
-1251.4289557428
 20
-147.4765998837
 30
0.0
 11
-1247.5398700178
 21
-151.365683746
 31
0.0
  0
ARC
  5
366
  8
0
  6
CONTINUOUS
 62
     7
 10
-1245.2417729219
 20
-149.0675877816
 30
0.0
 40
3.250000000000107
 50
225.0
 51
45.0
  0
LINE
  5
367
  8
0
  6
CONTINUOUS
 62
     7
 10
-1242.9436757654
 20
-146.7694876309
 30
0.0
 11
-1246.832763353
 21
-142.8804037686
 31
0.0
  0
ARC
  5
368
  8
0
  6
CONTINUOUS
 62
     7
 10
-1249.1308602184
 20
-145.178500485
 30
0.0
 40
3.250000000000448
 50
45.0
 51
225.0
  0
LINE
  5
369
  8
0
  6
CONTINUOUS
 62
     7
 10
-1186.8327646941
 20
-202.8804061528
 30
0.0
 11
-1190.7218504191
 21
-198.9913148399
 31
0.0
  0
ARC
  5
36A
  8
0
  6
CONTINUOUS
 62
     7
 10
-1193.019947515
 20
-201.2894131885
 30
0.0
 40
3.250000000000127
 50
45.0
 51
225.0
  0
LINE
  5
36B
  8
0
  6
CONTINUOUS
 62
     7
 10
-1195.3180446715
 20
-203.587510955
 30
0.0
 11
-1191.4289570839
 21
-207.4766022678
 31
0.0
  0
ARC
  5
36C
  8
0
  6
CONTINUOUS
 62
     7
 10
-1189.1308602184
 20
-205.178500485
 30
0.0
 40
3.249999999999946
 50
225.0
 51
45.0
  0
LINE
  5
36D
  8
0
  6
CONTINUOUS
 62
     7
 10
-1247.5398700178
 20
-198.9913148399
 30
0.0
 11
-1251.4289557428
 21
-202.8804061528
 31
0.0
  0
ARC
  5
36E
  8
0
  6
CONTINUOUS
 62
     7
 10
-1249.1308602184
 20
-205.178500485
 30
0.0
 40
3.250000000000147
 50
135.0
 51
315.0
  0
LINE
  5
36F
  8
0
  6
CONTINUOUS
 62
     7
 10
-1246.832763353
 20
-207.4766022678
 30
0.0
 11
-1242.9436757654
 21
-203.587510955
 31
0.0
  0
ARC
  5
370
  8
0
  6
CONTINUOUS
 62
     7
 10
-1245.2417729219
 20
-201.2894131885
 30
0.0
 40
3.250000000000187
 50
315.0
 51
135.0
  0
LINE
  5
371
  8
0
  6
CONTINUOUS
 62
     7
 10
-1031.7237838596
 20
-270.1784981009
 30
0.0
 11
-1406.5379365772
 21
-270.1784981009
 31
0.0
  0
POLYLINE
  5
372
  8
0
  6
CONTINUOUS
 62
     7
 66
     1
 10
0.0
 20
0.0
 30
0.0
  0
VERTEX
  5
637
  8
0
  6
CONTINUOUS
 62
     7
 10
-1020.6315680832
 20
-83.1785005111
 30
0.0
  0
VERTEX
  5
638
  8
0
  6
CONTINUOUS
 62
     7
 10
-1020.6543519587
 20
-82.6575559158
 30
0.0
  0
VERTEX
  5
639
  8
0
  6
CONTINUOUS
 62
     7
 10
-1020.7219883293
 20
-82.1524400789
 30
0.0
  0
VERTEX
  5
63A
  8
0
  6
CONTINUOUS
 62
     7
 10
-1020.8324357361
 20
-81.6785004981
 30
0.0
  0
VERTEX
  5
63B
  8
0
  6
CONTINUOUS
 62
     7
 10
-1020.9823414177
 20
-81.2501376322
 30
0.0
  0
VERTEX
  5
63C
  8
0
  6
CONTINUOUS
 62
     7
 10
-1021.1671307177
 20
-80.8803671798
 30
0.0
  0
VERTEX
  5
63D
  8
0
  6
CONTINUOUS
 62
     7
 10
-1021.3812157005
 20
-80.5804242672
 30
0.0
  0
VERTEX
  5
63E
  8
0
  6
CONTINUOUS
 62
     7
 10
-1021.6180696577
 20
-80.3594226281
 30
0.0
  0
VERTEX
  5
63F
  8
0
  6
CONTINUOUS
 62
     7
 10
-1021.8705102295
 20
-80.2240772254
 30
0.0
  0
VERTEX
  5
640
  8
0
  6
CONTINUOUS
 62
     7
 10
-1022.1308633179
 20
-80.178500485
 30
0.0
  0
SEQEND
  5
641
  8
0
  6
CONTINUOUS
 62
     7
  0
POLYLINE
  5
373
  8
0
  6
CONTINUOUS
 62
     7
 66
     1
 10
0.0
 20
0.0
 30
0.0
  0
VERTEX
  5
642
  8
0
  6
CONTINUOUS
 62
     7
 10
-1416.130857119
 20
-80.178500485
 30
0.0
  0
VERTEX
  5
643
  8
0
  6
CONTINUOUS
 62
     7
 10
-1416.4233520121
 20
-80.2361446449
 30
0.0
  0
VERTEX
  5
644
  8
0
  6
CONTINUOUS
 62
     7
 10
-1416.7046114296
 20
-80.4068618863
 30
0.0
  0
VERTEX
  5
645
  8
0
  6
CONTINUOUS
 62
     7
 10
-1416.9638171286
 20
-80.6840916457
 30
0.0
  0
VERTEX
  5
646
  8
0
  6
CONTINUOUS
 62
     7
 10
-1417.1910151333
 20
-81.0571801675
 30
0.0
  0
VERTEX
  5
647
  8
0
  6
CONTINUOUS
 62
     7
 10
-1417.3774733633
 20
-81.5117897991
 30
0.0
  0
VERTEX
  5
648
  8
0
  6
CONTINUOUS
 62
     7
 10
-1417.5160243601
 20
-82.0304502094
 30
0.0
  0
VERTEX
  5
649
  8
0
  6
CONTINUOUS
 62
     7
 10
-1417.6013484091
 20
-82.5932294656
 30
0.0
  0
VERTEX
  5
64A
  8
0
  6
CONTINUOUS
 62
     7
 10
-1417.6301523537
 20
-83.1785005111
 30
0.0
  0
SEQEND
  5
64B
  8
0
  6
CONTINUOUS
 62
     7
  0
LINE
  5
374
  8
0
  6
CONTINUOUS
 62
     7
 10
-1022.1308633179
 20
-80.178500485
 30
0.0
 11
-1416.130857119
 21
-80.178500485
 31
0.0
  0
ARC
  5
375
  8
0
  6
CONTINUOUS
 62
     7
 10
-1416.1308485346
 20
-83.1785151491
 30
0.0
 40
3.000014664104143
 50
90.0001639491
 51
179.9997204359
  0
LINE
  5
376
  8
0
  6
CONTINUOUS
 62
     7
 10
-1020.6308528275
 20
-83.1785005111
 30
0.0
 11
-1020.6308528275
 21
-238.0203468319
 31
0.0
  0
LINE
  5
377
  8
0
  6
CONTINUOUS
 62
     7
 10
-1019.1308572382
 20
-83.1785005111
 30
0.0
 11
-1019.1308572382
 21
-239.6379274841
 31
0.0
  0
ARC
  5
378
  8
0
  6
CONTINUOUS
 62
     7
 10
-1022.1308717099
 20
-83.1785149568
 30
0.0
 40
3.000014471762588
 50
0.0002758907
 51
89.9998397243
  0
LINE
  5
379
  8
0
  6
CONTINUOUS
 62
     7
 10
-1417.6308676094
 20
-238.0203468319
 30
0.0
 11
-1417.6308676094
 21
-83.1785005111
 31
0.0
  0
LINE
  5
37A
  8
0
  6
CONTINUOUS
 62
     7
 10
-1419.1308631987
 20
-239.6379274841
 30
0.0
 11
-1419.1308631987
 21
-83.1785005111
 31
0.0
  0
LINE
  5
37B
  8
0
  6
CONTINUOUS
 62
     7
 10
-1395.7630261273
 20
-276.3784987446
 30
0.0
 11
-1395.1611682266
 21
-272.0960242268
 31
0.0
  0
LINE
  5
37C
  8
0
  6
CONTINUOUS
 62
     7
 10
-1396.6465606779
 20
-271.8872589584
 30
0.0
 11
-1395.1611682266
 21
-272.0960242268
 31
0.0
  0
LINE
  5
37D
  8
0
  6
CONTINUOUS
 62
     7
 10
-1397.2777589649
 20
-276.3784987446
 30
0.0
 11
-1396.6465606779
 21
-271.8872589584
 31
0.0
  0
LINE
  5
37E
  8
0
  6
CONTINUOUS
 62
     7
 10
-1041.4211615414
 20
-271.8872589584
 30
0.0
 11
-1040.7837643713
 21
-276.3784987446
 31
0.0
  0
POLYLINE
  5
37F
  8
0
  6
CONTINUOUS
 62
     7
 66
     1
 10
0.0
 20
0.0
 30
0.0
  0
VERTEX
  5
64C
  8
0
  6
CONTINUOUS
 62
     7
 10
-1041.2634476513
 20
-270.6962985512
 30
0.0
  0
VERTEX
  5
64D
  8
0
  6
CONTINUOUS
 62
     7
 10
-1040.7529338688
 20
-270.3140688654
 30
0.0
  0
VERTEX
  5
64E
  8
0
  6
CONTINUOUS
 62
     7
 10
-1040.1297524065
 20
-270.1784981009
 30
0.0
  0
SEQEND
  5
64F
  8
0
  6
CONTINUOUS
 62
     7
  0
POLYLINE
  5
380
  8
0
  6
CONTINUOUS
 62
     7
 66
     1
 10
0.0
 20
0.0
 30
0.0
  0
VERTEX
  5
650
  8
0
  6
CONTINUOUS
 62
     7
 10
-1398.1319680304
 20
-270.1784981009
 30
0.0
  0
VERTEX
  5
651
  8
0
  6
CONTINUOUS
 62
     7
 10
-1397.5087865681
 20
-270.3140688654
 30
0.0
  0
VERTEX
  5
652
  8
0
  6
CONTINUOUS
 62
     7
 10
-1396.9982727856
 20
-270.6962985512
 30
0.0
  0
SEQEND
  5
653
  8
0
  6
CONTINUOUS
 62
     7
  0
POLYLINE
  5
381
  8
0
  6
CONTINUOUS
 62
     7
 66
     1
 10
0.0
 20
0.0
 30
0.0
  0
VERTEX
  5
654
  8
0
  6
CONTINUOUS
 62
     7
 10
-1395.2414705843
 20
-270.9019196745
 30
0.0
  0
VERTEX
  5
655
  8
0
  6
CONTINUOUS
 62
     7
 10
-1395.2353611082
 20
-270.82884438
 30
0.0
  0
VERTEX
  5
656
  8
0
  6
CONTINUOUS
 62
     7
 10
-1395.2235444874
 20
-270.6962985512
 30
0.0
  0
SEQEND
  5
657
  8
0
  6
CONTINUOUS
 62
     7
  0
ARC
  5
382
  8
0
  6
CONTINUOUS
 62
     7
 10
-1183.9826960509
 20
-283.1918090123
 30
0.0
 40
142.991400534918
 50
4.6183503062
 51
5.0671788829
  0
POLYLINE
  5
383
  8
0
  6
CONTINUOUS
 62
     7
 66
     1
 10
0.0
 20
0.0
 30
0.0
  0
VERTEX
  5
658
  8
0
  6
CONTINUOUS
 62
     7
 10
-1040.1286497206
 20
-270.1784981009
 30
0.0
  0
VERTEX
  5
659
  8
0
  6
CONTINUOUS
 62
     7
 10
-1040.8801152796
 20
-270.3140688654
 30
0.0
  0
VERTEX
  5
65A
  8
0
  6
CONTINUOUS
 62
     7
 10
-1041.6315659374
 20
-270.6962985512
 30
0.0
  0
SEQEND
  5
65B
  8
0
  6
CONTINUOUS
 62
     7
  0
ARC
  5
384
  8
0
  6
CONTINUOUS
 62
     7
 10
-1069.8030196975
 20
-276.2873543282
 30
0.0
 40
28.72091070378037
 50
8.8125217237
 51
11.225357256
  0
ARC
  5
385
  8
0
  6
CONTINUOUS
 62
     7
 10
-1366.9584857069
 20
-276.2870379835
 30
0.0
 40
28.72106436876817
 50
168.775346968
 51
171.1881644166
  0
LINE
  5
386
  8
0
  6
CONTINUOUS
 62
     7
 10
-1395.1301589102
 20
-270.6962985512
 30
0.0
 11
-1396.6301544995
 21
-270.6962985512
 31
0.0
  0
POLYLINE
  5
387
  8
0
  6
CONTINUOUS
 62
     7
 66
     1
 10
0.0
 20
0.0
 30
0.0
  0
VERTEX
  5
65C
  8
0
  6
CONTINUOUS
 62
     7
 10
-1396.6301544995
 20
-270.6962985512
 30
0.0
  0
VERTEX
  5
65D
  8
0
  6
CONTINUOUS
 62
     7
 10
-1397.3843618721
 20
-270.3140688654
 30
0.0
  0
VERTEX
  5
65E
  8
0
  6
CONTINUOUS
 62
     7
 10
-1398.1385543436
 20
-270.1784981009
 30
0.0
  0
SEQEND
  5
65F
  8
0
  6
CONTINUOUS
 62
     7
  0
ARC
  5
388
  8
0
  6
CONTINUOUS
 62
     7
 10
-1398.1319052031
 20
-271.6784943395
 30
0.0
 40
1.499943673803048
 50
351.9995059972
 51
40.9061378494
  0
ARC
  5
389
  8
0
  6
CONTINUOUS
 62
     7
 10
-1397.6479159935
 20
-271.6524654099
 30
0.0
 40
2.525996611197419
 50
349.8865662948
 51
22.2426905256
  0
POLYLINE
  5
38A
  8
0
  6
CONTINUOUS
 62
     7
 66
     1
 10
0.0
 20
0.0
 30
0.0
  0
VERTEX
  5
660
  8
0
  6
CONTINUOUS
 62
     7
 10
-1041.5389701218
 20
-271.1830002781
 30
0.0
  0
VERTEX
  5
661
  8
0
  6
CONTINUOUS
 62
     7
 10
-1041.4457484574
 20
-270.9586632963
 30
0.0
  0
VERTEX
  5
662
  8
0
  6
CONTINUOUS
 62
     7
 10
-1041.2634476513
 20
-270.6962985512
 30
0.0
  0
SEQEND
  5
663
  8
0
  6
CONTINUOUS
 62
     7
  0
POLYLINE
  5
38B
  8
0
  6
CONTINUOUS
 62
     7
 66
     1
 10
0.0
 20
0.0
 30
0.0
  0
VERTEX
  5
664
  8
0
  6
CONTINUOUS
 62
     7
 10
-1396.7579170555
 20
-271.0983914848
 30
0.0
  0
VERTEX
  5
665
  8
0
  6
CONTINUOUS
 62
     7
 10
-1396.7879577965
 20
-271.4574200626
 30
0.0
  0
VERTEX
  5
666
  8
0
  6
CONTINUOUS
 62
     7
 10
-1396.8405588955
 20
-272.0960242268
 30
0.0
  0
SEQEND
  5
667
  8
0
  6
CONTINUOUS
 62
     7
  0
LINE
  5
38C
  8
0
  6
CONTINUOUS
 62
     7
 10
-1396.8405588955
 20
-271.8872589584
 30
0.0
 11
-1396.8405588955
 21
-272.0960242268
 31
0.0
  0
LINE
  5
38D
  8
0
  6
CONTINUOUS
 62
     7
 10
-1396.8056752772
 20
-271.6755134579
 30
0.0
 11
-1396.8405588955
 21
-271.8872589584
 31
0.0
  0
LINE
  5
38E
  8
0
  6
CONTINUOUS
 62
     7
 10
-1397.4483325571
 20
-276.3784987446
 30
0.0
 11
-1396.8405588955
 21
-272.0960242268
 31
0.0
  0
LINE
  5
38F
  8
0
  6
CONTINUOUS
 62
     7
 10
-1396.8405588955
 20
-271.8872589584
 30
0.0
 11
-1397.4779560656
 21
-276.3784987446
 31
0.0
  0
LINE
  5
390
  8
0
  6
CONTINUOUS
 62
     7
 10
-1033.338324675
 20
-272.3985028978
 30
0.0
 11
-1030.3808614105
 21
-272.3985028978
 31
0.0
  0
LINE
  5
391
  8
0
  6
CONTINUOUS
 62
     7
 10
-1035.3808566422
 20
-272.3985028978
 30
0.0
 11
-1033.338324675
 21
-272.3985028978
 31
0.0
  0
LINE
  5
392
  8
0
  6
CONTINUOUS
 62
     7
 10
-1033.2651301712
 20
-272.7984947678
 30
0.0
 11
-1034.9808647722
 21
-272.7984947678
 31
0.0
  0
LINE
  5
393
  8
0
  6
CONTINUOUS
 62
     7
 10
-1030.7808532805
 20
-272.7984947678
 30
0.0
 11
-1033.2651301712
 21
-272.7984947678
 31
0.0
  0
LINE
  5
394
  8
0
  6
CONTINUOUS
 62
     7
 10
-1713.8742309717
 20
245.2023526637
 30
0.0
 11
-1713.8742309717
 21
1.3495843038
 31
0.0
  0
LINE
  5
395
  8
0
  6
CONTINUOUS
 62
     7
 10
-1680.3828489318
 20
13.5957064678
 30
0.0
 11
-1680.3828489318
 21
257.4484504929
 31
0.0
  0
LINE
  5
396
  8
0
  6
CONTINUOUS
 62
     7
 10
-2016.5159355111
 20
419.913689859
 30
0.0
 11
-2016.5159355111
 21
176.0609214991
 31
0.0
  0
LINE
  5
397
  8
0
  6
CONTINUOUS
 62
     7
 10
-1983.0245534713
 20
419.7648996015
 30
0.0
 11
-1983.0245534713
 21
420.5438691176
 31
0.0
  0
LINE
  5
398
  8
0
  6
CONTINUOUS
 62
     7
 10
-1714.8742281728
 20
1.104630081
 30
0.0
 11
-1714.8742281728
 21
-1.6716070052
 31
0.0
  0
LINE
  5
399
  8
0
  6
CONTINUOUS
 62
     7
 10
-1714.8742281728
 20
249.3330289125
 30
0.0
 11
-1714.8742281728
 21
246.5567918263
 31
0.0
  0
LINE
  5
39A
  8
0
  6
CONTINUOUS
 62
     7
 10
-1679.450075954
 20
290.1529697842
 30
0.0
 11
-1679.6622326526
 21
290.2754972155
 31
0.0
  0
LINE
  5
39B
  8
0
  6
CONTINUOUS
 62
     7
 10
-1677.4006222248
 20
284.5197668849
 30
0.0
 11
-1677.4006222248
 21
287.2960039711
 31
0.0
  0
LINE
  5
39C
  8
0
  6
CONTINUOUS
 62
     7
 10
-2017.5159327123
 20
424.0443661077
 30
0.0
 11
-2017.5159327123
 21
421.2681290216
 31
0.0
  0
LINE
  5
39D
  8
0
  6
CONTINUOUS
 62
     7
 10
-1939.6653719364
 20
440.3720626516
 30
0.0
 11
-1939.8775286351
 21
440.4945900829
 31
0.0
  0
LINE
  5
39E
  8
0
  6
CONTINUOUS
 62
     7
 10
-1937.6159182073
 20
434.7388597523
 30
0.0
 11
-1937.6159182073
 21
437.5150968385
 31
0.0
  0
LINE
  5
39F
  8
0
  6
CONTINUOUS
 62
     7
 10
-2017.5159327123
 20
175.8159672763
 30
0.0
 11
-2017.5159327123
 21
173.0397301901
 31
0.0
  0
LINE
  5
3A0
  8
0
  6
CONTINUOUS
 62
     7
 10
-1719.2156696708
 20
10.7416440366
 30
0.0
 11
-1717.0943450283
 21
11.9662586861
 31
0.0
  0
LINE
  5
3A1
  8
0
  6
CONTINUOUS
 62
     7
 10
-1995.5729346784
 20
412.6516242325
 30
0.0
 11
-1997.6942593209
 21
411.4270095831
 31
0.0
  0
LINE
  5
3A2
  8
0
  6
CONTINUOUS
 62
     7
 10
-1777.0996298484
 20
404.1958457642
 30
0.0
 11
-1773.8107215983
 21
402.2971994452
 31
0.0
  0
LINE
  5
3A3
  8
0
  6
CONTINUOUS
 62
     7
 10
-1738.1804910465
 20
381.7283051689
 30
0.0
 11
-1736.8840823038
 21
380.9799043318
 31
0.0
  0
LINE
  5
3A4
  8
0
  6
CONTINUOUS
 62
     7
 10
-1566.4957653594
 20
96.6163773099
 30
0.0
 11
-1566.4957653594
 21
338.4107003811
 31
0.0
  0
LINE
  5
3A5
  8
0
  6
CONTINUOUS
 62
     7
 10
-1567.2461854285
 20
339.7103914664
 30
0.0
 11
-1847.3456691154
 21
501.4083815603
 31
0.0
  0
LINE
  5
3A6
  8
0
  6
CONTINUOUS
 62
     7
 10
-1981.2034935142
 20
420.5835090947
 30
0.0
 11
-1981.2034935142
 21
418.7136099334
 31
0.0
  0
ARC
  5
3A7
  8
0
  6
CONTINUOUS
 62
     7
 10
-1707.7351526277
 20
1.2566129184
 30
0.0
 40
3.458310179776091
 50
242.6097546831
 51
297.3902453169
  0
LINE
  5
3A8
  8
0
  6
CONTINUOUS
 62
     7
 10
-1706.14416178
 20
-1.8139989786
 30
0.0
 11
-1681.0418675918
 21
12.6772470014
 31
0.0
  0
LINE
  5
3A9
  8
0
  6
CONTINUOUS
 62
     7
 10
-1713.2152228483
 20
0.4311187547
 30
0.0
 11
-1709.3261434754
 21
-1.8139989786
 31
0.0
  0
ARC
  5
3AA
  8
0
  6
CONTINUOUS
 62
     7
 10
-1712.7481864501
 20
1.4618771941
 30
0.0
 40
1.131629779451605
 50
185.6948966713
 51
245.6247313459
  0
ARC
  5
3AB
  8
0
  6
CONTINUOUS
 62
     7
 10
-1681.5089088736
 20
13.7080226068
 30
0.0
 40
1.13164743086166
 50
294.3751351755
 51
354.3040095177
  0
ARC
  5
3AC
  8
0
  6
CONTINUOUS
 62
     7
 10
-2010.3768571672
 20
175.9679154714
 30
0.0
 40
3.458279421211963
 50
242.6094906418
 51
297.3905093582
  0
LINE
  5
3AD
  8
0
  6
CONTINUOUS
 62
     7
 10
-2011.9678480149
 20
172.8973382166
 30
0.0
 11
-2015.8569273878
 21
175.14245595
 31
0.0
  0
LINE
  5
3AE
  8
0
  6
CONTINUOUS
 62
     7
 10
-1998.1085523051
 20
179.0612203952
 30
0.0
 11
-2008.7858663194
 21
172.8973382166
 31
0.0
  0
ARC
  5
3AF
  8
0
  6
CONTINUOUS
 62
     7
 10
-2015.3898909896
 20
176.1732143894
 30
0.0
 40
1.131629779451861
 50
185.6948966714
 51
245.6247313459
  0
POLYLINE
  5
3B0
  8
0
  6
CONTINUOUS
 62
     7
 66
     1
 10
0.0
 20
0.0
 30
0.0
  0
VERTEX
  5
668
  8
0
  6
CONTINUOUS
 62
     7
 10
-1947.4390947264
 20
439.1849451683
 30
0.0
  0
VERTEX
  5
669
  8
0
  6
CONTINUOUS
 62
     7
 10
-1948.0636478011
 20
438.61157634
 30
0.0
  0
VERTEX
  5
66A
  8
0
  6
CONTINUOUS
 62
     7
 10
-1948.3506994496
 20
437.9548560758
 30
0.0
  0
VERTEX
  5
66B
  8
0
  6
CONTINUOUS
 62
     7
 10
-1948.2721798708
 20
437.2790665018
 30
0.0
  0
VERTEX
  5
66C
  8
0
  6
CONTINUOUS
 62
     7
 10
-1947.8357597912
 20
436.6503632203
 30
0.0
  0
VERTEX
  5
66D
  8
0
  6
CONTINUOUS
 62
     7
 10
-1947.0841550417
 20
436.1302789705
 30
0.0
  0
VERTEX
  5
66E
  8
0
  6
CONTINUOUS
 62
     7
 10
-1946.0909434831
 20
435.769732155
 30
0.0
  0
VERTEX
  5
66F
  8
0
  6
CONTINUOUS
 62
     7
 10
-1944.9533368215
 20
435.6040146829
 30
0.0
  0
VERTEX
  5
670
  8
0
  6
CONTINUOUS
 62
     7
 10
-1943.7827186408
 20
435.6493491536
 30
0.0
  0
VERTEX
  5
671
  8
0
  6
CONTINUOUS
 62
     7
 10
-1942.6936440753
 20
435.9012951856
 30
0.0
  0
VERTEX
  5
672
  8
0
  6
CONTINUOUS
 62
     7
 10
-1941.7927446517
 20
436.3351812891
 30
0.0
  0
VERTEX
  5
673
  8
0
  6
CONTINUOUS
 62
     7
 10
-1941.168191577
 20
436.9085501173
 30
0.0
  0
VERTEX
  5
674
  8
0
  6
CONTINUOUS
 62
     7
 10
-1940.8811293918
 20
437.5652764643
 30
0.0
  0
VERTEX
  5
675
  8
0
  6
CONTINUOUS
 62
     7
 10
-1940.9596489706
 20
438.2410660382
 30
0.0
  0
VERTEX
  5
676
  8
0
  6
CONTINUOUS
 62
     7
 10
-1941.3960690502
 20
438.8697693197
 30
0.0
  0
VERTEX
  5
677
  8
0
  6
CONTINUOUS
 62
     7
 10
-1942.1476843364
 20
439.3898474868
 30
0.0
  0
VERTEX
  5
678
  8
0
  6
CONTINUOUS
 62
     7
 10
-1943.140895895
 20
439.7503943024
 30
0.0
  0
VERTEX
  5
679
  8
0
  6
CONTINUOUS
 62
     7
 10
-1944.2785025566
 20
439.9161117745
 30
0.0
  0
VERTEX
  5
67A
  8
0
  6
CONTINUOUS
 62
     7
 10
-1945.4491207372
 20
439.8707773038
 30
0.0
  0
VERTEX
  5
67B
  8
0
  6
CONTINUOUS
 62
     7
 10
-1946.5381847661
 20
439.6188373545
 30
0.0
  0
VERTEX
  5
67C
  8
0
  6
CONTINUOUS
 62
     7
 10
-1947.4390947264
 20
439.1849451683
 30
0.0
  0
SEQEND
  5
67D
  8
0
  6
CONTINUOUS
 62
     7
  0
POLYLINE
  5
3B1
  8
0
  6
CONTINUOUS
 62
     7
 66
     1
 10
0.0
 20
0.0
 30
0.0
  0
VERTEX
  5
67E
  8
0
  6
CONTINUOUS
 62
     7
 10
-1965.8016126122
 20
428.3200128061
 30
0.0
  0
VERTEX
  5
67F
  8
0
  6
CONTINUOUS
 62
     7
 10
-1966.0394367416
 20
427.6567597066
 30
0.0
  0
VERTEX
  5
680
  8
0
  6
CONTINUOUS
 62
     7
 10
-1965.9105938257
 20
426.9835492036
 30
0.0
  0
VERTEX
  5
681
  8
0
  6
CONTINUOUS
 62
     7
 10
-1965.4276963089
 20
426.3662753425
 30
0.0
  0
VERTEX
  5
682
  8
0
  6
CONTINUOUS
 62
     7
 10
-1964.6380118818
 20
425.8653516432
 30
0.0
  0
VERTEX
  5
683
  8
0
  6
CONTINUOUS
 62
     7
 10
-1963.6188273278
 20
425.5298230321
 30
0.0
  0
VERTEX
  5
684
  8
0
  6
CONTINUOUS
 62
     7
 10
-1962.4699358476
 20
425.3925300846
 30
0.0
  0
VERTEX
  5
685
  8
0
  6
CONTINUOUS
 62
     7
 10
-1961.3037641594
 20
425.466903434
 30
0.0
  0
VERTEX
  5
686
  8
0
  6
CONTINUOUS
 62
     7
 10
-1960.234488076
 20
425.7456803193
 30
0.0
  0
VERTEX
  5
687
  8
0
  6
CONTINUOUS
 62
     7
 10
-1959.3667792955
 20
426.2015615183
 30
0.0
  0
VERTEX
  5
688
  8
0
  6
CONTINUOUS
 62
     7
 10
-1958.7855637179
 20
426.7899120722
 30
0.0
  0
VERTEX
  5
689
  8
0
  6
CONTINUOUS
 62
     7
 10
-1958.5477395884
 20
427.4531651717
 30
0.0
  0
VERTEX
  5
68A
  8
0
  6
CONTINUOUS
 62
     7
 10
-1958.6765825043
 20
428.1263756747
 30
0.0
  0
VERTEX
  5
68B
  8
0
  6
CONTINUOUS
 62
     7
 10
-1959.1594800211
 20
428.7436495358
 30
0.0
  0
VERTEX
  5
68C
  8
0
  6
CONTINUOUS
 62
     7
 10
-1959.9491644483
 20
429.2445732352
 30
0.0
  0
VERTEX
  5
68D
  8
0
  6
CONTINUOUS
 62
     7
 10
-1960.9683490022
 20
429.5801018462
 30
0.0
  0
VERTEX
  5
68E
  8
0
  6
CONTINUOUS
 62
     7
 10
-1962.1172404825
 20
429.7173947938
 30
0.0
  0
VERTEX
  5
68F
  8
0
  6
CONTINUOUS
 62
     7
 10
-1963.2834121707
 20
429.6430214444
 30
0.0
  0
VERTEX
  5
690
  8
0
  6
CONTINUOUS
 62
     7
 10
-1964.3526882541
 20
429.364244559
 30
0.0
  0
VERTEX
  5
691
  8
0
  6
CONTINUOUS
 62
     7
 10
-1965.2203864978
 20
428.9083694428
 30
0.0
  0
VERTEX
  5
692
  8
0
  6
CONTINUOUS
 62
     7
 10
-1965.8016126122
 20
428.3200128061
 30
0.0
  0
SEQEND
  5
693
  8
0
  6
CONTINUOUS
 62
     7
  0
POLYLINE
  5
3B2
  8
0
  6
CONTINUOUS
 62
     7
 66
     1
 10
0.0
 20
0.0
 30
0.0
  0
VERTEX
  5
694
  8
0
  6
CONTINUOUS
 62
     7
 10
-1683.3871395139
 20
285.4567039286
 30
0.0
  0
VERTEX
  5
695
  8
0
  6
CONTINUOUS
 62
     7
 10
-1682.3210455175
 20
285.7395197363
 30
0.0
  0
VERTEX
  5
696
  8
0
  6
CONTINUOUS
 62
     7
 10
-1681.4585207995
 20
286.1986612702
 30
0.0
  0
VERTEX
  5
697
  8
0
  6
CONTINUOUS
 62
     7
 10
-1680.883996034
 20
286.789207684
 30
0.0
  0
VERTEX
  5
698
  8
0
  6
CONTINUOUS
 62
     7
 10
-1680.653695117
 20
287.4533366944
 30
0.0
  0
VERTEX
  5
699
  8
0
  6
CONTINUOUS
 62
     7
 10
-1680.7901666125
 20
288.1260484149
 30
0.0
  0
VERTEX
  5
69A
  8
0
  6
CONTINUOUS
 62
     7
 10
-1681.2800605062
 20
288.7414852962
 30
0.0
  0
VERTEX
  5
69B
  8
0
  6
CONTINUOUS
 62
     7
 10
-1682.0754242211
 20
289.2394102173
 30
0.0
  0
VERTEX
  5
69C
  8
0
  6
CONTINUOUS
 62
     7
 10
-1683.098380918
 20
289.5710823874
 30
0.0
  0
VERTEX
  5
69D
  8
0
  6
CONTINUOUS
 62
     7
 10
-1684.248821295
 20
289.7040261942
 30
0.0
  0
VERTEX
  5
69E
  8
0
  6
CONTINUOUS
 62
     7
 10
-1685.4141078993
 20
289.6252367941
 30
0.0
  0
VERTEX
  5
69F
  8
0
  6
CONTINUOUS
 62
     7
 10
-1686.4802018957
 20
289.3424331517
 30
0.0
  0
VERTEX
  5
6A0
  8
0
  6
CONTINUOUS
 62
     7
 10
-1687.3427266138
 20
288.8832794525
 30
0.0
  0
VERTEX
  5
6A1
  8
0
  6
CONTINUOUS
 62
     7
 10
-1687.9172513793
 20
288.2927330386
 30
0.0
  0
VERTEX
  5
6A2
  8
0
  6
CONTINUOUS
 62
     7
 10
-1688.1475522962
 20
287.6286040282
 30
0.0
  0
VERTEX
  5
6A3
  8
0
  6
CONTINUOUS
 62
     7
 10
-1688.011070264
 20
286.9558983905
 30
0.0
  0
VERTEX
  5
6A4
  8
0
  6
CONTINUOUS
 62
     7
 10
-1687.5211763704
 20
286.3404615092
 30
0.0
  0
VERTEX
  5
6A5
  8
0
  6
CONTINUOUS
 62
     7
 10
-1686.7258231921
 20
285.8425305053
 30
0.0
  0
VERTEX
  5
6A6
  8
0
  6
CONTINUOUS
 62
     7
 10
-1685.7028559585
 20
285.5108644179
 30
0.0
  0
VERTEX
  5
6A7
  8
0
  6
CONTINUOUS
 62
     7
 10
-1684.5524261182
 20
285.3779145285
 30
0.0
  0
VERTEX
  5
6A8
  8
0
  6
CONTINUOUS
 62
     7
 10
-1683.3871395139
 20
285.4567039286
 30
0.0
  0
SEQEND
  5
6A9
  8
0
  6
CONTINUOUS
 62
     7
  0
POLYLINE
  5
3B3
  8
0
  6
CONTINUOUS
 62
     7
 66
     1
 10
0.0
 20
0.0
 30
0.0
  0
VERTEX
  5
6AA
  8
0
  6
CONTINUOUS
 62
     7
 10
-1699.8663149373
 20
275.5877613111
 30
0.0
  0
VERTEX
  5
6AB
  8
0
  6
CONTINUOUS
 62
     7
 10
-1699.038824787
 20
276.0679186233
 30
0.0
  0
VERTEX
  5
6AC
  8
0
  6
CONTINUOUS
 62
     7
 10
-1698.5088703139
 20
276.6721876409
 30
0.0
  0
VERTEX
  5
6AD
  8
0
  6
CONTINUOUS
 62
     7
 10
-1698.3283026781
 20
277.3414261315
 30
0.0
  0
VERTEX
  5
6AE
  8
0
  6
CONTINUOUS
 62
     7
 10
-1698.5148235562
 20
278.0101232604
 30
0.0
  0
VERTEX
  5
6AF
  8
0
  6
CONTINUOUS
 62
     7
 10
-1699.0501412159
 20
278.612816855
 30
0.0
  0
VERTEX
  5
6B0
  8
0
  6
CONTINUOUS
 62
     7
 10
-1699.8818881978
 20
279.0905167506
 30
0.0
  0
VERTEX
  5
6B1
  8
0
  6
CONTINUOUS
 62
     7
 10
-1700.9286367907
 20
279.3964590386
 30
0.0
  0
VERTEX
  5
6B2
  8
0
  6
CONTINUOUS
 62
     7
 10
-1702.0879280059
 20
279.5006924332
 30
0.0
  0
VERTEX
  5
6B3
  8
0
  6
CONTINUOUS
 62
     7
 10
-1703.2462603802
 20
279.393022305
 30
0.0
  0
VERTEX
  5
6B4
  8
0
  6
CONTINUOUS
 62
     7
 10
-1704.2902694279
 20
279.0839778325
 30
0.0
  0
VERTEX
  5
6B5
  8
0
  6
CONTINUOUS
 62
     7
 10
-1705.1177490415
 20
278.603826603
 30
0.0
  0
VERTEX
  5
6B6
  8
0
  6
CONTINUOUS
 62
     7
 10
-1705.6477140514
 20
277.9995515027
 30
0.0
  0
VERTEX
  5
6B7
  8
0
  6
CONTINUOUS
 62
     7
 10
-1705.8282816871
 20
277.3303130122
 30
0.0
  0
VERTEX
  5
6B8
  8
0
  6
CONTINUOUS
 62
     7
 10
-1705.641760809
 20
276.6616158832
 30
0.0
  0
VERTEX
  5
6B9
  8
0
  6
CONTINUOUS
 62
     7
 10
-1705.1064431494
 20
276.0589222887
 30
0.0
  0
VERTEX
  5
6BA
  8
0
  6
CONTINUOUS
 62
     7
 10
-1704.2746856307
 20
275.5812284758
 30
0.0
  0
VERTEX
  5
6BB
  8
0
  6
CONTINUOUS
 62
     7
 10
-1703.2279370378
 20
275.2752861877
 30
0.0
  0
VERTEX
  5
6BC
  8
0
  6
CONTINUOUS
 62
     7
 10
-1702.0686668961
 20
275.1710527931
 30
0.0
  0
VERTEX
  5
6BD
  8
0
  6
CONTINUOUS
 62
     7
 10
-1700.910323985
 20
275.2787168387
 30
0.0
  0
VERTEX
  5
6BE
  8
0
  6
CONTINUOUS
 62
     7
 10
-1699.8663149373
 20
275.5877613111
 30
0.0
  0
SEQEND
  5
6BF
  8
0
  6
CONTINUOUS
 62
     7
  0
POLYLINE
  5
3B4
  8
0
  6
CONTINUOUS
 62
     7
 66
     1
 10
0.0
 20
0.0
 30
0.0
  0
VERTEX
  5
6C0
  8
0
  6
CONTINUOUS
 62
     7
 10
-1683.4722445378
 20
261.2853896971
 30
0.0
  0
VERTEX
  5
6C1
  8
0
  6
CONTINUOUS
 62
     7
 10
-1683.2516373959
 20
261.8855163862
 30
0.0
  0
VERTEX
  5
6C2
  8
0
  6
CONTINUOUS
 62
     7
 10
-1683.3998889356
 20
262.4930214079
 30
0.0
  0
VERTEX
  5
6C3
  8
0
  6
CONTINUOUS
 62
     7
 10
-1683.8991288929
 20
263.0346080532
 30
0.0
  0
VERTEX
  5
6C4
  8
0
  6
CONTINUOUS
 62
     7
 10
-1684.6891294214
 20
263.4449723
 30
0.0
  0
VERTEX
  5
6C5
  8
0
  6
CONTINUOUS
 62
     7
 10
-1685.6746070333
 20
263.67459477
 30
0.0
  0
VERTEX
  5
6C6
  8
0
  6
CONTINUOUS
 62
     7
 10
-1686.736697079
 20
263.6958051952
 30
0.0
  0
VERTEX
  5
6C7
  8
0
  6
CONTINUOUS
 62
     7
 10
-1687.7472942126
 20
263.5060245048
 30
0.0
  0
VERTEX
  5
6C8
  8
0
  6
CONTINUOUS
 62
     7
 10
-1688.5845202849
 20
263.1281541185
 30
0.0
  0
VERTEX
  5
6C9
  8
0
  6
CONTINUOUS
 62
     7
 10
-1689.14738091
 20
262.6077718157
 30
0.0
  0
VERTEX
  5
6CA
  8
0
  6
CONTINUOUS
 62
     7
 10
-1689.3679880518
 20
262.0076329612
 30
0.0
  0
VERTEX
  5
6CB
  8
0
  6
CONTINUOUS
 62
     7
 10
-1689.2197259755
 20
261.4001340222
 30
0.0
  0
VERTEX
  5
6CC
  8
0
  6
CONTINUOUS
 62
     7
 10
-1688.7204860182
 20
260.8585473769
 30
0.0
  0
VERTEX
  5
6CD
  8
0
  6
CONTINUOUS
 62
     7
 10
-1687.9304854897
 20
260.4481831301
 30
0.0
  0
VERTEX
  5
6CE
  8
0
  6
CONTINUOUS
 62
     7
 10
-1686.9450184145
 20
260.2185545774
 30
0.0
  0
VERTEX
  5
6CF
  8
0
  6
CONTINUOUS
 62
     7
 10
-1685.882917832
 20
260.1973502349
 30
0.0
  0
VERTEX
  5
6D0
  8
0
  6
CONTINUOUS
 62
     7
 10
-1684.8723206984
 20
260.3871309253
 30
0.0
  0
VERTEX
  5
6D1
  8
0
  6
CONTINUOUS
 62
     7
 10
-1684.0350946262
 20
260.7650013116
 30
0.0
  0
VERTEX
  5
6D2
  8
0
  6
CONTINUOUS
 62
     7
 10
-1683.4722445378
 20
261.2853896971
 30
0.0
  0
SEQEND
  5
6D3
  8
0
  6
CONTINUOUS
 62
     7
  0
POLYLINE
  5
3B5
  8
0
  6
CONTINUOUS
 62
     7
 66
     1
 10
0.0
 20
0.0
 30
0.0
  0
VERTEX
  5
6D4
  8
0
  6
CONTINUOUS
 62
     7
 10
-1991.9534792321
 20
436.3154976252
 30
0.0
  0
VERTEX
  5
6D5
  8
0
  6
CONTINUOUS
 62
     7
 10
-1991.569563589
 20
435.7434304978
 30
0.0
  0
VERTEX
  5
6D6
  8
0
  6
CONTINUOUS
 62
     7
 10
-1990.8698837569
 20
435.2816551486
 30
0.0
  0
VERTEX
  5
6D7
  8
0
  6
CONTINUOUS
 62
     7
 10
-1989.9388177265
 20
434.9858892418
 30
0.0
  0
VERTEX
  5
6D8
  8
0
  6
CONTINUOUS
 62
     7
 10
-1988.8886657755
 20
434.8917896494
 30
0.0
  0
VERTEX
  5
6D9
  8
0
  6
CONTINUOUS
 62
     7
 10
-1987.8461002573
 20
435.0107067167
 30
0.0
  0
VERTEX
  5
6DA
  8
0
  6
CONTINUOUS
 62
     7
 10
-1986.9368557577
 20
435.3283034856
 30
0.0
  0
VERTEX
  5
6DB
  8
0
  6
CONTINUOUS
 62
     7
 10
-1986.2706089132
 20
435.8062771033
 30
0.0
  0
VERTEX
  5
6DC
  8
0
  6
CONTINUOUS
 62
     7
 10
-1985.9277232271
 20
436.3869573544
 30
0.0
  0
VERTEX
  5
6DD
  8
0
  6
CONTINUOUS
 62
     7
 10
-1985.9495447579
 20
437.0003321955
 30
0.0
  0
VERTEX
  5
6DE
  8
0
  6
CONTINUOUS
 62
     7
 10
-1986.333460401
 20
437.5723993229
 30
0.0
  0
VERTEX
  5
6DF
  8
0
  6
CONTINUOUS
 62
     7
 10
-1987.0331507698
 20
438.0341685894
 30
0.0
  0
VERTEX
  5
6E0
  8
0
  6
CONTINUOUS
 62
     7
 10
-1987.9642062636
 20
438.3299405789
 30
0.0
  0
VERTEX
  5
6E1
  8
0
  6
CONTINUOUS
 62
     7
 10
-1989.0143582145
 20
438.4240401712
 30
0.0
  0
VERTEX
  5
6E2
  8
0
  6
CONTINUOUS
 62
     7
 10
-1990.0569342694
 20
438.3051170212
 30
0.0
  0
VERTEX
  5
6E3
  8
0
  6
CONTINUOUS
 62
     7
 10
-1990.9661682323
 20
437.9875263351
 30
0.0
  0
VERTEX
  5
6E4
  8
0
  6
CONTINUOUS
 62
     7
 10
-1991.6324150769
 20
437.5095527173
 30
0.0
  0
VERTEX
  5
6E5
  8
0
  6
CONTINUOUS
 62
     7
 10
-1991.9753007629
 20
436.9288724663
 30
0.0
  0
VERTEX
  5
6E6
  8
0
  6
CONTINUOUS
 62
     7
 10
-1991.9534792321
 20
436.3154976252
 30
0.0
  0
SEQEND
  5
6E7
  8
0
  6
CONTINUOUS
 62
     7
  0
POLYLINE
  5
3B6
  8
0
  6
CONTINUOUS
 62
     7
 66
     1
 10
0.0
 20
0.0
 30
0.0
  0
VERTEX
  5
6E8
  8
0
  6
CONTINUOUS
 62
     7
 10
-2013.3062633362
 20
423.3545652741
 30
0.0
  0
VERTEX
  5
6E9
  8
0
  6
CONTINUOUS
 62
     7
 10
-2012.6611320628
 20
422.8670417947
 30
0.0
  0
VERTEX
  5
6EA
  8
0
  6
CONTINUOUS
 62
     7
 10
-2011.7660699777
 20
422.5362941972
 30
0.0
  0
VERTEX
  5
6EB
  8
0
  6
CONTINUOUS
 62
     7
 10
-2010.7290256966
 20
422.4022190056
 30
0.0
  0
VERTEX
  5
6EC
  8
0
  6
CONTINUOUS
 62
     7
 10
-2009.6751016028
 20
422.4809901575
 30
0.0
  0
VERTEX
  5
6ED
  8
0
  6
CONTINUOUS
 62
     7
 10
-2008.7314020545
 20
422.7631003704
 30
0.0
  0
VERTEX
  5
6EE
  8
0
  6
CONTINUOUS
 62
     7
 10
-2008.0117446161
 20
423.2145229396
 30
0.0
  0
VERTEX
  5
6EF
  8
0
  6
CONTINUOUS
 62
     7
 10
-2007.6029517957
 20
423.780817571
 30
0.0
  0
VERTEX
  5
6F0
  8
0
  6
CONTINUOUS
 62
     7
 10
-2007.5543143325
 20
424.3936753814
 30
0.0
  0
VERTEX
  5
6F1
  8
0
  6
CONTINUOUS
 62
     7
 10
-2007.8716906385
 20
424.979179225
 30
0.0
  0
VERTEX
  5
6F2
  8
0
  6
CONTINUOUS
 62
     7
 10
-2008.516821912
 20
425.4667027044
 30
0.0
  0
VERTEX
  5
6F3
  8
0
  6
CONTINUOUS
 62
     7
 10
-2009.4118945338
 20
425.7974442192
 30
0.0
  0
VERTEX
  5
6F4
  8
0
  6
CONTINUOUS
 62
     7
 10
-2010.4489282781
 20
425.9315133281
 30
0.0
  0
VERTEX
  5
6F5
  8
0
  6
CONTINUOUS
 62
     7
 10
-2011.5028629087
 20
425.8527482589
 30
0.0
  0
VERTEX
  5
6F6
  8
0
  6
CONTINUOUS
 62
     7
 10
-2012.446562457
 20
425.570638046
 30
0.0
  0
VERTEX
  5
6F7
  8
0
  6
CONTINUOUS
 62
     7
 10
-2013.1662093586
 20
425.119209394
 30
0.0
  0
VERTEX
  5
6F8
  8
0
  6
CONTINUOUS
 62
     7
 10
-2013.5750127157
 20
424.5529208454
 30
0.0
  0
VERTEX
  5
6F9
  8
0
  6
CONTINUOUS
 62
     7
 10
-2013.6236501789
 20
423.940063035
 30
0.0
  0
VERTEX
  5
6FA
  8
0
  6
CONTINUOUS
 62
     7
 10
-2013.3062633362
 20
423.3545652741
 30
0.0
  0
SEQEND
  5
6FB
  8
0
  6
CONTINUOUS
 62
     7
  0
POLYLINE
  5
3B7
  8
0
  6
CONTINUOUS
 62
     7
 66
     1
 10
0.0
 20
0.0
 30
0.0
  0
VERTEX
  5
6FC
  8
0
  6
CONTINUOUS
 62
     7
 10
-1704.9028422609
 20
249.2776004502
 30
0.0
  0
VERTEX
  5
6FD
  8
0
  6
CONTINUOUS
 62
     7
 10
-1704.9810246649
 20
249.8894363646
 30
0.0
  0
VERTEX
  5
6FE
  8
0
  6
CONTINUOUS
 62
     7
 10
-1705.4169811292
 20
250.4489426867
 30
0.0
  0
VERTEX
  5
6FF
  8
0
  6
CONTINUOUS
 62
     7
 10
-1706.1581334603
 20
250.888625617
 30
0.0
  0
VERTEX
  5
700
  8
0
  6
CONTINUOUS
 62
     7
 10
-1707.1150776557
 20
251.1554499685
 30
0.0
  0
VERTEX
  5
701
  8
0
  6
CONTINUOUS
 62
     7
 10
-1708.1724051076
 20
251.2172442645
 30
0.0
  0
VERTEX
  5
702
  8
0
  6
CONTINUOUS
 62
     7
 10
-1709.2025794523
 20
251.066551097
 30
0.0
  0
VERTEX
  5
703
  8
0
  6
CONTINUOUS
 62
     7
 10
-1710.081330707
 20
250.7215456169
 30
0.0
  0
VERTEX
  5
704
  8
0
  6
CONTINUOUS
 62
     7
 10
-1710.7026911579
 20
250.2238396735
 30
0.0
  0
VERTEX
  5
705
  8
0
  6
CONTINUOUS
 62
     7
 10
-1710.9917131716
 20
249.6334635756
 30
0.0
  0
VERTEX
  5
706
  8
0
  6
CONTINUOUS
 62
     7
 10
-1710.9135307676
 20
249.0216276613
 30
0.0
  0
VERTEX
  5
707
  8
0
  6
CONTINUOUS
 62
     7
 10
-1710.4775637666
 20
248.4621274219
 30
0.0
  0
VERTEX
  5
708
  8
0
  6
CONTINUOUS
 62
     7
 10
-1709.7364114355
 20
248.0224444915
 30
0.0
  0
VERTEX
  5
709
  8
0
  6
CONTINUOUS
 62
     7
 10
-1708.7794777768
 20
247.7556140573
 30
0.0
  0
VERTEX
  5
70A
  8
0
  6
CONTINUOUS
 62
     7
 10
-1707.7221503249
 20
247.6938197614
 30
0.0
  0
VERTEX
  5
70B
  8
0
  6
CONTINUOUS
 62
     7
 10
-1706.6919759802
 20
247.8445129288
 30
0.0
  0
VERTEX
  5
70C
  8
0
  6
CONTINUOUS
 62
     7
 10
-1705.8132141887
 20
248.1895244917
 30
0.0
  0
VERTEX
  5
70D
  8
0
  6
CONTINUOUS
 62
     7
 10
-1705.1918537379
 20
248.6872304351
 30
0.0
  0
VERTEX
  5
70E
  8
0
  6
CONTINUOUS
 62
     7
 10
-1704.9028422609
 20
249.2776004502
 30
0.0
  0
SEQEND
  5
70F
  8
0
  6
CONTINUOUS
 62
     7
  0
ARC
  5
3B8
  8
0
  6
CONTINUOUS
 62
     7
 10
-1707.7351526277
 20
1.9261418484
 30
0.0
 40
4.534200339875436
 50
242.6096009984
 51
297.3903990016
  0
ARC
  5
3B9
  8
0
  6
CONTINUOUS
 62
     7
 10
-1707.7351414896
 20
1.9681411648
 30
0.0
 40
4.995306550860857
 50
242.6095512693
 51
297.3902970773
  0
ARC
  5
3BA
  8
0
  6
CONTINUOUS
 62
     7
 10
-1707.7351414896
 20
-0.8080959214
 30
0.0
 40
4.995306550861632
 50
242.6095512693
 51
297.3902970773
  0
POLYLINE
  5
3BB
  8
0
  6
CONTINUOUS
 62
     7
 66
     1
 10
0.0
 20
0.0
 30
0.0
  0
VERTEX
  5
710
  8
0
  6
CONTINUOUS
 62
     7
 10
-1713.8742309717
 20
2.450981407
 30
0.0
  0
VERTEX
  5
711
  8
0
  6
CONTINUOUS
 62
     7
 10
-1714.0770732168
 20
2.295720121
 30
0.0
  0
VERTEX
  5
712
  8
0
  6
CONTINUOUS
 62
     7
 10
-1714.349679033
 20
2.0012924113
 30
0.0
  0
VERTEX
  5
713
  8
0
  6
CONTINUOUS
 62
     7
 10
-1714.5175393939
 20
1.6818221664
 30
0.0
  0
VERTEX
  5
714
  8
0
  6
CONTINUOUS
 62
     7
 10
-1714.5742269051
 20
1.3495843038
 30
0.0
  0
VERTEX
  5
715
  8
0
  6
CONTINUOUS
 62
     7
 10
-1714.5175499306
 20
1.0173403586
 30
0.0
  0
VERTEX
  5
716
  8
0
  6
CONTINUOUS
 62
     7
 10
-1714.349679033
 20
0.6978761963
 30
0.0
  0
VERTEX
  5
717
  8
0
  6
CONTINUOUS
 62
     7
 10
-1714.0770732168
 20
0.4034484867
 30
0.0
  0
VERTEX
  5
718
  8
0
  6
CONTINUOUS
 62
     7
 10
-1713.7101954373
 20
0.1453771613
 30
0.0
  0
SEQEND
  5
719
  8
0
  6
CONTINUOUS
 62
     7
  0
LINE
  5
3BC
  8
0
  6
CONTINUOUS
 62
     7
 10
-1679.3683110678
 20
13.7143072339
 30
0.0
 11
-1678.2367630157
 21
31.0335409754
 31
0.0
  0
ARC
  5
3BD
  8
0
  6
CONTINUOUS
 62
     7
 10
-1680.8714089125
 20
13.9549205328
 30
0.0
 40
1.522234505689768
 50
294.909851796
 51
350.9053506665
  0
LINE
  5
3BE
  8
0
  6
CONTINUOUS
 62
     7
 10
-1705.6491891911
 20
-2.099740572
 30
0.0
 11
-1680.2302562667
 21
12.5742970595
 31
0.0
  0
LINE
  5
3BF
  8
0
  6
CONTINUOUS
 62
     7
 10
-1713.7101954373
 20
0.1453771613
 30
0.0
 11
-1709.8211160643
 21
-2.099740572
 31
0.0
  0
LINE
  5
3C0
  8
0
  6
CONTINUOUS
 62
     7
 10
-1710.0332411529
 20
-2.4671520019
 30
0.0
 11
-1713.9223205258
 21
-0.2220342686
 31
0.0
  0
LINE
  5
3C1
  8
0
  6
CONTINUOUS
 62
     7
 10
-1680.0181206415
 20
12.2068795469
 30
0.0
 11
-1705.4370535658
 21
-2.4671580846
 31
0.0
  0
LINE
  5
3C2
  8
0
  6
CONTINUOUS
 62
     7
 10
-1713.9223205258
 20
-2.9982713547
 30
0.0
 11
-1710.0332411529
 21
-5.2433890881
 31
0.0
  0
LINE
  5
3C3
  8
0
  6
CONTINUOUS
 62
     7
 10
-1705.4370535658
 20
-5.2433951708
 30
0.0
 11
-1680.0181206415
 21
9.4306424608
 31
0.0
  0
ARC
  5
3C4
  8
0
  6
CONTINUOUS
 62
     7
 10
-1707.7351526277
 20
-1.3400158508
 30
0.0
 40
4.534200339875494
 50
242.6096009984
 51
297.3903990016
  0
LINE
  5
3C5
  8
0
  6
CONTINUOUS
 62
     7
 10
-1713.7101954373
 20
-3.1207805379
 30
0.0
 11
-1713.9223205258
 21
-2.9982713547
 31
0.0
  0
LINE
  5
3C6
  8
0
  6
CONTINUOUS
 62
     7
 10
-1709.8211160643
 20
-5.3658982712
 30
0.0
 11
-1713.7101954373
 21
-3.1207805379
 31
0.0
  0
LINE
  5
3C7
  8
0
  6
CONTINUOUS
 62
     7
 10
-1680.2302562667
 20
9.3081393603
 30
0.0
 11
-1680.0181206415
 21
9.4306424608
 31
0.0
  0
LINE
  5
3C8
  8
0
  6
CONTINUOUS
 62
     7
 10
-1680.2302562667
 20
9.3081393603
 30
0.0
 11
-1705.6491891911
 21
-5.3658982712
 31
0.0
  0
ARC
  5
3C9
  8
0
  6
CONTINUOUS
 62
     7
 10
-1713.4188155654
 20
1.1046290392
 30
0.0
 40
1.418997102636813
 50
110.7835767071
 51
249.2168783519
  0
LINE
  5
3CA
  8
0
  6
CONTINUOUS
 62
     7
 10
-1713.8742415084
 20
2.4590588814
 30
0.0
 11
-1713.9223310625
 21
2.4312883479
 31
0.0
  0
ARC
  5
3CB
  8
0
  6
CONTINUOUS
 62
     7
 10
-1713.2477620843
 20
-1.5094241027
 30
0.0
 40
1.634532113815744
 50
185.6944193572
 51
245.625941009
  0
ARC
  5
3CC
  8
0
  6
CONTINUOUS
 62
     7
 10
-1680.7244514818
 20
13.7278721407
 30
0.0
 40
1.676997831326517
 50
294.9095939633
 51
350.9063960952
  0
ARC
  5
3CD
  8
0
  6
CONTINUOUS
 62
     7
 10
-1680.7244514818
 20
10.9516350545
 30
0.0
 40
1.676997831326416
 50
294.9095939633
 51
350.9063960952
  0
LINE
  5
3CE
  8
0
  6
CONTINUOUS
 62
     7
 10
-1677.9081545746
 20
31.2232514436
 30
0.0
 11
-1679.0685310711
 21
13.4628262585
 31
0.0
  0
LINE
  5
3CF
  8
0
  6
CONTINUOUS
 62
     7
 10
-1679.0685310711
 20
10.6865891723
 30
0.0
 11
-1677.7196633314
 21
31.332064063
 31
0.0
  0
ARC
  5
3D0
  8
0
  6
CONTINUOUS
 62
     7
 10
-1707.7351526277
 20
250.1545528473
 30
0.0
 40
4.5342003398755
 50
242.6096009984
 51
297.3903990016
  0
ARC
  5
3D1
  8
0
  6
CONTINUOUS
 62
     7
 10
-1707.7351414896
 20
250.1965399963
 30
0.0
 40
4.995306550861182
 50
242.6095512693
 51
297.3902970773
  0
ARC
  5
3D2
  8
0
  6
CONTINUOUS
 62
     7
 10
-1707.7351414896
 20
247.4203029101
 30
0.0
 40
4.995306550860854
 50
242.6095512693
 51
297.3902970773
  0
POLYLINE
  5
3D3
  8
0
  6
CONTINUOUS
 62
     7
 66
     1
 10
0.0
 20
0.0
 30
0.0
  0
VERTEX
  5
71A
  8
0
  6
CONTINUOUS
 62
     7
 10
-1682.1378753139
 20
288.847227204
 30
0.0
  0
VERTEX
  5
71B
  8
0
  6
CONTINUOUS
 62
     7
 10
-1681.5004358403
 20
288.3216867593
 30
0.0
  0
VERTEX
  5
71C
  8
0
  6
CONTINUOUS
 62
     7
 10
-1681.2127941359
 20
287.7019737298
 30
0.0
  0
VERTEX
  5
71D
  8
0
  6
CONTINUOUS
 62
     7
 10
-1681.3096581305
 20
287.0628446757
 30
0.0
  0
VERTEX
  5
71E
  8
0
  6
CONTINUOUS
 62
     7
 10
-1681.7793320736
 20
286.48139192
 30
0.0
  0
VERTEX
  5
71F
  8
0
  6
CONTINUOUS
 62
     7
 10
-1682.5651706008
 20
286.0277369945
 30
0.0
  0
VERTEX
  5
720
  8
0
  6
CONTINUOUS
 62
     7
 10
-1683.5723959865
 20
285.7565939158
 30
0.0
  0
VERTEX
  5
721
  8
0
  6
CONTINUOUS
 62
     7
 10
-1684.6795199399
 20
285.700675522
 30
0.0
  0
VERTEX
  5
722
  8
0
  6
CONTINUOUS
 62
     7
 10
-1685.7530001715
 20
285.8667336261
 30
0.0
  0
VERTEX
  5
723
  8
0
  6
CONTINUOUS
 62
     7
 10
-1686.6633615626
 20
286.2347196014
 30
0.0
  0
VERTEX
  5
724
  8
0
  6
CONTINUOUS
 62
     7
 10
-1687.3008010362
 20
286.760260046
 30
0.0
  0
VERTEX
  5
725
  8
0
  6
CONTINUOUS
 62
     7
 10
-1687.5884532773
 20
287.3799669929
 30
0.0
  0
VERTEX
  5
726
  8
0
  6
CONTINUOUS
 62
     7
 10
-1687.4915892827
 20
288.0190960469
 30
0.0
  0
VERTEX
  5
727
  8
0
  6
CONTINUOUS
 62
     7
 10
-1687.0219048029
 20
288.6005548854
 30
0.0
  0
VERTEX
  5
728
  8
0
  6
CONTINUOUS
 62
     7
 10
-1686.2360662757
 20
289.0542098109
 30
0.0
  0
VERTEX
  5
729
  8
0
  6
CONTINUOUS
 62
     7
 10
-1685.2288514267
 20
289.3253468069
 30
0.0
  0
VERTEX
  5
72A
  8
0
  6
CONTINUOUS
 62
     7
 10
-1684.1217274733
 20
289.3812652007
 30
0.0
  0
VERTEX
  5
72B
  8
0
  6
CONTINUOUS
 62
     7
 10
-1683.048236705
 20
289.2152131793
 30
0.0
  0
VERTEX
  5
72C
  8
0
  6
CONTINUOUS
 62
     7
 10
-1682.1378753139
 20
288.847227204
 30
0.0
  0
SEQEND
  5
72D
  8
0
  6
CONTINUOUS
 62
     7
  0
POLYLINE
  5
3D4
  8
0
  6
CONTINUOUS
 62
     7
 66
     1
 10
0.0
 20
0.0
 30
0.0
  0
VERTEX
  5
72E
  8
0
  6
CONTINUOUS
 62
     7
 10
-1699.8155490583
 20
278.6421233731
 30
0.0
  0
VERTEX
  5
72F
  8
0
  6
CONTINUOUS
 62
     7
 10
-1699.1781095847
 20
278.1165829285
 30
0.0
  0
VERTEX
  5
730
  8
0
  6
CONTINUOUS
 62
     7
 10
-1698.8904678803
 20
277.4968698989
 30
0.0
  0
VERTEX
  5
731
  8
0
  6
CONTINUOUS
 62
     7
 10
-1698.9873213382
 20
276.8577469276
 30
0.0
  0
VERTEX
  5
732
  8
0
  6
CONTINUOUS
 62
     7
 10
-1699.457005818
 20
276.2762880891
 30
0.0
  0
VERTEX
  5
733
  8
0
  6
CONTINUOUS
 62
     7
 10
-1700.2428443452
 20
275.8226331637
 30
0.0
  0
VERTEX
  5
734
  8
0
  6
CONTINUOUS
 62
     7
 10
-1701.2500697309
 20
275.5514900849
 30
0.0
  0
VERTEX
  5
735
  8
0
  6
CONTINUOUS
 62
     7
 10
-1702.3571831476
 20
275.4955777738
 30
0.0
  0
VERTEX
  5
736
  8
0
  6
CONTINUOUS
 62
     7
 10
-1703.4306739159
 20
275.6616297952
 30
0.0
  0
VERTEX
  5
737
  8
0
  6
CONTINUOUS
 62
     7
 10
-1704.341035307
 20
276.0296157705
 30
0.0
  0
VERTEX
  5
738
  8
0
  6
CONTINUOUS
 62
     7
 10
-1704.9784747806
 20
276.5551562152
 30
0.0
  0
VERTEX
  5
739
  8
0
  6
CONTINUOUS
 62
     7
 10
-1705.2661164849
 20
277.1748692447
 30
0.0
  0
VERTEX
  5
73A
  8
0
  6
CONTINUOUS
 62
     7
 10
-1705.1692630271
 20
277.8139922161
 30
0.0
  0
VERTEX
  5
73B
  8
0
  6
CONTINUOUS
 62
     7
 10
-1704.6995785473
 20
278.3954510545
 30
0.0
  0
VERTEX
  5
73C
  8
0
  6
CONTINUOUS
 62
     7
 10
-1703.9137400201
 20
278.84910598
 30
0.0
  0
VERTEX
  5
73D
  8
0
  6
CONTINUOUS
 62
     7
 10
-1702.9065146343
 20
279.1202490587
 30
0.0
  0
VERTEX
  5
73E
  8
0
  6
CONTINUOUS
 62
     7
 10
-1701.7994012177
 20
279.1761613698
 30
0.0
  0
VERTEX
  5
73F
  8
0
  6
CONTINUOUS
 62
     7
 10
-1700.7259104494
 20
279.0101093484
 30
0.0
  0
VERTEX
  5
740
  8
0
  6
CONTINUOUS
 62
     7
 10
-1699.8155490583
 20
278.6421233731
 30
0.0
  0
SEQEND
  5
741
  8
0
  6
CONTINUOUS
 62
     7
  0
POLYLINE
  5
3D5
  8
0
  6
CONTINUOUS
 62
     7
 66
     1
 10
0.0
 20
0.0
 30
0.0
  0
VERTEX
  5
742
  8
0
  6
CONTINUOUS
 62
     7
 10
-1706.3562868685
 20
250.3739914794
 30
0.0
  0
VERTEX
  5
743
  8
0
  6
CONTINUOUS
 62
     7
 10
-1705.8685530008
 20
249.9525992713
 30
0.0
  0
VERTEX
  5
744
  8
0
  6
CONTINUOUS
 62
     7
 10
-1705.6972787452
 20
249.4555380956
 30
0.0
  0
VERTEX
  5
745
  8
0
  6
CONTINUOUS
 62
     7
 10
-1705.8685530008
 20
248.9584647546
 30
0.0
  0
VERTEX
  5
746
  8
0
  6
CONTINUOUS
 62
     7
 10
-1706.3562868685
 20
248.5370725465
 30
0.0
  0
VERTEX
  5
747
  8
0
  6
CONTINUOUS
 62
     7
 10
-1707.0862386746
 20
248.2555097779
 30
0.0
  0
VERTEX
  5
748
  8
0
  6
CONTINUOUS
 62
     7
 10
-1707.9472777162
 20
248.1566413375
 30
0.0
  0
VERTEX
  5
749
  8
0
  6
CONTINUOUS
 62
     7
 10
-1708.8083167579
 20
248.2555097779
 30
0.0
  0
VERTEX
  5
74A
  8
0
  6
CONTINUOUS
 62
     7
 10
-1709.538268564
 20
248.5370725465
 30
0.0
  0
VERTEX
  5
74B
  8
0
  6
CONTINUOUS
 62
     7
 10
-1710.0260024317
 20
248.9584647546
 30
0.0
  0
VERTEX
  5
74C
  8
0
  6
CONTINUOUS
 62
     7
 10
-1710.1972766873
 20
249.4555380956
 30
0.0
  0
VERTEX
  5
74D
  8
0
  6
CONTINUOUS
 62
     7
 10
-1710.0260024317
 20
249.9525992713
 30
0.0
  0
VERTEX
  5
74E
  8
0
  6
CONTINUOUS
 62
     7
 10
-1709.538268564
 20
250.3739914794
 30
0.0
  0
VERTEX
  5
74F
  8
0
  6
CONTINUOUS
 62
     7
 10
-1708.8083167579
 20
250.6555542479
 30
0.0
  0
VERTEX
  5
750
  8
0
  6
CONTINUOUS
 62
     7
 10
-1707.9472777162
 20
250.7544348538
 30
0.0
  0
VERTEX
  5
751
  8
0
  6
CONTINUOUS
 62
     7
 10
-1707.0862386746
 20
250.6555542479
 30
0.0
  0
VERTEX
  5
752
  8
0
  6
CONTINUOUS
 62
     7
 10
-1706.3562868685
 20
250.3739914794
 30
0.0
  0
SEQEND
  5
753
  8
0
  6
CONTINUOUS
 62
     7
  0
POLYLINE
  5
3D6
  8
0
  6
CONTINUOUS
 62
     7
 66
     1
 10
0.0
 20
0.0
 30
0.0
  0
VERTEX
  5
754
  8
0
  6
CONTINUOUS
 62
     7
 10
-1684.7188218762
 20
262.8650341401
 30
0.0
  0
VERTEX
  5
755
  8
0
  6
CONTINUOUS
 62
     7
 10
-1684.2310774718
 20
262.4436480148
 30
0.0
  0
VERTEX
  5
756
  8
0
  6
CONTINUOUS
 62
     7
 10
-1684.0598137529
 20
261.9465807564
 30
0.0
  0
VERTEX
  5
757
  8
0
  6
CONTINUOUS
 62
     7
 10
-1684.2310774718
 20
261.449513498
 30
0.0
  0
VERTEX
  5
758
  8
0
  6
CONTINUOUS
 62
     7
 10
-1684.7188218762
 20
261.0281152073
 30
0.0
  0
VERTEX
  5
759
  8
0
  6
CONTINUOUS
 62
     7
 10
-1685.4487736822
 20
260.7465524387
 30
0.0
  0
VERTEX
  5
75A
  8
0
  6
CONTINUOUS
 62
     7
 10
-1686.3098127239
 20
260.6476839982
 30
0.0
  0
VERTEX
  5
75B
  8
0
  6
CONTINUOUS
 62
     7
 10
-1687.1708517655
 20
260.7465524387
 30
0.0
  0
VERTEX
  5
75C
  8
0
  6
CONTINUOUS
 62
     7
 10
-1687.9008035716
 20
261.0281152073
 30
0.0
  0
VERTEX
  5
75D
  8
0
  6
CONTINUOUS
 62
     7
 10
-1688.3885374393
 20
261.4495074153
 30
0.0
  0
VERTEX
  5
75E
  8
0
  6
CONTINUOUS
 62
     7
 10
-1688.5598116949
 20
261.9465807564
 30
0.0
  0
VERTEX
  5
75F
  8
0
  6
CONTINUOUS
 62
     7
 10
-1688.3885374393
 20
262.4436419321
 30
0.0
  0
VERTEX
  5
760
  8
0
  6
CONTINUOUS
 62
     7
 10
-1687.9008035716
 20
262.8650341401
 30
0.0
  0
VERTEX
  5
761
  8
0
  6
CONTINUOUS
 62
     7
 10
-1687.1708412288
 20
263.1466029914
 30
0.0
  0
VERTEX
  5
762
  8
0
  6
CONTINUOUS
 62
     7
 10
-1686.3098127239
 20
263.2454775146
 30
0.0
  0
VERTEX
  5
763
  8
0
  6
CONTINUOUS
 62
     7
 10
-1685.4487631455
 20
263.1466029914
 30
0.0
  0
VERTEX
  5
764
  8
0
  6
CONTINUOUS
 62
     7
 10
-1684.7188218762
 20
262.8650341401
 30
0.0
  0
SEQEND
  5
765
  8
0
  6
CONTINUOUS
 62
     7
  0
ARC
  5
3D7
  8
0
  6
CONTINUOUS
 62
     7
 10
-1713.2531555986
 20
249.5779942609
 30
0.0
 40
1.288020864421323
 50
110.7840693557
 51
249.2164319788
  0
LINE
  5
3D8
  8
0
  6
CONTINUOUS
 62
     7
 10
-1710.3388479514
 20
252.728439922
 30
0.0
 11
-1713.710205974
 21
250.7821963625
 31
0.0
  0
ARC
  5
3D9
  8
0
  6
CONTINUOUS
 62
     7
 10
-1711.1103812801
 20
254.3898351803
 30
0.0
 40
1.831801812924438
 50
294.9096269727
 51
350.9062131477
  0
LINE
  5
3DA
  8
0
  6
CONTINUOUS
 62
     7
 10
-1707.7348049162
 20
278.0812910193
 30
0.0
 11
-1709.3016034729
 21
254.100317088
 31
0.0
  0
ARC
  5
3DB
  8
0
  6
CONTINUOUS
 62
     7
 10
-1704.321049931
 20
277.5348789081
 30
0.0
 40
3.457208309376957
 50
114.9095048937
 51
170.9062649954
  0
LINE
  5
3DC
  8
0
  6
CONTINUOUS
 62
     7
 10
-1689.1382350439
 20
290.275935171
 30
0.0
 11
-1705.7771786333
 21
280.6704774947
 31
0.0
  0
POLYLINE
  5
3DD
  8
0
  6
CONTINUOUS
 62
     7
 66
     1
 10
0.0
 20
0.0
 30
0.0
  0
VERTEX
  5
766
  8
0
  6
CONTINUOUS
 62
     7
 10
-1677.7053860864
 20
287.3951920271
 30
0.0
  0
VERTEX
  5
767
  8
0
  6
CONTINUOUS
 62
     7
 10
-1677.8364417119
 20
288.3157986918
 30
0.0
  0
VERTEX
  5
768
  8
0
  6
CONTINUOUS
 62
     7
 10
-1678.3418667192
 20
289.1922083533
 30
0.0
  0
VERTEX
  5
769
  8
0
  6
CONTINUOUS
 62
     7
 10
-1679.1928537375
 20
289.9744454299
 30
0.0
  0
VERTEX
  5
76A
  8
0
  6
CONTINUOUS
 62
     7
 10
-1680.3408706707
 20
290.6178871285
 30
0.0
  0
VERTEX
  5
76B
  8
0
  6
CONTINUOUS
 62
     7
 10
-1681.7204213161
 20
291.0858425156
 30
0.0
  0
VERTEX
  5
76C
  8
0
  6
CONTINUOUS
 62
     7
 10
-1683.2528385811
 20
291.3516206402
 30
0.0
  0
VERTEX
  5
76D
  8
0
  6
CONTINUOUS
 62
     7
 10
-1684.8507309753
 20
291.400063378
 30
0.0
  0
VERTEX
  5
76E
  8
0
  6
CONTINUOUS
 62
     7
 10
-1686.4229243286
 20
291.2284030938
 30
0.0
  0
VERTEX
  5
76F
  8
0
  6
CONTINUOUS
 62
     7
 10
-1687.8797933676
 20
290.846432958
 30
0.0
  0
VERTEX
  5
770
  8
0
  6
CONTINUOUS
 62
     7
 10
-1689.1382350439
 20
290.275935171
 30
0.0
  0
SEQEND
  5
771
  8
0
  6
CONTINUOUS
 62
     7
  0
LINE
  5
3DE
  8
0
  6
CONTINUOUS
 62
     7
 10
-1679.3683110678
 20
261.9427182327
 30
0.0
 11
-1677.7053860864
 21
287.3951920271
 31
0.0
  0
ARC
  5
3DF
  8
0
  6
CONTINUOUS
 62
     7
 10
-1680.8714089125
 20
262.1833315317
 30
0.0
 40
1.522234505689599
 50
294.909851796
 51
350.9053506665
  0
LINE
  5
3E0
  8
0
  6
CONTINUOUS
 62
     7
 10
-1705.6491891911
 20
246.1286704268
 30
0.0
 11
-1680.2302562667
 21
260.8027080584
 31
0.0
  0
LINE
  5
3E1
  8
0
  6
CONTINUOUS
 62
     7
 10
-1713.7101954373
 20
248.3737881601
 30
0.0
 11
-1709.8211160643
 21
246.1286704268
 31
0.0
  0
LINE
  5
3E2
  8
0
  6
CONTINUOUS
 62
     7
 10
-1710.0332411529
 20
245.7612468296
 30
0.0
 11
-1713.9223205258
 21
248.0063645629
 31
0.0
  0
LINE
  5
3E3
  8
0
  6
CONTINUOUS
 62
     7
 10
-1680.0181206415
 20
260.4352783784
 30
0.0
 11
-1705.4370535658
 21
245.7612407469
 31
0.0
  0
LINE
  5
3E4
  8
0
  6
CONTINUOUS
 62
     7
 10
-1713.9223205258
 20
245.2301274767
 30
0.0
 11
-1710.0332411529
 21
242.9850097434
 31
0.0
  0
LINE
  5
3E5
  8
0
  6
CONTINUOUS
 62
     7
 10
-1705.4370535658
 20
242.9850036607
 30
0.0
 11
-1680.0181206415
 21
257.6590412922
 31
0.0
  0
ARC
  5
3E6
  8
0
  6
CONTINUOUS
 62
     7
 10
-1707.7351526277
 20
246.8883951481
 30
0.0
 40
4.534200339875525
 50
242.6096009984
 51
297.3903990016
  0
LINE
  5
3E7
  8
0
  6
CONTINUOUS
 62
     7
 10
-1713.7101954373
 20
245.1076304609
 30
0.0
 11
-1713.9223205258
 21
245.2301274767
 31
0.0
  0
LINE
  5
3E8
  8
0
  6
CONTINUOUS
 62
     7
 10
-1709.8211160643
 20
242.8625127276
 30
0.0
 11
-1713.7101954373
 21
245.1076304609
 31
0.0
  0
LINE
  5
3E9
  8
0
  6
CONTINUOUS
 62
     7
 10
-1680.2302562667
 20
257.5365503592
 30
0.0
 11
-1680.0181206415
 21
257.6590412922
 31
0.0
  0
LINE
  5
3EA
  8
0
  6
CONTINUOUS
 62
     7
 10
-1680.2302562667
 20
257.5365503592
 30
0.0
 11
-1705.6491891911
 21
242.8625127276
 31
0.0
  0
ARC
  5
3EB
  8
0
  6
CONTINUOUS
 62
     7
 10
-1713.4188155654
 20
249.3330278706
 30
0.0
 40
1.418997102636805
 50
110.7835767071
 51
249.2168783519
  0
LINE
  5
3EC
  8
0
  6
CONTINUOUS
 62
     7
 10
-1713.710205974
 20
250.7821963625
 30
0.0
 11
-1713.9223310625
 21
250.6596871794
 31
0.0
  0
ARC
  5
3ED
  8
0
  6
CONTINUOUS
 62
     7
 10
-1713.2477620843
 20
246.7189747288
 30
0.0
 40
1.634532113816178
 50
185.6944193572
 51
245.625941009
  0
ARC
  5
3EE
  8
0
  6
CONTINUOUS
 62
     7
 10
-1711.2573765728
 20
254.1269782935
 30
0.0
 40
1.677078297128311
 50
294.9110555441
 51
350.9049345145
  0
LINE
  5
3EF
  8
0
  6
CONTINUOUS
 62
     7
 10
-1709.6013834696
 20
253.8618774503
 30
0.0
 11
-1708.0345954497
 21
277.8428574644
 31
0.0
  0
ARC
  5
3F0
  8
0
  6
CONTINUOUS
 62
     7
 10
-1680.7244514818
 20
261.9562709721
 30
0.0
 40
1.676997831326425
 50
294.9095939633
 51
350.9063960952
  0
ARC
  5
3F1
  8
0
  6
CONTINUOUS
 62
     7
 10
-1680.7244514818
 20
259.180033886
 30
0.0
 40
1.676997831326425
 50
294.9095939633
 51
350.9063960952
  0
LINE
  5
3F2
  8
0
  6
CONTINUOUS
 62
     7
 10
-1677.4055850163
 20
287.1436988843
 30
0.0
 11
-1679.0685310711
 21
261.6912250899
 31
0.0
  0
LINE
  5
3F3
  8
0
  6
CONTINUOUS
 62
     7
 10
-1679.0685310711
 20
258.9149880038
 30
0.0
 11
-1677.4055850163
 21
284.3674617981
 31
0.0
  0
ARC
  5
3F4
  8
0
  6
CONTINUOUS
 62
     7
 10
-1704.4679307491
 20
277.2719335859
 30
0.0
 40
3.612070204371631
 50
114.9100138654
 51
170.9056894195
  0
LINE
  5
3F5
  8
0
  6
CONTINUOUS
 62
     7
 10
-1705.9893142585
 20
280.5479743943
 30
0.0
 11
-1705.7771786333
 21
280.6704774947
 31
0.0
  0
ARC
  5
3F6
  8
0
  6
CONTINUOUS
 62
     7
 10
-1680.9475337741
 20
286.9364543768
 30
0.0
 40
3.548006664200894
 50
3.3486403544
 51
65.0355347387
  0
LINE
  5
3F7
  8
0
  6
CONTINUOUS
 62
     7
 10
-1677.4055850163
 20
284.3674617981
 30
0.0
 11
-1677.4006222248
 21
284.5197668849
 31
0.0
  0
POLYLINE
  5
3F8
  8
0
  6
CONTINUOUS
 62
     7
 66
     1
 10
0.0
 20
0.0
 30
0.0
  0
VERTEX
  5
772
  8
0
  6
CONTINUOUS
 62
     7
 10
-1942.3531712963
 20
439.0663200713
 30
0.0
  0
VERTEX
  5
773
  8
0
  6
CONTINUOUS
 62
     7
 10
-1943.2635326874
 20
439.4343060466
 30
0.0
  0
VERTEX
  5
774
  8
0
  6
CONTINUOUS
 62
     7
 10
-1944.3370234557
 20
439.6003580681
 30
0.0
  0
VERTEX
  5
775
  8
0
  6
CONTINUOUS
 62
     7
 10
-1945.4441474091
 20
439.5444396742
 30
0.0
  0
VERTEX
  5
776
  8
0
  6
CONTINUOUS
 62
     7
 10
-1946.4513622581
 20
439.2733026782
 30
0.0
  0
VERTEX
  5
777
  8
0
  6
CONTINUOUS
 62
     7
 10
-1947.2372007853
 20
438.8196477528
 30
0.0
  0
VERTEX
  5
778
  8
0
  6
CONTINUOUS
 62
     7
 10
-1947.7068852651
 20
438.2381889143
 30
0.0
  0
VERTEX
  5
779
  8
0
  6
CONTINUOUS
 62
     7
 10
-1947.8037492597
 20
437.5990598602
 30
0.0
  0
VERTEX
  5
77A
  8
0
  6
CONTINUOUS
 62
     7
 10
-1947.5160970186
 20
436.9793529134
 30
0.0
  0
VERTEX
  5
77B
  8
0
  6
CONTINUOUS
 62
     7
 10
-1946.878657545
 20
436.4538124687
 30
0.0
  0
VERTEX
  5
77C
  8
0
  6
CONTINUOUS
 62
     7
 10
-1945.9682961539
 20
436.0858264934
 30
0.0
  0
VERTEX
  5
77D
  8
0
  6
CONTINUOUS
 62
     7
 10
-1944.8948159223
 20
435.9197683893
 30
0.0
  0
VERTEX
  5
77E
  8
0
  6
CONTINUOUS
 62
     7
 10
-1943.7876919689
 20
435.9756867831
 30
0.0
  0
VERTEX
  5
77F
  8
0
  6
CONTINUOUS
 62
     7
 10
-1942.7804665832
 20
436.2468298619
 30
0.0
  0
VERTEX
  5
780
  8
0
  6
CONTINUOUS
 62
     7
 10
-1941.994628056
 20
436.7004847873
 30
0.0
  0
VERTEX
  5
781
  8
0
  6
CONTINUOUS
 62
     7
 10
-1941.5249541129
 20
437.2819375431
 30
0.0
  0
VERTEX
  5
782
  8
0
  6
CONTINUOUS
 62
     7
 10
-1941.4280901184
 20
437.9210665971
 30
0.0
  0
VERTEX
  5
783
  8
0
  6
CONTINUOUS
 62
     7
 10
-1941.7157318227
 20
438.5407796267
 30
0.0
  0
VERTEX
  5
784
  8
0
  6
CONTINUOUS
 62
     7
 10
-1942.3531712963
 20
439.0663200713
 30
0.0
  0
SEQEND
  5
785
  8
0
  6
CONTINUOUS
 62
     7
  0
POLYLINE
  5
3F9
  8
0
  6
CONTINUOUS
 62
     7
 66
     1
 10
0.0
 20
0.0
 30
0.0
  0
VERTEX
  5
786
  8
0
  6
CONTINUOUS
 62
     7
 10
-1960.0308450407
 20
428.8612162405
 30
0.0
  0
VERTEX
  5
787
  8
0
  6
CONTINUOUS
 62
     7
 10
-1960.9412064318
 20
429.2292022158
 30
0.0
  0
VERTEX
  5
788
  8
0
  6
CONTINUOUS
 62
     7
 10
-1962.0146972001
 20
429.3952542372
 30
0.0
  0
VERTEX
  5
789
  8
0
  6
CONTINUOUS
 62
     7
 10
-1963.1218106168
 20
429.3393419261
 30
0.0
  0
VERTEX
  5
78A
  8
0
  6
CONTINUOUS
 62
     7
 10
-1964.1290360025
 20
429.0681988473
 30
0.0
  0
VERTEX
  5
78B
  8
0
  6
CONTINUOUS
 62
     7
 10
-1964.9148745297
 20
428.6145439219
 30
0.0
  0
VERTEX
  5
78C
  8
0
  6
CONTINUOUS
 62
     7
 10
-1965.3845590095
 20
428.0330850834
 30
0.0
  0
VERTEX
  5
78D
  8
0
  6
CONTINUOUS
 62
     7
 10
-1965.4814124674
 20
427.3939621121
 30
0.0
  0
VERTEX
  5
78E
  8
0
  6
CONTINUOUS
 62
     7
 10
-1965.193770763
 20
426.7742490825
 30
0.0
  0
VERTEX
  5
78F
  8
0
  6
CONTINUOUS
 62
     7
 10
-1964.5563312894
 20
426.2487086379
 30
0.0
  0
VERTEX
  5
790
  8
0
  6
CONTINUOUS
 62
     7
 10
-1963.6459698983
 20
425.8807226626
 30
0.0
  0
VERTEX
  5
791
  8
0
  6
CONTINUOUS
 62
     7
 10
-1962.57247913
 20
425.7146706411
 30
0.0
  0
VERTEX
  5
792
  8
0
  6
CONTINUOUS
 62
     7
 10
-1961.4653657133
 20
425.7705829523
 30
0.0
  0
VERTEX
  5
793
  8
0
  6
CONTINUOUS
 62
     7
 10
-1960.4581403276
 20
426.041726031
 30
0.0
  0
VERTEX
  5
794
  8
0
  6
CONTINUOUS
 62
     7
 10
-1959.6723018004
 20
426.4953809564
 30
0.0
  0
VERTEX
  5
795
  8
0
  6
CONTINUOUS
 62
     7
 10
-1959.2026173206
 20
427.0768397949
 30
0.0
  0
VERTEX
  5
796
  8
0
  6
CONTINUOUS
 62
     7
 10
-1959.1057638627
 20
427.7159627662
 30
0.0
  0
VERTEX
  5
797
  8
0
  6
CONTINUOUS
 62
     7
 10
-1959.3934055671
 20
428.3356757958
 30
0.0
  0
VERTEX
  5
798
  8
0
  6
CONTINUOUS
 62
     7
 10
-1960.0308450407
 20
428.8612162405
 30
0.0
  0
SEQEND
  5
799
  8
0
  6
CONTINUOUS
 62
     7
  0
POLYLINE
  5
3FA
  8
0
  6
CONTINUOUS
 62
     7
 66
     1
 10
0.0
 20
0.0
 30
0.0
  0
VERTEX
  5
79A
  8
0
  6
CONTINUOUS
 62
     7
 10
-2008.997991408
 20
425.0853286746
 30
0.0
  0
VERTEX
  5
79B
  8
0
  6
CONTINUOUS
 62
     7
 10
-2009.7279432141
 20
425.3668914432
 30
0.0
  0
VERTEX
  5
79C
  8
0
  6
CONTINUOUS
 62
     7
 10
-2010.588971719
 20
425.4657659664
 30
0.0
  0
VERTEX
  5
79D
  8
0
  6
CONTINUOUS
 62
     7
 10
-2011.4500212974
 20
425.3668914432
 30
0.0
  0
VERTEX
  5
79E
  8
0
  6
CONTINUOUS
 62
     7
 10
-2012.1799731035
 20
425.0853286746
 30
0.0
  0
VERTEX
  5
79F
  8
0
  6
CONTINUOUS
 62
     7
 10
-2012.6677069711
 20
424.6639364666
 30
0.0
  0
VERTEX
  5
7A0
  8
0
  6
CONTINUOUS
 62
     7
 10
-2012.8389706901
 20
424.1668692082
 30
0.0
  0
VERTEX
  5
7A1
  8
0
  6
CONTINUOUS
 62
     7
 10
-2012.6677069711
 20
423.6698019498
 30
0.0
  0
VERTEX
  5
7A2
  8
0
  6
CONTINUOUS
 62
     7
 10
-2012.1799731035
 20
423.2484097418
 30
0.0
  0
VERTEX
  5
7A3
  8
0
  6
CONTINUOUS
 62
     7
 10
-2011.4500212974
 20
422.9668469732
 30
0.0
  0
VERTEX
  5
7A4
  8
0
  6
CONTINUOUS
 62
     7
 10
-2010.588971719
 20
422.86797245
 30
0.0
  0
VERTEX
  5
7A5
  8
0
  6
CONTINUOUS
 62
     7
 10
-2009.7279432141
 20
422.9668469732
 30
0.0
  0
VERTEX
  5
7A6
  8
0
  6
CONTINUOUS
 62
     7
 10
-2008.997991408
 20
423.2484097418
 30
0.0
  0
VERTEX
  5
7A7
  8
0
  6
CONTINUOUS
 62
     7
 10
-2008.5102575403
 20
423.6698019498
 30
0.0
  0
VERTEX
  5
7A8
  8
0
  6
CONTINUOUS
 62
     7
 10
-2008.338972748
 20
424.1668692082
 30
0.0
  0
VERTEX
  5
7A9
  8
0
  6
CONTINUOUS
 62
     7
 10
-2008.5102575403
 20
424.6639364666
 30
0.0
  0
VERTEX
  5
7AA
  8
0
  6
CONTINUOUS
 62
     7
 10
-2008.997991408
 20
425.0853286746
 30
0.0
  0
SEQEND
  5
7AB
  8
0
  6
CONTINUOUS
 62
     7
  0
POLYLINE
  5
3FB
  8
0
  6
CONTINUOUS
 62
     7
 66
     1
 10
0.0
 20
0.0
 30
0.0
  0
VERTEX
  5
7AC
  8
0
  6
CONTINUOUS
 62
     7
 10
-1987.3605264156
 20
437.5763713354
 30
0.0
  0
VERTEX
  5
7AD
  8
0
  6
CONTINUOUS
 62
     7
 10
-1988.090467685
 20
437.8579401867
 30
0.0
  0
VERTEX
  5
7AE
  8
0
  6
CONTINUOUS
 62
     7
 10
-1988.9515067267
 20
437.9568086271
 30
0.0
  0
VERTEX
  5
7AF
  8
0
  6
CONTINUOUS
 62
     7
 10
-1989.8125457683
 20
437.8579401867
 30
0.0
  0
VERTEX
  5
7B0
  8
0
  6
CONTINUOUS
 62
     7
 10
-1990.5425081111
 20
437.5763713354
 30
0.0
  0
VERTEX
  5
7B1
  8
0
  6
CONTINUOUS
 62
     7
 10
-1991.0302419788
 20
437.1549791273
 30
0.0
  0
VERTEX
  5
7B2
  8
0
  6
CONTINUOUS
 62
     7
 10
-1991.2015056977
 20
436.657911869
 30
0.0
  0
VERTEX
  5
7B3
  8
0
  6
CONTINUOUS
 62
     7
 10
-1991.0302419788
 20
436.1608446106
 30
0.0
  0
VERTEX
  5
7B4
  8
0
  6
CONTINUOUS
 62
     7
 10
-1990.5425081111
 20
435.7394524025
 30
0.0
  0
VERTEX
  5
7B5
  8
0
  6
CONTINUOUS
 62
     7
 10
-1989.812556305
 20
435.4578896339
 30
0.0
  0
VERTEX
  5
7B6
  8
0
  6
CONTINUOUS
 62
     7
 10
-1988.9515067267
 20
435.3590151108
 30
0.0
  0
VERTEX
  5
7B7
  8
0
  6
CONTINUOUS
 62
     7
 10
-1988.0904782217
 20
435.4578896339
 30
0.0
  0
VERTEX
  5
7B8
  8
0
  6
CONTINUOUS
 62
     7
 10
-1987.3605264156
 20
435.7394524025
 30
0.0
  0
VERTEX
  5
7B9
  8
0
  6
CONTINUOUS
 62
     7
 10
-1986.8727820113
 20
436.1608506933
 30
0.0
  0
VERTEX
  5
7BA
  8
0
  6
CONTINUOUS
 62
     7
 10
-1986.7015077556
 20
436.657911869
 30
0.0
  0
VERTEX
  5
7BB
  8
0
  6
CONTINUOUS
 62
     7
 10
-1986.8727820113
 20
437.15498521
 30
0.0
  0
VERTEX
  5
7BC
  8
0
  6
CONTINUOUS
 62
     7
 10
-1987.3605264156
 20
437.5763713354
 30
0.0
  0
SEQEND
  5
7BD
  8
0
  6
CONTINUOUS
 62
     7
  0
ARC
  5
3FC
  8
0
  6
CONTINUOUS
 62
     7
 10
-2015.8948688439
 20
424.2893264152
 30
0.0
 40
1.288013062387793
 50
110.7832855227
 51
249.2167144773
  0
LINE
  5
3FD
  8
0
  6
CONTINUOUS
 62
     7
 10
-1990.9329670524
 20
440.1675651066
 30
0.0
 11
-2016.3518999767
 21
425.4935274751
 31
0.0
  0
ARC
  5
3FE
  8
0
  6
CONTINUOUS
 62
     7
 10
-1988.9488440015
 20
436.460639869
 30
0.0
 40
4.204526013574974
 50
90.1274623245
 51
118.1578121636
  0
LINE
  5
3FF
  8
0
  6
CONTINUOUS
 62
     7
 10
-1944.8684425319
 20
441.6251416363
 30
0.0
 11
-1988.9581975389
 21
440.6651554784
 31
0.0
  0
POLYLINE
  5
400
  8
0
  6
CONTINUOUS
 62
     7
 66
     1
 10
0.0
 20
0.0
 30
0.0
  0
VERTEX
  5
7BE
  8
0
  6
CONTINUOUS
 62
     7
 10
-1939.8783083518
 20
435.025098419
 30
0.0
  0
VERTEX
  5
7BF
  8
0
  6
CONTINUOUS
 62
     7
 10
-1938.8900701213
 20
435.7515813351
 30
0.0
  0
VERTEX
  5
7C0
  8
0
  6
CONTINUOUS
 62
     7
 10
-1938.2284067465
 20
436.5926139295
 30
0.0
  0
VERTEX
  5
7C1
  8
0
  6
CONTINUOUS
 62
     7
 10
-1937.9310501936
 20
437.5002218334
 30
0.0
  0
VERTEX
  5
7C2
  8
0
  6
CONTINUOUS
 62
     7
 10
-1938.014964569
 20
438.4226654777
 30
0.0
  0
VERTEX
  5
7C3
  8
0
  6
CONTINUOUS
 62
     7
 10
-1938.4753556687
 20
439.3073111346
 30
0.0
  0
VERTEX
  5
7C4
  8
0
  6
CONTINUOUS
 62
     7
 10
-1939.2859660061
 20
440.1037087704
 30
0.0
  0
VERTEX
  5
7C5
  8
0
  6
CONTINUOUS
 62
     7
 10
-1940.4005604884
 20
440.7664448392
 30
0.0
  0
VERTEX
  5
7C6
  8
0
  6
CONTINUOUS
 62
     7
 10
-1941.755581668
 20
441.257709188
 30
0.0
  0
VERTEX
  5
7C7
  8
0
  6
CONTINUOUS
 62
     7
 10
-1943.2737322248
 20
441.5494848341
 30
0.0
  0
VERTEX
  5
7C8
  8
0
  6
CONTINUOUS
 62
     7
 10
-1944.8684425319
 20
441.6251416363
 30
0.0
  0
SEQEND
  5
7C9
  8
0
  6
CONTINUOUS
 62
     7
  0
LINE
  5
401
  8
0
  6
CONTINUOUS
 62
     7
 10
-1956.5172519411
 20
425.4196407428
 30
0.0
 11
-1939.8783083518
 21
435.025098419
 31
0.0
  0
ARC
  5
402
  8
0
  6
CONTINUOUS
 62
     7
 10
-1961.0235240703
 20
433.8386541258
 30
0.0
 40
9.549150477726048
 50
270.1271038576
 51
298.1578911707
  0
LINE
  5
403
  8
0
  6
CONTINUOUS
 62
     7
 10
-2002.5431067281
 20
423.3850335907
 30
0.0
 11
-1961.0023404356
 21
424.2895271448
 31
0.0
  0
ARC
  5
404
  8
0
  6
CONTINUOUS
 62
     7
 10
-2002.5318793706
 20
418.325422262
 30
0.0
 40
5.059623785522798
 50
90.1271400326
 51
118.1578204067
  0
LINE
  5
405
  8
0
  6
CONTINUOUS
 62
     7
 10
-2008.2908831938
 20
420.8400015394
 30
0.0
 11
-2004.9195251713
 21
422.7862450988
 31
0.0
  0
ARC
  5
406
  8
0
  6
CONTINUOUS
 62
     7
 10
-2010.376846029
 20
424.8659474653
 30
0.0
 40
4.534256449259815
 50
242.6098098477
 51
297.390023077
  0
LINE
  5
407
  8
0
  6
CONTINUOUS
 62
     7
 10
-2016.3518999767
 20
423.0851253554
 30
0.0
 11
-2012.4628206038
 21
420.8400076221
 31
0.0
  0
LINE
  5
408
  8
0
  6
CONTINUOUS
 62
     7
 10
-1960.9910240067
 20
423.8714953634
 30
0.0
 11
-2002.531800836
 21
422.9670078921
 31
0.0
  0
LINE
  5
409
  8
0
  6
CONTINUOUS
 62
     7
 10
-2002.531800836
 20
420.1907708059
 30
0.0
 11
-1960.9910240067
 21
421.0952582773
 31
0.0
  0
LINE
  5
40A
  8
0
  6
CONTINUOUS
 62
     7
 10
-1961.0023404356
 20
421.0233694456
 30
0.0
 11
-2002.5431067281
 21
420.1188758915
 31
0.0
  0
ARC
  5
40B
  8
0
  6
CONTINUOUS
 62
     7
 10
-2010.376846029
 20
424.9078771915
 30
0.0
 40
4.995306550860287
 50
242.6095512693
 51
297.3902970773
  0
ARC
  5
40C
  8
0
  6
CONTINUOUS
 62
     7
 10
-2010.376846029
 20
422.1316401053
 30
0.0
 40
4.995306550859983
 50
242.6095512693
 51
297.3902970773
  0
LINE
  5
40D
  8
0
  6
CONTINUOUS
 62
     7
 10
-2004.7074000827
 20
422.4188215016
 30
0.0
 11
-2008.0787581053
 21
420.4725779421
 31
0.0
  0
LINE
  5
40E
  8
0
  6
CONTINUOUS
 62
     7
 10
-2012.6749456924
 20
420.4725840248
 30
0.0
 11
-2016.5640250653
 21
422.7177017581
 31
0.0
  0
LINE
  5
40F
  8
0
  6
CONTINUOUS
 62
     7
 10
-2008.0787581053
 20
417.6963408559
 30
0.0
 11
-2004.7074000827
 21
419.6425844154
 31
0.0
  0
LINE
  5
410
  8
0
  6
CONTINUOUS
 62
     7
 10
-2016.5640250653
 20
419.941464672
 30
0.0
 11
-2012.6749456924
 21
417.6963469387
 31
0.0
  0
ARC
  5
411
  8
0
  6
CONTINUOUS
 62
     7
 10
-2010.376846029
 20
421.5997897661
 30
0.0
 40
4.534256449259866
 50
242.6098098477
 51
297.390023077
  0
LINE
  5
412
  8
0
  6
CONTINUOUS
 62
     7
 10
-2004.9195251713
 20
419.5200873996
 30
0.0
 11
-2008.2908831938
 21
417.5738438402
 31
0.0
  0
LINE
  5
413
  8
0
  6
CONTINUOUS
 62
     7
 10
-2016.3518999767
 20
419.8189676562
 30
0.0
 11
-2016.5640250653
 21
419.941464672
 31
0.0
  0
LINE
  5
414
  8
0
  6
CONTINUOUS
 62
     7
 10
-2012.4628206038
 20
417.5738499229
 30
0.0
 11
-2016.3518999767
 21
419.8189676562
 31
0.0
  0
ARC
  5
415
  8
0
  6
CONTINUOUS
 62
     7
 10
-2002.5214668352
 20
418.3347279067
 30
0.0
 40
4.632291512252835
 50
90.1278190554
 51
118.1570675391
  0
ARC
  5
416
  8
0
  6
CONTINUOUS
 62
     7
 10
-2002.5214668352
 20
415.5584908205
 30
0.0
 40
4.632291512250633
 50
90.1278190554
 51
118.1570675391
  0
ARC
  5
417
  8
0
  6
CONTINUOUS
 62
     7
 10
-2016.0605201049
 20
424.0443650659
 30
0.0
 40
1.41899710263664
 50
110.7835767071
 51
249.2168783519
  0
LINE
  5
418
  8
0
  6
CONTINUOUS
 62
     7
 10
-2016.3518999767
 20
425.4935274751
 30
0.0
 11
-2016.564035602
 21
425.3710243746
 31
0.0
  0
ARC
  5
419
  8
0
  6
CONTINUOUS
 62
     7
 10
-2015.8894666238
 20
421.4303119241
 30
0.0
 40
1.634532113816112
 50
185.6944193572
 51
245.625941009
  0
ARC
  5
41A
  8
0
  6
CONTINUOUS
 62
     7
 10
-1961.0132077199
 20
433.8483772356
 30
0.0
 40
9.976906534983453
 50
270.1273976241
 51
298.157630207
  0
ARC
  5
41B
  8
0
  6
CONTINUOUS
 62
     7
 10
-1961.0132077199
 20
431.0721401494
 30
0.0
 40
9.976906534985842
 50
270.1273976241
 51
298.157630207
  0
ARC
  5
41C
  8
0
  6
CONTINUOUS
 62
     7
 10
-2002.5318793706
 20
415.0592645628
 30
0.0
 40
5.059623785522798
 50
90.1271400326
 51
118.1578204067
  0
ARC
  5
41D
  8
0
  6
CONTINUOUS
 62
     7
 10
-1961.0235240703
 20
430.5724964266
 30
0.0
 40
9.549150477728745
 50
270.1271038576
 51
298.1578911707
  0
LINE
  5
41E
  8
0
  6
CONTINUOUS
 62
     7
 10
-1939.6661727265
 20
434.6576687391
 30
0.0
 11
-1956.3051163159
 21
425.0522110628
 31
0.0
  0
LINE
  5
41F
  8
0
  6
CONTINUOUS
 62
     7
 10
-1956.3051163159
 20
422.2759739766
 30
0.0
 11
-1939.6661727265
 21
431.8814316529
 31
0.0
  0
LINE
  5
420
  8
0
  6
CONTINUOUS
 62
     7
 10
-1939.6661727265
 20
431.8814316529
 30
0.0
 11
-1939.8783083518
 21
431.7589407198
 31
0.0
  0
LINE
  5
421
  8
0
  6
CONTINUOUS
 62
     7
 10
-1939.8783083518
 20
431.7589407198
 30
0.0
 11
-1956.5172519411
 21
422.1534830436
 31
0.0
  0
POLYLINE
  5
422
  8
0
  6
CONTINUOUS
 62
     7
 66
     1
 10
0.0
 20
0.0
 30
0.0
  0
VERTEX
  5
7CA
  8
0
  6
CONTINUOUS
 62
     7
 10
-1939.6653719364
 20
440.3720626516
 30
0.0
  0
VERTEX
  5
7CB
  8
0
  6
CONTINUOUS
 62
     7
 10
-1939.0473094764
 20
439.9636813697
 30
0.0
  0
VERTEX
  5
7CC
  8
0
  6
CONTINUOUS
 62
     7
 10
-1938.2004001657
 20
439.1316207791
 30
0.0
  0
VERTEX
  5
7CD
  8
0
  6
CONTINUOUS
 62
     7
 10
-1937.7193992571
 20
438.2073644858
 30
0.0
  0
VERTEX
  5
7CE
  8
0
  6
CONTINUOUS
 62
     7
 10
-1937.6317232754
 20
437.2436252931
 30
0.0
  0
VERTEX
  5
7CF
  8
0
  6
CONTINUOUS
 62
     7
 10
-1937.9423982325
 20
436.2953726914
 30
0.0
  0
VERTEX
  5
7D0
  8
0
  6
CONTINUOUS
 62
     7
 10
-1938.6336908418
 20
435.4166759292
 30
0.0
  0
VERTEX
  5
7D1
  8
0
  6
CONTINUOUS
 62
     7
 10
-1939.6661727265
 20
434.6576687391
 30
0.0
  0
SEQEND
  5
7D2
  8
0
  6
CONTINUOUS
 62
     7
  0
ARC
  5
423
  8
0
  6
CONTINUOUS
 62
     7
 10
-1941.0054781835
 20
435.0066674326
 30
0.0
 40
3.400123201643703
 50
293.1973312022
 51
355.4824696768
  0
POLYLINE
  5
424
  8
0
  6
CONTINUOUS
 62
     7
 66
     1
 10
0.0
 20
0.0
 30
0.0
  0
VERTEX
  5
7D3
  8
0
  6
CONTINUOUS
 62
     7
 10
-2016.5159355111
 20
177.1623186022
 30
0.0
  0
VERTEX
  5
7D4
  8
0
  6
CONTINUOUS
 62
     7
 10
-2016.7187672196
 20
177.0070512335
 30
0.0
  0
VERTEX
  5
7D5
  8
0
  6
CONTINUOUS
 62
     7
 10
-2016.9913835725
 20
176.7126296066
 30
0.0
  0
VERTEX
  5
7D6
  8
0
  6
CONTINUOUS
 62
     7
 10
-2017.1592439334
 20
176.3931593617
 30
0.0
  0
VERTEX
  5
7D7
  8
0
  6
CONTINUOUS
 62
     7
 10
-2017.2159314446
 20
176.0609214991
 30
0.0
  0
VERTEX
  5
7D8
  8
0
  6
CONTINUOUS
 62
     7
 10
-2017.1592544701
 20
175.7286775538
 30
0.0
  0
VERTEX
  5
7D9
  8
0
  6
CONTINUOUS
 62
     7
 10
-2016.9913835725
 20
175.4092133916
 30
0.0
  0
VERTEX
  5
7DA
  8
0
  6
CONTINUOUS
 62
     7
 10
-2016.7187777563
 20
175.114785682
 30
0.0
  0
VERTEX
  5
7DB
  8
0
  6
CONTINUOUS
 62
     7
 10
-2016.3518999767
 20
174.8567143566
 30
0.0
  0
SEQEND
  5
7DC
  8
0
  6
CONTINUOUS
 62
     7
  0
LINE
  5
425
  8
0
  6
CONTINUOUS
 62
     7
 10
-2002.5431067281
 20
175.1566225919
 30
0.0
 11
-1998.1085417684
 21
175.2531796009
 31
0.0
  0
ARC
  5
426
  8
0
  6
CONTINUOUS
 62
     7
 10
-2002.5318793706
 20
170.0970112632
 30
0.0
 40
5.059623785519588
 50
90.1271400326
 51
118.1578204067
  0
LINE
  5
427
  8
0
  6
CONTINUOUS
 62
     7
 10
-2008.2908831938
 20
172.6115905405
 30
0.0
 11
-2004.9195251713
 21
174.5578341
 31
0.0
  0
ARC
  5
428
  8
0
  6
CONTINUOUS
 62
     7
 10
-2010.376846029
 20
176.6375364664
 30
0.0
 40
4.534256449259815
 50
242.6098098477
 51
297.390023077
  0
LINE
  5
429
  8
0
  6
CONTINUOUS
 62
     7
 10
-2016.3518999767
 20
174.8567143566
 30
0.0
 11
-2012.4628206038
 21
172.6115966232
 31
0.0
  0
LINE
  5
42A
  8
0
  6
CONTINUOUS
 62
     7
 10
-1998.1085417684
 20
174.8349166783
 30
0.0
 11
-2002.531800836
 21
174.7386090606
 31
0.0
  0
LINE
  5
42B
  8
0
  6
CONTINUOUS
 62
     7
 10
-2002.531800836
 20
171.9623719744
 30
0.0
 11
-1997.9524719883
 21
172.0620737468
 31
0.0
  0
LINE
  5
42C
  8
0
  6
CONTINUOUS
 62
     7
 10
-1997.9263620157
 20
171.9909878315
 30
0.0
 11
-2002.5431067281
 21
171.8904648927
 31
0.0
  0
ARC
  5
42D
  8
0
  6
CONTINUOUS
 62
     7
 10
-2010.376846029
 20
176.6794783601
 30
0.0
 40
4.995306550860059
 50
242.6095512693
 51
297.3902970773
  0
ARC
  5
42E
  8
0
  6
CONTINUOUS
 62
     7
 10
-2010.376846029
 20
173.9032412739
 30
0.0
 40
4.995306550860033
 50
242.6095512693
 51
297.3902970773
  0
LINE
  5
42F
  8
0
  6
CONTINUOUS
 62
     7
 10
-2004.7074000827
 20
174.1904226701
 30
0.0
 11
-2008.0787581053
 21
172.2441791107
 31
0.0
  0
LINE
  5
430
  8
0
  6
CONTINUOUS
 62
     7
 10
-2012.6749456924
 20
172.2441851934
 30
0.0
 11
-2016.5640250653
 21
174.4893029267
 31
0.0
  0
LINE
  5
431
  8
0
  6
CONTINUOUS
 62
     7
 10
-2008.0787581053
 20
169.4679420245
 30
0.0
 11
-2004.7074000827
 21
171.4141855839
 31
0.0
  0
LINE
  5
432
  8
0
  6
CONTINUOUS
 62
     7
 10
-2016.5640250653
 20
171.7130658405
 30
0.0
 11
-2012.6749456924
 21
169.4679481072
 31
0.0
  0
ARC
  5
433
  8
0
  6
CONTINUOUS
 62
     7
 10
-2010.376846029
 20
173.3713787672
 30
0.0
 40
4.534256449259815
 50
242.6098098477
 51
297.390023077
  0
LINE
  5
434
  8
0
  6
CONTINUOUS
 62
     7
 10
-2004.9195251713
 20
171.2916764008
 30
0.0
 11
-2008.2908831938
 21
169.3454328413
 31
0.0
  0
LINE
  5
435
  8
0
  6
CONTINUOUS
 62
     7
 10
-2016.3518999767
 20
171.5905566573
 30
0.0
 11
-2016.5640250653
 21
171.7130658405
 31
0.0
  0
LINE
  5
436
  8
0
  6
CONTINUOUS
 62
     7
 10
-2012.4628206038
 20
169.345438924
 30
0.0
 11
-2016.3518999767
 21
171.5905566573
 31
0.0
  0
ARC
  5
437
  8
0
  6
CONTINUOUS
 62
     7
 10
-2002.5214668352
 20
170.1063290752
 30
0.0
 40
4.63229151225019
 50
90.1278190554
 51
118.1570675391
  0
ARC
  5
438
  8
0
  6
CONTINUOUS
 62
     7
 10
-2002.5214668352
 20
167.3300919891
 30
0.0
 40
4.632291512252807
 50
90.1278190554
 51
118.1570675391
  0
ARC
  5
439
  8
0
  6
CONTINUOUS
 62
     7
 10
-2016.0605201049
 20
175.8159662344
 30
0.0
 40
1.418997102636693
 50
110.7835767071
 51
249.2168783519
  0
LINE
  5
43A
  8
0
  6
CONTINUOUS
 62
     7
 10
-2016.5159355111
 20
177.1703899939
 30
0.0
 11
-2016.564035602
 21
177.1426255432
 31
0.0
  0
ARC
  5
43B
  8
0
  6
CONTINUOUS
 62
     7
 10
-2015.8894666238
 20
173.2019130926
 30
0.0
 40
1.634532113816112
 50
185.6944193572
 51
245.625941009
  0
ARC
  5
43C
  8
0
  6
CONTINUOUS
 62
     7
 10
-2002.5318793706
 20
166.830853564
 30
0.0
 40
5.059623785523099
 50
90.1271400326
 51
118.1578204067
  0
ARC
  5
43D
  8
0
  6
CONTINUOUS
 62
     7
 10
-1997.2464059934
 20
410.6511704495
 30
0.0
 40
0.8734155901009489
 50
50.7961169363
 51
189.2138954676
  0
LINE
  5
43E
  8
0
  6
CONTINUOUS
 62
     7
 10
-1720.2155825783
 20
251.720194702
 30
0.0
 11
-1996.6943358767
 21
411.3279816339
 31
0.0
  0
ARC
  5
43F
  8
0
  6
CONTINUOUS
 62
     7
 10
-1721.8717800452
 20
249.130991483
 30
0.0
 40
3.073591280317805
 50
2.6054750465
 51
57.3947715761
  0
LINE
  5
440
  8
0
  6
CONTINUOUS
 62
     7
 10
-1718.80136615
 20
11.6573289026
 30
0.0
 11
-1718.80136615
 21
249.2707121698
 31
0.0
  0
ARC
  5
441
  8
0
  6
CONTINUOUS
 62
     7
 10
-1719.6635124617
 20
11.5174770874
 30
0.0
 40
0.8734155901005362
 50
230.7961169363
 51
9.2138954676
  0
LINE
  5
442
  8
0
  6
CONTINUOUS
 62
     7
 10
-1996.6943358767
 20
170.4484528349
 30
0.0
 11
-1720.2155825783
 21
10.840665903
 31
0.0
  0
ARC
  5
443
  8
0
  6
CONTINUOUS
 62
     7
 10
-1995.0381384098
 20
173.0376560539
 30
0.0
 40
3.073591280319705
 50
182.6054750465
 51
237.3947715761
  0
LINE
  5
444
  8
0
  6
CONTINUOUS
 62
     7
 10
-1998.1085523051
 20
410.5113186343
 30
0.0
 11
-1998.1085523051
 21
172.8979353671
 31
0.0
  0
ARC
  5
445
  8
0
  6
CONTINUOUS
 62
     7
 10
-1719.7504554027
 20
250.3556061325
 30
0.0
 40
3.073591280317525
 50
2.6054750465
 51
57.3947715761
  0
LINE
  5
446
  8
0
  6
CONTINUOUS
 62
     7
 10
-1716.6800415074
 20
12.8819435521
 30
0.0
 11
-1716.6800415074
 21
250.4953268193
 31
0.0
  0
LINE
  5
447
  8
0
  6
CONTINUOUS
 62
     7
 10
-1718.0942579358
 20
252.9448093515
 30
0.0
 11
-1994.5730112342
 21
412.5525962834
 31
0.0
  0
ARC
  5
448
  8
0
  6
CONTINUOUS
 62
     7
 10
-1717.6314411243
 20
12.7608376086
 30
0.0
 40
0.9590765769358749
 50
304.0567504956
 51
7.2543039793
  0
ARC
  5
449
  8
0
  6
CONTINUOUS
 62
     7
 10
-1995.1588658274
 20
411.7348167695
 30
0.0
 40
1.005976608939467
 50
54.3823110252
 51
114.3059388766
  0
ARC
  5
44A
  8
0
  6
CONTINUOUS
 62
     7
 10
-1715.2477941728
 20
253.2134696934
 30
0.0
 40
2.835602475553598
 50
238.6294314779
 51
317.8799515709
  0
ARC
  5
44B
  8
0
  6
CONTINUOUS
 62
     7
 10
-1715.2638455134
 20
32.7144545725
 30
0.0
 40
18.29705745496202
 50
265.7774581206
 51
274.3556614803
  0
LINE
  5
44C
  8
0
  6
CONTINUOUS
 62
     7
 10
-1716.9528685946
 20
251.56236931
 30
0.0
 11
-1716.3264926687
 21
251.9239684351
 31
0.0
  0
ARC
  5
44D
  8
0
  6
CONTINUOUS
 62
     7
 10
-1715.2658318834
 20
252.4596331023
 30
0.0
 40
1.188249947277537
 50
206.7951086559
 51
333.2052199255
  0
LINE
  5
44E
  8
0
  6
CONTINUOUS
 62
     7
 10
-1713.1445109732
 20
251.3116702344
 30
0.0
 11
-1714.2051680262
 21
251.9239745178
 31
0.0
  0
ARC
  5
44F
  8
0
  6
CONTINUOUS
 62
     7
 10
-1714.9918170345
 20
252.8003224776
 30
0.0
 40
2.867470914474047
 50
102.641935383
 51
180.9303526019
  0
LINE
  5
450
  8
0
  6
CONTINUOUS
 62
     7
 10
-1715.6193844545
 20
254.3734692174
 30
0.0
 11
-1715.6193844545
 21
255.5982768337
 31
0.0
  0
ARC
  5
451
  8
0
  6
CONTINUOUS
 62
     7
 10
-1715.6858354609
 20
253.1870855989
 30
0.0
 40
1.188243168154989
 50
86.7941329901
 51
213.2055382295
  0
LINE
  5
452
  8
0
  6
CONTINUOUS
 62
     7
 10
-1716.6800520441
 20
252.5363512351
 30
0.0
 11
-1717.3069969525
 21
252.1744236433
 31
0.0
  0
ARC
  5
453
  8
0
  6
CONTINUOUS
 62
     7
 10
-1969.7603787929
 20
399.9086252864
 30
0.0
 40
26.25974730968191
 50
145.4588237814
 51
153.3630601096
  0
ARC
  5
454
  8
0
  6
CONTINUOUS
 62
     7
 10
-1717.2439570858
 20
254.119717234
 30
0.0
 40
3.749069887962448
 50
324.1491929298
 51
357.6387867999
  0
LINE
  5
455
  8
0
  6
CONTINUOUS
 62
     7
 10
-1712.4374132958
 20
253.3529539682
 30
0.0
 11
-1713.4980703487
 21
253.9652582516
 31
0.0
  0
ARC
  5
456
  8
0
  6
CONTINUOUS
 62
     7
 10
-1716.1833000329
 20
253.5074129506
 30
0.0
 40
3.749069887962079
 50
324.1491929298
 51
357.6387867999
  0
LINE
  5
457
  8
0
  6
CONTINUOUS
 62
     7
 10
-1709.5247815725
 20
255.0343804719
 30
0.0
 11
-1712.4374132958
 21
253.3529539682
 31
0.0
  0
ARC
  5
458
  8
0
  6
CONTINUOUS
 62
     7
 10
-1992.5374681262
 20
414.9523339023
 30
0.0
 40
1.156799017358674
 50
352.3259923227
 51
67.6798774572
  0
LINE
  5
459
  8
0
  6
CONTINUOUS
 62
     7
 10
-1992.0981377529
 20
416.0224613665
 30
0.0
 11
-1984.3199579337
 21
420.5127089986
 31
0.0
  0
LINE
  5
45A
  8
0
  6
CONTINUOUS
 62
     7
 10
-1984.3199579337
 20
420.5127089986
 30
0.0
 11
-1709.0939775604
 21
261.6281324824
 31
0.0
  0
LINE
  5
45B
  8
0
  6
CONTINUOUS
 62
     7
 10
-1713.4980703487
 20
255.1900658678
 30
0.0
 11
-1709.3584806449
 21
257.5798001369
 31
0.0
  0
ARC
  5
45C
  8
0
  6
CONTINUOUS
 62
     7
 10
-1715.2371992744
 20
251.8684161056
 30
0.0
 40
3.749390158871477
 50
62.3646219119
 51
95.8504704978
  0
LINE
  5
45D
  8
0
  6
CONTINUOUS
 62
     7
 10
-1713.4980703487
 20
253.9652582516
 30
0.0
 11
-1713.4980703487
 21
255.1900658678
 31
0.0
  0
ARC
  5
45E
  8
0
  6
CONTINUOUS
 62
     7
 10
-1715.2371992744
 20
250.6436084893
 30
0.0
 40
3.749390158870415
 50
62.3646219119
 51
95.8504704978
  0
LINE
  5
45F
  8
0
  6
CONTINUOUS
 62
     7
 10
-1713.4980703487
 20
253.9652582516
 30
0.0
 11
-1709.4416363771
 21
256.3069877383
 31
0.0
  0
ARC
  5
460
  8
0
  6
CONTINUOUS
 62
     7
 10
-1712.7810551139
 20
254.3791829683
 30
0.0
 40
4.312563722290668
 50
205.2974094659
 51
214.7025906797
  0
ARC
  5
461
  8
0
  6
CONTINUOUS
 62
     7
 10
-1716.5523984045
 20
16.5495336091
 30
0.0
 40
3.587326849442957
 50
267.4663967822
 51
285.0751727323
  0
ARC
  5
462
  8
0
  6
CONTINUOUS
 62
     7
 10
-1715.8876875888
 20
16.7843698916
 30
0.0
 40
2.488405854033209
 50
250.3893562792
 51
276.1897377775
  0
LINE
  5
463
  8
0
  6
CONTINUOUS
 62
     7
 10
-1715.6193844545
 20
14.3104707177
 30
0.0
 11
-1715.6193844545
 21
13.0856631014
 31
0.0
  0
ARC
  5
464
  8
0
  6
CONTINUOUS
 62
     7
 10
-1715.2484186204
 20
9.160712888
 30
0.0
 40
3.942442114681015
 50
69.6005810005
 51
95.3992592514
  0
LINE
  5
465
  8
0
  6
CONTINUOUS
 62
     7
 10
-1992.0981377529
 20
416.0224613665
 30
0.0
 11
-1992.0981377529
 21
414.7976537502
 31
0.0
  0
ARC
  5
466
  8
0
  6
CONTINUOUS
 62
     7
 10
-1992.9679960197
 20
413.2335025662
 30
0.0
 40
1.789754824235533
 50
40.8110373342
 51
60.9206187323
  0
ARC
  5
467
  8
0
  6
CONTINUOUS
 62
     7
 10
-1991.2716876025
 20
410.7758500797
 30
0.0
 40
3.667795333950104
 50
135.0152998885
 51
151.7489870827
  0
LINE
  5
468
  8
0
  6
CONTINUOUS
 62
     7
 10
-1993.86590302
 20
413.3686803826
 30
0.0
 11
-1992.8052354304
 21
412.7563700165
 31
0.0
  0
ARC
  5
469
  8
0
  6
CONTINUOUS
 62
     7
 10
-1990.7971809874
 20
411.2870607097
 30
0.0
 40
2.488202661501843
 50
143.8067708074
 51
169.6100280524
  0
LINE
  5
46A
  8
0
  6
CONTINUOUS
 62
     7
 10
-1992.0981377529
 20
414.7976537502
 30
0.0
 11
-1993.1588053425
 21
415.4099641163
 31
0.0
  0
ARC
  5
46B
  8
0
  6
CONTINUOUS
 62
     7
 10
-1995.8440244901
 20
414.9521127326
 30
0.0
 40
3.749069887962498
 50
324.1491929298
 51
357.6387867999
  0
ARC
  5
46C
  8
0
  6
CONTINUOUS
 62
     7
 10
-1996.9046920797
 20
415.5644230987
 30
0.0
 40
3.749069887965744
 50
324.1491929298
 51
357.6387867999
  0
LINE
  5
46D
  8
0
  6
CONTINUOUS
 62
     7
 10
-1992.0981377529
 20
416.0222744824
 30
0.0
 11
-1993.1588053425
 21
415.4099641163
 31
0.0
  0
POLYLINE
  5
46E
  8
0
  6
CONTINUOUS
 62
     7
 66
     1
 10
0.0
 20
0.0
 30
0.0
  0
VERTEX
  5
7DD
  8
0
  6
CONTINUOUS
 62
     7
 10
-1748.6219223207
 20
382.243679882
 30
0.0
  0
VERTEX
  5
7DE
  8
0
  6
CONTINUOUS
 62
     7
 10
-1748.8238610428
 20
383.5695793303
 30
0.0
  0
VERTEX
  5
7DF
  8
0
  6
CONTINUOUS
 62
     7
 10
-1749.3966288115
 20
385.264675214
 30
0.0
  0
VERTEX
  5
7E0
  8
0
  6
CONTINUOUS
 62
     7
 10
-1750.3126661978
 20
386.9087641156
 30
0.0
  0
VERTEX
  5
7E1
  8
0
  6
CONTINUOUS
 62
     7
 10
-1751.5591049125
 20
388.4787725886
 30
0.0
  0
VERTEX
  5
7E2
  8
0
  6
CONTINUOUS
 62
     7
 10
-1753.1184589528
 20
389.9526536442
 30
0.0
  0
VERTEX
  5
7E3
  8
0
  6
CONTINUOUS
 62
     7
 10
-1754.9688341833
 20
391.3097206361
 30
0.0
  0
VERTEX
  5
7E4
  8
0
  6
CONTINUOUS
 62
     7
 10
-1757.0842513523
 20
392.5309249738
 30
0.0
  0
VERTEX
  5
7E5
  8
0
  6
CONTINUOUS
 62
     7
 10
-1759.4350150417
 20
393.599123857
 30
0.0
  0
VERTEX
  5
7E6
  8
0
  6
CONTINUOUS
 62
     7
 10
-1761.9881285496
 20
394.4993197833
 30
0.0
  0
VERTEX
  5
7E7
  8
0
  6
CONTINUOUS
 62
     7
 10
-1764.7077576705
 20
395.2188735372
 30
0.0
  0
VERTEX
  5
7E8
  8
0
  6
CONTINUOUS
 62
     7
 10
-1767.5557117621
 20
395.7476906641
 30
0.0
  0
VERTEX
  5
7E9
  8
0
  6
CONTINUOUS
 62
     7
 10
-1770.4920221117
 20
396.0783424589
 30
0.0
  0
VERTEX
  5
7EA
  8
0
  6
CONTINUOUS
 62
     7
 10
-1773.4754684431
 20
396.2061874302
 30
0.0
  0
VERTEX
  5
7EB
  8
0
  6
CONTINUOUS
 62
     7
 10
-1776.4641633742
 20
396.1294349791
 30
0.0
  0
VERTEX
  5
7EC
  8
0
  6
CONTINUOUS
 62
     7
 10
-1779.4161563028
 20
395.849159465
 30
0.0
  0
VERTEX
  5
7ED
  8
0
  6
CONTINUOUS
 62
     7
 10
-1782.2900076571
 20
395.3692971644
 30
0.0
  0
VERTEX
  5
7EE
  8
0
  6
CONTINUOUS
 62
     7
 10
-1785.0453736836
 20
394.6965824026
 30
0.0
  0
VERTEX
  5
7EF
  8
0
  6
CONTINUOUS
 62
     7
 10
-1787.6435793803
 20
393.8404585937
 30
0.0
  0
VERTEX
  5
7F0
  8
0
  6
CONTINUOUS
 62
     7
 10
-1790.0481453328
 20
392.8129444211
 30
0.0
  0
VERTEX
  5
7F1
  8
0
  6
CONTINUOUS
 62
     7
 10
-1792.2253185009
 20
391.6284658025
 30
0.0
  0
VERTEX
  5
7F2
  8
0
  6
CONTINUOUS
 62
     7
 10
-1794.1445411023
 20
390.3036460361
 30
0.0
  0
VERTEX
  5
7F3
  8
0
  6
CONTINUOUS
 62
     7
 10
-1795.7788641786
 20
388.8570883436
 30
0.0
  0
VERTEX
  5
7F4
  8
0
  6
CONTINUOUS
 62
     7
 10
-1797.1053532589
 20
387.3090930241
 30
0.0
  0
VERTEX
  5
7F5
  8
0
  6
CONTINUOUS
 62
     7
 10
-1798.1053807532
 20
385.6813943767
 30
0.0
  0
VERTEX
  5
7F6
  8
0
  6
CONTINUOUS
 62
     7
 10
-1798.7649064925
 20
383.9968421181
 30
0.0
  0
VERTEX
  5
7F7
  8
0
  6
CONTINUOUS
 62
     7
 10
-1799.0746818778
 20
382.27908128
 30
0.0
  0
VERTEX
  5
7F8
  8
0
  6
CONTINUOUS
 62
     7
 10
-1799.0773358121
 20
382.2436791217
 30
0.0
  0
SEQEND
  5
7F9
  8
0
  6
CONTINUOUS
 62
     7
  0
ARC
  5
46F
  8
0
  6
CONTINUOUS
 62
     7
 10
-1731.0625265963
 20
380.0186538476
 30
0.0
 40
3.507401012096796
 50
39.3740200289
 51
95.9026480157
  0
LINE
  5
470
  8
0
  6
CONTINUOUS
 62
     7
 10
-1731.423222485
 20
383.5074588487
 30
0.0
 11
-1736.9232202624
 21
383.5074603694
 31
0.0
  0
ARC
  5
471
  8
0
  6
CONTINUOUS
 62
     7
 10
-1737.2839144213
 20
380.0186511637
 30
0.0
 40
3.507405016580465
 50
84.0973871545
 51
140.6259448008
  0
POLYLINE
  5
472
  8
0
  6
CONTINUOUS
 62
     7
 66
     1
 10
0.0
 20
0.0
 30
0.0
  0
VERTEX
  5
7FA
  8
0
  6
CONTINUOUS
 62
     7
 10
-1770.5996282844
 20
360.31411356
 30
0.0
  0
VERTEX
  5
7FB
  8
0
  6
CONTINUOUS
 62
     7
 10
-1770.795626935
 20
360.9558064782
 30
0.0
  0
VERTEX
  5
7FC
  8
0
  6
CONTINUOUS
 62
     7
 10
-1771.3599850904
 20
361.5201006569
 30
0.0
  0
VERTEX
  5
7FD
  8
0
  6
CONTINUOUS
 62
     7
 10
-1772.2246276876
 20
361.9389381249
 30
0.0
  0
VERTEX
  5
7FE
  8
0
  6
CONTINUOUS
 62
     7
 10
-1773.2852715696
 20
362.1617950957
 30
0.0
  0
VERTEX
  5
7FF
  8
0
  6
CONTINUOUS
 62
     7
 10
-1774.4139852461
 20
362.1617950957
 30
0.0
  0
VERTEX
  5
800
  8
0
  6
CONTINUOUS
 62
     7
 10
-1775.4746304452
 20
361.9389358438
 30
0.0
  0
VERTEX
  5
801
  8
0
  6
CONTINUOUS
 62
     7
 10
-1776.3392756766
 20
361.5200998965
 30
0.0
  0
VERTEX
  5
802
  8
0
  6
CONTINUOUS
 62
     7
 10
-1776.9036311978
 20
360.9558057179
 30
0.0
  0
VERTEX
  5
803
  8
0
  6
CONTINUOUS
 62
     7
 10
-1777.0996298484
 20
360.3141127997
 30
0.0
  0
SEQEND
  5
804
  8
0
  6
CONTINUOUS
 62
     7
  0
POLYLINE
  5
473
  8
0
  6
CONTINUOUS
 62
     7
 66
     1
 10
0.0
 20
0.0
 30
0.0
  0
VERTEX
  5
805
  8
0
  6
CONTINUOUS
 62
     7
 10
-1770.5996296014
 20
406.1235172807
 30
0.0
  0
VERTEX
  5
806
  8
0
  6
CONTINUOUS
 62
     7
 10
-1770.7956282521
 20
406.7652101989
 30
0.0
  0
VERTEX
  5
807
  8
0
  6
CONTINUOUS
 62
     7
 10
-1771.3599837733
 20
407.3295058983
 30
0.0
  0
VERTEX
  5
808
  8
0
  6
CONTINUOUS
 62
     7
 10
-1772.2246290046
 20
407.7483418456
 30
0.0
  0
VERTEX
  5
809
  8
0
  6
CONTINUOUS
 62
     7
 10
-1773.2852715696
 20
407.9711980561
 30
0.0
  0
VERTEX
  5
80A
  8
0
  6
CONTINUOUS
 62
     7
 10
-1774.4139852461
 20
407.9711980561
 30
0.0
  0
VERTEX
  5
80B
  8
0
  6
CONTINUOUS
 62
     7
 10
-1775.474626494
 20
407.7483426059
 30
0.0
  0
VERTEX
  5
80C
  8
0
  6
CONTINUOUS
 62
     7
 10
-1776.3392717254
 20
407.3295066586
 30
0.0
  0
VERTEX
  5
80D
  8
0
  6
CONTINUOUS
 62
     7
 10
-1776.9036311978
 20
406.7652086782
 30
0.0
  0
VERTEX
  5
80E
  8
0
  6
CONTINUOUS
 62
     7
 10
-1777.0996298484
 20
406.12351576
 30
0.0
  0
SEQEND
  5
80F
  8
0
  6
CONTINUOUS
 62
     7
  0
ARC
  5
474
  8
0
  6
CONTINUOUS
 62
     7
 10
-1816.6367226125
 20
380.0186191044
 30
0.0
 40
3.507433005340551
 50
84.0975742009
 51
140.6256746685
  0
ARC
  5
475
  8
0
  6
CONTINUOUS
 62
     7
 10
-1810.4153364845
 20
380.0186698961
 30
0.0
 40
3.507386099501678
 50
39.3738647379
 51
95.9027202207
  0
LINE
  5
476
  8
0
  6
CONTINUOUS
 62
     7
 10
-1810.7760352362
 20
383.5074596091
 30
0.0
 11
-1816.2760369649
 21
383.507457328
 31
0.0
  0
POLYLINE
  5
477
  8
0
  6
CONTINUOUS
 62
     7
 66
     1
 10
0.0
 20
0.0
 30
0.0
  0
VERTEX
  5
810
  8
0
  6
CONTINUOUS
 62
     7
 10
-1777.0996298484
 20
358.6810400338
 30
0.0
  0
VERTEX
  5
811
  8
0
  6
CONTINUOUS
 62
     7
 10
-1776.9036311978
 20
359.322732952
 30
0.0
  0
VERTEX
  5
812
  8
0
  6
CONTINUOUS
 62
     7
 10
-1776.3392756766
 20
359.8870271306
 30
0.0
  0
VERTEX
  5
813
  8
0
  6
CONTINUOUS
 62
     7
 10
-1775.4746304452
 20
360.3058630779
 30
0.0
  0
VERTEX
  5
814
  8
0
  6
CONTINUOUS
 62
     7
 10
-1774.4139852461
 20
360.5287223298
 30
0.0
  0
VERTEX
  5
815
  8
0
  6
CONTINUOUS
 62
     7
 10
-1773.2852715696
 20
360.5287223298
 30
0.0
  0
VERTEX
  5
816
  8
0
  6
CONTINUOUS
 62
     7
 10
-1772.2246276876
 20
360.305865359
 30
0.0
  0
VERTEX
  5
817
  8
0
  6
CONTINUOUS
 62
     7
 10
-1771.3599850904
 20
359.887027891
 30
0.0
  0
VERTEX
  5
818
  8
0
  6
CONTINUOUS
 62
     7
 10
-1770.795626935
 20
359.3227337123
 30
0.0
  0
VERTEX
  5
819
  8
0
  6
CONTINUOUS
 62
     7
 10
-1770.5996282844
 20
358.6810407941
 30
0.0
  0
SEQEND
  5
81A
  8
0
  6
CONTINUOUS
 62
     7
  0
ARC
  5
478
  8
0
  6
CONTINUOUS
 62
     7
 10
-1761.8786210222
 20
378.0661560482
 30
0.0
 40
13.57986508661691
 50
14.3295186952
 51
64.3262012828
  0
POLYLINE
  5
479
  8
0
  6
CONTINUOUS
 62
     7
 66
     1
 10
0.0
 20
0.0
 30
0.0
  0
VERTEX
  5
81B
  8
0
  6
CONTINUOUS
 62
     7
 10
-1798.9780114952
 20
381.4271469004
 30
0.0
  0
VERTEX
  5
81C
  8
0
  6
CONTINUOUS
 62
     7
 10
-1798.9639002035
 20
381.5075406165
 30
0.0
  0
VERTEX
  5
81D
  8
0
  6
CONTINUOUS
 62
     7
 10
-1798.4783961676
 20
383.2116898603
 30
0.0
  0
VERTEX
  5
81E
  8
0
  6
CONTINUOUS
 62
     7
 10
-1797.6471602162
 20
384.8707289335
 30
0.0
  0
VERTEX
  5
81F
  8
0
  6
CONTINUOUS
 62
     7
 10
-1796.4818578067
 20
386.4613678829
 30
0.0
  0
VERTEX
  5
820
  8
0
  6
CONTINUOUS
 62
     7
 10
-1794.9988471849
 20
387.9612801051
 30
0.0
  0
VERTEX
  5
821
  8
0
  6
CONTINUOUS
 62
     7
 10
-1793.2189475767
 20
389.3494064824
 30
0.0
  0
VERTEX
  5
822
  8
0
  6
CONTINUOUS
 62
     7
 10
-1791.1671481121
 20
390.6062617994
 30
0.0
  0
VERTEX
  5
823
  8
0
  6
CONTINUOUS
 62
     7
 10
-1788.8722443081
 20
391.7142054239
 30
0.0
  0
VERTEX
  5
824
  8
0
  6
CONTINUOUS
 62
     7
 10
-1786.3664613818
 20
392.6576800535
 30
0.0
  0
VERTEX
  5
825
  8
0
  6
CONTINUOUS
 62
     7
 10
-1783.6849642928
 20
393.4234458998
 30
0.0
  0
VERTEX
  5
826
  8
0
  6
CONTINUOUS
 62
     7
 10
-1780.865407299
 20
394.0007464426
 30
0.0
  0
VERTEX
  5
827
  8
0
  6
CONTINUOUS
 62
     7
 10
-1777.9473557543
 20
394.381485589
 30
0.0
  0
VERTEX
  5
828
  8
0
  6
CONTINUOUS
 62
     7
 10
-1774.9717842982
 20
394.5603151125
 30
0.0
  0
VERTEX
  5
829
  8
0
  6
CONTINUOUS
 62
     7
 10
-1771.9804604574
 20
394.5347228518
 30
0.0
  0
VERTEX
  5
82A
  8
0
  6
CONTINUOUS
 62
     7
 10
-1769.0153776397
 20
394.3050703484
 30
0.0
  0
VERTEX
  5
82B
  8
0
  6
CONTINUOUS
 62
     7
 10
-1766.1181545407
 20
393.8745806806
 30
0.0
  0
VERTEX
  5
82C
  8
0
  6
CONTINUOUS
 62
     7
 10
-1763.3294668207
 20
393.2492962647
 30
0.0
  0
VERTEX
  5
82D
  8
0
  6
CONTINUOUS
 62
     7
 10
-1760.6884596822
 20
392.4379952182
 30
0.0
  0
VERTEX
  5
82E
  8
0
  6
CONTINUOUS
 62
     7
 10
-1758.2322058884
 20
391.4520670436
 30
0.0
  0
VERTEX
  5
82F
  8
0
  6
CONTINUOUS
 62
     7
 10
-1755.9951855125
 20
390.3053521972
 30
0.0
  0
SEQEND
  5
830
  8
0
  6
CONTINUOUS
 62
     7
  0
ARC
  5
47A
  8
0
  6
CONTINUOUS
 62
     7
 10
-1731.30786191
 20
377.2352371721
 30
0.0
 40
4.64058301061911
 50
64.597332253
 51
91.4244664964
  0
ARC
  5
47B
  8
0
  6
CONTINUOUS
 62
     7
 10
-1737.0384223188
 20
377.2344922233
 30
0.0
 40
4.641325312132411
 50
88.5777188383
 51
115.4004824123
  0
ARC
  5
47C
  8
0
  6
CONTINUOUS
 62
     7
 10
-1816.3911581756
 20
377.2340824933
 30
0.0
 40
4.641729869715935
 50
88.5788410615
 51
115.3992518959
  0
ARC
  5
47D
  8
0
  6
CONTINUOUS
 62
     7
 10
-1810.6606759639
 20
377.2352577761
 30
0.0
 40
4.640563140720039
 50
64.5972339477
 51
91.4244565081
  0
LINE
  5
47E
  8
0
  6
CONTINUOUS
 62
     7
 10
-1736.9232202624
 20
381.8743876035
 30
0.0
 11
-1731.423222485
 21
381.8743860828
 31
0.0
  0
LINE
  5
47F
  8
0
  6
CONTINUOUS
 62
     7
 10
-1816.2760369649
 20
381.8743845621
 30
0.0
 11
-1810.7760352362
 21
381.8743868432
 31
0.0
  0
POLYLINE
  5
480
  8
0
  6
CONTINUOUS
 62
     7
 66
     1
 10
0.0
 20
0.0
 30
0.0
  0
VERTEX
  5
831
  8
0
  6
CONTINUOUS
 62
     7
 10
-1777.0996298484
 20
404.4904429941
 30
0.0
  0
VERTEX
  5
832
  8
0
  6
CONTINUOUS
 62
     7
 10
-1776.9036311978
 20
405.1321359123
 30
0.0
  0
VERTEX
  5
833
  8
0
  6
CONTINUOUS
 62
     7
 10
-1776.3392717254
 20
405.6964338927
 30
0.0
  0
VERTEX
  5
834
  8
0
  6
CONTINUOUS
 62
     7
 10
-1775.474626494
 20
406.11526984
 30
0.0
  0
VERTEX
  5
835
  8
0
  6
CONTINUOUS
 62
     7
 10
-1774.4139852461
 20
406.3381252902
 30
0.0
  0
VERTEX
  5
836
  8
0
  6
CONTINUOUS
 62
     7
 10
-1773.2852715696
 20
406.3381252902
 30
0.0
  0
VERTEX
  5
837
  8
0
  6
CONTINUOUS
 62
     7
 10
-1772.2246290046
 20
406.1152690797
 30
0.0
  0
VERTEX
  5
838
  8
0
  6
CONTINUOUS
 62
     7
 10
-1771.3599837733
 20
405.6964331324
 30
0.0
  0
VERTEX
  5
839
  8
0
  6
CONTINUOUS
 62
     7
 10
-1770.7956282521
 20
405.132137433
 30
0.0
  0
VERTEX
  5
83A
  8
0
  6
CONTINUOUS
 62
     7
 10
-1770.5996296014
 20
404.4904445148
 30
0.0
  0
SEQEND
  5
83B
  8
0
  6
CONTINUOUS
 62
     7
  0
LINE
  5
481
  8
0
  6
CONTINUOUS
 62
     7
 10
-1567.3744470554
 20
337.5446628532
 30
0.0
 11
-1678.1077936593
 21
273.6196625406
 31
0.0
  0
LINE
  5
482
  8
0
  6
CONTINUOUS
 62
     7
 10
-1680.3828489318
 20
29.7948310914
 30
0.0
 11
-1567.3744470554
 21
95.0331928571
 31
0.0
  0
LINE
  5
483
  8
0
  6
CONTINUOUS
 62
     7
 10
-1849.1560009296
 20
501.4390830489
 30
0.0
 11
-1953.0776265607
 21
441.4464055521
 31
0.0
  0
LINE
  5
484
  8
0
  6
CONTINUOUS
 62
     7
 10
-1677.9414189748
 20
276.1662927607
 30
0.0
 11
-1568.4356098705
 21
339.3826507586
 31
0.0
  0
POLYLINE
  5
485
  8
0
  6
CONTINUOUS
 62
     7
 66
     1
 10
0.0
 20
0.0
 30
0.0
  0
VERTEX
  5
83C
  8
0
  6
CONTINUOUS
 62
     7
 10
-1791.7040752545
 20
393.1632470278
 30
0.0
  0
VERTEX
  5
83D
  8
0
  6
CONTINUOUS
 62
     7
 10
-1793.6904601761
 20
391.8718403721
 30
0.0
  0
VERTEX
  5
83E
  8
0
  6
CONTINUOUS
 62
     7
 10
-1795.3983176493
 20
390.4538767598
 30
0.0
  0
VERTEX
  5
83F
  8
0
  6
CONTINUOUS
 62
     7
 10
-1796.8036871907
 20
388.9292527499
 30
0.0
  0
VERTEX
  5
840
  8
0
  6
CONTINUOUS
 62
     7
 10
-1797.8868282702
 20
387.3193764558
 30
0.0
  0
VERTEX
  5
841
  8
0
  6
CONTINUOUS
 62
     7
 10
-1798.6325390464
 20
385.6468466823
 30
0.0
  0
VERTEX
  5
842
  8
0
  6
CONTINUOUS
 62
     7
 10
-1799.0303512957
 20
383.9351396658
 30
0.0
  0
VERTEX
  5
843
  8
0
  6
CONTINUOUS
 62
     7
 10
-1799.0746792436
 20
382.2082874506
 30
0.0
  0
VERTEX
  5
844
  8
0
  6
CONTINUOUS
 62
     7
 10
-1798.764907151
 20
380.4905269927
 30
0.0
  0
VERTEX
  5
845
  8
0
  6
CONTINUOUS
 62
     7
 10
-1798.1053800946
 20
378.8059724531
 30
0.0
  0
VERTEX
  5
846
  8
0
  6
CONTINUOUS
 62
     7
 10
-1797.1053519418
 20
377.1782749462
 30
0.0
  0
VERTEX
  5
847
  8
0
  6
CONTINUOUS
 62
     7
 10
-1795.7788671421
 20
375.6302805772
 30
0.0
  0
VERTEX
  5
848
  8
0
  6
CONTINUOUS
 62
     7
 10
-1794.1445415962
 20
374.183721459
 30
0.0
  0
VERTEX
  5
849
  8
0
  6
CONTINUOUS
 62
     7
 10
-1792.2253186655
 20
372.8589045439
 30
0.0
  0
VERTEX
  5
84A
  8
0
  6
CONTINUOUS
 62
     7
 10
-1790.0481474731
 20
371.6744225037
 30
0.0
  0
VERTEX
  5
84B
  8
0
  6
CONTINUOUS
 62
     7
 10
-1787.6435803681
 20
370.6469091865
 30
0.0
  0
VERTEX
  5
84C
  8
0
  6
CONTINUOUS
 62
     7
 10
-1785.0453763178
 20
369.7907863281
 30
0.0
  0
VERTEX
  5
84D
  8
0
  6
CONTINUOUS
 62
     7
 10
-1782.2900089742
 20
369.1180708059
 30
0.0
  0
VERTEX
  5
84E
  8
0
  6
CONTINUOUS
 62
     7
 10
-1779.4161569613
 20
368.6382081252
 30
0.0
  0
VERTEX
  5
84F
  8
0
  6
CONTINUOUS
 62
     7
 10
-1776.4641646913
 20
368.3579314705
 30
0.0
  0
VERTEX
  5
850
  8
0
  6
CONTINUOUS
 62
     7
 10
-1773.475467126
 20
368.2811790194
 30
0.0
  0
VERTEX
  5
851
  8
0
  6
CONTINUOUS
 62
     7
 10
-1770.4920221117
 20
368.4090277925
 30
0.0
  0
VERTEX
  5
852
  8
0
  6
CONTINUOUS
 62
     7
 10
-1767.5557143963
 20
368.7396780666
 30
0.0
  0
VERTEX
  5
853
  8
0
  6
CONTINUOUS
 62
     7
 10
-1764.7077596462
 20
369.2684925323
 30
0.0
  0
VERTEX
  5
854
  8
0
  6
CONTINUOUS
 62
     7
 10
-1761.988131513
 20
369.9880487573
 30
0.0
  0
VERTEX
  5
855
  8
0
  6
CONTINUOUS
 62
     7
 10
-1759.4350163588
 20
370.8882441133
 30
0.0
  0
VERTEX
  5
856
  8
0
  6
CONTINUOUS
 62
     7
 10
-1757.0842508584
 20
371.95643948
 30
0.0
  0
VERTEX
  5
857
  8
0
  6
CONTINUOUS
 62
     7
 10
-1754.968832043
 20
373.177644768
 30
0.0
  0
VERTEX
  5
858
  8
0
  6
CONTINUOUS
 62
     7
 10
-1753.1184576357
 20
374.5347158468
 30
0.0
  0
VERTEX
  5
859
  8
0
  6
CONTINUOUS
 62
     7
 10
-1751.5591045833
 20
376.0085978529
 30
0.0
  0
VERTEX
  5
85A
  8
0
  6
CONTINUOUS
 62
     7
 10
-1750.3126668563
 20
377.5786027142
 30
0.0
  0
VERTEX
  5
85B
  8
0
  6
CONTINUOUS
 62
     7
 10
-1749.3966288115
 20
379.2226950374
 30
0.0
  0
VERTEX
  5
85C
  8
0
  6
CONTINUOUS
 62
     7
 10
-1748.823863677
 20
380.9177894004
 30
0.0
  0
VERTEX
  5
85D
  8
0
  6
CONTINUOUS
 62
     7
 10
-1748.6023991102
 20
382.6400955468
 30
0.0
  0
VERTEX
  5
85E
  8
0
  6
CONTINUOUS
 62
     7
 10
-1748.7353579293
 20
384.365430885
 30
0.0
  0
VERTEX
  5
85F
  8
0
  6
CONTINUOUS
 62
     7
 10
-1749.2208586725
 20
386.0695827901
 30
0.0
  0
VERTEX
  5
860
  8
0
  6
CONTINUOUS
 62
     7
 10
-1750.0520952825
 20
387.7286222435
 30
0.0
  0
VERTEX
  5
861
  8
0
  6
CONTINUOUS
 62
     7
 10
-1751.217399009
 20
389.3192619532
 30
0.0
  0
VERTEX
  5
862
  8
0
  6
CONTINUOUS
 62
     7
 10
-1752.7004132528
 20
390.8191701836
 30
0.0
  0
VERTEX
  5
863
  8
0
  6
CONTINUOUS
 62
     7
 10
-1754.4803113793
 20
392.2072972262
 30
0.0
  0
VERTEX
  5
864
  8
0
  6
CONTINUOUS
 62
     7
 10
-1756.5321115025
 20
393.464154444
 30
0.0
  0
VERTEX
  5
865
  8
0
  6
CONTINUOUS
 62
     7
 10
-1758.8270103673
 20
394.5720982586
 30
0.0
  0
VERTEX
  5
866
  8
0
  6
CONTINUOUS
 62
     7
 10
-1761.3327957632
 20
395.5155743138
 30
0.0
  0
VERTEX
  5
867
  8
0
  6
CONTINUOUS
 62
     7
 10
-1764.0142912058
 20
396.281337689
 30
0.0
  0
VERTEX
  5
868
  8
0
  6
CONTINUOUS
 62
     7
 10
-1766.8338567607
 20
396.858638612
 30
0.0
  0
VERTEX
  5
869
  8
0
  6
CONTINUOUS
 62
     7
 10
-1769.7519017199
 20
397.2393785188
 30
0.0
  0
VERTEX
  5
86A
  8
0
  6
CONTINUOUS
 62
     7
 10
-1772.7274725175
 20
397.4182061414
 30
0.0
  0
VERTEX
  5
86B
  8
0
  6
CONTINUOUS
 62
     7
 10
-1775.7187976754
 20
397.3926131204
 30
0.0
  0
VERTEX
  5
86C
  8
0
  6
CONTINUOUS
 62
     7
 10
-1778.6838824688
 20
397.1629609971
 30
0.0
  0
VERTEX
  5
86D
  8
0
  6
CONTINUOUS
 62
     7
 10
-1781.5811029335
 20
396.7324713293
 30
0.0
  0
VERTEX
  5
86E
  8
0
  6
CONTINUOUS
 62
     7
 10
-1784.3697926292
 20
396.1071872936
 30
0.0
  0
VERTEX
  5
86F
  8
0
  6
CONTINUOUS
 62
     7
 10
-1787.0107997677
 20
395.2958877678
 30
0.0
  0
VERTEX
  5
870
  8
0
  6
CONTINUOUS
 62
     7
 10
-1789.4670561957
 20
394.3099595932
 30
0.0
  0
VERTEX
  5
871
  8
0
  6
CONTINUOUS
 62
     7
 10
-1791.7040752545
 20
393.1632470278
 30
0.0
  0
SEQEND
  5
872
  8
0
  6
CONTINUOUS
 62
     7
  0
LINE
  5
486
  8
0
  6
CONTINUOUS
 62
     7
 10
-1736.9232215795
 20
380.9799091216
 30
0.0
 11
-1731.4232251191
 21
380.9799083613
 31
0.0
  0
POLYLINE
  5
487
  8
0
  6
CONTINUOUS
 62
     7
 66
     1
 10
0.0
 20
0.0
 30
0.0
  0
VERTEX
  5
873
  8
0
  6
CONTINUOUS
 62
     7
 10
-1731.4232251191
 20
380.9799083613
 30
0.0
  0
VERTEX
  5
874
  8
0
  6
CONTINUOUS
 62
     7
 10
-1730.3116599416
 20
381.0930559739
 30
0.0
  0
VERTEX
  5
875
  8
0
  6
CONTINUOUS
 62
     7
 10
-1729.334161255
 20
381.4188537625
 30
0.0
  0
VERTEX
  5
876
  8
0
  6
CONTINUOUS
 62
     7
 10
-1728.6086375022
 20
381.9180028299
 30
0.0
  0
VERTEX
  5
877
  8
0
  6
CONTINUOUS
 62
     7
 10
-1728.2225987116
 20
382.5302979892
 30
0.0
  0
VERTEX
  5
878
  8
0
  6
CONTINUOUS
 62
     7
 10
-1728.2225987116
 20
383.1818905251
 30
0.0
  0
VERTEX
  5
879
  8
0
  6
CONTINUOUS
 62
     7
 10
-1728.6086388193
 20
383.7941864448
 30
0.0
  0
VERTEX
  5
87A
  8
0
  6
CONTINUOUS
 62
     7
 10
-1729.3341625721
 20
384.2933355122
 30
0.0
  0
VERTEX
  5
87B
  8
0
  6
CONTINUOUS
 62
     7
 10
-1730.3116573074
 20
384.6191310198
 30
0.0
  0
VERTEX
  5
87C
  8
0
  6
CONTINUOUS
 62
     7
 10
-1731.423222485
 20
384.7322786324
 30
0.0
  0
SEQEND
  5
87D
  8
0
  6
CONTINUOUS
 62
     7
  0
LINE
  5
488
  8
0
  6
CONTINUOUS
 62
     7
 10
-1731.423222485
 20
384.7322786324
 30
0.0
 11
-1736.9232202624
 21
384.7322801531
 31
0.0
  0
POLYLINE
  5
489
  8
0
  6
CONTINUOUS
 62
     7
 66
     1
 10
0.0
 20
0.0
 30
0.0
  0
VERTEX
  5
87E
  8
0
  6
CONTINUOUS
 62
     7
 10
-1736.9232202624
 20
384.7322801531
 30
0.0
  0
VERTEX
  5
87F
  8
0
  6
CONTINUOUS
 62
     7
 10
-1738.03478544
 20
384.6191325405
 30
0.0
  0
VERTEX
  5
880
  8
0
  6
CONTINUOUS
 62
     7
 10
-1739.0122828095
 20
384.2933339915
 30
0.0
  0
VERTEX
  5
881
  8
0
  6
CONTINUOUS
 62
     7
 10
-1739.7378065623
 20
383.7941849241
 30
0.0
  0
VERTEX
  5
882
  8
0
  6
CONTINUOUS
 62
     7
 10
-1740.12384667
 20
383.1818905251
 30
0.0
  0
VERTEX
  5
883
  8
0
  6
CONTINUOUS
 62
     7
 10
-1740.12384667
 20
382.5302979892
 30
0.0
  0
VERTEX
  5
884
  8
0
  6
CONTINUOUS
 62
     7
 10
-1739.7378052452
 20
381.9180013092
 30
0.0
  0
VERTEX
  5
885
  8
0
  6
CONTINUOUS
 62
     7
 10
-1739.0122788582
 20
381.4188537625
 30
0.0
  0
VERTEX
  5
886
  8
0
  6
CONTINUOUS
 62
     7
 10
-1738.0347867571
 20
381.0930567342
 30
0.0
  0
VERTEX
  5
887
  8
0
  6
CONTINUOUS
 62
     7
 10
-1736.9232215795
 20
380.9799091216
 30
0.0
  0
SEQEND
  5
888
  8
0
  6
CONTINUOUS
 62
     7
  0
LINE
  5
48A
  8
0
  6
CONTINUOUS
 62
     7
 10
-1777.0996298484
 20
407.3483355437
 30
0.0
 11
-1777.0996285314
 21
404.1732551706
 31
0.0
  0
POLYLINE
  5
48B
  8
0
  6
CONTINUOUS
 62
     7
 66
     1
 10
0.0
 20
0.0
 30
0.0
  0
VERTEX
  5
889
  8
0
  6
CONTINUOUS
 62
     7
 10
-1777.0996285314
 20
404.1732551706
 30
0.0
  0
VERTEX
  5
88A
  8
0
  6
CONTINUOUS
 62
     7
 10
-1776.9036298807
 20
403.5315622525
 30
0.0
  0
VERTEX
  5
88B
  8
0
  6
CONTINUOUS
 62
     7
 10
-1776.3392717254
 20
402.9672680738
 30
0.0
  0
VERTEX
  5
88C
  8
0
  6
CONTINUOUS
 62
     7
 10
-1775.4746291281
 20
402.5484306058
 30
0.0
  0
VERTEX
  5
88D
  8
0
  6
CONTINUOUS
 62
     7
 10
-1774.4139852461
 20
402.3255736349
 30
0.0
  0
VERTEX
  5
88E
  8
0
  6
CONTINUOUS
 62
     7
 10
-1773.2852715696
 20
402.3255736349
 30
0.0
  0
VERTEX
  5
88F
  8
0
  6
CONTINUOUS
 62
     7
 10
-1772.2246316388
 20
402.5484298455
 30
0.0
  0
VERTEX
  5
890
  8
0
  6
CONTINUOUS
 62
     7
 10
-1771.3599864074
 20
402.9672657928
 30
0.0
  0
VERTEX
  5
891
  8
0
  6
CONTINUOUS
 62
     7
 10
-1770.7956256179
 20
403.5315630128
 30
0.0
  0
VERTEX
  5
892
  8
0
  6
CONTINUOUS
 62
     7
 10
-1770.5996269673
 20
404.173255931
 30
0.0
  0
SEQEND
  5
893
  8
0
  6
CONTINUOUS
 62
     7
  0
LINE
  5
48C
  8
0
  6
CONTINUOUS
 62
     7
 10
-1770.5996269673
 20
404.173255931
 30
0.0
 11
-1770.5996296014
 21
407.3483370644
 31
0.0
  0
POLYLINE
  5
48D
  8
0
  6
CONTINUOUS
 62
     7
 66
     1
 10
0.0
 20
0.0
 30
0.0
  0
VERTEX
  5
894
  8
0
  6
CONTINUOUS
 62
     7
 10
-1770.5996296014
 20
407.3483370644
 30
0.0
  0
VERTEX
  5
895
  8
0
  6
CONTINUOUS
 62
     7
 10
-1770.7956282521
 20
407.9900299826
 30
0.0
  0
VERTEX
  5
896
  8
0
  6
CONTINUOUS
 62
     7
 10
-1771.3599837733
 20
408.5543256819
 30
0.0
  0
VERTEX
  5
897
  8
0
  6
CONTINUOUS
 62
     7
 10
-1772.2246290046
 20
408.9731616293
 30
0.0
  0
VERTEX
  5
898
  8
0
  6
CONTINUOUS
 62
     7
 10
-1773.2852715696
 20
409.1960178398
 30
0.0
  0
VERTEX
  5
899
  8
0
  6
CONTINUOUS
 62
     7
 10
-1774.4139852461
 20
409.1960178398
 30
0.0
  0
VERTEX
  5
89A
  8
0
  6
CONTINUOUS
 62
     7
 10
-1775.474626494
 20
408.9731623896
 30
0.0
  0
VERTEX
  5
89B
  8
0
  6
CONTINUOUS
 62
     7
 10
-1776.3392717254
 20
408.5543264423
 30
0.0
  0
VERTEX
  5
89C
  8
0
  6
CONTINUOUS
 62
     7
 10
-1776.9036311978
 20
407.9900284619
 30
0.0
  0
VERTEX
  5
89D
  8
0
  6
CONTINUOUS
 62
     7
 10
-1777.0996298484
 20
407.3483355437
 30
0.0
  0
SEQEND
  5
89E
  8
0
  6
CONTINUOUS
 62
     7
  0
LINE
  5
48E
  8
0
  6
CONTINUOUS
 62
     7
 10
-1770.5996322356
 20
358.3638499293
 30
0.0
 11
-1770.5996282844
 21
361.5389333437
 31
0.0
  0
POLYLINE
  5
48F
  8
0
  6
CONTINUOUS
 62
     7
 66
     1
 10
0.0
 20
0.0
 30
0.0
  0
VERTEX
  5
89F
  8
0
  6
CONTINUOUS
 62
     7
 10
-1770.5996282844
 20
361.5389333437
 30
0.0
  0
VERTEX
  5
8A0
  8
0
  6
CONTINUOUS
 62
     7
 10
-1770.795626935
 20
362.1806262619
 30
0.0
  0
VERTEX
  5
8A1
  8
0
  6
CONTINUOUS
 62
     7
 10
-1771.3599850904
 20
362.7449204406
 30
0.0
  0
VERTEX
  5
8A2
  8
0
  6
CONTINUOUS
 62
     7
 10
-1772.2246276876
 20
363.1637579085
 30
0.0
  0
VERTEX
  5
8A3
  8
0
  6
CONTINUOUS
 62
     7
 10
-1773.2852715696
 20
363.3866148794
 30
0.0
  0
VERTEX
  5
8A4
  8
0
  6
CONTINUOUS
 62
     7
 10
-1774.4139852461
 20
363.3866148794
 30
0.0
  0
VERTEX
  5
8A5
  8
0
  6
CONTINUOUS
 62
     7
 10
-1775.4746304452
 20
363.1637556275
 30
0.0
  0
VERTEX
  5
8A6
  8
0
  6
CONTINUOUS
 62
     7
 10
-1776.3392756766
 20
362.7449196802
 30
0.0
  0
VERTEX
  5
8A7
  8
0
  6
CONTINUOUS
 62
     7
 10
-1776.9036311978
 20
362.1806255015
 30
0.0
  0
VERTEX
  5
8A8
  8
0
  6
CONTINUOUS
 62
     7
 10
-1777.0996298484
 20
361.5389325834
 30
0.0
  0
SEQEND
  5
8A9
  8
0
  6
CONTINUOUS
 62
     7
  0
LINE
  5
490
  8
0
  6
CONTINUOUS
 62
     7
 10
-1777.0996298484
 20
361.5389325834
 30
0.0
 11
-1777.0996324826
 21
358.3638484086
 31
0.0
  0
POLYLINE
  5
491
  8
0
  6
CONTINUOUS
 62
     7
 66
     1
 10
0.0
 20
0.0
 30
0.0
  0
VERTEX
  5
8AA
  8
0
  6
CONTINUOUS
 62
     7
 10
-1777.0996324826
 20
358.3638484086
 30
0.0
  0
VERTEX
  5
8AB
  8
0
  6
CONTINUOUS
 62
     7
 10
-1776.9036285636
 20
357.7221585317
 30
0.0
  0
VERTEX
  5
8AC
  8
0
  6
CONTINUOUS
 62
     7
 10
-1776.3392756766
 20
357.1578613117
 30
0.0
  0
VERTEX
  5
8AD
  8
0
  6
CONTINUOUS
 62
     7
 10
-1775.4746278111
 20
356.7390268851
 30
0.0
  0
VERTEX
  5
8AE
  8
0
  6
CONTINUOUS
 62
     7
 10
-1774.4139852461
 20
356.5161706746
 30
0.0
  0
VERTEX
  5
8AF
  8
0
  6
CONTINUOUS
 62
     7
 10
-1773.2852715696
 20
356.5161706746
 30
0.0
  0
VERTEX
  5
8B0
  8
0
  6
CONTINUOUS
 62
     7
 10
-1772.2246250534
 20
356.7390291661
 30
0.0
  0
VERTEX
  5
8B1
  8
0
  6
CONTINUOUS
 62
     7
 10
-1771.3599850904
 20
357.1578620721
 30
0.0
  0
VERTEX
  5
8B2
  8
0
  6
CONTINUOUS
 62
     7
 10
-1770.7956308863
 20
357.7221570111
 30
0.0
  0
VERTEX
  5
8B3
  8
0
  6
CONTINUOUS
 62
     7
 10
-1770.5996322356
 20
358.3638499293
 30
0.0
  0
SEQEND
  5
8B4
  8
0
  6
CONTINUOUS
 62
     7
  0
LINE
  5
492
  8
0
  6
CONTINUOUS
 62
     7
 10
-1810.7760352362
 20
384.7322793927
 30
0.0
 11
-1816.2760369649
 21
384.7322771117
 31
0.0
  0
POLYLINE
  5
493
  8
0
  6
CONTINUOUS
 62
     7
 66
     1
 10
0.0
 20
0.0
 30
0.0
  0
VERTEX
  5
8B5
  8
0
  6
CONTINUOUS
 62
     7
 10
-1816.2760369649
 20
384.7322771117
 30
0.0
  0
VERTEX
  5
8B6
  8
0
  6
CONTINUOUS
 62
     7
 10
-1817.3876021425
 20
384.6191294991
 30
0.0
  0
VERTEX
  5
8B7
  8
0
  6
CONTINUOUS
 62
     7
 10
-1818.3650955607
 20
384.2933347518
 30
0.0
  0
VERTEX
  5
8B8
  8
0
  6
CONTINUOUS
 62
     7
 10
-1819.0906140452
 20
383.7941887258
 30
0.0
  0
VERTEX
  5
8B9
  8
0
  6
CONTINUOUS
 62
     7
 10
-1819.4766581041
 20
383.1818905251
 30
0.0
  0
VERTEX
  5
8BA
  8
0
  6
CONTINUOUS
 62
     7
 10
-1819.4766581041
 20
382.5302979892
 30
0.0
  0
VERTEX
  5
8BB
  8
0
  6
CONTINUOUS
 62
     7
 10
-1819.0906179965
 20
381.9180020696
 30
0.0
  0
VERTEX
  5
8BC
  8
0
  6
CONTINUOUS
 62
     7
 10
-1818.3650968778
 20
381.4188514815
 30
0.0
  0
VERTEX
  5
8BD
  8
0
  6
CONTINUOUS
 62
     7
 10
-1817.3875995083
 20
381.0930574945
 30
0.0
  0
VERTEX
  5
8BE
  8
0
  6
CONTINUOUS
 62
     7
 10
-1816.2760395991
 20
380.9799068406
 30
0.0
  0
SEQEND
  5
8BF
  8
0
  6
CONTINUOUS
 62
     7
  0
LINE
  5
494
  8
0
  6
CONTINUOUS
 62
     7
 10
-1816.2760395991
 20
380.9799068406
 30
0.0
 11
-1810.7760365533
 21
380.9799083613
 31
0.0
  0
POLYLINE
  5
495
  8
0
  6
CONTINUOUS
 62
     7
 66
     1
 10
0.0
 20
0.0
 30
0.0
  0
VERTEX
  5
8C0
  8
0
  6
CONTINUOUS
 62
     7
 10
-1810.7760365533
 20
380.9799083613
 30
0.0
  0
VERTEX
  5
8C1
  8
0
  6
CONTINUOUS
 62
     7
 10
-1809.6644713757
 20
381.0930559739
 30
0.0
  0
VERTEX
  5
8C2
  8
0
  6
CONTINUOUS
 62
     7
 10
-1808.6869792746
 20
381.4188514815
 30
0.0
  0
VERTEX
  5
8C3
  8
0
  6
CONTINUOUS
 62
     7
 10
-1807.9614555218
 20
381.9180005489
 30
0.0
  0
VERTEX
  5
8C4
  8
0
  6
CONTINUOUS
 62
     7
 10
-1807.5754101457
 20
382.5302979892
 30
0.0
  0
VERTEX
  5
8C5
  8
0
  6
CONTINUOUS
 62
     7
 10
-1807.5754101457
 20
383.1818905251
 30
0.0
  0
VERTEX
  5
8C6
  8
0
  6
CONTINUOUS
 62
     7
 10
-1807.9614515705
 20
383.7941872051
 30
0.0
  0
VERTEX
  5
8C7
  8
0
  6
CONTINUOUS
 62
     7
 10
-1808.6869779575
 20
384.2933347518
 30
0.0
  0
VERTEX
  5
8C8
  8
0
  6
CONTINUOUS
 62
     7
 10
-1809.6644700586
 20
384.6191317801
 30
0.0
  0
VERTEX
  5
8C9
  8
0
  6
CONTINUOUS
 62
     7
 10
-1810.7760352362
 20
384.7322793927
 30
0.0
  0
SEQEND
  5
8CA
  8
0
  6
CONTINUOUS
 62
     7
  0
LINE
  5
496
  8
0
  6
CONTINUOUS
 62
     7
 10
-1568.4351041083
 20
338.1569671365
 30
0.0
 11
-1678.0246484639
 21
274.892269807
 31
0.0
  0
LINE
  5
497
  8
0
  6
CONTINUOUS
 62
     7
 10
-1678.0245747069
 20
274.8934681947
 30
0.0
 11
-1568.4356098705
 21
338.1578309749
 31
0.0
  0
LINE
  5
498
  8
0
  6
CONTINUOUS
 62
     7
 10
-1714.4518746039
 20
253.8666542949
 30
0.0
 11
-1713.9358812743
 21
254.1668057038
 31
0.0
  0
LINE
  5
499
  8
0
  6
CONTINUOUS
 62
     7
 10
-1714.4510948872
 20
253.8608261805
 30
0.0
 11
-1713.9268934589
 21
254.1635274312
 31
0.0
  0
LINE
  5
49A
  8
0
  6
CONTINUOUS
 62
     7
 10
-1979.5350367589
 20
420.6198403601
 30
0.0
 11
-1977.0411234388
 21
416.3107319295
 31
0.0
  0
LINE
  5
49B
  8
0
  6
CONTINUOUS
 62
     7
 10
-1716.5733151503
 20
252.4780159098
 30
0.0
 11
-1716.6343753971
 21
252.4426589673
 31
0.0
  0
POLYLINE
  5
49C
  8
0
  6
CONTINUOUS
 62
     7
 66
     1
 10
0.0
 20
0.0
 30
0.0
  0
VERTEX
  5
8CB
  8
0
  6
CONTINUOUS
 62
     7
 10
-1716.0719046303
 20
251.6590489779
 30
0.0
  0
VERTEX
  5
8CC
  8
0
  6
CONTINUOUS
 62
     7
 10
-1715.9340844356
 20
251.6718437503
 30
0.0
  0
VERTEX
  5
8CD
  8
0
  6
CONTINUOUS
 62
     7
 10
-1715.619658409
 20
251.6615752309
 30
0.0
  0
SEQEND
  5
8CE
  8
0
  6
CONTINUOUS
 62
     7
  0
LINE
  5
49D
  8
0
  6
CONTINUOUS
 62
     7
 10
-1714.7121419302
 20
253.6644710627
 30
0.0
 11
-1714.4518746039
 21
253.8666542949
 31
0.0
  0
LINE
  5
49E
  8
0
  6
CONTINUOUS
 62
     7
 10
-1714.4510948872
 20
253.8608261805
 30
0.0
 11
-1714.7534247683
 21
253.7367293594
 31
0.0
  0
POLYLINE
  5
49F
  8
0
  6
CONTINUOUS
 62
     7
 66
     1
 10
0.0
 20
0.0
 30
0.0
  0
VERTEX
  5
8CF
  8
0
  6
CONTINUOUS
 62
     7
 10
-1715.0772073953
 20
253.603846271
 30
0.0
  0
VERTEX
  5
8D0
  8
0
  6
CONTINUOUS
 62
     7
 10
-1715.0783242868
 20
253.6033838364
 30
0.0
  0
VERTEX
  5
8D1
  8
0
  6
CONTINUOUS
 62
     7
 10
-1715.8799573454
 20
253.3372338289
 30
0.0
  0
SEQEND
  5
8D2
  8
0
  6
CONTINUOUS
 62
     7
  0
ARC
  5
4A0
  8
0
  6
CONTINUOUS
 62
     7
 10
-1717.7087002014
 20
254.1035969117
 30
0.0
 40
1.982829495409365
 50
304.9323264228
 51
337.2631224916
  0
LINE
  5
4A1
  8
0
  6
CONTINUOUS
 62
     7
 10
-1715.619658409
 20
251.6615752309
 30
0.0
 11
-1715.6730373927
 21
252.0919516082
 31
0.0
  0
LINE
  5
4A2
  8
0
  6
CONTINUOUS
 62
     7
 10
-1568.435111517
 20
338.1573478437
 30
0.0
 11
-1567.374451336
 21
338.7696539328
 31
0.0
  0
POLYLINE
  5
4A3
  8
0
  6
CONTINUOUS
 62
     7
 66
     1
 10
0.0
 20
0.0
 30
0.0
  0
VERTEX
  5
8D3
  8
0
  6
CONTINUOUS
 62
     7
 10
-1567.374451336
 20
338.7696539328
 30
0.0
  0
VERTEX
  5
8D4
  8
0
  6
CONTINUOUS
 62
     7
 10
-1567.0383155022
 20
338.750986548
 30
0.0
  0
VERTEX
  5
8D5
  8
0
  6
CONTINUOUS
 62
     7
 10
-1566.7768456865
 20
338.6956741811
 30
0.0
  0
VERTEX
  5
8D6
  8
0
  6
CONTINUOUS
 62
     7
 10
-1566.5979867782
 20
338.6053945228
 30
0.0
  0
VERTEX
  5
8D7
  8
0
  6
CONTINUOUS
 62
     7
 10
-1566.5071901188
 20
338.4829120259
 30
0.0
  0
VERTEX
  5
8D8
  8
0
  6
CONTINUOUS
 62
     7
 10
-1566.5071888017
 20
338.3319156737
 30
0.0
  0
VERTEX
  5
8D9
  8
0
  6
CONTINUOUS
 62
     7
 10
-1566.5979936106
 20
338.1570213625
 30
0.0
  0
VERTEX
  5
8DA
  8
0
  6
CONTINUOUS
 62
     7
 10
-1566.7768495246
 20
337.9635293807
 30
0.0
  0
VERTEX
  5
8DB
  8
0
  6
CONTINUOUS
 62
     7
 10
-1567.0383154018
 20
337.7573176092
 30
0.0
  0
VERTEX
  5
8DC
  8
0
  6
CONTINUOUS
 62
     7
 10
-1567.3744470554
 20
337.5446628532
 30
0.0
  0
SEQEND
  5
8DD
  8
0
  6
CONTINUOUS
 62
     7
  0
POLYLINE
  5
4A4
  8
0
  6
CONTINUOUS
 62
     7
 66
     1
 10
0.0
 20
0.0
 30
0.0
  0
VERTEX
  5
8DE
  8
0
  6
CONTINUOUS
 62
     7
 10
-1568.435111517
 20
338.1573478437
 30
0.0
  0
VERTEX
  5
8DF
  8
0
  6
CONTINUOUS
 62
     7
 10
-1568.2670435499
 20
338.2543086413
 30
0.0
  0
VERTEX
  5
8E0
  8
0
  6
CONTINUOUS
 62
     7
 10
-1568.1363087179
 20
338.3297164287
 30
0.0
  0
VERTEX
  5
8E1
  8
0
  6
CONTINUOUS
 62
     7
 10
-1568.0468791969
 20
338.3812770994
 30
0.0
  0
VERTEX
  5
8E2
  8
0
  6
CONTINUOUS
 62
     7
 10
-1568.0014808672
 20
338.4074404138
 30
0.0
  0
VERTEX
  5
8E3
  8
0
  6
CONTINUOUS
 62
     7
 10
-1568.0014749403
 20
338.4073831989
 30
0.0
  0
VERTEX
  5
8E4
  8
0
  6
CONTINUOUS
 62
     7
 10
-1568.046882572
 20
338.3811411619
 30
0.0
  0
VERTEX
  5
8E5
  8
0
  6
CONTINUOUS
 62
     7
 10
-1568.1363053429
 20
338.3294844897
 30
0.0
  0
VERTEX
  5
8E6
  8
0
  6
CONTINUOUS
 62
     7
 10
-1568.2670435499
 20
338.2539955738
 30
0.0
  0
VERTEX
  5
8E7
  8
0
  6
CONTINUOUS
 62
     7
 10
-1568.4351041083
 20
338.1569671365
 30
0.0
  0
SEQEND
  5
8E8
  8
0
  6
CONTINUOUS
 62
     7
  0
ARC
  5
4A5
  8
0
  6
CONTINUOUS
 62
     7
 10
-1568.2826634468
 20
96.572691544
 30
0.0
 40
1.787432018474327
 50
300.5381799464
 51
1.4004780268
  0
POLYLINE
  5
4A6
  8
0
  6
CONTINUOUS
 62
     7
 66
     1
 10
0.0
 20
0.0
 30
0.0
  0
VERTEX
  5
8E9
  8
0
  6
CONTINUOUS
 62
     7
 10
-1568.4356098705
 20
339.3826507586
 30
0.0
  0
VERTEX
  5
8EA
  8
0
  6
CONTINUOUS
 62
     7
 10
-1568.0833570474
 20
339.56738283
 30
0.0
  0
VERTEX
  5
8EB
  8
0
  6
CONTINUOUS
 62
     7
 10
-1567.7740123502
 20
339.6906660531
 30
0.0
  0
VERTEX
  5
8EC
  8
0
  6
CONTINUOUS
 62
     7
 10
-1567.516984569
 20
339.7487603894
 30
0.0
  0
VERTEX
  5
8ED
  8
0
  6
CONTINUOUS
 62
     7
 10
-1567.3200856057
 20
339.7398942353
 30
0.0
  0
VERTEX
  5
8EE
  8
0
  6
CONTINUOUS
 62
     7
 10
-1567.1892841784
 20
339.6643335891
 30
0.0
  0
VERTEX
  5
8EF
  8
0
  6
CONTINUOUS
 62
     7
 10
-1567.1285734541
 20
339.5243854332
 30
0.0
  0
VERTEX
  5
8F0
  8
0
  6
CONTINUOUS
 62
     7
 10
-1567.1397827357
 20
339.3242995885
 30
0.0
  0
VERTEX
  5
8F1
  8
0
  6
CONTINUOUS
 62
     7
 10
-1567.2225815238
 20
339.0701446587
 30
0.0
  0
VERTEX
  5
8F2
  8
0
  6
CONTINUOUS
 62
     7
 10
-1567.374451336
 20
338.7696539328
 30
0.0
  0
SEQEND
  5
8F3
  8
0
  6
CONTINUOUS
 62
     7
  0
POLYLINE
  5
4A7
  8
0
  6
CONTINUOUS
 62
     7
 66
     1
 10
0.0
 20
0.0
 30
0.0
  0
VERTEX
  5
8F4
  8
0
  6
CONTINUOUS
 62
     7
 10
-1847.3456691154
 20
501.4083815603
 30
0.0
  0
VERTEX
  5
8F5
  8
0
  6
CONTINUOUS
 62
     7
 10
-1847.3454840232
 20
501.4082694103
 30
0.0
  0
VERTEX
  5
8F6
  8
0
  6
CONTINUOUS
 62
     7
 10
-1847.7987874553
 20
501.6034564385
 30
0.0
  0
VERTEX
  5
8F7
  8
0
  6
CONTINUOUS
 62
     7
 10
-1848.263506098
 20
501.6746688276
 30
0.0
  0
VERTEX
  5
8F8
  8
0
  6
CONTINUOUS
 62
     7
 10
-1848.7217843399
 20
501.6191594817
 30
0.0
  0
VERTEX
  5
8F9
  8
0
  6
CONTINUOUS
 62
     7
 10
-1849.1560009296
 20
501.4390830489
 30
0.0
  0
SEQEND
  5
8FA
  8
0
  6
CONTINUOUS
 62
     7
  0
POLYLINE
  5
4A8
  8
0
  6
CONTINUOUS
 62
     7
 66
     1
 10
0.0
 20
0.0
 30
0.0
  0
VERTEX
  5
8FB
  8
0
  6
CONTINUOUS
 62
     7
 10
-1568.4356098705
 20
338.1578309749
 30
0.0
  0
VERTEX
  5
8FC
  8
0
  6
CONTINUOUS
 62
     7
 10
-1568.2490527725
 20
338.2655121055
 30
0.0
  0
VERTEX
  5
8FD
  8
0
  6
CONTINUOUS
 62
     7
 10
-1568.1104135131
 20
338.3455111891
 30
0.0
  0
VERTEX
  5
8FE
  8
0
  6
CONTINUOUS
 62
     7
 10
-1568.0250096747
 20
338.3947345528
 30
0.0
  0
VERTEX
  5
8FF
  8
0
  6
CONTINUOUS
 62
     7
 10
-1567.9961267358
 20
338.4113227385
 30
0.0
  0
VERTEX
  5
900
  8
0
  6
CONTINUOUS
 62
     7
 10
-1568.0248732737
 20
338.3946123943
 30
0.0
  0
VERTEX
  5
901
  8
0
  6
CONTINUOUS
 62
     7
 10
-1568.1101439215
 20
338.3452427939
 30
0.0
  0
VERTEX
  5
902
  8
0
  6
CONTINUOUS
 62
     7
 10
-1568.2486667008
 20
338.2651284658
 30
0.0
  0
VERTEX
  5
903
  8
0
  6
CONTINUOUS
 62
     7
 10
-1568.435111517
 20
338.1573478437
 30
0.0
  0
SEQEND
  5
904
  8
0
  6
CONTINUOUS
 62
     7
  0
POLYLINE
  5
4A9
  8
0
  6
CONTINUOUS
 62
     7
 66
     1
 10
0.0
 20
0.0
 30
0.0
  0
VERTEX
  5
905
  8
0
  6
CONTINUOUS
 62
     7
 10
-1770.5996282844
 20
360.31411356
 30
0.0
  0
VERTEX
  5
906
  8
0
  6
CONTINUOUS
 62
     7
 10
-1770.795626935
 20
360.9558064782
 30
0.0
  0
VERTEX
  5
907
  8
0
  6
CONTINUOUS
 62
     7
 10
-1771.3599850904
 20
361.5201006569
 30
0.0
  0
VERTEX
  5
908
  8
0
  6
CONTINUOUS
 62
     7
 10
-1772.2246276876
 20
361.9389381249
 30
0.0
  0
VERTEX
  5
909
  8
0
  6
CONTINUOUS
 62
     7
 10
-1773.2852715696
 20
362.1617950957
 30
0.0
  0
VERTEX
  5
90A
  8
0
  6
CONTINUOUS
 62
     7
 10
-1774.4139852461
 20
362.1617950957
 30
0.0
  0
VERTEX
  5
90B
  8
0
  6
CONTINUOUS
 62
     7
 10
-1775.4746304452
 20
361.9389358438
 30
0.0
  0
VERTEX
  5
90C
  8
0
  6
CONTINUOUS
 62
     7
 10
-1776.3392756766
 20
361.5200998965
 30
0.0
  0
VERTEX
  5
90D
  8
0
  6
CONTINUOUS
 62
     7
 10
-1776.9036311978
 20
360.9558057179
 30
0.0
  0
VERTEX
  5
90E
  8
0
  6
CONTINUOUS
 62
     7
 10
-1777.0996298484
 20
360.3141127997
 30
0.0
  0
SEQEND
  5
90F
  8
0
  6
CONTINUOUS
 62
     7
  0
POLYLINE
  5
4AA
  8
0
  6
CONTINUOUS
 62
     7
 66
     1
 10
0.0
 20
0.0
 30
0.0
  0
VERTEX
  5
910
  8
0
  6
CONTINUOUS
 62
     7
 10
-1791.7040752545
 20
391.9384272441
 30
0.0
  0
VERTEX
  5
911
  8
0
  6
CONTINUOUS
 62
     7
 10
-1793.6904601761
 20
390.6470205884
 30
0.0
  0
VERTEX
  5
912
  8
0
  6
CONTINUOUS
 62
     7
 10
-1795.3983176493
 20
389.2290569762
 30
0.0
  0
VERTEX
  5
913
  8
0
  6
CONTINUOUS
 62
     7
 10
-1796.8036871907
 20
387.7044329662
 30
0.0
  0
VERTEX
  5
914
  8
0
  6
CONTINUOUS
 62
     7
 10
-1797.8868282702
 20
386.0945566721
 30
0.0
  0
VERTEX
  5
915
  8
0
  6
CONTINUOUS
 62
     7
 10
-1798.6325390464
 20
384.4220268986
 30
0.0
  0
VERTEX
  5
916
  8
0
  6
CONTINUOUS
 62
     7
 10
-1799.0303512957
 20
382.7103198821
 30
0.0
  0
VERTEX
  5
917
  8
0
  6
CONTINUOUS
 62
     7
 10
-1799.0773358121
 20
382.2436791217
 30
0.0
  0
SEQEND
  5
918
  8
0
  6
CONTINUOUS
 62
     7
  0
POLYLINE
  5
4AB
  8
0
  6
CONTINUOUS
 62
     7
 66
     1
 10
0.0
 20
0.0
 30
0.0
  0
VERTEX
  5
919
  8
0
  6
CONTINUOUS
 62
     7
 10
-1748.6219223207
 20
382.243679882
 30
0.0
  0
VERTEX
  5
91A
  8
0
  6
CONTINUOUS
 62
     7
 10
-1748.7353579293
 20
383.1406111014
 30
0.0
  0
VERTEX
  5
91B
  8
0
  6
CONTINUOUS
 62
     7
 10
-1749.2208586725
 20
384.8447630064
 30
0.0
  0
VERTEX
  5
91C
  8
0
  6
CONTINUOUS
 62
     7
 10
-1750.0520952825
 20
386.5038024598
 30
0.0
  0
VERTEX
  5
91D
  8
0
  6
CONTINUOUS
 62
     7
 10
-1751.217399009
 20
388.0944421695
 30
0.0
  0
VERTEX
  5
91E
  8
0
  6
CONTINUOUS
 62
     7
 10
-1752.7004132528
 20
389.5943503999
 30
0.0
  0
VERTEX
  5
91F
  8
0
  6
CONTINUOUS
 62
     7
 10
-1754.4803113793
 20
390.9824774425
 30
0.0
  0
VERTEX
  5
920
  8
0
  6
CONTINUOUS
 62
     7
 10
-1756.5321115025
 20
392.2393346603
 30
0.0
  0
VERTEX
  5
921
  8
0
  6
CONTINUOUS
 62
     7
 10
-1758.8270103673
 20
393.347278475
 30
0.0
  0
VERTEX
  5
922
  8
0
  6
CONTINUOUS
 62
     7
 10
-1761.3327957632
 20
394.2907545302
 30
0.0
  0
VERTEX
  5
923
  8
0
  6
CONTINUOUS
 62
     7
 10
-1764.0142912058
 20
395.0565179053
 30
0.0
  0
VERTEX
  5
924
  8
0
  6
CONTINUOUS
 62
     7
 10
-1766.8338567607
 20
395.6338188283
 30
0.0
  0
VERTEX
  5
925
  8
0
  6
CONTINUOUS
 62
     7
 10
-1769.7519017199
 20
396.0145587351
 30
0.0
  0
VERTEX
  5
926
  8
0
  6
CONTINUOUS
 62
     7
 10
-1772.7274725175
 20
396.1933863577
 30
0.0
  0
VERTEX
  5
927
  8
0
  6
CONTINUOUS
 62
     7
 10
-1775.7187976754
 20
396.1677933367
 30
0.0
  0
VERTEX
  5
928
  8
0
  6
CONTINUOUS
 62
     7
 10
-1778.6838824688
 20
395.9381412135
 30
0.0
  0
VERTEX
  5
929
  8
0
  6
CONTINUOUS
 62
     7
 10
-1781.5811029335
 20
395.5076515456
 30
0.0
  0
VERTEX
  5
92A
  8
0
  6
CONTINUOUS
 62
     7
 10
-1784.3697926292
 20
394.88236751
 30
0.0
  0
VERTEX
  5
92B
  8
0
  6
CONTINUOUS
 62
     7
 10
-1787.0107997677
 20
394.0710679841
 30
0.0
  0
VERTEX
  5
92C
  8
0
  6
CONTINUOUS
 62
     7
 10
-1789.4670561957
 20
393.0851398095
 30
0.0
  0
VERTEX
  5
92D
  8
0
  6
CONTINUOUS
 62
     7
 10
-1791.7040752545
 20
391.9384272441
 30
0.0
  0
SEQEND
  5
92E
  8
0
  6
CONTINUOUS
 62
     7
  0
LINE
  5
4AC
  8
0
  6
CONTINUOUS
 62
     7
 10
-1568.4356098705
 20
94.420397459
 30
0.0
 11
-1680.3828594685
 21
29.7946258643
 31
0.0
  0
POLYLINE
  5
4AD
  8
0
  6
CONTINUOUS
 62
     7
 66
     1
 10
0.0
 20
0.0
 30
0.0
  0
VERTEX
  5
92F
  8
0
  6
CONTINUOUS
 62
     7
 10
-1770.5996296014
 20
406.1235172807
 30
0.0
  0
VERTEX
  5
930
  8
0
  6
CONTINUOUS
 62
     7
 10
-1770.7956282521
 20
406.7652101989
 30
0.0
  0
VERTEX
  5
931
  8
0
  6
CONTINUOUS
 62
     7
 10
-1771.3599837733
 20
407.3295058983
 30
0.0
  0
VERTEX
  5
932
  8
0
  6
CONTINUOUS
 62
     7
 10
-1772.2246290046
 20
407.7483418456
 30
0.0
  0
VERTEX
  5
933
  8
0
  6
CONTINUOUS
 62
     7
 10
-1773.2852715696
 20
407.9711980561
 30
0.0
  0
VERTEX
  5
934
  8
0
  6
CONTINUOUS
 62
     7
 10
-1774.4139852461
 20
407.9711980561
 30
0.0
  0
VERTEX
  5
935
  8
0
  6
CONTINUOUS
 62
     7
 10
-1775.474626494
 20
407.7483426059
 30
0.0
  0
VERTEX
  5
936
  8
0
  6
CONTINUOUS
 62
     7
 10
-1776.3392717254
 20
407.3295066586
 30
0.0
  0
VERTEX
  5
937
  8
0
  6
CONTINUOUS
 62
     7
 10
-1776.9036311978
 20
406.7652086782
 30
0.0
  0
VERTEX
  5
938
  8
0
  6
CONTINUOUS
 62
     7
 10
-1777.0996298484
 20
406.12351576
 30
0.0
  0
SEQEND
  5
939
  8
0
  6
CONTINUOUS
 62
     7
  0
LINE
  5
4AE
  8
0
  6
CONTINUOUS
 62
     7
 10
-1979.5028681768
 20
420.6205430045
 30
0.0
 11
-1977.0013368139
 21
416.2877635998
 31
0.0
  0
ENDSEC
  0
EOF
