  0
SECTION
  2
HEADER
  9
$ACADVER
  1
AC1009
  9
$DWGCODEPAGE
  3
ansi_1252
  9
$INSBASE
 10
0.0
 20
0.0
 30
0.0
  9
$EXTMIN
 10
0.0
 20
0.0
 30
0.0
  9
$EXTMAX
 10
297.0
 20
420.0
 30
0.0
  9
$LIMMIN
 10
0.0
 20
0.0
  9
$LIMMAX
 10
297.0
 20
420.0
  9
$ORTHOMODE
 70
     0
  9
$REGENMODE
 70
     1
  9
$FILLMODE
 70
     1
  9
$QTEXTMODE
 70
     0
  9
$MIRRTEXT
 70
     1
  9
$DRAGMODE
 70
     2
  9
$LTSCALE
 40
1.0
  9
$OSMODE
 70
    37
  9
$ATTMODE
 70
     1
  9
$TEXTSIZE
 40
4.2333333333
  9
$TRACEWID
 40
1.0
  9
$TEXTSTYLE
  7
STANDARD
  9
$CLAYER
  8
0
  9
$CELTYPE
  6
BYLAYER
  9
$CECOLOR
 62
   256
  9
$DIMSCALE
 40
1.0
  9
$DIMASZ
 40
3.5
  9
$DIMEXO
 40
1.0
  9
$DIMDLI
 40
3.75
  9
$DIMRND
 40
0.0
  9
$DIMDLE
 40
0.0
  9
$DIMEXE
 40
1.0
  9
$DIMTP
 40
0.0
  9
$DIMTM
 40
0.0
  9
$DIMTXT
 40
3.5277777778
  9
$DIMCEN
 40
2.5
  9
$DIMTSZ
 40
0.0
  9
$DIMTOL
 70
     0
  9
$DIMLIM
 70
     0
  9
$DIMTIH
 70
     1
  9
$DIMTOH
 70
     1
  9
$DIMSE1
 70
     0
  9
$DIMSE2
 70
     0
  9
$DIMTAD
 70
     1
  9
$DIMZIN
 70
     0
  9
$DIMBLK
  1

  9
$DIMASO
 70
     1
  9
$DIMSHO
 70
     1
  9
$DIMPOST
  1

  9
$DIMAPOST
  1

  9
$DIMALT
 70
     0
  9
$DIMALTD
 70
     3
  9
$DIMALTF
 40
0.0393700787
  9
$DIMLFAC
 40
1.0
  9
$DIMTOFL
 70
     1
  9
$DIMTVP
 40
0.0
  9
$DIMTIX
 70
     0
  9
$DIMSOXD
 70
     0
  9
$DIMSAH
 70
     0
  9
$DIMBLK1
  1

  9
$DIMBLK2
  1

  9
$DIMSTYLE
  2
ISO-25
  9
$DIMCLRD
 70
     0
  9
$DIMCLRE
 70
     0
  9
$DIMCLRT
 70
     0
  9
$DIMTFAC
 40
1.0
  9
$DIMGAP
 40
1.524
  9
$LUNITS
 70
     2
  9
$LUPREC
 70
     2
  9
$SKETCHINC
 40
1.0
  9
$FILLETRAD
 40
10.0
  9
$AUNITS
 70
     0
  9
$AUPREC
 70
     2
  9
$MENU
  1
.
  9
$ELEVATION
 40
0.0
  9
$PELEVATION
 40
0.0
  9
$THICKNESS
 40
0.0
  9
$LIMCHECK
 70
     0
  9
$CHAMFERA
 40
10.0
  9
$CHAMFERB
 40
10.0
  9
$SKPOLY
 70
     0
  9
$TDCREATE
 40
2455889.612676817
  9
$TDUPDATE
 40
2455889.612676829
  9
$TDINDWG
 40
0.0000000116
  9
$TDUSRTIMER
 40
0.0000000116
  9
$USRTIMER
 70
     1
  9
$ANGBASE
 50
0.0
  9
$ANGDIR
 70
     0
  9
$PDMODE
 70
     0
  9
$PDSIZE
 40
-1.0
  9
$PLINEWID
 40
0.0
  9
$COORDS
 70
     1
  9
$SPLFRAME
 70
     0
  9
$SPLINETYPE
 70
     6
  9
$SPLINESEGS
 70
     8
  9
$ATTDIA
 70
     0
  9
$ATTREQ
 70
     1
  9
$HANDLING
 70
     1
  9
$HANDSEED
  5
92E
  9
$SURFTAB1
 70
     6
  9
$SURFTAB2
 70
     6
  9
$SURFTYPE
 70
     6
  9
$SURFU
 70
     6
  9
$SURFV
 70
     6
  9
$UCSNAME
  2

  9
$UCSORG
 10
0.0
 20
0.0
 30
0.0
  9
$UCSXDIR
 10
1.0
 20
0.0
 30
0.0
  9
$UCSYDIR
 10
0.0
 20
1.0
 30
0.0
  9
$PUCSNAME
  2

  9
$PUCSORG
 10
0.0
 20
0.0
 30
0.0
  9
$PUCSXDIR
 10
1.0
 20
0.0
 30
0.0
  9
$PUCSYDIR
 10
0.0
 20
1.0
 30
0.0
  9
$USERI1
 70
     0
  9
$USERI2
 70
     0
  9
$USERI3
 70
     0
  9
$USERI4
 70
     0
  9
$USERI5
 70
     0
  9
$USERR1
 40
0.0
  9
$USERR2
 40
0.0
  9
$USERR3
 40
0.0
  9
$USERR4
 40
0.0
  9
$USERR5
 40
0.0
  9
$WORLDVIEW
 70
     1
  9
$SHADEDGE
 70
     3
  9
$SHADEDIF
 70
    70
  9
$TILEMODE
 70
     1
  9
$MAXACTVP
 70
    64
  9
$PLIMCHECK
 70
     0
  9
$PEXTMIN
 10
1.0000000000E+20
 20
1.0000000000E+20
 30
1.0000000000E+20
  9
$PEXTMAX
 10
-1.0000000000E+20
 20
-1.0000000000E+20
 30
-1.0000000000E+20
  9
$PLIMMIN
 10
0.0
 20
0.0
  9
$PLIMMAX
 10
420.0
 20
297.0
  9
$UNITMODE
 70
     0
  9
$VISRETAIN
 70
     1
  9
$PLINEGEN
 70
     0
  9
$PSLTSCALE
 70
     1
  0
ENDSEC
  0
SECTION
  2
TABLES
  0
TABLE
  2
VPORT
 70
     1
  0
VPORT
  2
*ACTIVE
 70
     0
 10
0.0
 20
0.0
 11
1.0
 21
1.0
 12
148.5
 22
210.0
 13
0.0
 23
0.0
 14
10.0
 24
10.0
 15
10.0
 25
10.0
 16
0.0
 26
0.0
 36
1.0
 17
0.0
 27
0.0
 37
0.0
 40
420.0
 41
0.7071428571
 42
50.0
 43
0.0
 44
0.0
 50
0.0
 51
0.0
 71
     0
 72
  2000
 73
     1
 74
     3
 75
     0
 76
     0
 77
     0
 78
     0
  0
ENDTAB
  0
TABLE
  2
LTYPE
 70
     6
  0
LTYPE
  2
CONTINUOUS
 70
     0
  3
Solid line
 72
    65
 73
     0
 40
0.0
  0
LTYPE
  2
HIDDEN
 70
     0
  3
Hidden __ __ __ __ __ __ __ __ __ __ __ __ __ __
 72
    65
 73
     2
 40
1.905
 49
1.27
 49
-0.635
  0
LTYPE
  2
PHANTOM
 70
     0
  3
Phantom ______  __  __  ______  __  __  ______
 72
    65
 73
     6
 40
12.7
 49
6.35
 49
-1.27
 49
1.27
 49
-1.27
 49
1.27
 49
-1.27
  0
LTYPE
  2
CENTER
 70
     0
  3
Center ____ _ ____ _ ____ _ ____ _ ____ _ ____
 72
    65
 73
     4
 40
10.16
 49
6.35
 49
-1.27
 49
1.27
 49
-1.27
  0
LTYPE
  2
CENTERX2
 70
     0
  3
Center (2x) ________  __  ________  __  _____
 72
    65
 73
     4
 40
20.32
 49
12.7
 49
-2.54
 49
2.54
 49
-2.54
  0
LTYPE
  2
DOT2
 70
     0
  3
Dot (.5x) ........................................
 72
    65
 73
     2
 40
0.635
 49
0.0
 49
-0.635
  0
ENDTAB
  0
TABLE
  2
LAYER
 70
     8
  0
LAYER
  2
0
 70
     0
 62
     7
  6
CONTINUOUS
  0
LAYER
  2
SLD-0
 70
     0
 62
     7
  6
CONTINUOUS
  0
LAYER
  2
AM_BOR
 70
     0
 62
     7
  6
CONTINUOUS
  0
LAYER
  2
BIEGLINIE__ZU_
 70
     0
 62
     8
  6
CONTINUOUS
  0
LAYER
  2
BIEGELINIE__WEG_
 70
     0
 62
     8
  6
HIDDEN
  0
LAYER
  2
BIEGELINIE__ZU_
 70
     0
 62
     8
  6
CONTINUOUS
  0
LAYER
  2
LAYER0
 70
     0
 62
     7
  6
CONTINUOUS
  0
LAYER
  2
CK_LEVEL_1
 70
     0
 62
     7
  6
CONTINUOUS
  0
ENDTAB
  0
TABLE
  2
STYLE
 70
     1
  0
STYLE
  2
STANDARD
 70
     0
 40
0.0
 41
1.0
 50
0.0
 71
     0
 42
2.5
  3
txt
  4

  0
ENDTAB
  0
TABLE
  2
VIEW
 70
     0
  0
ENDTAB
  0
TABLE
  2
UCS
 70
     0
  0
ENDTAB
  0
TABLE
  2
APPID
 70
     1
  0
APPID
  2
ACAD
 70
     0
  0
ENDTAB
  0
TABLE
  2
DIMSTYLE
 70
     1
  0
DIMSTYLE
  2
ISO-25
 70
     0
  3

  4

  5

  6

  7

 40
1.0
 41
2.5
 42
0.625
 43
3.75
 44
1.25
 45
0.0
 46
0.0
 47
0.0
 48
0.0
140
2.5
141
2.5
142
0.0
143
0.0393700787
144
1.0
145
0.0
146
1.0
147
0.625
 71
     0
 72
     0
 73
     0
 74
     0
 75
     0
 76
     0
 77
     1
 78
     8
170
     0
171
     3
172
     1
173
     0
174
     0
175
     0
176
     0
177
     0
178
     0
  0
ENDTAB
  0
ENDSEC
  0
SECTION
  2
BLOCKS
  0
BLOCK
  8
0
  2
$MODEL_SPACE
 70
     0
 10
0.0
 20
0.0
 30
0.0
  3
$MODEL_SPACE
  1

  0
ENDBLK
  5
21
  8
0
  0
BLOCK
 67
     1
  8
0
  2
$PAPER_SPACE
 70
     0
 10
0.0
 20
0.0
 30
0.0
  3
$PAPER_SPACE
  1

  0
ENDBLK
  5
1D
 67
     1
  8
0
  0
BLOCK
  8
0
  2
ERDUNG2
 70
     0
 10
0.0
 20
0.0
 30
0.0
  3
ERDUNG2
  1

  0
CIRCLE
  5
4E
  8
CK_LEVEL_1
  6
CONTINUOUS
 62
     7
 10
7.882894401
 20
8.75
 30
0.0
 40
9.354800019675764
  0
LINE
  5
4F
  8
CK_LEVEL_1
  6
CONTINUOUS
 62
     7
 10
8.7487451733
 20
3.8098753807
 30
0.0
 11
9.700327903
 21
3.8098753807
 31
0.0
  0
LINE
  5
50
  8
CK_LEVEL_1
  6
CONTINUOUS
 62
     7
 10
8.7487451733
 20
3.8098753807
 30
0.0
 11
6.6709551936
 21
3.8098753807
 31
0.0
  0
LINE
  5
51
  8
CK_LEVEL_1
  6
CONTINUOUS
 62
     7
 10
7.882894401
 20
8.75
 30
0.0
 11
12.815547
 21
8.75
 31
0.0
  0
LINE
  5
52
  8
CK_LEVEL_1
  6
CONTINUOUS
 62
     7
 10
11.24812514
 20
6.3492067038
 30
0.0
 11
4.4479159892
 21
6.3492067038
 31
0.0
  0
LINE
  5
53
  8
CK_LEVEL_1
  6
CONTINUOUS
 62
     7
 10
7.882894401
 20
8.75
 30
0.0
 11
2.6893228315
 21
8.75
 31
0.0
  0
LINE
  5
54
  8
CK_LEVEL_1
  6
CONTINUOUS
 62
     7
 10
7.882894401
 20
8.75
 30
0.0
 11
7.882894401
 21
15.2853511284
 31
0.0
  0
ENDBLK
  5
4D
  8
0
  0
ENDSEC
  0
SECTION
  2
ENTITIES
  0
LINE
  5
55
  8
0
  6
CONTINUOUS
 62
     7
 10
-1303.3418466293
 20
466.6126162861
 30
0.0
 11
-1303.3418466293
 21
66.6126103257
 31
0.0
  0
LINE
  5
56
  8
0
  6
CONTINUOUS
 62
     7
 10
-1313.3418370926
 20
66.6126103257
 30
0.0
 11
-1313.3418370926
 21
466.6126162861
 31
0.0
  0
LINE
  5
57
  8
0
  6
CONTINUOUS
 62
     7
 10
-1741.341840192
 20
66.6126103257
 30
0.0
 11
-1741.341840192
 21
466.6126162861
 31
0.0
  0
LINE
  5
58
  8
0
  6
CONTINUOUS
 62
     7
 10
-1731.3418497288
 20
466.6126162861
 30
0.0
 11
-1731.3418497288
 21
66.6126103257
 31
0.0
  0
ARC
  5
59
  8
0
  6
CONTINUOUS
 62
     7
 10
-1717.2918436302
 20
462.1126133059
 30
0.0
 40
2.0
 50
90.0
 51
180.0
  0
LINE
  5
5A
  8
0
  6
CONTINUOUS
 62
     7
 10
-1326.2918402397
 20
464.1126186703
 30
0.0
 11
-1717.2918428623
 21
464.1126186703
 31
0.0
  0
ARC
  5
5B
  8
0
  6
CONTINUOUS
 62
     7
 10
-1326.2918436302
 20
462.1126133059
 30
0.0
 40
2.000000000000227
 50
360.0
 51
90.0
  0
LINE
  5
5C
  8
0
  6
CONTINUOUS
 62
     7
 10
-1324.2918361866
 20
71.1126119946
 30
0.0
 11
-1324.2918361866
 21
462.1126146172
 31
0.0
  0
ARC
  5
5D
  8
0
  6
CONTINUOUS
 62
     7
 10
-1326.2918436302
 20
71.1126133059
 30
0.0
 40
2.000000000000227
 50
270.0
 51
0.0
  0
LINE
  5
5E
  8
0
  6
CONTINUOUS
 62
     7
 10
-1717.2918428623
 20
69.1126079415
 30
0.0
 11
-1326.2918402397
 21
69.1126079415
 31
0.0
  0
ARC
  5
5F
  8
0
  6
CONTINUOUS
 62
     7
 10
-1717.2918436302
 20
71.1126133059
 30
0.0
 40
2.0
 50
180.0
 51
270.0
  0
LINE
  5
60
  8
0
  6
CONTINUOUS
 62
     7
 10
-1719.2918469154
 20
462.1126146172
 30
0.0
 11
-1719.2918469154
 21
71.1126119946
 31
0.0
  0
POLYLINE
  5
61
  8
0
  6
CONTINUOUS
 62
     7
 66
     1
 10
0.0
 20
0.0
 30
0.0
  0
VERTEX
  5
4AF
  8
0
  6
CONTINUOUS
 62
     7
 10
-1716.2918408358
 20
464.2339886282
 30
0.0
  0
VERTEX
  5
4B0
  8
0
  6
CONTINUOUS
 62
     7
 10
-1716.3238336288
 20
464.629346237
 30
0.0
  0
VERTEX
  5
4B1
  8
0
  6
CONTINUOUS
 62
     7
 10
-1716.4198120081
 20
464.9075658177
 30
0.0
  0
VERTEX
  5
4B2
  8
0
  6
CONTINUOUS
 62
     7
 10
-1716.57742159
 20
465.0652946089
 30
0.0
  0
VERTEX
  5
4B3
  8
0
  6
CONTINUOUS
 62
     7
 10
-1716.7918492996
 20
465.1126206969
 30
0.0
  0
SEQEND
  5
4B4
  8
0
  6
CONTINUOUS
 62
     7
  0
LINE
  5
62
  8
0
  6
CONTINUOUS
 62
     7
 10
-1716.7918492996
 20
464.1126186703
 30
0.0
 11
-1716.7918492996
 21
465.1126206969
 31
0.0
  0
LINE
  5
63
  8
0
  6
CONTINUOUS
 62
     7
 10
-1326.7918487036
 20
465.1126206969
 30
0.0
 11
-1716.7918492996
 21
465.1126206969
 31
0.0
  0
POLYLINE
  5
64
  8
0
  6
CONTINUOUS
 62
     7
 66
     1
 10
0.0
 20
0.0
 30
0.0
  0
VERTEX
  5
4B5
  8
0
  6
CONTINUOUS
 62
     7
 10
-1327.2918422663
 20
464.2339886282
 30
0.0
  0
VERTEX
  5
4B6
  8
0
  6
CONTINUOUS
 62
     7
 10
-1327.2598494732
 20
464.629346237
 30
0.0
  0
VERTEX
  5
4B7
  8
0
  6
CONTINUOUS
 62
     7
 10
-1327.1638859951
 20
464.9075658177
 30
0.0
  0
VERTEX
  5
4B8
  8
0
  6
CONTINUOUS
 62
     7
 10
-1327.006261512
 20
465.0652946089
 30
0.0
  0
VERTEX
  5
4B9
  8
0
  6
CONTINUOUS
 62
     7
 10
-1326.7918487036
 20
465.1126206969
 30
0.0
  0
SEQEND
  5
4BA
  8
0
  6
CONTINUOUS
 62
     7
  0
LINE
  5
65
  8
0
  6
CONTINUOUS
 62
     7
 10
-1326.7918487036
 20
464.1126186703
 30
0.0
 11
-1326.7918487036
 21
465.1126206969
 31
0.0
  0
POLYLINE
  5
66
  8
0
  6
CONTINUOUS
 62
     7
 66
     1
 10
0.0
 20
0.0
 30
0.0
  0
VERTEX
  5
4BB
  8
0
  6
CONTINUOUS
 62
     7
 10
-1720.291848942
 20
71.6126204584
 30
0.0
  0
VERTEX
  5
4BC
  8
0
  6
CONTINUOUS
 62
     7
 10
-1720.2444483482
 20
71.8271822785
 30
0.0
  0
VERTEX
  5
4BD
  8
0
  6
CONTINUOUS
 62
     7
 10
-1720.0873603069
 20
71.9842703198
 30
0.0
  0
VERTEX
  5
4BE
  8
0
  6
CONTINUOUS
 62
     7
 10
-1719.8081423485
 20
72.0804573153
 30
0.0
  0
VERTEX
  5
4BF
  8
0
  6
CONTINUOUS
 62
     7
 10
-1719.4131572687
 20
72.1126140211
 30
0.0
  0
VERTEX
  5
4C0
  8
0
  6
CONTINUOUS
 62
     7
 10
-1719.4130976641
 20
72.1126140211
 30
0.0
  0
SEQEND
  5
4C1
  8
0
  6
CONTINUOUS
 62
     7
  0
LINE
  5
67
  8
0
  6
CONTINUOUS
 62
     7
 10
-1720.291848942
 20
461.6126061533
 30
0.0
 11
-1720.291848942
 21
71.6126204584
 31
0.0
  0
POLYLINE
  5
68
  8
0
  6
CONTINUOUS
 62
     7
 66
     1
 10
0.0
 20
0.0
 30
0.0
  0
VERTEX
  5
4C2
  8
0
  6
CONTINUOUS
 62
     7
 10
-1720.291848942
 20
461.6126061533
 30
0.0
  0
VERTEX
  5
4C3
  8
0
  6
CONTINUOUS
 62
     7
 10
-1720.2444483482
 20
461.3980443333
 30
0.0
  0
VERTEX
  5
4C4
  8
0
  6
CONTINUOUS
 62
     7
 10
-1720.0873603069
 20
461.240956292
 30
0.0
  0
VERTEX
  5
4C5
  8
0
  6
CONTINUOUS
 62
     7
 10
-1719.8081423485
 20
461.1447692965
 30
0.0
  0
VERTEX
  5
4C6
  8
0
  6
CONTINUOUS
 62
     7
 10
-1719.4131572687
 20
461.1126125906
 30
0.0
  0
VERTEX
  5
4C7
  8
0
  6
CONTINUOUS
 62
     7
 10
-1719.4130976641
 20
461.1126125906
 30
0.0
  0
SEQEND
  5
4C8
  8
0
  6
CONTINUOUS
 62
     7
  0
LINE
  5
69
  8
0
  6
CONTINUOUS
 62
     7
 10
-1720.291848942
 20
461.6126061533
 30
0.0
 11
-1719.2918469154
 21
461.6126061533
 31
0.0
  0
POLYLINE
  5
6A
  8
0
  6
CONTINUOUS
 62
     7
 66
     1
 10
0.0
 20
0.0
 30
0.0
  0
VERTEX
  5
4C9
  8
0
  6
CONTINUOUS
 62
     7
 10
-1323.2918490612
 20
461.6126061533
 30
0.0
  0
VERTEX
  5
4CA
  8
0
  6
CONTINUOUS
 62
     7
 10
-1323.339249655
 20
461.3980443333
 30
0.0
  0
VERTEX
  5
4CB
  8
0
  6
CONTINUOUS
 62
     7
 10
-1323.4963227951
 20
461.240956292
 30
0.0
  0
VERTEX
  5
4CC
  8
0
  6
CONTINUOUS
 62
     7
 10
-1323.7755407535
 20
461.1447692965
 30
0.0
  0
VERTEX
  5
4CD
  8
0
  6
CONTINUOUS
 62
     7
 10
-1324.1705258333
 20
461.1126125906
 30
0.0
  0
VERTEX
  5
4CE
  8
0
  6
CONTINUOUS
 62
     7
 10
-1324.170585438
 20
461.1126125906
 30
0.0
  0
SEQEND
  5
4CF
  8
0
  6
CONTINUOUS
 62
     7
  0
LINE
  5
6B
  8
0
  6
CONTINUOUS
 62
     7
 10
-1323.2918490612
 20
461.6126061533
 30
0.0
 11
-1324.2918361866
 21
461.6126061533
 31
0.0
  0
LINE
  5
6C
  8
0
  6
CONTINUOUS
 62
     7
 10
-1323.2918490612
 20
71.6126204584
 30
0.0
 11
-1323.2918490612
 21
461.6126061533
 31
0.0
  0
POLYLINE
  5
6D
  8
0
  6
CONTINUOUS
 62
     7
 66
     1
 10
0.0
 20
0.0
 30
0.0
  0
VERTEX
  5
4D0
  8
0
  6
CONTINUOUS
 62
     7
 10
-1323.2918490612
 20
71.6126204584
 30
0.0
  0
VERTEX
  5
4D1
  8
0
  6
CONTINUOUS
 62
     7
 10
-1323.339249655
 20
71.8271822785
 30
0.0
  0
VERTEX
  5
4D2
  8
0
  6
CONTINUOUS
 62
     7
 10
-1323.4963227951
 20
71.9842703198
 30
0.0
  0
VERTEX
  5
4D3
  8
0
  6
CONTINUOUS
 62
     7
 10
-1323.7755407535
 20
72.0804573153
 30
0.0
  0
VERTEX
  5
4D4
  8
0
  6
CONTINUOUS
 62
     7
 10
-1324.1705258333
 20
72.1126140211
 30
0.0
  0
VERTEX
  5
4D5
  8
0
  6
CONTINUOUS
 62
     7
 10
-1324.170585438
 20
72.1126140211
 30
0.0
  0
SEQEND
  5
4D6
  8
0
  6
CONTINUOUS
 62
     7
  0
LINE
  5
6E
  8
0
  6
CONTINUOUS
 62
     7
 10
-1720.291848942
 20
71.6126204584
 30
0.0
 11
-1719.2918469154
 21
71.6126204584
 31
0.0
  0
LINE
  5
6F
  8
0
  6
CONTINUOUS
 62
     7
 10
-1323.2918490612
 20
71.6126204584
 30
0.0
 11
-1324.2918361866
 21
71.6126204584
 31
0.0
  0
POLYLINE
  5
70
  8
0
  6
CONTINUOUS
 62
     7
 66
     1
 10
0.0
 20
0.0
 30
0.0
  0
VERTEX
  5
4D7
  8
0
  6
CONTINUOUS
 62
     7
 10
-1716.2918408358
 20
68.9912379835
 30
0.0
  0
VERTEX
  5
4D8
  8
0
  6
CONTINUOUS
 62
     7
 10
-1716.3238336288
 20
68.5958803747
 30
0.0
  0
VERTEX
  5
4D9
  8
0
  6
CONTINUOUS
 62
     7
 10
-1716.4198120081
 20
68.3176607941
 30
0.0
  0
VERTEX
  5
4DA
  8
0
  6
CONTINUOUS
 62
     7
 10
-1716.57742159
 20
68.1599320029
 30
0.0
  0
VERTEX
  5
4DB
  8
0
  6
CONTINUOUS
 62
     7
 10
-1716.7918492996
 20
68.1126059149
 30
0.0
  0
SEQEND
  5
4DC
  8
0
  6
CONTINUOUS
 62
     7
  0
LINE
  5
71
  8
0
  6
CONTINUOUS
 62
     7
 10
-1716.7918492996
 20
69.1126079415
 30
0.0
 11
-1716.7918492996
 21
68.1126059149
 31
0.0
  0
POLYLINE
  5
72
  8
0
  6
CONTINUOUS
 62
     7
 66
     1
 10
0.0
 20
0.0
 30
0.0
  0
VERTEX
  5
4DD
  8
0
  6
CONTINUOUS
 62
     7
 10
-1327.2918422663
 20
68.9912379835
 30
0.0
  0
VERTEX
  5
4DE
  8
0
  6
CONTINUOUS
 62
     7
 10
-1327.2598494732
 20
68.5958803747
 30
0.0
  0
VERTEX
  5
4DF
  8
0
  6
CONTINUOUS
 62
     7
 10
-1327.1638859951
 20
68.3176607941
 30
0.0
  0
VERTEX
  5
4E0
  8
0
  6
CONTINUOUS
 62
     7
 10
-1327.006261512
 20
68.1599320029
 30
0.0
  0
VERTEX
  5
4E1
  8
0
  6
CONTINUOUS
 62
     7
 10
-1326.7918487036
 20
68.1126059149
 30
0.0
  0
SEQEND
  5
4E2
  8
0
  6
CONTINUOUS
 62
     7
  0
LINE
  5
73
  8
0
  6
CONTINUOUS
 62
     7
 10
-1716.7918492996
 20
68.1126059149
 30
0.0
 11
-1326.7918487036
 21
68.1126059149
 31
0.0
  0
LINE
  5
74
  8
0
  6
CONTINUOUS
 62
     7
 10
-1326.7918487036
 20
69.1126079415
 30
0.0
 11
-1326.7918487036
 21
68.1126059149
 31
0.0
  0
LINE
  5
75
  8
0
  6
CONTINUOUS
 62
     7
 10
-1718.7918384516
 20
465.1126206969
 30
0.0
 11
-1718.7918384516
 21
463.6126102064
 31
0.0
  0
LINE
  5
76
  8
0
  6
CONTINUOUS
 62
     7
 10
-1716.7918492996
 20
465.1126206969
 30
0.0
 11
-1718.7918384516
 21
465.1126206969
 31
0.0
  0
LINE
  5
77
  8
0
  6
CONTINUOUS
 62
     7
 10
-1718.6147232496
 20
463.6126102064
 30
0.0
 11
-1718.7918384516
 21
463.6126102064
 31
0.0
  0
LINE
  5
78
  8
0
  6
CONTINUOUS
 62
     7
 10
-1324.7918446504
 20
463.6126102064
 30
0.0
 11
-1324.7918446504
 21
465.1126206969
 31
0.0
  0
LINE
  5
79
  8
0
  6
CONTINUOUS
 62
     7
 10
-1324.9689747536
 20
463.6126102064
 30
0.0
 11
-1324.7918446504
 21
463.6126102064
 31
0.0
  0
LINE
  5
7A
  8
0
  6
CONTINUOUS
 62
     7
 10
-1326.7918487036
 20
465.1126206969
 30
0.0
 11
-1324.7918446504
 21
465.1126206969
 31
0.0
  0
LINE
  5
7B
  8
0
  6
CONTINUOUS
 62
     7
 10
-1718.7918384516
 20
463.6126102064
 30
0.0
 11
-1720.291848942
 21
463.6126102064
 31
0.0
  0
LINE
  5
7C
  8
0
  6
CONTINUOUS
 62
     7
 10
-1718.7918384516
 20
463.6126102064
 30
0.0
 11
-1718.7918384516
 21
463.4354950045
 31
0.0
  0
LINE
  5
7D
  8
0
  6
CONTINUOUS
 62
     7
 10
-1720.291848942
 20
463.6126102064
 30
0.0
 11
-1720.291848942
 21
461.6126061533
 31
0.0
  0
LINE
  5
7E
  8
0
  6
CONTINUOUS
 62
     7
 10
-1324.7918446504
 20
463.6126102064
 30
0.0
 11
-1324.7918446504
 21
463.4354950045
 31
0.0
  0
LINE
  5
7F
  8
0
  6
CONTINUOUS
 62
     7
 10
-1323.2918490612
 20
463.6126102064
 30
0.0
 11
-1324.7918446504
 21
463.6126102064
 31
0.0
  0
LINE
  5
80
  8
0
  6
CONTINUOUS
 62
     7
 10
-1323.2918490612
 20
463.6126102064
 30
0.0
 11
-1323.2918490612
 21
461.6126061533
 31
0.0
  0
LINE
  5
81
  8
0
  6
CONTINUOUS
 62
     7
 10
-1720.291848942
 20
69.6126164053
 30
0.0
 11
-1718.7918384516
 21
69.6126164053
 31
0.0
  0
LINE
  5
82
  8
0
  6
CONTINUOUS
 62
     7
 10
-1718.7918384516
 20
69.6126164053
 30
0.0
 11
-1718.7918384516
 21
69.7897316073
 31
0.0
  0
LINE
  5
83
  8
0
  6
CONTINUOUS
 62
     7
 10
-1720.291848942
 20
69.6126164053
 30
0.0
 11
-1720.291848942
 21
71.6126204584
 31
0.0
  0
LINE
  5
84
  8
0
  6
CONTINUOUS
 62
     7
 10
-1324.7918446504
 20
69.6126164053
 30
0.0
 11
-1323.2918490612
 21
69.6126164053
 31
0.0
  0
LINE
  5
85
  8
0
  6
CONTINUOUS
 62
     7
 10
-1324.7918446504
 20
69.6126164053
 30
0.0
 11
-1324.7918446504
 21
69.7897316073
 31
0.0
  0
LINE
  5
86
  8
0
  6
CONTINUOUS
 62
     7
 10
-1323.2918490612
 20
69.6126164053
 30
0.0
 11
-1323.2918490612
 21
71.6126204584
 31
0.0
  0
LINE
  5
87
  8
0
  6
CONTINUOUS
 62
     7
 10
-1716.7918492996
 20
68.1126059149
 30
0.0
 11
-1718.7918384516
 21
68.1126059149
 31
0.0
  0
LINE
  5
88
  8
0
  6
CONTINUOUS
 62
     7
 10
-1718.7918384516
 20
69.6126164053
 30
0.0
 11
-1718.7918384516
 21
68.1126059149
 31
0.0
  0
LINE
  5
89
  8
0
  6
CONTINUOUS
 62
     7
 10
-1718.6147232496
 20
69.6126164053
 30
0.0
 11
-1718.7918384516
 21
69.6126164053
 31
0.0
  0
LINE
  5
8A
  8
0
  6
CONTINUOUS
 62
     7
 10
-1324.7918446504
 20
68.1126059149
 30
0.0
 11
-1324.7918446504
 21
69.6126164053
 31
0.0
  0
LINE
  5
8B
  8
0
  6
CONTINUOUS
 62
     7
 10
-1326.7918487036
 20
68.1126059149
 30
0.0
 11
-1324.7918446504
 21
68.1126059149
 31
0.0
  0
LINE
  5
8C
  8
0
  6
CONTINUOUS
 62
     7
 10
-1324.9689747536
 20
69.6126164053
 30
0.0
 11
-1324.7918446504
 21
69.6126164053
 31
0.0
  0
ARC
  5
8D
  8
0
  6
CONTINUOUS
 62
     7
 10
-1747.1325638711
 20
79.4658613325
 30
0.0
 40
29.28744449884127
 50
333.9684776141
 51
338.7246539822
  0
LINE
  5
8E
  8
0
  6
CONTINUOUS
 62
     7
 10
-1719.8411335194
 20
68.8389034127
 30
0.0
 11
-1719.3429429972
 21
69.6126164053
 31
0.0
  0
POLYLINE
  5
8F
  8
0
  6
CONTINUOUS
 62
     7
 66
     1
 10
0.0
 20
0.0
 30
0.0
  0
VERTEX
  5
4E3
  8
0
  6
CONTINUOUS
 62
     7
 10
-1324.7918446504
 20
68.7066854094
 30
0.0
  0
VERTEX
  5
4E4
  8
0
  6
CONTINUOUS
 62
     7
 10
-1324.7335811102
 20
68.5963125084
 30
0.0
  0
VERTEX
  5
4E5
  8
0
  6
CONTINUOUS
 62
     7
 10
-1324.3377019607
 20
67.6916928147
 30
0.0
  0
VERTEX
  5
4E6
  8
0
  6
CONTINUOUS
 62
     7
 10
-1324.0956623995
 20
67.0131684397
 30
0.0
  0
VERTEX
  5
4E7
  8
0
  6
CONTINUOUS
 62
     7
 10
-1323.9798207724
 20
66.7315513943
 30
0.0
  0
VERTEX
  5
4E8
  8
0
  6
CONTINUOUS
 62
     7
 10
-1323.8674362146
 20
66.6126103257
 30
0.0
  0
SEQEND
  5
4E9
  8
0
  6
CONTINUOUS
 62
     7
  0
LINE
  5
90
  8
0
  6
CONTINUOUS
 62
     7
 10
-1343.2554115497
 20
66.6126103257
 30
0.0
 11
-1701.4282752716
 21
66.6126103257
 31
0.0
  0
LINE
  5
91
  8
0
  6
CONTINUOUS
 62
     7
 10
-1719.8411335194
 20
68.8389034127
 30
0.0
 11
-1719.8411335194
 21
69.2257524584
 31
0.0
  0
POLYLINE
  5
92
  8
0
  6
CONTINUOUS
 62
     7
 66
     1
 10
0.0
 20
0.0
 30
0.0
  0
VERTEX
  5
4EA
  8
0
  6
CONTINUOUS
 62
     7
 10
-1719.9407477819
 20
464.1119034146
 30
0.0
  0
VERTEX
  5
4EB
  8
0
  6
CONTINUOUS
 62
     7
 10
-1719.9501057112
 20
464.1207696055
 30
0.0
  0
VERTEX
  5
4EC
  8
0
  6
CONTINUOUS
 62
     7
 10
-1720.3459848606
 20
464.5730645512
 30
0.0
  0
VERTEX
  5
4ED
  8
0
  6
CONTINUOUS
 62
     7
 10
-1720.5880244219
 20
464.9123341893
 30
0.0
  0
VERTEX
  5
4EE
  8
0
  6
CONTINUOUS
 62
     7
 10
-1720.703866049
 20
465.0531501625
 30
0.0
  0
VERTEX
  5
4EF
  8
0
  6
CONTINUOUS
 62
     7
 10
-1720.8162506067
 20
465.1126206969
 30
0.0
  0
SEQEND
  5
4F0
  8
0
  6
CONTINUOUS
 62
     7
  0
LINE
  5
93
  8
0
  6
CONTINUOUS
 62
     7
 10
-1720.8162506067
 20
466.6126162861
 30
0.0
 11
-1720.8162506067
 21
465.1126206969
 31
0.0
  0
POLYLINE
  5
94
  8
0
  6
CONTINUOUS
 62
     7
 66
     1
 10
0.0
 20
0.0
 30
0.0
  0
VERTEX
  5
4F1
  8
0
  6
CONTINUOUS
 62
     7
 10
-1719.4136192047
 20
463.6126102064
 30
0.0
  0
VERTEX
  5
4F2
  8
0
  6
CONTINUOUS
 62
     7
 10
-1719.9501057112
 20
464.6289141033
 30
0.0
  0
VERTEX
  5
4F3
  8
0
  6
CONTINUOUS
 62
     7
 10
-1720.3459848606
 20
465.5335337971
 30
0.0
  0
VERTEX
  5
4F4
  8
0
  6
CONTINUOUS
 62
     7
 10
-1720.5880244219
 20
466.2120581721
 30
0.0
  0
VERTEX
  5
4F5
  8
0
  6
CONTINUOUS
 62
     7
 10
-1720.703866049
 20
466.4936752175
 30
0.0
  0
VERTEX
  5
4F6
  8
0
  6
CONTINUOUS
 62
     7
 10
-1720.8162506067
 20
466.6126162861
 30
0.0
  0
SEQEND
  5
4F7
  8
0
  6
CONTINUOUS
 62
     7
  0
ARC
  5
95
  8
0
  6
CONTINUOUS
 62
     7
 10
-1297.5511229503
 20
453.7593652792
 30
0.0
 40
29.2874444988415
 50
153.9684776141
 51
158.7246539822
  0
LINE
  5
96
  8
0
  6
CONTINUOUS
 62
     7
 10
-1343.2554115497
 20
466.6126162861
 30
0.0
 11
-1701.4282752716
 21
466.6126162861
 31
0.0
  0
POLYLINE
  5
97
  8
0
  6
CONTINUOUS
 62
     7
 66
     1
 10
0.0
 20
0.0
 30
0.0
  0
VERTEX
  5
4F8
  8
0
  6
CONTINUOUS
 62
     7
 10
-1324.7429390394
 20
69.1133231972
 30
0.0
  0
VERTEX
  5
4F9
  8
0
  6
CONTINUOUS
 62
     7
 10
-1324.7335811102
 20
69.1044570063
 30
0.0
  0
VERTEX
  5
4FA
  8
0
  6
CONTINUOUS
 62
     7
 10
-1324.3377019607
 20
68.6521620606
 30
0.0
  0
VERTEX
  5
4FB
  8
0
  6
CONTINUOUS
 62
     7
 10
-1324.0956623995
 20
68.3128924225
 30
0.0
  0
VERTEX
  5
4FC
  8
0
  6
CONTINUOUS
 62
     7
 10
-1323.9798207724
 20
68.1720764492
 30
0.0
  0
VERTEX
  5
4FD
  8
0
  6
CONTINUOUS
 62
     7
 10
-1323.8674362146
 20
68.1126059149
 30
0.0
  0
SEQEND
  5
4FE
  8
0
  6
CONTINUOUS
 62
     7
  0
LINE
  5
98
  8
0
  6
CONTINUOUS
 62
     7
 10
-1323.8674362146
 20
66.6126103257
 30
0.0
 11
-1323.8674362146
 21
68.1126059149
 31
0.0
  0
LINE
  5
99
  8
0
  6
CONTINUOUS
 62
     7
 10
-1322.3418404304
 20
68.1382061098
 30
0.0
 11
-1322.3418404304
 21
465.0870205019
 31
0.0
  0
ARC
  5
9A
  8
0
  6
CONTINUOUS
 62
     7
 10
-1335.1950914373
 20
41.8218928455
 30
0.0
 40
29.28744449884141
 50
63.9684776141
 51
68.7246539822
  0
LINE
  5
9B
  8
0
  6
CONTINUOUS
 62
     7
 10
-1324.5681335174
 20
69.1133231972
 30
0.0
 11
-1324.7918446504
 21
69.2573727225
 31
0.0
  0
POLYLINE
  5
9C
  8
0
  6
CONTINUOUS
 62
     7
 66
     1
 10
0.0
 20
0.0
 30
0.0
  0
VERTEX
  5
4FF
  8
0
  6
CONTINUOUS
 62
     7
 10
-1324.7918446504
 20
463.9747233246
 30
0.0
  0
VERTEX
  5
500
  8
0
  6
CONTINUOUS
 62
     7
 10
-1324.3255426132
 20
464.2208756064
 30
0.0
  0
VERTEX
  5
501
  8
0
  6
CONTINUOUS
 62
     7
 10
-1323.4209229195
 20
464.6167547558
 30
0.0
  0
VERTEX
  5
502
  8
0
  6
CONTINUOUS
 62
     7
 10
-1322.7423985445
 20
464.8587943171
 30
0.0
  0
VERTEX
  5
503
  8
0
  6
CONTINUOUS
 62
     7
 10
-1322.4607814991
 20
464.9746359442
 30
0.0
  0
VERTEX
  5
504
  8
0
  6
CONTINUOUS
 62
     7
 10
-1322.3418404304
 20
465.0870205019
 30
0.0
  0
SEQEND
  5
505
  8
0
  6
CONTINUOUS
 62
     7
  0
LINE
  5
9D
  8
0
  6
CONTINUOUS
 62
     7
 10
-1324.5681335174
 20
69.1133231972
 30
0.0
 11
-1324.9549825632
 21
69.1133231972
 31
0.0
  0
LINE
  5
9E
  8
0
  6
CONTINUOUS
 62
     7
 10
-1720.1155533039
 20
464.1119034146
 30
0.0
 11
-1719.3418403112
 21
463.6137128924
 31
0.0
  0
LINE
  5
9F
  8
0
  6
CONTINUOUS
 62
     7
 10
-1720.1155533039
 20
464.1119034146
 30
0.0
 11
-1719.7287042581
 21
464.1119034146
 31
0.0
  0
ARC
  5
A0
  8
0
  6
CONTINUOUS
 62
     7
 10
-1709.488595384
 20
491.4033337663
 30
0.0
 40
29.28744449884128
 50
243.9684776141
 51
248.7246539822
  0
POLYLINE
  5
A1
  8
0
  6
CONTINUOUS
 62
     7
 66
     1
 10
0.0
 20
0.0
 30
0.0
  0
VERTEX
  5
506
  8
0
  6
CONTINUOUS
 62
     7
 10
-1719.3418403112
 20
69.5408375119
 30
0.0
  0
VERTEX
  5
507
  8
0
  6
CONTINUOUS
 62
     7
 10
-1720.3581442081
 20
69.0043510054
 30
0.0
  0
VERTEX
  5
508
  8
0
  6
CONTINUOUS
 62
     7
 10
-1721.2627639019
 20
68.608471856
 30
0.0
  0
VERTEX
  5
509
  8
0
  6
CONTINUOUS
 62
     7
 10
-1721.9412882769
 20
68.3664322947
 30
0.0
  0
VERTEX
  5
50A
  8
0
  6
CONTINUOUS
 62
     7
 10
-1722.2229053223
 20
68.2505906676
 30
0.0
  0
VERTEX
  5
50B
  8
0
  6
CONTINUOUS
 62
     7
 10
-1722.3418463909
 20
68.1382061098
 30
0.0
  0
SEQEND
  5
50C
  8
0
  6
CONTINUOUS
 62
     7
  0
LINE
  5
A2
  8
0
  6
CONTINUOUS
 62
     7
 10
-1722.3418463909
 20
68.1382061098
 30
0.0
 11
-1722.3418463909
 21
465.0870205019
 31
0.0
  0
LINE
  5
A3
  8
0
  6
CONTINUOUS
 62
     7
 10
-1719.2697931969
 20
69.6126164053
 30
0.0
 11
-1719.2980606996
 21
69.5842296933
 31
0.0
  0
ARC
  5
A4
  8
0
  6
CONTINUOUS
 62
     7
 10
-1722.8400316688
 20
73.1133204126
 30
0.0
 40
4.999999999972949
 50
314.3979399628
 51
315.1044244628
  0
LINE
  5
A5
  8
0
  6
CONTINUOUS
 62
     7
 10
-1719.3418403112
 20
463.6137128924
 30
0.0
 11
-1719.3407376253
 21
463.6126102064
 31
0.0
  0
POLYLINE
  5
A6
  8
0
  6
CONTINUOUS
 62
     7
 66
     1
 10
0.0
 20
0.0
 30
0.0
  0
VERTEX
  5
50D
  8
0
  6
CONTINUOUS
 62
     7
 10
-1719.8411335194
 20
69.0137089346
 30
0.0
  0
VERTEX
  5
50E
  8
0
  6
CONTINUOUS
 62
     7
 10
-1719.8499997103
 20
69.0043510054
 30
0.0
  0
VERTEX
  5
50F
  8
0
  6
CONTINUOUS
 62
     7
 10
-1720.302294656
 20
68.608471856
 30
0.0
  0
VERTEX
  5
510
  8
0
  6
CONTINUOUS
 62
     7
 10
-1720.641564294
 20
68.3664322947
 30
0.0
  0
VERTEX
  5
511
  8
0
  6
CONTINUOUS
 62
     7
 10
-1720.7823802673
 20
68.2505906676
 30
0.0
  0
VERTEX
  5
512
  8
0
  6
CONTINUOUS
 62
     7
 10
-1720.8418508016
 20
68.1382061098
 30
0.0
  0
SEQEND
  5
513
  8
0
  6
CONTINUOUS
 62
     7
  0
LINE
  5
A7
  8
0
  6
CONTINUOUS
 62
     7
 10
-1722.3418463909
 20
68.1382061098
 30
0.0
 11
-1720.8418508016
 21
68.1382061098
 31
0.0
  0
POLYLINE
  5
A8
  8
0
  6
CONTINUOUS
 62
     7
 66
     1
 10
0.0
 20
0.0
 30
0.0
  0
VERTEX
  5
514
  8
0
  6
CONTINUOUS
 62
     7
 10
-1324.842553302
 20
464.2115176771
 30
0.0
  0
VERTEX
  5
515
  8
0
  6
CONTINUOUS
 62
     7
 10
-1324.8337020122
 20
464.2208756064
 30
0.0
  0
VERTEX
  5
516
  8
0
  6
CONTINUOUS
 62
     7
 10
-1324.3813921654
 20
464.6167547558
 30
0.0
  0
VERTEX
  5
517
  8
0
  6
CONTINUOUS
 62
     7
 10
-1324.0421225273
 20
464.8587943171
 30
0.0
  0
VERTEX
  5
518
  8
0
  6
CONTINUOUS
 62
     7
 10
-1323.901306554
 20
464.9746359442
 30
0.0
  0
VERTEX
  5
519
  8
0
  6
CONTINUOUS
 62
     7
 10
-1323.8418360197
 20
465.0870205019
 30
0.0
  0
SEQEND
  5
51A
  8
0
  6
CONTINUOUS
 62
     7
  0
LINE
  5
A9
  8
0
  6
CONTINUOUS
 62
     7
 10
-1322.3418404304
 20
465.0870205019
 30
0.0
 11
-1323.8418360197
 21
465.0870205019
 31
0.0
  0
LINE
  5
AA
  8
0
  6
CONTINUOUS
 62
     7
 10
-1720.8162506067
 20
68.1126059149
 30
0.0
 11
-1720.8162506067
 21
66.6126103257
 31
0.0
  0
ARC
  5
AB
  8
0
  6
CONTINUOUS
 62
     7
 10
-1730.3767702884
 20
77.4713021685
 30
0.0
 40
13.37866705437786
 50
315.6111876974
 51
321.9520510504
  0
LINE
  5
AC
  8
0
  6
CONTINUOUS
 62
     7
 10
-1323.8674362146
 20
465.1126206969
 30
0.0
 11
-1323.8674362146
 21
466.6126162861
 31
0.0
  0
ARC
  5
AD
  8
0
  6
CONTINUOUS
 62
     7
 10
-1314.3069165329
 20
455.7539244432
 30
0.0
 40
13.37866705437772
 50
135.6111876974
 51
141.9520510504
  0
LINE
  5
AE
  8
0
  6
CONTINUOUS
 62
     7
 10
-1720.8418508016
 20
465.0870205019
 30
0.0
 11
-1722.3418463909
 21
465.0870205019
 31
0.0
  0
ARC
  5
AF
  8
0
  6
CONTINUOUS
 62
     7
 10
-1711.483154548
 20
474.6475401836
 30
0.0
 40
13.37866705437765
 50
225.6111876974
 51
231.9520510504
  0
ARC
  5
B0
  8
0
  6
CONTINUOUS
 62
     7
 10
-1332.1386138962
 20
59.6947085093
 30
0.0
 40
11.83761694182828
 50
45.5021545632
 51
51.6379126152
  0
LINE
  5
B1
  8
0
  6
CONTINUOUS
 62
     7
 10
-1323.8418360197
 20
68.1382061098
 30
0.0
 11
-1322.3418404304
 21
68.1382061098
 31
0.0
  0
LINE
  5
B2
  8
0
  6
CONTINUOUS
 62
     7
 10
-1720.8411355459
 20
465.1126206969
 30
0.0
 11
-1720.8162506067
 21
465.1126206969
 31
0.0
  0
LINE
  5
B3
  8
0
  6
CONTINUOUS
 62
     7
 10
-1720.8411355459
 20
466.6126162861
 30
0.0
 11
-1720.8411355459
 21
465.1126206969
 31
0.0
  0
LINE
  5
B4
  8
0
  6
CONTINUOUS
 62
     7
 10
-1323.8425512754
 20
66.6126103257
 30
0.0
 11
-1323.8425512754
 21
68.1126059149
 31
0.0
  0
LINE
  5
B5
  8
0
  6
CONTINUOUS
 62
     7
 10
-1323.8425512754
 20
68.1126059149
 30
0.0
 11
-1323.8674362146
 21
68.1126059149
 31
0.0
  0
LINE
  5
B6
  8
0
  6
CONTINUOUS
 62
     7
 10
-1720.8411355459
 20
66.6126103257
 30
0.0
 11
-1720.8411355459
 21
68.1126059149
 31
0.0
  0
LINE
  5
B7
  8
0
  6
CONTINUOUS
 62
     7
 10
-1720.8162506067
 20
68.1126059149
 30
0.0
 11
-1720.8411355459
 21
68.1126059149
 31
0.0
  0
LINE
  5
B8
  8
0
  6
CONTINUOUS
 62
     7
 10
-1720.8418508016
 20
68.1133211706
 30
0.0
 11
-1720.8418508016
 21
68.1382061098
 31
0.0
  0
LINE
  5
B9
  8
0
  6
CONTINUOUS
 62
     7
 10
-1722.3418463909
 20
68.1133211706
 30
0.0
 11
-1720.8418508016
 21
68.1133211706
 31
0.0
  0
LINE
  5
BA
  8
0
  6
CONTINUOUS
 62
     7
 10
-1722.3418463909
 20
68.1133211706
 30
0.0
 11
-1722.3418463909
 21
68.1382061098
 31
0.0
  0
LINE
  5
BB
  8
0
  6
CONTINUOUS
 62
     7
 10
-1323.8418360197
 20
465.1119054411
 30
0.0
 11
-1323.8418360197
 21
465.0870205019
 31
0.0
  0
LINE
  5
BC
  8
0
  6
CONTINUOUS
 62
     7
 10
-1322.3418404304
 20
465.1119054411
 30
0.0
 11
-1323.8418360197
 21
465.1119054411
 31
0.0
  0
LINE
  5
BD
  8
0
  6
CONTINUOUS
 62
     7
 10
-1322.3418404304
 20
465.0870205019
 30
0.0
 11
-1322.3418404304
 21
465.1119054411
 31
0.0
  0
LINE
  5
BE
  8
0
  6
CONTINUOUS
 62
     7
 10
-1323.8425512754
 20
466.6126162861
 30
0.0
 11
-1323.8425512754
 21
465.1126206969
 31
0.0
  0
LINE
  5
BF
  8
0
  6
CONTINUOUS
 62
     7
 10
-1323.8674362146
 20
465.1126206969
 30
0.0
 11
-1323.8425512754
 21
465.1126206969
 31
0.0
  0
LINE
  5
C0
  8
0
  6
CONTINUOUS
 62
     7
 10
-1322.3418404304
 20
68.1133211706
 30
0.0
 11
-1323.8418360197
 21
68.1133211706
 31
0.0
  0
LINE
  5
C1
  8
0
  6
CONTINUOUS
 62
     7
 10
-1323.8418360197
 20
68.1382061098
 30
0.0
 11
-1323.8418360197
 21
68.1133211706
 31
0.0
  0
LINE
  5
C2
  8
0
  6
CONTINUOUS
 62
     7
 10
-1322.3418404304
 20
68.1133211706
 30
0.0
 11
-1322.3418404304
 21
68.1382061098
 31
0.0
  0
LINE
  5
C3
  8
0
  6
CONTINUOUS
 62
     7
 10
-1722.3418463909
 20
465.0870205019
 30
0.0
 11
-1722.3418463909
 21
465.1119054411
 31
0.0
  0
LINE
  5
C4
  8
0
  6
CONTINUOUS
 62
     7
 10
-1722.3418463909
 20
465.1119054411
 30
0.0
 11
-1720.8418508016
 21
465.1119054411
 31
0.0
  0
LINE
  5
C5
  8
0
  6
CONTINUOUS
 62
     7
 10
-1720.8418508016
 20
465.0870205019
 30
0.0
 11
-1720.8418508016
 21
465.1119054411
 31
0.0
  0
LINE
  5
C6
  8
0
  6
CONTINUOUS
 62
     7
 10
-1742.0418371403
 20
470.6126094912
 30
0.0
 11
-1739.0918393576
 21
470.6126094912
 31
0.0
  0
LINE
  5
C7
  8
0
  6
CONTINUOUS
 62
     7
 10
-1739.0918393576
 20
470.312619314
 30
0.0
 11
-1742.3418422186
 21
470.312619314
 31
0.0
  0
LINE
  5
C8
  8
0
  6
CONTINUOUS
 62
     7
 10
-1742.0418371403
 20
470.6126094912
 30
0.0
 11
-1742.3418422186
 21
470.312619314
 31
0.0
  0
LINE
  5
C9
  8
0
  6
CONTINUOUS
 62
     7
 10
-1739.0918393576
 20
466.9126064633
 30
0.0
 11
-1733.5918505632
 21
466.9126064633
 31
0.0
  0
LINE
  5
CA
  8
0
  6
CONTINUOUS
 62
     7
 10
-1733.5918505632
 20
470.312619314
 30
0.0
 11
-1739.0918393576
 21
470.312619314
 31
0.0
  0
LINE
  5
CB
  8
0
  6
CONTINUOUS
 62
     7
 10
-1742.3418422186
 20
466.9126064633
 30
0.0
 11
-1739.0918393576
 21
466.9126064633
 31
0.0
  0
LINE
  5
CC
  8
0
  6
CONTINUOUS
 62
     7
 10
-1742.3418422186
 20
466.9126064633
 30
0.0
 11
-1742.3418422186
 21
470.312619314
 31
0.0
  0
LINE
  5
CD
  8
0
  6
CONTINUOUS
 62
     7
 10
-1739.0918393576
 20
470.6126094912
 30
0.0
 11
-1733.5918505632
 21
470.6126094912
 31
0.0
  0
LINE
  5
CE
  8
0
  6
CONTINUOUS
 62
     7
 10
-1739.0918393576
 20
466.6126162861
 30
0.0
 11
-1742.0418371403
 21
466.6126162861
 31
0.0
  0
LINE
  5
CF
  8
0
  6
CONTINUOUS
 62
     7
 10
-1742.0418371403
 20
466.6126162861
 30
0.0
 11
-1742.3418422186
 21
466.9126064633
 31
0.0
  0
LINE
  5
D0
  8
0
  6
CONTINUOUS
 62
     7
 10
-1733.5918505632
 20
466.6126162861
 30
0.0
 11
-1739.0918393576
 21
466.6126162861
 31
0.0
  0
LINE
  5
D1
  8
0
  6
CONTINUOUS
 62
     7
 10
-1733.5918505632
 20
466.9126064633
 30
0.0
 11
-1730.3418477022
 21
466.9126064633
 31
0.0
  0
LINE
  5
D2
  8
0
  6
CONTINUOUS
 62
     7
 10
-1730.3418477022
 20
470.312619314
 30
0.0
 11
-1733.5918505632
 21
470.312619314
 31
0.0
  0
LINE
  5
D3
  8
0
  6
CONTINUOUS
 62
     7
 10
-1730.3418477022
 20
470.312619314
 30
0.0
 11
-1730.3418477022
 21
466.9126064633
 31
0.0
  0
LINE
  5
D4
  8
0
  6
CONTINUOUS
 62
     7
 10
-1730.6418378794
 20
466.6126162861
 30
0.0
 11
-1733.5918505632
 21
466.6126162861
 31
0.0
  0
LINE
  5
D5
  8
0
  6
CONTINUOUS
 62
     7
 10
-1730.6418378794
 20
466.6126162861
 30
0.0
 11
-1730.3418477022
 21
466.9126064633
 31
0.0
  0
LINE
  5
D6
  8
0
  6
CONTINUOUS
 62
     7
 10
-1733.5918505632
 20
470.6126094912
 30
0.0
 11
-1730.6418378794
 21
470.6126094912
 31
0.0
  0
LINE
  5
D7
  8
0
  6
CONTINUOUS
 62
     7
 10
-1730.3418477022
 20
470.312619314
 30
0.0
 11
-1730.6418378794
 21
470.6126094912
 31
0.0
  0
LINE
  5
D8
  8
0
  6
CONTINUOUS
 62
     7
 10
-1729.4749279463
 20
470.312619314
 30
0.0
 11
-1730.3418477022
 21
470.312619314
 31
0.0
  0
LINE
  5
D9
  8
0
  6
CONTINUOUS
 62
     7
 10
-1730.6418378794
 20
470.6126094912
 30
0.0
 11
-1729.6948988878
 21
470.6126094912
 31
0.0
  0
LINE
  5
DA
  8
0
  6
CONTINUOUS
 62
     7
 10
-1730.3418477022
 20
466.9126064633
 30
0.0
 11
-1729.4749279463
 21
466.9126064633
 31
0.0
  0
LINE
  5
DB
  8
0
  6
CONTINUOUS
 62
     7
 10
-1729.6948988878
 20
466.6126162861
 30
0.0
 11
-1730.6418378794
 21
466.6126162861
 31
0.0
  0
LINE
  5
DC
  8
0
  6
CONTINUOUS
 62
     7
 10
-1729.4749279463
 20
466.9126064633
 30
0.0
 11
-1701.2090493881
 21
466.9126064633
 31
0.0
  0
LINE
  5
DD
  8
0
  6
CONTINUOUS
 62
     7
 10
-1701.2090493881
 20
470.312619314
 30
0.0
 11
-1729.4749279463
 21
470.312619314
 31
0.0
  0
LINE
  5
DE
  8
0
  6
CONTINUOUS
 62
     7
 10
-1701.4290352308
 20
466.6126162861
 30
0.0
 11
-1729.6948988878
 21
466.6126162861
 31
0.0
  0
LINE
  5
DF
  8
0
  6
CONTINUOUS
 62
     7
 10
-1729.6948988878
 20
470.6126094912
 30
0.0
 11
-1701.4290352308
 21
470.6126094912
 31
0.0
  0
LINE
  5
E0
  8
0
  6
CONTINUOUS
 62
     7
 10
-1701.2090493881
 20
466.9126064633
 30
0.0
 11
-1699.3418444836
 21
466.9126064633
 31
0.0
  0
LINE
  5
E1
  8
0
  6
CONTINUOUS
 62
     7
 10
-1699.3418444836
 20
470.312619314
 30
0.0
 11
-1701.2090493881
 21
470.312619314
 31
0.0
  0
LINE
  5
E2
  8
0
  6
CONTINUOUS
 62
     7
 10
-1699.3418444836
 20
470.312619314
 30
0.0
 11
-1699.3418444836
 21
466.9126064633
 31
0.0
  0
LINE
  5
E3
  8
0
  6
CONTINUOUS
 62
     7
 10
-1699.3418444836
 20
470.312619314
 30
0.0
 11
-1699.6418495619
 21
470.6126094912
 31
0.0
  0
LINE
  5
E4
  8
0
  6
CONTINUOUS
 62
     7
 10
-1701.4290352308
 20
470.6126094912
 30
0.0
 11
-1699.6418495619
 21
470.6126094912
 31
0.0
  0
LINE
  5
E5
  8
0
  6
CONTINUOUS
 62
     7
 10
-1699.3418444836
 20
466.9126064633
 30
0.0
 11
-1699.6418495619
 21
466.6126162861
 31
0.0
  0
LINE
  5
E6
  8
0
  6
CONTINUOUS
 62
     7
 10
-1742.0418371403
 20
66.6126103257
 30
0.0
 11
-1739.0918393576
 21
66.6126103257
 31
0.0
  0
LINE
  5
E7
  8
0
  6
CONTINUOUS
 62
     7
 10
-1739.0918393576
 20
66.3126201485
 30
0.0
 11
-1742.3418422186
 21
66.3126201485
 31
0.0
  0
LINE
  5
E8
  8
0
  6
CONTINUOUS
 62
     7
 10
-1742.0418371403
 20
66.6126103257
 30
0.0
 11
-1742.3418422186
 21
66.3126201485
 31
0.0
  0
LINE
  5
E9
  8
0
  6
CONTINUOUS
 62
     7
 10
-1742.3418422186
 20
62.9126072977
 30
0.0
 11
-1739.0918393576
 21
62.9126072977
 31
0.0
  0
LINE
  5
EA
  8
0
  6
CONTINUOUS
 62
     7
 10
-1742.3418422186
 20
62.9126072977
 30
0.0
 11
-1742.3418422186
 21
66.3126201485
 31
0.0
  0
LINE
  5
EB
  8
0
  6
CONTINUOUS
 62
     7
 10
-1739.0918393576
 20
66.6126103257
 30
0.0
 11
-1733.5918505632
 21
66.6126103257
 31
0.0
  0
LINE
  5
EC
  8
0
  6
CONTINUOUS
 62
     7
 10
-1733.5918505632
 20
66.3126201485
 30
0.0
 11
-1739.0918393576
 21
66.3126201485
 31
0.0
  0
LINE
  5
ED
  8
0
  6
CONTINUOUS
 62
     7
 10
-1733.5918505632
 20
62.6126171206
 30
0.0
 11
-1739.0918393576
 21
62.6126171206
 31
0.0
  0
LINE
  5
EE
  8
0
  6
CONTINUOUS
 62
     7
 10
-1739.0918393576
 20
62.9126072977
 30
0.0
 11
-1733.5918505632
 21
62.9126072977
 31
0.0
  0
LINE
  5
EF
  8
0
  6
CONTINUOUS
 62
     7
 10
-1739.0918393576
 20
62.6126171206
 30
0.0
 11
-1742.0418371403
 21
62.6126171206
 31
0.0
  0
LINE
  5
F0
  8
0
  6
CONTINUOUS
 62
     7
 10
-1742.0418371403
 20
62.6126171206
 30
0.0
 11
-1742.3418422186
 21
62.9126072977
 31
0.0
  0
LINE
  5
F1
  8
0
  6
CONTINUOUS
 62
     7
 10
-1733.5918505632
 20
62.9126072977
 30
0.0
 11
-1730.3418477022
 21
62.9126072977
 31
0.0
  0
LINE
  5
F2
  8
0
  6
CONTINUOUS
 62
     7
 10
-1730.3418477022
 20
66.3126201485
 30
0.0
 11
-1733.5918505632
 21
66.3126201485
 31
0.0
  0
LINE
  5
F3
  8
0
  6
CONTINUOUS
 62
     7
 10
-1730.3418477022
 20
66.3126201485
 30
0.0
 11
-1730.3418477022
 21
62.9126072977
 31
0.0
  0
LINE
  5
F4
  8
0
  6
CONTINUOUS
 62
     7
 10
-1733.5918505632
 20
66.6126103257
 30
0.0
 11
-1730.6418378794
 21
66.6126103257
 31
0.0
  0
LINE
  5
F5
  8
0
  6
CONTINUOUS
 62
     7
 10
-1730.3418477022
 20
66.3126201485
 30
0.0
 11
-1730.6418378794
 21
66.6126103257
 31
0.0
  0
LINE
  5
F6
  8
0
  6
CONTINUOUS
 62
     7
 10
-1730.6418378794
 20
62.6126171206
 30
0.0
 11
-1733.5918505632
 21
62.6126171206
 31
0.0
  0
LINE
  5
F7
  8
0
  6
CONTINUOUS
 62
     7
 10
-1730.6418378794
 20
62.6126171206
 30
0.0
 11
-1730.3418477022
 21
62.9126072977
 31
0.0
  0
LINE
  5
F8
  8
0
  6
CONTINUOUS
 62
     7
 10
-1729.4749279463
 20
66.3126201485
 30
0.0
 11
-1730.3418477022
 21
66.3126201485
 31
0.0
  0
LINE
  5
F9
  8
0
  6
CONTINUOUS
 62
     7
 10
-1730.6418378794
 20
66.6126103257
 30
0.0
 11
-1729.6948988878
 21
66.6126103257
 31
0.0
  0
LINE
  5
FA
  8
0
  6
CONTINUOUS
 62
     7
 10
-1730.3418477022
 20
62.9126072977
 30
0.0
 11
-1729.4749279463
 21
62.9126072977
 31
0.0
  0
LINE
  5
FB
  8
0
  6
CONTINUOUS
 62
     7
 10
-1729.6948988878
 20
62.6126171206
 30
0.0
 11
-1730.6418378794
 21
62.6126171206
 31
0.0
  0
LINE
  5
FC
  8
0
  6
CONTINUOUS
 62
     7
 10
-1729.4749279463
 20
62.9126072977
 30
0.0
 11
-1701.2090493881
 21
62.9126072977
 31
0.0
  0
LINE
  5
FD
  8
0
  6
CONTINUOUS
 62
     7
 10
-1701.2090493881
 20
66.3126201485
 30
0.0
 11
-1729.4749279463
 21
66.3126201485
 31
0.0
  0
LINE
  5
FE
  8
0
  6
CONTINUOUS
 62
     7
 10
-1701.4290352308
 20
62.6126171206
 30
0.0
 11
-1729.6948988878
 21
62.6126171206
 31
0.0
  0
LINE
  5
FF
  8
0
  6
CONTINUOUS
 62
     7
 10
-1729.6948988878
 20
66.6126103257
 30
0.0
 11
-1701.4290352308
 21
66.6126103257
 31
0.0
  0
LINE
  5
100
  8
0
  6
CONTINUOUS
 62
     7
 10
-1699.3418444836
 20
66.3126201485
 30
0.0
 11
-1701.2090493881
 21
66.3126201485
 31
0.0
  0
LINE
  5
101
  8
0
  6
CONTINUOUS
 62
     7
 10
-1699.3418444836
 20
66.3126201485
 30
0.0
 11
-1699.6418495619
 21
66.6126103257
 31
0.0
  0
LINE
  5
102
  8
0
  6
CONTINUOUS
 62
     7
 10
-1701.2090493881
 20
62.9126072977
 30
0.0
 11
-1699.3418444836
 21
62.9126072977
 31
0.0
  0
LINE
  5
103
  8
0
  6
CONTINUOUS
 62
     7
 10
-1699.3418444836
 20
66.3126201485
 30
0.0
 11
-1699.3418444836
 21
62.9126072977
 31
0.0
  0
LINE
  5
104
  8
0
  6
CONTINUOUS
 62
     7
 10
-1699.3418444836
 20
62.9126072977
 30
0.0
 11
-1699.6418495619
 21
62.6126171206
 31
0.0
  0
LINE
  5
105
  8
0
  6
CONTINUOUS
 62
     7
 10
-1699.6418495619
 20
62.6126171206
 30
0.0
 11
-1701.4290352308
 21
62.6126171206
 31
0.0
  0
LINE
  5
106
  8
0
  6
CONTINUOUS
 62
     7
 10
-1305.5918474638
 20
470.312619314
 30
0.0
 11
-1311.0918362581
 21
470.312619314
 31
0.0
  0
LINE
  5
107
  8
0
  6
CONTINUOUS
 62
     7
 10
-1311.0918362581
 20
466.9126064633
 30
0.0
 11
-1305.5918474638
 21
466.9126064633
 31
0.0
  0
LINE
  5
108
  8
0
  6
CONTINUOUS
 62
     7
 10
-1302.6418496811
 20
466.6126162861
 30
0.0
 11
-1305.5918474638
 21
466.6126162861
 31
0.0
  0
LINE
  5
109
  8
0
  6
CONTINUOUS
 62
     7
 10
-1305.5918474638
 20
466.9126064633
 30
0.0
 11
-1302.3418446028
 21
466.9126064633
 31
0.0
  0
LINE
  5
10A
  8
0
  6
CONTINUOUS
 62
     7
 10
-1302.6418496811
 20
466.6126162861
 30
0.0
 11
-1302.3418446028
 21
466.9126064633
 31
0.0
  0
LINE
  5
10B
  8
0
  6
CONTINUOUS
 62
     7
 10
-1302.3418446028
 20
470.312619314
 30
0.0
 11
-1305.5918474638
 21
470.312619314
 31
0.0
  0
LINE
  5
10C
  8
0
  6
CONTINUOUS
 62
     7
 10
-1302.3418446028
 20
470.312619314
 30
0.0
 11
-1302.3418446028
 21
466.9126064633
 31
0.0
  0
LINE
  5
10D
  8
0
  6
CONTINUOUS
 62
     7
 10
-1305.5918474638
 20
466.6126162861
 30
0.0
 11
-1311.0918362581
 21
466.6126162861
 31
0.0
  0
LINE
  5
10E
  8
0
  6
CONTINUOUS
 62
     7
 10
-1305.5918474638
 20
470.6126094912
 30
0.0
 11
-1302.6418496811
 21
470.6126094912
 31
0.0
  0
LINE
  5
10F
  8
0
  6
CONTINUOUS
 62
     7
 10
-1302.6418496811
 20
470.6126094912
 30
0.0
 11
-1302.3418446028
 21
470.312619314
 31
0.0
  0
LINE
  5
110
  8
0
  6
CONTINUOUS
 62
     7
 10
-1311.0918362581
 20
470.6126094912
 30
0.0
 11
-1305.5918474638
 21
470.6126094912
 31
0.0
  0
LINE
  5
111
  8
0
  6
CONTINUOUS
 62
     7
 10
-1311.0918362581
 20
466.6126162861
 30
0.0
 11
-1314.041848942
 21
466.6126162861
 31
0.0
  0
LINE
  5
112
  8
0
  6
CONTINUOUS
 62
     7
 10
-1314.3418391191
 20
466.9126064633
 30
0.0
 11
-1314.041848942
 21
466.6126162861
 31
0.0
  0
LINE
  5
113
  8
0
  6
CONTINUOUS
 62
     7
 10
-1314.3418391191
 20
466.9126064633
 30
0.0
 11
-1311.0918362581
 21
466.9126064633
 31
0.0
  0
LINE
  5
114
  8
0
  6
CONTINUOUS
 62
     7
 10
-1311.0918362581
 20
470.312619314
 30
0.0
 11
-1314.3418391191
 21
470.312619314
 31
0.0
  0
LINE
  5
115
  8
0
  6
CONTINUOUS
 62
     7
 10
-1314.3418391191
 20
466.9126064633
 30
0.0
 11
-1314.3418391191
 21
470.312619314
 31
0.0
  0
LINE
  5
116
  8
0
  6
CONTINUOUS
 62
     7
 10
-1314.041848942
 20
470.6126094912
 30
0.0
 11
-1311.0918362581
 21
470.6126094912
 31
0.0
  0
LINE
  5
117
  8
0
  6
CONTINUOUS
 62
     7
 10
-1314.041848942
 20
470.6126094912
 30
0.0
 11
-1314.3418391191
 21
470.312619314
 31
0.0
  0
LINE
  5
118
  8
0
  6
CONTINUOUS
 62
     7
 10
-1315.2087588751
 20
466.9126064633
 30
0.0
 11
-1314.3418391191
 21
466.9126064633
 31
0.0
  0
LINE
  5
119
  8
0
  6
CONTINUOUS
 62
     7
 10
-1314.041848942
 20
466.6126162861
 30
0.0
 11
-1314.9887879335
 21
466.6126162861
 31
0.0
  0
LINE
  5
11A
  8
0
  6
CONTINUOUS
 62
     7
 10
-1314.3418391191
 20
470.312619314
 30
0.0
 11
-1315.2087588751
 21
470.312619314
 31
0.0
  0
LINE
  5
11B
  8
0
  6
CONTINUOUS
 62
     7
 10
-1314.9887879335
 20
470.6126094912
 30
0.0
 11
-1314.041848942
 21
470.6126094912
 31
0.0
  0
LINE
  5
11C
  8
0
  6
CONTINUOUS
 62
     7
 10
-1315.2087588751
 20
470.312619314
 30
0.0
 11
-1343.4746374332
 21
470.312619314
 31
0.0
  0
LINE
  5
11D
  8
0
  6
CONTINUOUS
 62
     7
 10
-1343.4746374332
 20
466.9126064633
 30
0.0
 11
-1315.2087588751
 21
466.9126064633
 31
0.0
  0
LINE
  5
11E
  8
0
  6
CONTINUOUS
 62
     7
 10
-1343.2546515905
 20
470.6126094912
 30
0.0
 11
-1314.9887879335
 21
470.6126094912
 31
0.0
  0
LINE
  5
11F
  8
0
  6
CONTINUOUS
 62
     7
 10
-1314.9887879335
 20
466.6126162861
 30
0.0
 11
-1343.2546515905
 21
466.6126162861
 31
0.0
  0
LINE
  5
120
  8
0
  6
CONTINUOUS
 62
     7
 10
-1343.4746374332
 20
470.312619314
 30
0.0
 11
-1345.3418423378
 21
470.312619314
 31
0.0
  0
LINE
  5
121
  8
0
  6
CONTINUOUS
 62
     7
 10
-1345.3418423378
 20
466.9126064633
 30
0.0
 11
-1343.4746374332
 21
466.9126064633
 31
0.0
  0
LINE
  5
122
  8
0
  6
CONTINUOUS
 62
     7
 10
-1345.3418423378
 20
466.9126064633
 30
0.0
 11
-1345.3418423378
 21
470.312619314
 31
0.0
  0
LINE
  5
123
  8
0
  6
CONTINUOUS
 62
     7
 10
-1345.3418423378
 20
466.9126064633
 30
0.0
 11
-1345.0418372595
 21
466.6126162861
 31
0.0
  0
LINE
  5
124
  8
0
  6
CONTINUOUS
 62
     7
 10
-1345.3418423378
 20
470.312619314
 30
0.0
 11
-1345.0418372595
 21
470.6126094912
 31
0.0
  0
LINE
  5
125
  8
0
  6
CONTINUOUS
 62
     7
 10
-1345.0418372595
 20
470.6126094912
 30
0.0
 11
-1343.2546515905
 21
470.6126094912
 31
0.0
  0
LINE
  5
126
  8
0
  6
CONTINUOUS
 62
     7
 10
-1302.3418446028
 20
66.3126201485
 30
0.0
 11
-1305.5918474638
 21
66.3126201485
 31
0.0
  0
LINE
  5
127
  8
0
  6
CONTINUOUS
 62
     7
 10
-1302.3418446028
 20
66.3126201485
 30
0.0
 11
-1302.3418446028
 21
62.9126072977
 31
0.0
  0
LINE
  5
128
  8
0
  6
CONTINUOUS
 62
     7
 10
-1305.5918474638
 20
62.9126072977
 30
0.0
 11
-1302.3418446028
 21
62.9126072977
 31
0.0
  0
LINE
  5
129
  8
0
  6
CONTINUOUS
 62
     7
 10
-1305.5918474638
 20
62.6126171206
 30
0.0
 11
-1311.0918362581
 21
62.6126171206
 31
0.0
  0
LINE
  5
12A
  8
0
  6
CONTINUOUS
 62
     7
 10
-1311.0918362581
 20
62.9126072977
 30
0.0
 11
-1305.5918474638
 21
62.9126072977
 31
0.0
  0
LINE
  5
12B
  8
0
  6
CONTINUOUS
 62
     7
 10
-1305.5918474638
 20
66.3126201485
 30
0.0
 11
-1311.0918362581
 21
66.3126201485
 31
0.0
  0
LINE
  5
12C
  8
0
  6
CONTINUOUS
 62
     7
 10
-1302.6418496811
 20
62.6126171206
 30
0.0
 11
-1305.5918474638
 21
62.6126171206
 31
0.0
  0
LINE
  5
12D
  8
0
  6
CONTINUOUS
 62
     7
 10
-1302.6418496811
 20
62.6126171206
 30
0.0
 11
-1302.3418446028
 21
62.9126072977
 31
0.0
  0
LINE
  5
12E
  8
0
  6
CONTINUOUS
 62
     7
 10
-1311.0918362581
 20
66.6126103257
 30
0.0
 11
-1305.5918474638
 21
66.6126103257
 31
0.0
  0
LINE
  5
12F
  8
0
  6
CONTINUOUS
 62
     7
 10
-1305.5918474638
 20
66.6126103257
 30
0.0
 11
-1302.6418496811
 21
66.6126103257
 31
0.0
  0
LINE
  5
130
  8
0
  6
CONTINUOUS
 62
     7
 10
-1302.6418496811
 20
66.6126103257
 30
0.0
 11
-1302.3418446028
 21
66.3126201485
 31
0.0
  0
LINE
  5
131
  8
0
  6
CONTINUOUS
 62
     7
 10
-1311.0918362581
 20
62.6126171206
 30
0.0
 11
-1314.041848942
 21
62.6126171206
 31
0.0
  0
LINE
  5
132
  8
0
  6
CONTINUOUS
 62
     7
 10
-1314.3418391191
 20
62.9126072977
 30
0.0
 11
-1314.041848942
 21
62.6126171206
 31
0.0
  0
LINE
  5
133
  8
0
  6
CONTINUOUS
 62
     7
 10
-1314.3418391191
 20
62.9126072977
 30
0.0
 11
-1311.0918362581
 21
62.9126072977
 31
0.0
  0
LINE
  5
134
  8
0
  6
CONTINUOUS
 62
     7
 10
-1311.0918362581
 20
66.3126201485
 30
0.0
 11
-1314.3418391191
 21
66.3126201485
 31
0.0
  0
LINE
  5
135
  8
0
  6
CONTINUOUS
 62
     7
 10
-1314.3418391191
 20
62.9126072977
 30
0.0
 11
-1314.3418391191
 21
66.3126201485
 31
0.0
  0
LINE
  5
136
  8
0
  6
CONTINUOUS
 62
     7
 10
-1314.041848942
 20
66.6126103257
 30
0.0
 11
-1311.0918362581
 21
66.6126103257
 31
0.0
  0
LINE
  5
137
  8
0
  6
CONTINUOUS
 62
     7
 10
-1314.041848942
 20
66.6126103257
 30
0.0
 11
-1314.3418391191
 21
66.3126201485
 31
0.0
  0
LINE
  5
138
  8
0
  6
CONTINUOUS
 62
     7
 10
-1315.2087588751
 20
62.9126072977
 30
0.0
 11
-1314.3418391191
 21
62.9126072977
 31
0.0
  0
LINE
  5
139
  8
0
  6
CONTINUOUS
 62
     7
 10
-1314.041848942
 20
62.6126171206
 30
0.0
 11
-1314.9887879335
 21
62.6126171206
 31
0.0
  0
LINE
  5
13A
  8
0
  6
CONTINUOUS
 62
     7
 10
-1314.3418391191
 20
66.3126201485
 30
0.0
 11
-1315.2087588751
 21
66.3126201485
 31
0.0
  0
LINE
  5
13B
  8
0
  6
CONTINUOUS
 62
     7
 10
-1314.9887879335
 20
66.6126103257
 30
0.0
 11
-1314.041848942
 21
66.6126103257
 31
0.0
  0
LINE
  5
13C
  8
0
  6
CONTINUOUS
 62
     7
 10
-1315.2087588751
 20
66.3126201485
 30
0.0
 11
-1343.4746374332
 21
66.3126201485
 31
0.0
  0
LINE
  5
13D
  8
0
  6
CONTINUOUS
 62
     7
 10
-1343.2546515905
 20
66.6126103257
 30
0.0
 11
-1314.9887879335
 21
66.6126103257
 31
0.0
  0
LINE
  5
13E
  8
0
  6
CONTINUOUS
 62
     7
 10
-1343.4746374332
 20
62.9126072977
 30
0.0
 11
-1315.2087588751
 21
62.9126072977
 31
0.0
  0
LINE
  5
13F
  8
0
  6
CONTINUOUS
 62
     7
 10
-1314.9887879335
 20
62.6126171206
 30
0.0
 11
-1343.2546515905
 21
62.6126171206
 31
0.0
  0
LINE
  5
140
  8
0
  6
CONTINUOUS
 62
     7
 10
-1345.3418423378
 20
62.9126072977
 30
0.0
 11
-1343.4746374332
 21
62.9126072977
 31
0.0
  0
LINE
  5
141
  8
0
  6
CONTINUOUS
 62
     7
 10
-1345.3418423378
 20
62.9126072977
 30
0.0
 11
-1345.0418372595
 21
62.6126171206
 31
0.0
  0
LINE
  5
142
  8
0
  6
CONTINUOUS
 62
     7
 10
-1343.2546515905
 20
62.6126171206
 30
0.0
 11
-1345.0418372595
 21
62.6126171206
 31
0.0
  0
LINE
  5
143
  8
0
  6
CONTINUOUS
 62
     7
 10
-1343.4746374332
 20
66.3126201485
 30
0.0
 11
-1345.3418423378
 21
66.3126201485
 31
0.0
  0
LINE
  5
144
  8
0
  6
CONTINUOUS
 62
     7
 10
-1345.3418423378
 20
62.9126072977
 30
0.0
 11
-1345.3418423378
 21
66.3126201485
 31
0.0
  0
LINE
  5
145
  8
0
  6
CONTINUOUS
 62
     7
 10
-1345.3418423378
 20
66.3126201485
 30
0.0
 11
-1345.0418372595
 21
66.6126103257
 31
0.0
  0
LINE
  5
146
  8
0
  6
CONTINUOUS
 62
     7
 10
-1723.9418436729
 20
250.6126125459
 30
0.0
 11
-1722.3418463909
 21
250.6126125459
 31
0.0
  0
LINE
  5
147
  8
0
  6
CONTINUOUS
 62
     7
 10
-1723.9418436729
 20
250.6126125459
 30
0.0
 11
-1723.9418436729
 21
282.6126140658
 31
0.0
  0
LINE
  5
148
  8
0
  6
CONTINUOUS
 62
     7
 10
-1722.3418463909
 20
282.6126140658
 30
0.0
 11
-1723.9418436729
 21
282.6126140658
 31
0.0
  0
LINE
  5
149
  8
0
  6
CONTINUOUS
 62
     7
 10
-1728.3418436491
 20
254.6126132016
 30
0.0
 11
-1723.9418436729
 21
250.6126125459
 31
0.0
  0
LINE
  5
14A
  8
0
  6
CONTINUOUS
 62
     7
 10
-1728.3418436491
 20
278.6126134102
 30
0.0
 11
-1728.3418436491
 21
254.6126132016
 31
0.0
  0
LINE
  5
14B
  8
0
  6
CONTINUOUS
 62
     7
 10
-1723.9418436729
 20
282.6126140658
 30
0.0
 11
-1728.3418436491
 21
278.6126134102
 31
0.0
  0
LINE
  5
14C
  8
0
  6
CONTINUOUS
 62
     7
 10
-1013.3968283412
 20
470.6126094912
 30
0.0
 11
-1013.6968185183
 21
470.312619314
 31
0.0
  0
LINE
  5
14D
  8
0
  6
CONTINUOUS
 62
     7
 10
-1013.6968185183
 20
470.312619314
 30
0.0
 11
-1013.6968185183
 21
466.9126064633
 31
0.0
  0
LINE
  5
14E
  8
0
  6
CONTINUOUS
 62
     7
 10
-1013.6968185183
 20
466.9126064633
 30
0.0
 11
-1013.3968283412
 21
466.6126162861
 31
0.0
  0
LINE
  5
14F
  8
0
  6
CONTINUOUS
 62
     7
 10
-1013.6968185183
 20
66.3126201485
 30
0.0
 11
-1013.6968185183
 21
62.9126072977
 31
0.0
  0
LINE
  5
150
  8
0
  6
CONTINUOUS
 62
     7
 10
-1013.3968283412
 20
66.6126103257
 30
0.0
 11
-1013.6968185183
 21
66.3126201485
 31
0.0
  0
LINE
  5
151
  8
0
  6
CONTINUOUS
 62
     7
 10
-1013.6968185183
 20
62.9126072977
 30
0.0
 11
-1013.3968283412
 21
62.6126171206
 31
0.0
  0
LINE
  5
152
  8
0
  6
CONTINUOUS
 62
     7
 10
-1012.7968181845
 20
465.1126206969
 30
0.0
 11
-1012.8234018561
 21
465.1119054411
 31
0.0
  0
LINE
  5
153
  8
0
  6
CONTINUOUS
 62
     7
 10
-1000.570236611
 20
465.1119054411
 30
0.0
 11
-1000.5968202826
 21
465.1126206969
 31
0.0
  0
LINE
  5
154
  8
0
  6
CONTINUOUS
 62
     7
 10
-987.8234107968
 20
68.1133211706
 30
0.0
 11
-987.7968271252
 21
68.1126059149
 31
0.0
  0
LINE
  5
155
  8
0
  6
CONTINUOUS
 62
     7
 10
-987.7968271252
 20
465.1126206969
 30
0.0
 11
-987.8234107968
 21
465.1119054411
 31
0.0
  0
LINE
  5
156
  8
0
  6
CONTINUOUS
 62
     7
 10
-1000.5968202826
 20
68.1126059149
 30
0.0
 11
-1000.570236611
 21
68.1133211706
 31
0.0
  0
LINE
  5
157
  8
0
  6
CONTINUOUS
 62
     7
 10
-1012.8234018561
 20
68.1133211706
 30
0.0
 11
-1012.7968181845
 21
68.1126059149
 31
0.0
  0
LINE
  5
158
  8
0
  6
CONTINUOUS
 62
     7
 10
-1000.446825194
 20
68.1126059149
 30
0.0
 11
-1000.446825194
 21
68.1133211706
 31
0.0
  0
LINE
  5
159
  8
0
  6
CONTINUOUS
 62
     7
 10
-978.6968220946
 20
66.6126103257
 30
0.0
 11
-978.6968220946
 21
466.6126162861
 31
0.0
  0
LINE
  5
15A
  8
0
  6
CONTINUOUS
 62
     7
 10
-938.6968155381
 20
466.6126162861
 30
0.0
 11
-938.6968155381
 21
66.6126103257
 31
0.0
  0
LINE
  5
15B
  8
0
  6
CONTINUOUS
 62
     7
 10
-1156.1968227838
 20
68.1133211706
 30
0.0
 11
-978.6968220946
 21
68.1133211706
 31
0.0
  0
LINE
  5
15C
  8
0
  6
CONTINUOUS
 62
     7
 10
-978.6968220946
 20
465.1119054411
 30
0.0
 11
-1156.1968227838
 21
465.1119054411
 31
0.0
  0
POLYLINE
  5
15D
  8
0
  6
CONTINUOUS
 62
     7
 66
     1
 10
0.0
 20
0.0
 30
0.0
  0
VERTEX
  5
51B
  8
0
  6
CONTINUOUS
 62
     7
 10
-1156.1968227838
 20
465.1119054411
 30
0.0
  0
VERTEX
  5
51C
  8
0
  6
CONTINUOUS
 62
     7
 10
-1156.7177673791
 20
465.0891215657
 30
0.0
  0
VERTEX
  5
51D
  8
0
  6
CONTINUOUS
 62
     7
 10
-1157.222883216
 20
465.021485195
 30
0.0
  0
VERTEX
  5
51E
  8
0
  6
CONTINUOUS
 62
     7
 10
-1157.6968227968
 20
464.9110377882
 30
0.0
  0
VERTEX
  5
51F
  8
0
  6
CONTINUOUS
 62
     7
 10
-1158.1251856627
 20
464.7611321066
 30
0.0
  0
VERTEX
  5
520
  8
0
  6
CONTINUOUS
 62
     7
 10
-1158.4949561151
 20
464.5763428067
 30
0.0
  0
VERTEX
  5
521
  8
0
  6
CONTINUOUS
 62
     7
 10
-1158.7948990277
 20
464.3622578238
 30
0.0
  0
VERTEX
  5
522
  8
0
  6
CONTINUOUS
 62
     7
 10
-1159.0159006668
 20
464.1254038666
 30
0.0
  0
VERTEX
  5
523
  8
0
  6
CONTINUOUS
 62
     7
 10
-1159.1512460695
 20
463.8729632948
 30
0.0
  0
VERTEX
  5
524
  8
0
  6
CONTINUOUS
 62
     7
 10
-1159.1968228098
 20
463.6126102064
 30
0.0
  0
SEQEND
  5
525
  8
0
  6
CONTINUOUS
 62
     7
  0
POLYLINE
  5
15E
  8
0
  6
CONTINUOUS
 62
     7
 66
     1
 10
0.0
 20
0.0
 30
0.0
  0
VERTEX
  5
526
  8
0
  6
CONTINUOUS
 62
     7
 10
-1159.1968228098
 20
69.6126164053
 30
0.0
  0
VERTEX
  5
527
  8
0
  6
CONTINUOUS
 62
     7
 10
-1159.1512460695
 20
69.3522633169
 30
0.0
  0
VERTEX
  5
528
  8
0
  6
CONTINUOUS
 62
     7
 10
-1159.0159006668
 20
69.0998227452
 30
0.0
  0
VERTEX
  5
529
  8
0
  6
CONTINUOUS
 62
     7
 10
-1158.7948990277
 20
68.862968788
 30
0.0
  0
VERTEX
  5
52A
  8
0
  6
CONTINUOUS
 62
     7
 10
-1158.4949561151
 20
68.6488838051
 30
0.0
  0
VERTEX
  5
52B
  8
0
  6
CONTINUOUS
 62
     7
 10
-1158.1251856627
 20
68.4640945052
 30
0.0
  0
VERTEX
  5
52C
  8
0
  6
CONTINUOUS
 62
     7
 10
-1157.6968227968
 20
68.3141888235
 30
0.0
  0
VERTEX
  5
52D
  8
0
  6
CONTINUOUS
 62
     7
 10
-1157.222883216
 20
68.2037414168
 30
0.0
  0
VERTEX
  5
52E
  8
0
  6
CONTINUOUS
 62
     7
 10
-1156.7177673791
 20
68.1361050461
 30
0.0
  0
VERTEX
  5
52F
  8
0
  6
CONTINUOUS
 62
     7
 10
-1156.1968227838
 20
68.1133211706
 30
0.0
  0
SEQEND
  5
530
  8
0
  6
CONTINUOUS
 62
     7
  0
LINE
  5
15F
  8
0
  6
CONTINUOUS
 62
     7
 10
-1159.1968228098
 20
463.6126102064
 30
0.0
 11
-1159.1968228098
 21
69.6126164053
 31
0.0
  0
LINE
  5
160
  8
0
  6
CONTINUOUS
 62
     7
 10
-1156.1968227838
 20
466.6126162861
 30
0.0
 11
-1000.9145428416
 21
466.6126162861
 31
0.0
  0
LINE
  5
161
  8
0
  6
CONTINUOUS
 62
     7
 10
-1156.1968227838
 20
465.1126206969
 30
0.0
 11
-978.6968220946
 21
465.1126206969
 31
0.0
  0
ARC
  5
162
  8
0
  6
CONTINUOUS
 62
     7
 10
-1156.1968083381
 20
463.6126018144
 30
0.0
 40
3.000014471762531
 50
90.0002758907
 51
179.9998397243
  0
LINE
  5
163
  8
0
  6
CONTINUOUS
 62
     7
 10
-1000.9145428416
 20
66.6126103257
 30
0.0
 11
-1156.1968227838
 21
66.6126103257
 31
0.0
  0
LINE
  5
164
  8
0
  6
CONTINUOUS
 62
     7
 10
-978.6968220946
 20
68.1126059149
 30
0.0
 11
-1156.1968227838
 21
68.1126059149
 31
0.0
  0
ARC
  5
165
  8
0
  6
CONTINUOUS
 62
     7
 10
-1156.1968081458
 20
69.6126249897
 30
0.0
 40
3.000014664104132
 50
180.0001639491
 51
269.9997204359
  0
LINE
  5
166
  8
0
  6
CONTINUOUS
 62
     7
 10
-979.1044582602
 20
466.9126064633
 30
0.0
 11
-976.8946160552
 21
466.9126064633
 31
0.0
  0
LINE
  5
167
  8
0
  6
CONTINUOUS
 62
     7
 10
-976.8946160552
 20
466.6126162861
 30
0.0
 11
-978.9004762646
 21
466.6126162861
 31
0.0
  0
LINE
  5
168
  8
0
  6
CONTINUOUS
 62
     7
 10
-940.9468163725
 20
466.6126162861
 30
0.0
 11
-976.8946160552
 21
466.6126162861
 31
0.0
  0
LINE
  5
169
  8
0
  6
CONTINUOUS
 62
     7
 10
-976.8946160552
 20
466.9126064633
 30
0.0
 11
-940.9468163725
 21
466.9126064633
 31
0.0
  0
LINE
  5
16A
  8
0
  6
CONTINUOUS
 62
     7
 10
-976.8946160552
 20
470.6126094912
 30
0.0
 11
-940.9468163725
 21
470.6126094912
 31
0.0
  0
LINE
  5
16B
  8
0
  6
CONTINUOUS
 62
     7
 10
-940.9468163725
 20
470.312619314
 30
0.0
 11
-976.8946160552
 21
470.312619314
 31
0.0
  0
LINE
  5
16C
  8
0
  6
CONTINUOUS
 62
     7
 10
-976.8946160552
 20
470.312619314
 30
0.0
 11
-979.1044582602
 21
470.312619314
 31
0.0
  0
LINE
  5
16D
  8
0
  6
CONTINUOUS
 62
     7
 10
-978.9004762646
 20
470.6126094912
 30
0.0
 11
-976.8946160552
 21
470.6126094912
 31
0.0
  0
LINE
  5
16E
  8
0
  6
CONTINUOUS
 62
     7
 10
-937.9968185898
 20
466.6126162861
 30
0.0
 11
-940.9468163725
 21
466.6126162861
 31
0.0
  0
LINE
  5
16F
  8
0
  6
CONTINUOUS
 62
     7
 10
-940.9468163725
 20
466.9126064633
 30
0.0
 11
-937.6968284127
 21
466.9126064633
 31
0.0
  0
LINE
  5
170
  8
0
  6
CONTINUOUS
 62
     7
 10
-937.9968185898
 20
466.6126162861
 30
0.0
 11
-937.6968284127
 21
466.9126064633
 31
0.0
  0
LINE
  5
171
  8
0
  6
CONTINUOUS
 62
     7
 10
-937.6968284127
 20
470.312619314
 30
0.0
 11
-940.9468163725
 21
470.312619314
 31
0.0
  0
LINE
  5
172
  8
0
  6
CONTINUOUS
 62
     7
 10
-937.6968284127
 20
470.312619314
 30
0.0
 11
-937.6968284127
 21
466.9126064633
 31
0.0
  0
LINE
  5
173
  8
0
  6
CONTINUOUS
 62
     7
 10
-940.9468163725
 20
470.6126094912
 30
0.0
 11
-937.9968185898
 21
470.6126094912
 31
0.0
  0
LINE
  5
174
  8
0
  6
CONTINUOUS
 62
     7
 10
-937.9968185898
 20
470.6126094912
 30
0.0
 11
-937.6968284127
 21
470.312619314
 31
0.0
  0
LINE
  5
175
  8
0
  6
CONTINUOUS
 62
     7
 10
-979.1044582602
 20
470.312619314
 30
0.0
 11
-1011.4565034386
 21
470.312619314
 31
0.0
  0
LINE
  5
176
  8
0
  6
CONTINUOUS
 62
     7
 10
-1011.2525065419
 20
470.6126094912
 30
0.0
 11
-978.9004762646
 21
470.6126094912
 31
0.0
  0
LINE
  5
177
  8
0
  6
CONTINUOUS
 62
     7
 10
-1011.4565034386
 20
466.9126064633
 30
0.0
 11
-979.1044582602
 21
466.9126064633
 31
0.0
  0
LINE
  5
178
  8
0
  6
CONTINUOUS
 62
     7
 10
-978.9004762646
 20
466.6126162861
 30
0.0
 11
-1000.9145428416
 21
466.6126162861
 31
0.0
  0
LINE
  5
179
  8
0
  6
CONTINUOUS
 62
     7
 10
-1011.4565034386
 20
470.312619314
 30
0.0
 11
-1013.6968185183
 21
470.312619314
 31
0.0
  0
LINE
  5
17A
  8
0
  6
CONTINUOUS
 62
     7
 10
-1013.3968283412
 20
470.6126094912
 30
0.0
 11
-1011.2525065419
 21
470.6126094912
 31
0.0
  0
LINE
  5
17B
  8
0
  6
CONTINUOUS
 62
     7
 10
-1013.6968185183
 20
466.9126064633
 30
0.0
 11
-1011.4565034386
 21
466.9126064633
 31
0.0
  0
LINE
  5
17C
  8
0
  6
CONTINUOUS
 62
     7
 10
-976.8946160552
 20
62.9126072977
 30
0.0
 11
-940.9468163725
 21
62.9126072977
 31
0.0
  0
LINE
  5
17D
  8
0
  6
CONTINUOUS
 62
     7
 10
-940.9468163725
 20
66.3126201485
 30
0.0
 11
-976.8946160552
 21
66.3126201485
 31
0.0
  0
LINE
  5
17E
  8
0
  6
CONTINUOUS
 62
     7
 10
-979.1044582602
 20
62.9126072977
 30
0.0
 11
-976.8946160552
 21
62.9126072977
 31
0.0
  0
LINE
  5
17F
  8
0
  6
CONTINUOUS
 62
     7
 10
-976.8946160552
 20
62.6126171206
 30
0.0
 11
-978.9004762646
 21
62.6126171206
 31
0.0
  0
LINE
  5
180
  8
0
  6
CONTINUOUS
 62
     7
 10
-976.8946160552
 20
66.3126201485
 30
0.0
 11
-979.1044582602
 21
66.3126201485
 31
0.0
  0
LINE
  5
181
  8
0
  6
CONTINUOUS
 62
     7
 10
-978.9004762646
 20
66.6126103257
 30
0.0
 11
-976.8946160552
 21
66.6126103257
 31
0.0
  0
LINE
  5
182
  8
0
  6
CONTINUOUS
 62
     7
 10
-940.9468163725
 20
62.6126171206
 30
0.0
 11
-976.8946160552
 21
62.6126171206
 31
0.0
  0
LINE
  5
183
  8
0
  6
CONTINUOUS
 62
     7
 10
-976.8946160552
 20
66.6126103257
 30
0.0
 11
-940.9468163725
 21
66.6126103257
 31
0.0
  0
LINE
  5
184
  8
0
  6
CONTINUOUS
 62
     7
 10
-940.9468163725
 20
62.9126072977
 30
0.0
 11
-937.6968284127
 21
62.9126072977
 31
0.0
  0
LINE
  5
185
  8
0
  6
CONTINUOUS
 62
     7
 10
-937.6968284127
 20
66.3126201485
 30
0.0
 11
-940.9468163725
 21
66.3126201485
 31
0.0
  0
LINE
  5
186
  8
0
  6
CONTINUOUS
 62
     7
 10
-937.6968284127
 20
66.3126201485
 30
0.0
 11
-937.6968284127
 21
62.9126072977
 31
0.0
  0
LINE
  5
187
  8
0
  6
CONTINUOUS
 62
     7
 10
-937.9968185898
 20
62.6126171206
 30
0.0
 11
-940.9468163725
 21
62.6126171206
 31
0.0
  0
LINE
  5
188
  8
0
  6
CONTINUOUS
 62
     7
 10
-937.9968185898
 20
62.6126171206
 30
0.0
 11
-937.6968284127
 21
62.9126072977
 31
0.0
  0
LINE
  5
189
  8
0
  6
CONTINUOUS
 62
     7
 10
-940.9468163725
 20
66.6126103257
 30
0.0
 11
-937.9968185898
 21
66.6126103257
 31
0.0
  0
LINE
  5
18A
  8
0
  6
CONTINUOUS
 62
     7
 10
-937.9968185898
 20
66.6126103257
 30
0.0
 11
-937.6968284127
 21
66.3126201485
 31
0.0
  0
LINE
  5
18B
  8
0
  6
CONTINUOUS
 62
     7
 10
-1011.4565034386
 20
62.9126072977
 30
0.0
 11
-979.1044582602
 21
62.9126072977
 31
0.0
  0
LINE
  5
18C
  8
0
  6
CONTINUOUS
 62
     7
 10
-978.9004762646
 20
62.6126171206
 30
0.0
 11
-1011.2525065419
 21
62.6126171206
 31
0.0
  0
LINE
  5
18D
  8
0
  6
CONTINUOUS
 62
     7
 10
-979.1044582602
 20
66.3126201485
 30
0.0
 11
-1011.4565034386
 21
66.3126201485
 31
0.0
  0
LINE
  5
18E
  8
0
  6
CONTINUOUS
 62
     7
 10
-1000.9145428416
 20
66.6126103257
 30
0.0
 11
-978.9004762646
 21
66.6126103257
 31
0.0
  0
LINE
  5
18F
  8
0
  6
CONTINUOUS
 62
     7
 10
-1013.6968185183
 20
62.9126072977
 30
0.0
 11
-1011.4565034386
 21
62.9126072977
 31
0.0
  0
LINE
  5
190
  8
0
  6
CONTINUOUS
 62
     7
 10
-1011.4565034386
 20
66.3126201485
 30
0.0
 11
-1013.6968185183
 21
66.3126201485
 31
0.0
  0
LINE
  5
191
  8
0
  6
CONTINUOUS
 62
     7
 10
-1011.2525065419
 20
62.6126171206
 30
0.0
 11
-1013.3968283412
 21
62.6126171206
 31
0.0
  0
ARC
  5
192
  8
0
  6
CONTINUOUS
 62
     7
 10
-1002.69682281
 20
266.6126133059
 30
0.0
 40
15.99999999999963
 50
90.0
 51
270.0
  0
ARC
  5
193
  8
0
  6
CONTINUOUS
 62
     7
 10
-1002.69682281
 20
266.6126133059
 30
0.0
 40
12.00000000000045
 50
90.0
 51
270.0
  0
ARC
  5
194
  8
0
  6
CONTINUOUS
 62
     7
 10
-1002.69682281
 20
266.6126133059
 30
0.0
 40
12.00000000000045
 50
270.0
 51
90.0
  0
ARC
  5
195
  8
0
  6
CONTINUOUS
 62
     7
 10
-1002.69682281
 20
266.6126133059
 30
0.0
 40
8.349999999999966
 50
90.0
 51
270.0
  0
ARC
  5
196
  8
0
  6
CONTINUOUS
 62
     7
 10
-1002.69682281
 20
266.6126133059
 30
0.0
 40
8.349999999999966
 50
270.0
 51
90.0
  0
ARC
  5
197
  8
0
  6
CONTINUOUS
 62
     7
 10
-1002.69682281
 20
266.6126133059
 30
0.0
 40
15.99999999999963
 50
270.0
 51
90.0
  0
ARC
  5
198
  8
0
  6
CONTINUOUS
 62
     7
 10
-1002.69682281
 20
266.6126133059
 30
0.0
 40
8.050000000000011
 50
90.0
 51
270.0
  0
ARC
  5
199
  8
0
  6
CONTINUOUS
 62
     7
 10
-1002.69682281
 20
266.6126133059
 30
0.0
 40
8.050000000000011
 50
270.0
 51
90.0
  0
LINE
  5
19A
  8
0
  6
CONTINUOUS
 62
     7
 10
-994.8386986729
 20
265.1126132928
 30
0.0
 11
-997.9271282431
 21
265.1126132928
 31
0.0
  0
LINE
  5
19B
  8
0
  6
CONTINUOUS
 62
     7
 10
-1010.5549384829
 20
265.1126132928
 30
0.0
 11
-1007.4665238139
 21
265.1126132928
 31
0.0
  0
ARC
  5
19C
  8
0
  6
CONTINUOUS
 62
     7
 10
-1002.69682281
 20
266.6126133059
 30
0.0
 40
5.000000000001265
 50
197.4576031237
 51
342.5423968763
  0
ARC
  5
19D
  8
0
  6
CONTINUOUS
 62
     7
 10
-1002.69682281
 20
266.6126133059
 30
0.0
 40
8.000000000000952
 50
190.8069228749
 51
349.1930771251
  0
ARC
  5
19E
  8
0
  6
CONTINUOUS
 62
     7
 10
-1002.69682281
 20
266.6126133059
 30
0.0
 40
1.500000000000341
 50
360.0
 51
180.0
  0
ARC
  5
19F
  8
0
  6
CONTINUOUS
 62
     7
 10
-1002.69682281
 20
266.6126133059
 30
0.0
 40
1.500000000000341
 50
180.0
 51
360.0
  0
LINE
  5
1A0
  8
0
  6
CONTINUOUS
 62
     7
 10
-994.8386986729
 20
268.1126133189
 30
0.0
 11
-997.9271282431
 21
268.1126133189
 31
0.0
  0
LINE
  5
1A1
  8
0
  6
CONTINUOUS
 62
     7
 10
-1010.5549384829
 20
268.1126133189
 30
0.0
 11
-1007.4665238139
 21
268.1126133189
 31
0.0
  0
ARC
  5
1A2
  8
0
  6
CONTINUOUS
 62
     7
 10
-1002.69682281
 20
266.6126133059
 30
0.0
 40
5.000000000000615
 50
17.4576031237
 51
162.5423968763
  0
ARC
  5
1A3
  8
0
  6
CONTINUOUS
 62
     7
 10
-1002.69682281
 20
266.6126133059
 30
0.0
 40
8.000000000000131
 50
10.8069228749
 51
169.1930771251
  0
ARC
  5
1A4
  8
0
  6
CONTINUOUS
 62
     7
 10
-1002.69682281
 20
266.6126133059
 30
0.0
 40
8.00000000000076
 50
169.1930771251
 51
190.8069228749
  0
ARC
  5
1A5
  8
0
  6
CONTINUOUS
 62
     7
 10
-1002.69682281
 20
266.6126133059
 30
0.0
 40
7.999999999999988
 50
349.1930771251
 51
10.8069228749
  0
LINE
  5
1A6
  8
0
  6
CONTINUOUS
 62
     7
 10
-1102.19682278
 20
465.1126206969
 30
0.0
 11
-1102.2619557556
 21
465.1119054411
 31
0.0
  0
LINE
  5
1A7
  8
0
  6
CONTINUOUS
 62
     7
 10
-1026.131688523
 20
465.1119054411
 30
0.0
 11
-1026.1968214985
 21
465.1126206969
 31
0.0
  0
LINE
  5
1A8
  8
0
  6
CONTINUOUS
 62
     7
 10
-992.1968271014
 20
465.1119054411
 30
0.0
 11
-992.1968271014
 21
465.1126206969
 31
0.0
  0
LINE
  5
1A9
  8
0
  6
CONTINUOUS
 62
     7
 10
-1136.1968227651
 20
465.1126206969
 30
0.0
 11
-1136.1968227651
 21
465.1119054411
 31
0.0
  0
LINE
  5
1AA
  8
0
  6
CONTINUOUS
 62
     7
 10
-1146.1968225416
 20
465.1119054411
 30
0.0
 11
-1146.1968225416
 21
465.1126206969
 31
0.0
  0
LINE
  5
1AB
  8
0
  6
CONTINUOUS
 62
     7
 10
-772.8094890294
 20
66.6126103257
 30
0.0
 11
-772.8094890294
 21
466.6126162861
 31
0.0
  0
LINE
  5
1AC
  8
0
  6
CONTINUOUS
 62
     7
 10
-762.8094985661
 20
466.6126162861
 30
0.0
 11
-762.8094985661
 21
66.6126103257
 31
0.0
  0
LINE
  5
1AD
  8
0
  6
CONTINUOUS
 62
     7
 10
-344.8094859299
 20
66.6126103257
 30
0.0
 11
-344.8094859299
 21
466.6126162861
 31
0.0
  0
LINE
  5
1AE
  8
0
  6
CONTINUOUS
 62
     7
 10
-334.8094954667
 20
466.6126162861
 30
0.0
 11
-334.8094954667
 21
66.6126103257
 31
0.0
  0
POLYLINE
  5
1AF
  8
0
  6
CONTINUOUS
 62
     7
 66
     1
 10
0.0
 20
0.0
 30
0.0
  0
VERTEX
  5
531
  8
0
  6
CONTINUOUS
 62
     7
 10
-753.8094952283
 20
68.1133211706
 30
0.0
  0
VERTEX
  5
532
  8
0
  6
CONTINUOUS
 62
     7
 10
-753.7639125762
 20
68.1361050461
 30
0.0
  0
VERTEX
  5
533
  8
0
  6
CONTINUOUS
 62
     7
 10
-753.6285653291
 20
68.2037414168
 30
0.0
  0
VERTEX
  5
534
  8
0
  6
CONTINUOUS
 62
     7
 10
-753.4075662074
 20
68.3141888235
 30
0.0
  0
VERTEX
  5
535
  8
0
  6
CONTINUOUS
 62
     7
 10
-753.1076207337
 20
68.4640945052
 30
0.0
  0
VERTEX
  5
536
  8
0
  6
CONTINUOUS
 62
     7
 10
-752.7378484187
 20
68.6488838051
 30
0.0
  0
VERTEX
  5
537
  8
0
  6
CONTINUOUS
 62
     7
 10
-752.309499639
 20
68.862968788
 30
0.0
  0
VERTEX
  5
538
  8
0
  6
CONTINUOUS
 62
     7
 10
-751.8355533061
 20
69.0998227452
 30
0.0
  0
VERTEX
  5
539
  8
0
  6
CONTINUOUS
 62
     7
 10
-751.3304337439
 20
69.3522633169
 30
0.0
  0
VERTEX
  5
53A
  8
0
  6
CONTINUOUS
 62
     7
 10
-750.8094891486
 20
69.6126164053
 30
0.0
  0
SEQEND
  5
53B
  8
0
  6
CONTINUOUS
 62
     7
  0
POLYLINE
  5
1B0
  8
0
  6
CONTINUOUS
 62
     7
 66
     1
 10
0.0
 20
0.0
 30
0.0
  0
VERTEX
  5
53C
  8
0
  6
CONTINUOUS
 62
     7
 10
-752.309499639
 20
68.1133211706
 30
0.0
  0
VERTEX
  5
53D
  8
0
  6
CONTINUOUS
 62
     7
 10
-752.2867008624
 20
68.1361050461
 30
0.0
  0
VERTEX
  5
53E
  8
0
  6
CONTINUOUS
 62
     7
 10
-752.2190346894
 20
68.2037414168
 30
0.0
  0
VERTEX
  5
53F
  8
0
  6
CONTINUOUS
 62
     7
 10
-752.108527678
 20
68.3141888235
 30
0.0
  0
VERTEX
  5
540
  8
0
  6
CONTINUOUS
 62
     7
 10
-751.9585623917
 20
68.4640945052
 30
0.0
  0
VERTEX
  5
541
  8
0
  6
CONTINUOUS
 62
     7
 10
-751.7736687836
 20
68.6488838051
 30
0.0
  0
VERTEX
  5
542
  8
0
  6
CONTINUOUS
 62
     7
 10
-751.5594943938
 20
68.862968788
 30
0.0
  0
VERTEX
  5
543
  8
0
  6
CONTINUOUS
 62
     7
 10
-751.3225212273
 20
69.0998227452
 30
0.0
  0
VERTEX
  5
544
  8
0
  6
CONTINUOUS
 62
     7
 10
-751.0699614463
 20
69.3522633169
 30
0.0
  0
VERTEX
  5
545
  8
0
  6
CONTINUOUS
 62
     7
 10
-750.8094891486
 20
69.6126164053
 30
0.0
  0
SEQEND
  5
546
  8
0
  6
CONTINUOUS
 62
     7
  0
LINE
  5
1B1
  8
0
  6
CONTINUOUS
 62
     7
 10
-752.309499639
 20
68.1133211706
 30
0.0
 11
-753.8094952283
 21
68.1133211706
 31
0.0
  0
POLYLINE
  5
1B2
  8
0
  6
CONTINUOUS
 62
     7
 66
     1
 10
0.0
 20
0.0
 30
0.0
  0
VERTEX
  5
547
  8
0
  6
CONTINUOUS
 62
     7
 10
-750.8094891486
 20
463.6126102064
 30
0.0
  0
VERTEX
  5
548
  8
0
  6
CONTINUOUS
 62
     7
 10
-751.3947620568
 20
463.9051050995
 30
0.0
  0
VERTEX
  5
549
  8
0
  6
CONTINUOUS
 62
     7
 10
-751.9575491128
 20
464.1863645171
 30
0.0
  0
VERTEX
  5
54A
  8
0
  6
CONTINUOUS
 62
     7
 10
-752.4761989293
 20
464.445570216
 30
0.0
  0
VERTEX
  5
54B
  8
0
  6
CONTINUOUS
 62
     7
 10
-752.9308184562
 20
464.6727682207
 30
0.0
  0
VERTEX
  5
54C
  8
0
  6
CONTINUOUS
 62
     7
 10
-753.303898829
 20
464.8592264508
 30
0.0
  0
VERTEX
  5
54D
  8
0
  6
CONTINUOUS
 62
     7
 10
-753.581134933
 20
464.9977774475
 30
0.0
  0
VERTEX
  5
54E
  8
0
  6
CONTINUOUS
 62
     7
 10
-753.7518426356
 20
465.0831014965
 30
0.0
  0
VERTEX
  5
54F
  8
0
  6
CONTINUOUS
 62
     7
 10
-753.8094952283
 20
465.1119054411
 30
0.0
  0
SEQEND
  5
550
  8
0
  6
CONTINUOUS
 62
     7
  0
LINE
  5
1B3
  8
0
  6
CONTINUOUS
 62
     7
 10
-752.309499639
 20
465.1119054411
 30
0.0
 11
-753.8094952283
 21
465.1119054411
 31
0.0
  0
POLYLINE
  5
1B4
  8
0
  6
CONTINUOUS
 62
     7
 66
     1
 10
0.0
 20
0.0
 30
0.0
  0
VERTEX
  5
551
  8
0
  6
CONTINUOUS
 62
     7
 10
-750.8094891486
 20
463.6126102064
 30
0.0
  0
VERTEX
  5
552
  8
0
  6
CONTINUOUS
 62
     7
 10
-751.1021330533
 20
463.9051050995
 30
0.0
  0
VERTEX
  5
553
  8
0
  6
CONTINUOUS
 62
     7
 10
-751.3835116801
 20
464.1863645171
 30
0.0
  0
VERTEX
  5
554
  8
0
  6
CONTINUOUS
 62
     7
 10
-751.6428514895
 20
464.445570216
 30
0.0
  0
VERTEX
  5
555
  8
0
  6
CONTINUOUS
 62
     7
 10
-751.8701538024
 20
464.6727682207
 30
0.0
  0
VERTEX
  5
556
  8
0
  6
CONTINUOUS
 62
     7
 10
-752.0567014394
 20
464.8592264508
 30
0.0
  0
VERTEX
  5
557
  8
0
  6
CONTINUOUS
 62
     7
 10
-752.1953120408
 20
464.9977774475
 30
0.0
  0
VERTEX
  5
558
  8
0
  6
CONTINUOUS
 62
     7
 10
-752.2806658921
 20
465.0831014965
 30
0.0
  0
VERTEX
  5
559
  8
0
  6
CONTINUOUS
 62
     7
 10
-752.309499639
 20
465.1119054411
 30
0.0
  0
SEQEND
  5
55A
  8
0
  6
CONTINUOUS
 62
     7
  0
LINE
  5
1B5
  8
0
  6
CONTINUOUS
 62
     7
 10
-753.8094952283
 20
68.1133211706
 30
0.0
 11
-753.8094952283
 21
465.1119054411
 31
0.0
  0
POLYLINE
  5
1B6
  8
0
  6
CONTINUOUS
 62
     7
 66
     1
 10
0.0
 20
0.0
 30
0.0
  0
VERTEX
  5
55B
  8
0
  6
CONTINUOUS
 62
     7
 10
-750.8094891486
 20
69.6126164053
 30
0.0
  0
VERTEX
  5
55C
  8
0
  6
CONTINUOUS
 62
     7
 10
-751.1019840417
 20
69.0273434971
 30
0.0
  0
VERTEX
  5
55D
  8
0
  6
CONTINUOUS
 62
     7
 10
-751.3832434592
 20
68.4645564411
 30
0.0
  0
VERTEX
  5
55E
  8
0
  6
CONTINUOUS
 62
     7
 10
-751.6424491582
 20
67.9459066246
 30
0.0
  0
VERTEX
  5
55F
  8
0
  6
CONTINUOUS
 62
     7
 10
-751.8696471629
 20
67.4912870978
 30
0.0
  0
VERTEX
  5
560
  8
0
  6
CONTINUOUS
 62
     7
 10
-752.0561053929
 20
67.118206725
 30
0.0
  0
VERTEX
  5
561
  8
0
  6
CONTINUOUS
 62
     7
 10
-752.1946563897
 20
66.840970621
 30
0.0
  0
VERTEX
  5
562
  8
0
  6
CONTINUOUS
 62
     7
 10
-752.2799804387
 20
66.6702629183
 30
0.0
  0
VERTEX
  5
563
  8
0
  6
CONTINUOUS
 62
     7
 10
-752.3087843833
 20
66.6126103257
 30
0.0
  0
SEQEND
  5
564
  8
0
  6
CONTINUOUS
 62
     7
  0
LINE
  5
1B7
  8
0
  6
CONTINUOUS
 62
     7
 10
-752.3087843833
 20
68.1126059149
 30
0.0
 11
-752.3087843833
 21
66.6126103257
 31
0.0
  0
POLYLINE
  5
1B8
  8
0
  6
CONTINUOUS
 62
     7
 66
     1
 10
0.0
 20
0.0
 30
0.0
  0
VERTEX
  5
565
  8
0
  6
CONTINUOUS
 62
     7
 10
-750.8094891486
 20
69.6126164053
 30
0.0
  0
VERTEX
  5
566
  8
0
  6
CONTINUOUS
 62
     7
 10
-751.1019840417
 20
69.3199725006
 30
0.0
  0
VERTEX
  5
567
  8
0
  6
CONTINUOUS
 62
     7
 10
-751.3832434592
 20
69.0385938738
 30
0.0
  0
VERTEX
  5
568
  8
0
  6
CONTINUOUS
 62
     7
 10
-751.6424491582
 20
68.7792540644
 30
0.0
  0
VERTEX
  5
569
  8
0
  6
CONTINUOUS
 62
     7
 10
-751.8696471629
 20
68.5519517515
 30
0.0
  0
VERTEX
  5
56A
  8
0
  6
CONTINUOUS
 62
     7
 10
-752.0561053929
 20
68.3654041146
 30
0.0
  0
VERTEX
  5
56B
  8
0
  6
CONTINUOUS
 62
     7
 10
-752.1946563897
 20
68.2267935131
 30
0.0
  0
VERTEX
  5
56C
  8
0
  6
CONTINUOUS
 62
     7
 10
-752.2799804387
 20
68.1414396618
 30
0.0
  0
VERTEX
  5
56D
  8
0
  6
CONTINUOUS
 62
     7
 10
-752.3087843833
 20
68.1126059149
 30
0.0
  0
SEQEND
  5
56E
  8
0
  6
CONTINUOUS
 62
     7
  0
POLYLINE
  5
1B9
  8
0
  6
CONTINUOUS
 62
     7
 66
     1
 10
0.0
 20
0.0
 30
0.0
  0
VERTEX
  5
56F
  8
0
  6
CONTINUOUS
 62
     7
 10
-355.3102001128
 20
66.6126103257
 30
0.0
  0
VERTEX
  5
570
  8
0
  6
CONTINUOUS
 62
     7
 10
-355.3329839883
 20
66.6581929777
 30
0.0
  0
VERTEX
  5
571
  8
0
  6
CONTINUOUS
 62
     7
 10
-355.4006203589
 20
66.7935402249
 30
0.0
  0
VERTEX
  5
572
  8
0
  6
CONTINUOUS
 62
     7
 10
-355.5110677657
 20
67.0145393465
 30
0.0
  0
VERTEX
  5
573
  8
0
  6
CONTINUOUS
 62
     7
 10
-355.6609734473
 20
67.3144848202
 30
0.0
  0
VERTEX
  5
574
  8
0
  6
CONTINUOUS
 62
     7
 10
-355.8457627473
 20
67.6842571352
 30
0.0
  0
VERTEX
  5
575
  8
0
  6
CONTINUOUS
 62
     7
 10
-356.0598477301
 20
68.1126059149
 30
0.0
  0
VERTEX
  5
576
  8
0
  6
CONTINUOUS
 62
     7
 10
-356.2967016873
 20
68.5865522478
 30
0.0
  0
VERTEX
  5
577
  8
0
  6
CONTINUOUS
 62
     7
 10
-356.5491422591
 20
69.09167181
 30
0.0
  0
VERTEX
  5
578
  8
0
  6
CONTINUOUS
 62
     7
 10
-356.8094953475
 20
69.6126164053
 30
0.0
  0
SEQEND
  5
579
  8
0
  6
CONTINUOUS
 62
     7
  0
LINE
  5
1BA
  8
0
  6
CONTINUOUS
 62
     7
 10
-355.3102001128
 20
66.6126103257
 30
0.0
 11
-752.3087843833
 21
66.6126103257
 31
0.0
  0
POLYLINE
  5
1BB
  8
0
  6
CONTINUOUS
 62
     7
 66
     1
 10
0.0
 20
0.0
 30
0.0
  0
VERTEX
  5
57A
  8
0
  6
CONTINUOUS
 62
     7
 10
-752.3087843833
 20
466.6126162861
 30
0.0
  0
VERTEX
  5
57B
  8
0
  6
CONTINUOUS
 62
     7
 10
-752.2860005078
 20
466.567033634
 30
0.0
  0
VERTEX
  5
57C
  8
0
  6
CONTINUOUS
 62
     7
 10
-752.2183641372
 20
466.4316863869
 30
0.0
  0
VERTEX
  5
57D
  8
0
  6
CONTINUOUS
 62
     7
 10
-752.1079167304
 20
466.2106872652
 30
0.0
  0
VERTEX
  5
57E
  8
0
  6
CONTINUOUS
 62
     7
 10
-751.9580110488
 20
465.9107417916
 30
0.0
  0
VERTEX
  5
57F
  8
0
  6
CONTINUOUS
 62
     7
 10
-751.7732217488
 20
465.5409694765
 30
0.0
  0
VERTEX
  5
580
  8
0
  6
CONTINUOUS
 62
     7
 10
-751.5591367659
 20
465.1126206969
 30
0.0
  0
VERTEX
  5
581
  8
0
  6
CONTINUOUS
 62
     7
 10
-751.3222828088
 20
464.6386743639
 30
0.0
  0
VERTEX
  5
582
  8
0
  6
CONTINUOUS
 62
     7
 10
-751.069842237
 20
464.1335548018
 30
0.0
  0
VERTEX
  5
583
  8
0
  6
CONTINUOUS
 62
     7
 10
-750.8094891486
 20
463.6126102064
 30
0.0
  0
SEQEND
  5
584
  8
0
  6
CONTINUOUS
 62
     7
  0
POLYLINE
  5
1BC
  8
0
  6
CONTINUOUS
 62
     7
 66
     1
 10
0.0
 20
0.0
 30
0.0
  0
VERTEX
  5
585
  8
0
  6
CONTINUOUS
 62
     7
 10
-752.3087843833
 20
465.1126206969
 30
0.0
  0
VERTEX
  5
586
  8
0
  6
CONTINUOUS
 62
     7
 10
-752.2799804387
 20
465.08378695
 30
0.0
  0
VERTEX
  5
587
  8
0
  6
CONTINUOUS
 62
     7
 10
-752.1946563897
 20
464.9984330986
 30
0.0
  0
VERTEX
  5
588
  8
0
  6
CONTINUOUS
 62
     7
 10
-752.0561053929
 20
464.8598224972
 30
0.0
  0
VERTEX
  5
589
  8
0
  6
CONTINUOUS
 62
     7
 10
-751.8696471629
 20
464.6732748602
 30
0.0
  0
VERTEX
  5
58A
  8
0
  6
CONTINUOUS
 62
     7
 10
-751.6424491582
 20
464.4459725474
 30
0.0
  0
VERTEX
  5
58B
  8
0
  6
CONTINUOUS
 62
     7
 10
-751.3832434592
 20
464.186632738
 30
0.0
  0
VERTEX
  5
58C
  8
0
  6
CONTINUOUS
 62
     7
 10
-751.1019840417
 20
463.9052541111
 30
0.0
  0
VERTEX
  5
58D
  8
0
  6
CONTINUOUS
 62
     7
 10
-750.8094891486
 20
463.6126102064
 30
0.0
  0
SEQEND
  5
58E
  8
0
  6
CONTINUOUS
 62
     7
  0
LINE
  5
1BD
  8
0
  6
CONTINUOUS
 62
     7
 10
-752.3087843833
 20
465.1126206969
 30
0.0
 11
-752.3087843833
 21
466.6126162861
 31
0.0
  0
LINE
  5
1BE
  8
0
  6
CONTINUOUS
 62
     7
 10
-752.3087843833
 20
466.6126162861
 30
0.0
 11
-355.3102001128
 21
466.6126162861
 31
0.0
  0
POLYLINE
  5
1BF
  8
0
  6
CONTINUOUS
 62
     7
 66
     1
 10
0.0
 20
0.0
 30
0.0
  0
VERTEX
  5
58F
  8
0
  6
CONTINUOUS
 62
     7
 10
-356.8094953475
 20
463.6126102064
 30
0.0
  0
VERTEX
  5
590
  8
0
  6
CONTINUOUS
 62
     7
 10
-356.5491422591
 20
464.1335548018
 30
0.0
  0
VERTEX
  5
591
  8
0
  6
CONTINUOUS
 62
     7
 10
-356.2967016873
 20
464.6386743639
 30
0.0
  0
VERTEX
  5
592
  8
0
  6
CONTINUOUS
 62
     7
 10
-356.0598477301
 20
465.1126206969
 30
0.0
  0
VERTEX
  5
593
  8
0
  6
CONTINUOUS
 62
     7
 10
-355.8457627473
 20
465.5409694765
 30
0.0
  0
VERTEX
  5
594
  8
0
  6
CONTINUOUS
 62
     7
 10
-355.6609734473
 20
465.9107417916
 30
0.0
  0
VERTEX
  5
595
  8
0
  6
CONTINUOUS
 62
     7
 10
-355.5110677657
 20
466.2106872652
 30
0.0
  0
VERTEX
  5
596
  8
0
  6
CONTINUOUS
 62
     7
 10
-355.4006203589
 20
466.4316863869
 30
0.0
  0
VERTEX
  5
597
  8
0
  6
CONTINUOUS
 62
     7
 10
-355.3329839883
 20
466.567033634
 30
0.0
  0
VERTEX
  5
598
  8
0
  6
CONTINUOUS
 62
     7
 10
-355.3102001128
 20
466.6126162861
 30
0.0
  0
SEQEND
  5
599
  8
0
  6
CONTINUOUS
 62
     7
  0
CIRCLE
  5
1C0
  8
0
  6
CONTINUOUS
 62
     7
 10
-733.809492248
 20
446.6126133059
 30
0.0
 40
4.499999999999886
  0
CIRCLE
  5
1C1
  8
0
  6
CONTINUOUS
 62
     7
 10
-373.809492248
 20
446.6126133059
 30
0.0
 40
4.5
  0
CIRCLE
  5
1C2
  8
0
  6
CONTINUOUS
 62
     7
 10
-373.809492248
 20
86.6126133059
 30
0.0
 40
4.500000000000057
  0
CIRCLE
  5
1C3
  8
0
  6
CONTINUOUS
 62
     7
 10
-733.809492248
 20
86.6126133059
 30
0.0
 40
4.500000000000114
  0
POLYLINE
  5
1C4
  8
0
  6
CONTINUOUS
 62
     7
 66
     1
 10
0.0
 20
0.0
 30
0.0
  0
VERTEX
  5
59A
  8
0
  6
CONTINUOUS
 62
     7
 10
-353.8094892678
 20
465.1119054411
 30
0.0
  0
VERTEX
  5
59B
  8
0
  6
CONTINUOUS
 62
     7
 10
-353.8550719199
 20
465.0891215657
 30
0.0
  0
VERTEX
  5
59C
  8
0
  6
CONTINUOUS
 62
     7
 10
-353.990419167
 20
465.021485195
 30
0.0
  0
VERTEX
  5
59D
  8
0
  6
CONTINUOUS
 62
     7
 10
-354.2114182887
 20
464.9110377882
 30
0.0
  0
VERTEX
  5
59E
  8
0
  6
CONTINUOUS
 62
     7
 10
-354.5113637624
 20
464.7611321066
 30
0.0
  0
VERTEX
  5
59F
  8
0
  6
CONTINUOUS
 62
     7
 10
-354.8811360774
 20
464.5763428067
 30
0.0
  0
VERTEX
  5
5A0
  8
0
  6
CONTINUOUS
 62
     7
 10
-355.3094848571
 20
464.3622578238
 30
0.0
  0
VERTEX
  5
5A1
  8
0
  6
CONTINUOUS
 62
     7
 10
-355.78343119
 20
464.1254038666
 30
0.0
  0
VERTEX
  5
5A2
  8
0
  6
CONTINUOUS
 62
     7
 10
-356.2885507521
 20
463.8729632948
 30
0.0
  0
VERTEX
  5
5A3
  8
0
  6
CONTINUOUS
 62
     7
 10
-356.8094953475
 20
463.6126102064
 30
0.0
  0
SEQEND
  5
5A4
  8
0
  6
CONTINUOUS
 62
     7
  0
POLYLINE
  5
1C5
  8
0
  6
CONTINUOUS
 62
     7
 66
     1
 10
0.0
 20
0.0
 30
0.0
  0
VERTEX
  5
5A5
  8
0
  6
CONTINUOUS
 62
     7
 10
-355.3094848571
 20
465.1119054411
 30
0.0
  0
VERTEX
  5
5A6
  8
0
  6
CONTINUOUS
 62
     7
 10
-355.338318604
 20
465.0831014965
 30
0.0
  0
VERTEX
  5
5A7
  8
0
  6
CONTINUOUS
 62
     7
 10
-355.4236724553
 20
464.9977774475
 30
0.0
  0
VERTEX
  5
5A8
  8
0
  6
CONTINUOUS
 62
     7
 10
-355.5622830567
 20
464.8592264508
 30
0.0
  0
VERTEX
  5
5A9
  8
0
  6
CONTINUOUS
 62
     7
 10
-355.7488306937
 20
464.6727682207
 30
0.0
  0
VERTEX
  5
5AA
  8
0
  6
CONTINUOUS
 62
     7
 10
-355.9761330066
 20
464.445570216
 30
0.0
  0
VERTEX
  5
5AB
  8
0
  6
CONTINUOUS
 62
     7
 10
-356.235472816
 20
464.1863645171
 30
0.0
  0
VERTEX
  5
5AC
  8
0
  6
CONTINUOUS
 62
     7
 10
-356.5168514428
 20
463.9051050995
 30
0.0
  0
VERTEX
  5
5AD
  8
0
  6
CONTINUOUS
 62
     7
 10
-356.8094953475
 20
463.6126102064
 30
0.0
  0
SEQEND
  5
5AE
  8
0
  6
CONTINUOUS
 62
     7
  0
LINE
  5
1C6
  8
0
  6
CONTINUOUS
 62
     7
 10
-355.3094848571
 20
465.1119054411
 30
0.0
 11
-353.8094892678
 21
465.1119054411
 31
0.0
  0
LINE
  5
1C7
  8
0
  6
CONTINUOUS
 62
     7
 10
-353.8094892678
 20
465.1119054411
 30
0.0
 11
-353.8094892678
 21
68.1133211706
 31
0.0
  0
POLYLINE
  5
1C8
  8
0
  6
CONTINUOUS
 62
     7
 66
     1
 10
0.0
 20
0.0
 30
0.0
  0
VERTEX
  5
5AF
  8
0
  6
CONTINUOUS
 62
     7
 10
-356.8094953475
 20
69.6126164053
 30
0.0
  0
VERTEX
  5
5B0
  8
0
  6
CONTINUOUS
 62
     7
 10
-356.2885507521
 20
69.3522633169
 30
0.0
  0
VERTEX
  5
5B1
  8
0
  6
CONTINUOUS
 62
     7
 10
-355.78343119
 20
69.0998227452
 30
0.0
  0
VERTEX
  5
5B2
  8
0
  6
CONTINUOUS
 62
     7
 10
-355.3094848571
 20
68.862968788
 30
0.0
  0
VERTEX
  5
5B3
  8
0
  6
CONTINUOUS
 62
     7
 10
-354.8811360774
 20
68.6488838051
 30
0.0
  0
VERTEX
  5
5B4
  8
0
  6
CONTINUOUS
 62
     7
 10
-354.5113637624
 20
68.4640945052
 30
0.0
  0
VERTEX
  5
5B5
  8
0
  6
CONTINUOUS
 62
     7
 10
-354.2114182887
 20
68.3141888235
 30
0.0
  0
VERTEX
  5
5B6
  8
0
  6
CONTINUOUS
 62
     7
 10
-353.990419167
 20
68.2037414168
 30
0.0
  0
VERTEX
  5
5B7
  8
0
  6
CONTINUOUS
 62
     7
 10
-353.8550719199
 20
68.1361050461
 30
0.0
  0
VERTEX
  5
5B8
  8
0
  6
CONTINUOUS
 62
     7
 10
-353.8094892678
 20
68.1133211706
 30
0.0
  0
SEQEND
  5
5B9
  8
0
  6
CONTINUOUS
 62
     7
  0
LINE
  5
1C9
  8
0
  6
CONTINUOUS
 62
     7
 10
-355.3094848571
 20
68.1133211706
 30
0.0
 11
-353.8094892678
 21
68.1133211706
 31
0.0
  0
POLYLINE
  5
1CA
  8
0
  6
CONTINUOUS
 62
     7
 66
     1
 10
0.0
 20
0.0
 30
0.0
  0
VERTEX
  5
5BA
  8
0
  6
CONTINUOUS
 62
     7
 10
-356.8094953475
 20
69.6126164053
 30
0.0
  0
VERTEX
  5
5BB
  8
0
  6
CONTINUOUS
 62
     7
 10
-356.5490230498
 20
69.3522633169
 30
0.0
  0
VERTEX
  5
5BC
  8
0
  6
CONTINUOUS
 62
     7
 10
-356.2964632687
 20
69.0998227452
 30
0.0
  0
VERTEX
  5
5BD
  8
0
  6
CONTINUOUS
 62
     7
 10
-356.0594901023
 20
68.862968788
 30
0.0
  0
VERTEX
  5
5BE
  8
0
  6
CONTINUOUS
 62
     7
 10
-355.8453157124
 20
68.6488838051
 30
0.0
  0
VERTEX
  5
5BF
  8
0
  6
CONTINUOUS
 62
     7
 10
-355.6604221043
 20
68.4640945052
 30
0.0
  0
VERTEX
  5
5C0
  8
0
  6
CONTINUOUS
 62
     7
 10
-355.5104568181
 20
68.3141888235
 30
0.0
  0
VERTEX
  5
5C1
  8
0
  6
CONTINUOUS
 62
     7
 10
-355.3999498067
 20
68.2037414168
 30
0.0
  0
VERTEX
  5
5C2
  8
0
  6
CONTINUOUS
 62
     7
 10
-355.3322836337
 20
68.1361050461
 30
0.0
  0
VERTEX
  5
5C3
  8
0
  6
CONTINUOUS
 62
     7
 10
-355.3094848571
 20
68.1133211706
 30
0.0
  0
SEQEND
  5
5C4
  8
0
  6
CONTINUOUS
 62
     7
  0
POLYLINE
  5
1CB
  8
0
  6
CONTINUOUS
 62
     7
 66
     1
 10
0.0
 20
0.0
 30
0.0
  0
VERTEX
  5
5C5
  8
0
  6
CONTINUOUS
 62
     7
 10
-355.3102001128
 20
68.1126059149
 30
0.0
  0
VERTEX
  5
5C6
  8
0
  6
CONTINUOUS
 62
     7
 10
-355.3329839883
 20
68.1354046915
 30
0.0
  0
VERTEX
  5
5C7
  8
0
  6
CONTINUOUS
 62
     7
 10
-355.4006203589
 20
68.2030708645
 30
0.0
  0
VERTEX
  5
5C8
  8
0
  6
CONTINUOUS
 62
     7
 10
-355.5110677657
 20
68.3135778759
 30
0.0
  0
VERTEX
  5
5C9
  8
0
  6
CONTINUOUS
 62
     7
 10
-355.6609734473
 20
68.4635431622
 30
0.0
  0
VERTEX
  5
5CA
  8
0
  6
CONTINUOUS
 62
     7
 10
-355.8457627473
 20
68.6484367703
 30
0.0
  0
VERTEX
  5
5CB
  8
0
  6
CONTINUOUS
 62
     7
 10
-356.0598477301
 20
68.8626111601
 30
0.0
  0
VERTEX
  5
5CC
  8
0
  6
CONTINUOUS
 62
     7
 10
-356.2967016873
 20
69.0995843266
 30
0.0
  0
VERTEX
  5
5CD
  8
0
  6
CONTINUOUS
 62
     7
 10
-356.5491422591
 20
69.3521441077
 30
0.0
  0
VERTEX
  5
5CE
  8
0
  6
CONTINUOUS
 62
     7
 10
-356.8094953475
 20
69.6126164053
 30
0.0
  0
SEQEND
  5
5CF
  8
0
  6
CONTINUOUS
 62
     7
  0
LINE
  5
1CC
  8
0
  6
CONTINUOUS
 62
     7
 10
-355.3102001128
 20
68.1126059149
 30
0.0
 11
-355.3102001128
 21
66.6126103257
 31
0.0
  0
LINE
  5
1CD
  8
0
  6
CONTINUOUS
 62
     7
 10
-355.3102001128
 20
465.1126206969
 30
0.0
 11
-355.3102001128
 21
466.6126162861
 31
0.0
  0
POLYLINE
  5
1CE
  8
0
  6
CONTINUOUS
 62
     7
 66
     1
 10
0.0
 20
0.0
 30
0.0
  0
VERTEX
  5
5D0
  8
0
  6
CONTINUOUS
 62
     7
 10
-356.8094953475
 20
463.6126102064
 30
0.0
  0
VERTEX
  5
5D1
  8
0
  6
CONTINUOUS
 62
     7
 10
-356.5170004544
 20
463.9052541111
 30
0.0
  0
VERTEX
  5
5D2
  8
0
  6
CONTINUOUS
 62
     7
 10
-356.2357410369
 20
464.186632738
 30
0.0
  0
VERTEX
  5
5D3
  8
0
  6
CONTINUOUS
 62
     7
 10
-355.9765353379
 20
464.4459725474
 30
0.0
  0
VERTEX
  5
5D4
  8
0
  6
CONTINUOUS
 62
     7
 10
-355.7493373332
 20
464.6732748602
 30
0.0
  0
VERTEX
  5
5D5
  8
0
  6
CONTINUOUS
 62
     7
 10
-355.5628791032
 20
464.8598224972
 30
0.0
  0
VERTEX
  5
5D6
  8
0
  6
CONTINUOUS
 62
     7
 10
-355.4243281064
 20
464.9984330986
 30
0.0
  0
VERTEX
  5
5D7
  8
0
  6
CONTINUOUS
 62
     7
 10
-355.3390040574
 20
465.08378695
 30
0.0
  0
VERTEX
  5
5D8
  8
0
  6
CONTINUOUS
 62
     7
 10
-355.3102001128
 20
465.1126206969
 30
0.0
  0
SEQEND
  5
5D9
  8
0
  6
CONTINUOUS
 62
     7
  0
LINE
  5
1CF
  8
0
  6
CONTINUOUS
 62
     7
 10
-736.9805410084
 20
449.8054922674
 30
0.0
 11
-732.81060006
 21
445.6203074311
 31
0.0
  0
LINE
  5
1D0
  8
0
  6
CONTINUOUS
 62
     7
 10
-732.81060006
 20
87.610402808
 30
0.0
 11
-736.9909271178
 21
83.4300757502
 31
0.0
  0
ARC
  5
1D1
  8
0
  6
CONTINUOUS
 62
     7
 10
-740.0027916635
 20
100.9228921998
 30
0.0
 40
15.13109361109456
 50
298.380532362
 51
308.6951085642
  0
ARC
  5
1D2
  8
0
  6
CONTINUOUS
 62
     7
 10
-740.0209321771
 20
432.3234719554
 30
0.0
 40
15.12596188365356
 50
51.2012046884
 51
61.5308270661
  0
ARC
  5
1D3
  8
0
  6
CONTINUOUS
 62
     7
 10
-367.6161928326
 20
432.302334412
 30
0.0
 40
15.13109361109462
 50
118.380532362
 51
128.6951085642
  0
ARC
  5
1D4
  8
0
  6
CONTINUOUS
 62
     7
 10
-367.5980523189
 20
100.9017546563
 30
0.0
 40
15.12596188365361
 50
231.2012046884
 51
241.5308270661
  0
LINE
  5
1D5
  8
0
  6
CONTINUOUS
 62
     7
 10
-374.8083844361
 20
445.6148238037
 30
0.0
 11
-370.6280573783
 21
449.7951508616
 31
0.0
  0
LINE
  5
1D6
  8
0
  6
CONTINUOUS
 62
     7
 10
-370.6384434876
 20
83.4197343443
 30
0.0
 11
-374.8083844361
 21
87.6049191807
 31
0.0
  0
LINE
  5
1D7
  8
0
  6
CONTINUOUS
 62
     7
 10
-370.6166132865
 20
449.7836620663
 30
0.0
 11
-374.8017981229
 21
445.6137211178
 31
0.0
  0
LINE
  5
1D8
  8
0
  6
CONTINUOUS
 62
     7
 10
-732.8117027459
 20
445.6137211178
 30
0.0
 11
-736.9920298037
 21
449.7940481757
 31
0.0
  0
LINE
  5
1D9
  8
0
  6
CONTINUOUS
 62
     7
 10
-737.0023712096
 20
83.4415645455
 30
0.0
 11
-732.8171863732
 21
87.611505494
 31
0.0
  0
LINE
  5
1DA
  8
0
  6
CONTINUOUS
 62
     7
 10
-374.8072817502
 20
87.611505494
 30
0.0
 11
-370.6269546923
 21
83.4311784361
 31
0.0
  0
ARC
  5
1DB
  8
0
  6
CONTINUOUS
 62
     7
 10
-719.4992133541
 20
452.8059127214
 30
0.0
 40
15.13109361109462
 50
208.380532362
 51
218.6951085642
  0
ARC
  5
1DC
  8
0
  6
CONTINUOUS
 62
     7
 10
-388.0986335985
 20
452.824053235
 30
0.0
 40
15.12596188365361
 50
321.2012046884
 51
331.5308270661
  0
ARC
  5
1DD
  8
0
  6
CONTINUOUS
 62
     7
 10
-719.5203508976
 20
80.4011733768
 30
0.0
 40
15.12596188365356
 50
141.2012046884
 51
151.5308270661
  0
ARC
  5
1DE
  8
0
  6
CONTINUOUS
 62
     7
 10
-388.1197711419
 20
80.4193138904
 30
0.0
 40
15.13109361109465
 50
28.380532362
 51
38.6951085642
  0
LINE
  5
1DF
  8
0
  6
CONTINUOUS
 62
     7
 10
-376.5094860968
 20
470.6126094912
 30
0.0
 11
-364.8966833529
 21
470.6126094912
 31
0.0
  0
LINE
  5
1E0
  8
0
  6
CONTINUOUS
 62
     7
 10
-364.6766975102
 20
470.312619314
 30
0.0
 11
-376.8094911752
 21
470.312619314
 31
0.0
  0
LINE
  5
1E1
  8
0
  6
CONTINUOUS
 62
     7
 10
-376.8094911752
 20
470.312619314
 30
0.0
 11
-376.5094860968
 21
470.6126094912
 31
0.0
  0
LINE
  5
1E2
  8
0
  6
CONTINUOUS
 62
     7
 10
-376.8094911752
 20
466.9126064633
 30
0.0
 11
-364.6766975102
 21
466.9126064633
 31
0.0
  0
LINE
  5
1E3
  8
0
  6
CONTINUOUS
 62
     7
 10
-376.8094911752
 20
466.9126064633
 30
0.0
 11
-376.8094911752
 21
470.312619314
 31
0.0
  0
LINE
  5
1E4
  8
0
  6
CONTINUOUS
 62
     7
 10
-376.8094911752
 20
466.9126064633
 30
0.0
 11
-376.5094860968
 21
466.6126162861
 31
0.0
  0
LINE
  5
1E5
  8
0
  6
CONTINUOUS
 62
     7
 10
-364.6766975102
 20
466.9126064633
 30
0.0
 11
-334.6764131961
 21
466.9126064633
 31
0.0
  0
LINE
  5
1E6
  8
0
  6
CONTINUOUS
 62
     7
 10
-334.8963841376
 20
466.6126162861
 30
0.0
 11
-355.3102001128
 21
466.6126162861
 31
0.0
  0
LINE
  5
1E7
  8
0
  6
CONTINUOUS
 62
     7
 10
-334.6764131961
 20
470.312619314
 30
0.0
 11
-364.6766975102
 21
470.312619314
 31
0.0
  0
LINE
  5
1E8
  8
0
  6
CONTINUOUS
 62
     7
 10
-364.8966833529
 20
470.6126094912
 30
0.0
 11
-334.8963841376
 21
470.6126094912
 31
0.0
  0
LINE
  5
1E9
  8
0
  6
CONTINUOUS
 62
     7
 10
-334.1094985184
 20
470.6126094912
 30
0.0
 11
-333.8094934401
 21
470.312619314
 31
0.0
  0
LINE
  5
1EA
  8
0
  6
CONTINUOUS
 62
     7
 10
-333.8094934401
 20
470.312619314
 30
0.0
 11
-334.6764131961
 21
470.312619314
 31
0.0
  0
LINE
  5
1EB
  8
0
  6
CONTINUOUS
 62
     7
 10
-334.8963841376
 20
470.6126094912
 30
0.0
 11
-334.1094985184
 21
470.6126094912
 31
0.0
  0
LINE
  5
1EC
  8
0
  6
CONTINUOUS
 62
     7
 10
-334.6764131961
 20
466.9126064633
 30
0.0
 11
-333.8094934401
 21
466.9126064633
 31
0.0
  0
LINE
  5
1ED
  8
0
  6
CONTINUOUS
 62
     7
 10
-333.8094934401
 20
470.312619314
 30
0.0
 11
-333.8094934401
 21
466.9126064633
 31
0.0
  0
LINE
  5
1EE
  8
0
  6
CONTINUOUS
 62
     7
 10
-333.8094934401
 20
466.9126064633
 30
0.0
 11
-334.1094985184
 21
466.6126162861
 31
0.0
  0
LINE
  5
1EF
  8
0
  6
CONTINUOUS
 62
     7
 10
-334.1094985184
 20
466.6126162861
 30
0.0
 11
-334.8963841376
 21
466.6126162861
 31
0.0
  0
LINE
  5
1F0
  8
0
  6
CONTINUOUS
 62
     7
 10
-376.8094911752
 20
62.9126072977
 30
0.0
 11
-364.6766975102
 21
62.9126072977
 31
0.0
  0
LINE
  5
1F1
  8
0
  6
CONTINUOUS
 62
     7
 10
-364.8966833529
 20
62.6126171206
 30
0.0
 11
-376.5094860968
 21
62.6126171206
 31
0.0
  0
LINE
  5
1F2
  8
0
  6
CONTINUOUS
 62
     7
 10
-376.8094911752
 20
62.9126072977
 30
0.0
 11
-376.5094860968
 21
62.6126171206
 31
0.0
  0
LINE
  5
1F3
  8
0
  6
CONTINUOUS
 62
     7
 10
-364.6766975102
 20
66.3126201485
 30
0.0
 11
-376.8094911752
 21
66.3126201485
 31
0.0
  0
LINE
  5
1F4
  8
0
  6
CONTINUOUS
 62
     7
 10
-376.8094911752
 20
66.3126201485
 30
0.0
 11
-376.5094860968
 21
66.6126103257
 31
0.0
  0
LINE
  5
1F5
  8
0
  6
CONTINUOUS
 62
     7
 10
-376.8094911752
 20
62.9126072977
 30
0.0
 11
-376.8094911752
 21
66.3126201485
 31
0.0
  0
LINE
  5
1F6
  8
0
  6
CONTINUOUS
 62
     7
 10
-364.6766975102
 20
62.9126072977
 30
0.0
 11
-334.6764131961
 21
62.9126072977
 31
0.0
  0
LINE
  5
1F7
  8
0
  6
CONTINUOUS
 62
     7
 10
-334.8963841376
 20
62.6126171206
 30
0.0
 11
-364.8966833529
 21
62.6126171206
 31
0.0
  0
LINE
  5
1F8
  8
0
  6
CONTINUOUS
 62
     7
 10
-334.6764131961
 20
66.3126201485
 30
0.0
 11
-364.6766975102
 21
66.3126201485
 31
0.0
  0
LINE
  5
1F9
  8
0
  6
CONTINUOUS
 62
     7
 10
-355.3102001128
 20
66.6126103257
 30
0.0
 11
-334.8963841376
 21
66.6126103257
 31
0.0
  0
LINE
  5
1FA
  8
0
  6
CONTINUOUS
 62
     7
 10
-334.1094985184
 20
66.6126103257
 30
0.0
 11
-333.8094934401
 21
66.3126201485
 31
0.0
  0
LINE
  5
1FB
  8
0
  6
CONTINUOUS
 62
     7
 10
-333.8094934401
 20
66.3126201485
 30
0.0
 11
-334.6764131961
 21
66.3126201485
 31
0.0
  0
LINE
  5
1FC
  8
0
  6
CONTINUOUS
 62
     7
 10
-334.8963841376
 20
66.6126103257
 30
0.0
 11
-334.1094985184
 21
66.6126103257
 31
0.0
  0
LINE
  5
1FD
  8
0
  6
CONTINUOUS
 62
     7
 10
-334.6764131961
 20
62.9126072977
 30
0.0
 11
-333.8094934401
 21
62.9126072977
 31
0.0
  0
LINE
  5
1FE
  8
0
  6
CONTINUOUS
 62
     7
 10
-333.8094934401
 20
66.3126201485
 30
0.0
 11
-333.8094934401
 21
62.9126072977
 31
0.0
  0
LINE
  5
1FF
  8
0
  6
CONTINUOUS
 62
     7
 10
-333.8094934401
 20
62.9126072977
 30
0.0
 11
-334.1094985184
 21
62.6126171206
 31
0.0
  0
LINE
  5
200
  8
0
  6
CONTINUOUS
 62
     7
 10
-334.1094985184
 20
62.6126171206
 30
0.0
 11
-334.8963841376
 21
62.6126171206
 31
0.0
  0
LINE
  5
201
  8
0
  6
CONTINUOUS
 62
     7
 10
-730.8094933209
 20
470.312619314
 30
0.0
 11
-742.9422869859
 21
470.312619314
 31
0.0
  0
LINE
  5
202
  8
0
  6
CONTINUOUS
 62
     7
 10
-730.8094933209
 20
470.312619314
 30
0.0
 11
-730.8094933209
 21
466.9126064633
 31
0.0
  0
LINE
  5
203
  8
0
  6
CONTINUOUS
 62
     7
 10
-742.9422869859
 20
466.9126064633
 30
0.0
 11
-730.8094933209
 21
466.9126064633
 31
0.0
  0
LINE
  5
204
  8
0
  6
CONTINUOUS
 62
     7
 10
-742.7223011431
 20
470.6126094912
 30
0.0
 11
-731.1094983992
 21
470.6126094912
 31
0.0
  0
LINE
  5
205
  8
0
  6
CONTINUOUS
 62
     7
 10
-730.8094933209
 20
470.312619314
 30
0.0
 11
-731.1094983992
 21
470.6126094912
 31
0.0
  0
LINE
  5
206
  8
0
  6
CONTINUOUS
 62
     7
 10
-730.8094933209
 20
466.9126064633
 30
0.0
 11
-731.1094983992
 21
466.6126162861
 31
0.0
  0
LINE
  5
207
  8
0
  6
CONTINUOUS
 62
     7
 10
-742.9422869859
 20
470.312619314
 30
0.0
 11
-772.9425713
 21
470.312619314
 31
0.0
  0
LINE
  5
208
  8
0
  6
CONTINUOUS
 62
     7
 10
-772.7226003585
 20
470.6126094912
 30
0.0
 11
-742.7223011431
 21
470.6126094912
 31
0.0
  0
LINE
  5
209
  8
0
  6
CONTINUOUS
 62
     7
 10
-772.9425713
 20
466.9126064633
 30
0.0
 11
-742.9422869859
 21
466.9126064633
 31
0.0
  0
LINE
  5
20A
  8
0
  6
CONTINUOUS
 62
     7
 10
-752.3087843833
 20
466.6126162861
 30
0.0
 11
-772.7226003585
 21
466.6126162861
 31
0.0
  0
LINE
  5
20B
  8
0
  6
CONTINUOUS
 62
     7
 10
-773.5094859776
 20
466.6126162861
 30
0.0
 11
-773.8094910559
 21
466.9126064633
 31
0.0
  0
LINE
  5
20C
  8
0
  6
CONTINUOUS
 62
     7
 10
-773.8094910559
 20
466.9126064633
 30
0.0
 11
-772.9425713
 21
466.9126064633
 31
0.0
  0
LINE
  5
20D
  8
0
  6
CONTINUOUS
 62
     7
 10
-772.7226003585
 20
466.6126162861
 30
0.0
 11
-773.5094859776
 21
466.6126162861
 31
0.0
  0
LINE
  5
20E
  8
0
  6
CONTINUOUS
 62
     7
 10
-772.9425713
 20
470.312619314
 30
0.0
 11
-773.8094910559
 21
470.312619314
 31
0.0
  0
LINE
  5
20F
  8
0
  6
CONTINUOUS
 62
     7
 10
-773.8094910559
 20
466.9126064633
 30
0.0
 11
-773.8094910559
 21
470.312619314
 31
0.0
  0
LINE
  5
210
  8
0
  6
CONTINUOUS
 62
     7
 10
-773.8094910559
 20
470.312619314
 30
0.0
 11
-773.5094859776
 21
470.6126094912
 31
0.0
  0
LINE
  5
211
  8
0
  6
CONTINUOUS
 62
     7
 10
-773.5094859776
 20
470.6126094912
 30
0.0
 11
-772.7226003585
 21
470.6126094912
 31
0.0
  0
LINE
  5
212
  8
0
  6
CONTINUOUS
 62
     7
 10
-730.8094933209
 20
66.3126201485
 30
0.0
 11
-742.9422869859
 21
66.3126201485
 31
0.0
  0
LINE
  5
213
  8
0
  6
CONTINUOUS
 62
     7
 10
-730.8094933209
 20
66.3126201485
 30
0.0
 11
-731.1094983992
 21
66.6126103257
 31
0.0
  0
LINE
  5
214
  8
0
  6
CONTINUOUS
 62
     7
 10
-730.8094933209
 20
66.3126201485
 30
0.0
 11
-730.8094933209
 21
62.9126072977
 31
0.0
  0
LINE
  5
215
  8
0
  6
CONTINUOUS
 62
     7
 10
-742.9422869859
 20
62.9126072977
 30
0.0
 11
-730.8094933209
 21
62.9126072977
 31
0.0
  0
LINE
  5
216
  8
0
  6
CONTINUOUS
 62
     7
 10
-731.1094983992
 20
62.6126171206
 30
0.0
 11
-742.7223011431
 21
62.6126171206
 31
0.0
  0
LINE
  5
217
  8
0
  6
CONTINUOUS
 62
     7
 10
-730.8094933209
 20
62.9126072977
 30
0.0
 11
-731.1094983992
 21
62.6126171206
 31
0.0
  0
LINE
  5
218
  8
0
  6
CONTINUOUS
 62
     7
 10
-742.9422869859
 20
66.3126201485
 30
0.0
 11
-772.9425713
 21
66.3126201485
 31
0.0
  0
LINE
  5
219
  8
0
  6
CONTINUOUS
 62
     7
 10
-772.7226003585
 20
66.6126103257
 30
0.0
 11
-752.3087843833
 21
66.6126103257
 31
0.0
  0
LINE
  5
21A
  8
0
  6
CONTINUOUS
 62
     7
 10
-772.9425713
 20
62.9126072977
 30
0.0
 11
-742.9422869859
 21
62.9126072977
 31
0.0
  0
LINE
  5
21B
  8
0
  6
CONTINUOUS
 62
     7
 10
-742.7223011431
 20
62.6126171206
 30
0.0
 11
-772.7226003585
 21
62.6126171206
 31
0.0
  0
LINE
  5
21C
  8
0
  6
CONTINUOUS
 62
     7
 10
-773.5094859776
 20
62.6126171206
 30
0.0
 11
-773.8094910559
 21
62.9126072977
 31
0.0
  0
LINE
  5
21D
  8
0
  6
CONTINUOUS
 62
     7
 10
-773.8094910559
 20
62.9126072977
 30
0.0
 11
-772.9425713
 21
62.9126072977
 31
0.0
  0
LINE
  5
21E
  8
0
  6
CONTINUOUS
 62
     7
 10
-772.7226003585
 20
62.6126171206
 30
0.0
 11
-773.5094859776
 21
62.6126171206
 31
0.0
  0
LINE
  5
21F
  8
0
  6
CONTINUOUS
 62
     7
 10
-772.9425713
 20
66.3126201485
 30
0.0
 11
-773.8094910559
 21
66.3126201485
 31
0.0
  0
LINE
  5
220
  8
0
  6
CONTINUOUS
 62
     7
 10
-773.8094910559
 20
62.9126072977
 30
0.0
 11
-773.8094910559
 21
66.3126201485
 31
0.0
  0
LINE
  5
221
  8
0
  6
CONTINUOUS
 62
     7
 10
-773.8094910559
 20
66.3126201485
 30
0.0
 11
-773.5094859776
 21
66.6126103257
 31
0.0
  0
LINE
  5
222
  8
0
  6
CONTINUOUS
 62
     7
 10
-773.5094859776
 20
66.6126103257
 30
0.0
 11
-772.7226003585
 21
66.6126103257
 31
0.0
  0
LINE
  5
223
  8
0
  6
CONTINUOUS
 62
     7
 10
-352.2094919858
 20
250.6126125459
 30
0.0
 11
-353.8094892678
 21
250.6126125459
 31
0.0
  0
LINE
  5
224
  8
0
  6
CONTINUOUS
 62
     7
 10
-353.8094892678
 20
282.6126140658
 30
0.0
 11
-352.2094919858
 21
282.6126140658
 31
0.0
  0
LINE
  5
225
  8
0
  6
CONTINUOUS
 62
     7
 10
-352.2094919858
 20
282.6126140658
 30
0.0
 11
-352.2094919858
 21
250.6126125459
 31
0.0
  0
LINE
  5
226
  8
0
  6
CONTINUOUS
 62
     7
 10
-347.8094920096
 20
254.6126132016
 30
0.0
 11
-352.2094919858
 21
250.6126125459
 31
0.0
  0
LINE
  5
227
  8
0
  6
CONTINUOUS
 62
     7
 10
-352.2094919858
 20
282.6126140658
 30
0.0
 11
-347.8094920096
 21
278.6126134102
 31
0.0
  0
LINE
  5
228
  8
0
  6
CONTINUOUS
 62
     7
 10
-347.8094920096
 20
254.6126132016
 30
0.0
 11
-347.8094920096
 21
278.6126134102
 31
0.0
  0
LINE
  5
229
  8
0
  6
CONTINUOUS
 62
     7
 10
-1341.5418376171
 20
830.6304050977
 30
0.0
 11
-1341.5418376171
 21
829.6304030712
 31
0.0
  0
LINE
  5
22A
  8
0
  6
CONTINUOUS
 62
     7
 10
-1336.0418488228
 20
829.6304030712
 30
0.0
 11
-1336.0418488228
 21
830.6304050977
 31
0.0
  0
LINE
  5
22B
  8
0
  6
CONTINUOUS
 62
     7
 10
-1524.5418436316
 20
830.6304050977
 30
0.0
 11
-1524.5418436316
 21
829.6304030712
 31
0.0
  0
LINE
  5
22C
  8
0
  6
CONTINUOUS
 62
     7
 10
-1519.0418436614
 20
829.6304030712
 30
0.0
 11
-1519.0418436614
 21
830.6304050977
 31
0.0
  0
LINE
  5
22D
  8
0
  6
CONTINUOUS
 62
     7
 10
-1707.5418491804
 20
830.6304050977
 30
0.0
 11
-1707.5418491804
 21
829.6304030712
 31
0.0
  0
LINE
  5
22E
  8
0
  6
CONTINUOUS
 62
     7
 10
-1702.0418454849
 20
829.6304030712
 30
0.0
 11
-1702.0418454849
 21
830.6304050977
 31
0.0
  0
LINE
  5
22F
  8
0
  6
CONTINUOUS
 62
     7
 10
-1334.0418447697
 20
830.6304050977
 30
0.0
 11
-1334.0418447697
 21
829.6304030712
 31
0.0
  0
LINE
  5
230
  8
0
  6
CONTINUOUS
 62
     7
 10
-1328.5418410742
 20
829.6304030712
 30
0.0
 11
-1328.5418410742
 21
830.6304050977
 31
0.0
  0
LINE
  5
231
  8
0
  6
CONTINUOUS
 62
     7
 10
-1715.0418420278
 20
830.6304050977
 30
0.0
 11
-1715.0418420278
 21
829.6304030712
 31
0.0
  0
LINE
  5
232
  8
0
  6
CONTINUOUS
 62
     7
 10
-1709.5418383324
 20
829.6304030712
 30
0.0
 11
-1709.5418383324
 21
830.6304050977
 31
0.0
  0
LINE
  5
233
  8
0
  6
CONTINUOUS
 62
     7
 10
-1723.9418436729
 20
758.9303983743
 30
0.0
 11
-1722.3418463909
 21
758.9303983743
 31
0.0
  0
LINE
  5
234
  8
0
  6
CONTINUOUS
 62
     7
 10
-1728.3418436491
 20
762.9304064806
 30
0.0
 11
-1723.9418436729
 21
758.9303983743
 31
0.0
  0
ARC
  5
235
  8
0
  6
CONTINUOUS
 62
     7
 10
-1326.0918436302
 20
827.6304037899
 30
0.0
 40
0.5000000000000924
 50
342.9285682985
 51
90.0
  0
ARC
  5
236
  8
0
  6
CONTINUOUS
 62
     7
 10
-1717.4918436302
 20
827.6304037899
 30
0.0
 40
0.5000000000001137
 50
90.0
 51
265.5948036765
  0
ARC
  5
237
  8
0
  6
CONTINUOUS
 62
     7
 10
-1712.2918436302
 20
895.1304037899
 30
0.0
 40
68.20000000000023
 50
265.5948036765
 51
266.4059665061
  0
LINE
  5
238
  8
0
  6
CONTINUOUS
 62
     7
 10
-1333.5918446028
 20
810.4304058845
 30
0.0
 11
-1333.5918446028
 21
810.6504066284
 31
0.0
  0
LINE
  5
239
  8
0
  6
CONTINUOUS
 62
     7
 10
-1338.5918398344
 20
810.6504066284
 30
0.0
 11
-1338.5918398344
 21
810.4304058845
 31
0.0
  0
LINE
  5
23A
  8
0
  6
CONTINUOUS
 62
     7
 10
-1333.5918446028
 20
810.6504066284
 30
0.0
 11
-1333.9918364727
 21
811.0503984983
 31
0.0
  0
LINE
  5
23B
  8
0
  6
CONTINUOUS
 62
     7
 10
-1338.1918479645
 20
811.0503984983
 30
0.0
 11
-1338.5918398344
 21
810.6504066284
 31
0.0
  0
LINE
  5
23C
  8
0
  6
CONTINUOUS
 62
     7
 10
-1326.2918402397
 20
833.6304111774
 30
0.0
 11
-1324.2918361866
 21
833.6304111774
 31
0.0
  0
LINE
  5
23D
  8
0
  6
CONTINUOUS
 62
     7
 10
-1324.2918361866
 20
833.6304111774
 30
0.0
 11
-1324.2918361866
 21
830.6304050977
 31
0.0
  0
LINE
  5
23E
  8
0
  6
CONTINUOUS
 62
     7
 10
-1324.2918361866
 20
830.6304050977
 30
0.0
 11
-1326.2918402397
 21
830.6304050977
 31
0.0
  0
LINE
  5
23F
  8
0
  6
CONTINUOUS
 62
     7
 10
-1717.2918428623
 20
833.6304111774
 30
0.0
 11
-1326.2918402397
 21
833.6304111774
 31
0.0
  0
LINE
  5
240
  8
0
  6
CONTINUOUS
 62
     7
 10
-1717.2918428623
 20
830.6304050977
 30
0.0
 11
-1326.2918402397
 21
830.6304050977
 31
0.0
  0
LINE
  5
241
  8
0
  6
CONTINUOUS
 62
     7
 10
-1719.2918469154
 20
830.6304050977
 30
0.0
 11
-1719.2918469154
 21
833.6304111774
 31
0.0
  0
LINE
  5
242
  8
0
  6
CONTINUOUS
 62
     7
 10
-1719.2918469154
 20
833.6304111774
 30
0.0
 11
-1717.2918428623
 21
833.6304111774
 31
0.0
  0
LINE
  5
243
  8
0
  6
CONTINUOUS
 62
     7
 10
-1717.2918428623
 20
830.6304050977
 30
0.0
 11
-1719.2918469154
 21
830.6304050977
 31
0.0
  0
LINE
  5
244
  8
0
  6
CONTINUOUS
 62
     7
 10
-1716.7918492996
 20
829.6304030712
 30
0.0
 11
-1326.7918487036
 21
829.6304030712
 31
0.0
  0
POLYLINE
  5
245
  8
0
  6
CONTINUOUS
 62
     7
 66
     1
 10
0.0
 20
0.0
 30
0.0
  0
VERTEX
  5
5DA
  8
0
  6
CONTINUOUS
 62
     7
 10
-1326.7918487036
 20
829.6304030712
 30
0.0
  0
VERTEX
  5
5DB
  8
0
  6
CONTINUOUS
 62
     7
 10
-1327.0064105236
 20
829.5830024774
 30
0.0
  0
VERTEX
  5
5DC
  8
0
  6
CONTINUOUS
 62
     7
 10
-1327.1634985649
 20
829.4259293373
 30
0.0
  0
VERTEX
  5
5DD
  8
0
  6
CONTINUOUS
 62
     7
 10
-1327.2596855604
 20
829.1466964777
 30
0.0
  0
VERTEX
  5
5DE
  8
0
  6
CONTINUOUS
 62
     7
 10
-1327.2918422663
 20
828.7517113979
 30
0.0
  0
VERTEX
  5
5DF
  8
0
  6
CONTINUOUS
 62
     7
 10
-1327.2598494732
 20
828.2632215317
 30
0.0
  0
VERTEX
  5
5E0
  8
0
  6
CONTINUOUS
 62
     7
 10
-1327.1638859951
 20
827.7204616363
 30
0.0
  0
VERTEX
  5
5E1
  8
0
  6
CONTINUOUS
 62
     7
 10
-1327.006261512
 20
827.1611614521
 30
0.0
  0
VERTEX
  5
5E2
  8
0
  6
CONTINUOUS
 62
     7
 10
-1326.7918487036
 20
826.6303969915
 30
0.0
  0
SEQEND
  5
5E3
  8
0
  6
CONTINUOUS
 62
     7
  0
POLYLINE
  5
246
  8
0
  6
CONTINUOUS
 62
     7
 66
     1
 10
0.0
 20
0.0
 30
0.0
  0
VERTEX
  5
5E4
  8
0
  6
CONTINUOUS
 62
     7
 10
-1716.7918492996
 20
829.6304030712
 30
0.0
  0
VERTEX
  5
5E5
  8
0
  6
CONTINUOUS
 62
     7
 10
-1716.5772725784
 20
829.5830024774
 30
0.0
  0
VERTEX
  5
5E6
  8
0
  6
CONTINUOUS
 62
     7
 10
-1716.4201994383
 20
829.4259293373
 30
0.0
  0
VERTEX
  5
5E7
  8
0
  6
CONTINUOUS
 62
     7
 10
-1716.3239975416
 20
829.1466964777
 30
0.0
  0
VERTEX
  5
5E8
  8
0
  6
CONTINUOUS
 62
     7
 10
-1716.2918408358
 20
828.7517113979
 30
0.0
  0
VERTEX
  5
5E9
  8
0
  6
CONTINUOUS
 62
     7
 10
-1716.3238336288
 20
828.2632215317
 30
0.0
  0
VERTEX
  5
5EA
  8
0
  6
CONTINUOUS
 62
     7
 10
-1716.4198120081
 20
827.7204616363
 30
0.0
  0
VERTEX
  5
5EB
  8
0
  6
CONTINUOUS
 62
     7
 10
-1716.57742159
 20
827.1611614521
 30
0.0
  0
VERTEX
  5
5EC
  8
0
  6
CONTINUOUS
 62
     7
 10
-1716.7918492996
 20
826.6303969915
 30
0.0
  0
SEQEND
  5
5ED
  8
0
  6
CONTINUOUS
 62
     7
  0
ARC
  5
247
  8
0
  6
CONTINUOUS
 62
     7
 10
-1324.7918436302
 20
828.1304037899
 30
0.0
 40
2.499999999999932
 50
216.8698976458
 51
270.0
  0
LINE
  5
248
  8
0
  6
CONTINUOUS
 62
     7
 10
-1324.7918446504
 20
825.6304098661
 30
0.0
 11
-1324.7918446504
 21
819.3684501941
 31
0.0
  0
LINE
  5
249
  8
0
  6
CONTINUOUS
 62
     7
 10
-1329.1854669296
 20
814.6304024751
 30
0.0
 11
-1715.4982198917
 21
814.6304024751
 31
0.0
  0
LINE
  5
24A
  8
0
  6
CONTINUOUS
 62
     7
 10
-1718.7918384516
 20
825.6304098661
 30
0.0
 11
-1718.7918384516
 21
818.182213455
 31
0.0
  0
ARC
  5
24B
  8
0
  6
CONTINUOUS
 62
     7
 10
-1718.7918436302
 20
828.1304037899
 30
0.0
 40
2.500000000000045
 50
270.0
 51
323.1301023542
  0
ARC
  5
24C
  8
0
  6
CONTINUOUS
 62
     7
 10
-1716.7237092941
 20
827.7037590236
 30
0.0
 40
0.4320555142428169
 50
358.3139548834
 51
99.0740725652
  0
LINE
  5
24D
  8
0
  6
CONTINUOUS
 62
     7
 10
-1716.7918492996
 20
828.1304074819
 30
0.0
 11
-1716.7918492996
 21
829.6304030712
 31
0.0
  0
LINE
  5
24E
  8
0
  6
CONTINUOUS
 62
     7
 10
-1326.7918487036
 20
828.1304074819
 30
0.0
 11
-1326.7918487036
 21
829.6304030712
 31
0.0
  0
ARC
  5
24F
  8
0
  6
CONTINUOUS
 62
     7
 10
-1326.859976897
 20
827.7037602282
 30
0.0
 40
0.4320524618950092
 50
80.9274490646
 51
181.6862168579
  0
LINE
  5
250
  8
0
  6
CONTINUOUS
 62
     7
 10
-1718.7918384516
 20
825.6304098661
 30
0.0
 11
-1718.7918384516
 21
826.6303969915
 31
0.0
  0
LINE
  5
251
  8
0
  6
CONTINUOUS
 62
     7
 10
-1720.291848942
 20
825.6304098661
 30
0.0
 11
-1718.7918384516
 21
825.6304098661
 31
0.0
  0
LINE
  5
252
  8
0
  6
CONTINUOUS
 62
     7
 10
-1720.291848942
 20
826.6303969915
 30
0.0
 11
-1718.7918384516
 21
826.6303969915
 31
0.0
  0
LINE
  5
253
  8
0
  6
CONTINUOUS
 62
     7
 10
-1720.291848942
 20
825.6304098661
 30
0.0
 11
-1720.291848942
 21
826.6303969915
 31
0.0
  0
LINE
  5
254
  8
0
  6
CONTINUOUS
 62
     7
 10
-1324.7918446504
 20
825.6304098661
 30
0.0
 11
-1323.2918490612
 21
825.6304098661
 31
0.0
  0
LINE
  5
255
  8
0
  6
CONTINUOUS
 62
     7
 10
-1323.2918490612
 20
826.6303969915
 30
0.0
 11
-1324.7918446504
 21
826.6303969915
 31
0.0
  0
LINE
  5
256
  8
0
  6
CONTINUOUS
 62
     7
 10
-1323.2918490612
 20
825.6304098661
 30
0.0
 11
-1323.2918490612
 21
826.6303969915
 31
0.0
  0
LINE
  5
257
  8
0
  6
CONTINUOUS
 62
     7
 10
-1324.7918446504
 20
825.6304098661
 30
0.0
 11
-1324.7918446504
 21
826.6303969915
 31
0.0
  0
LINE
  5
258
  8
0
  6
CONTINUOUS
 62
     7
 10
-1720.291848942
 20
819.7998090084
 30
0.0
 11
-1720.291848942
 21
825.6304098661
 31
0.0
  0
LINE
  5
259
  8
0
  6
CONTINUOUS
 62
     7
 10
-1323.2918490612
 20
820.9860308464
 30
0.0
 11
-1323.2918490612
 21
825.6304098661
 31
0.0
  0
LINE
  5
25A
  8
0
  6
CONTINUOUS
 62
     7
 10
-1717.2918428623
 20
829.6304030712
 30
0.0
 11
-1717.2918428623
 21
828.1304074819
 31
0.0
  0
LINE
  5
25B
  8
0
  6
CONTINUOUS
 62
     7
 10
-1717.2918428623
 20
828.1304074819
 30
0.0
 11
-1716.7918492996
 21
828.1304074819
 31
0.0
  0
LINE
  5
25C
  8
0
  6
CONTINUOUS
 62
     7
 10
-1717.2918428623
 20
829.6304030712
 30
0.0
 11
-1716.7918492996
 21
829.6304030712
 31
0.0
  0
LINE
  5
25D
  8
0
  6
CONTINUOUS
 62
     7
 10
-1326.2918402397
 20
829.6304030712
 30
0.0
 11
-1326.2918402397
 21
828.1304074819
 31
0.0
  0
LINE
  5
25E
  8
0
  6
CONTINUOUS
 62
     7
 10
-1326.2918402397
 20
828.1304074819
 30
0.0
 11
-1326.7918487036
 21
828.1304074819
 31
0.0
  0
LINE
  5
25F
  8
0
  6
CONTINUOUS
 62
     7
 10
-1326.2918402397
 20
829.6304030712
 30
0.0
 11
-1326.7918487036
 21
829.6304030712
 31
0.0
  0
ARC
  5
260
  8
0
  6
CONTINUOUS
 62
     7
 10
-1717.2918440919
 20
826.6304131221
 30
0.0
 40
1.499994359800375
 50
89.9999530348
 51
180.0006161465
  0
ARC
  5
261
  8
0
  6
CONTINUOUS
 62
     7
 10
-1717.29182992
 20
826.6303840492
 30
0.0
 40
3.000019021984549
 50
90.0002471778
 51
179.9997528222
  0
ARC
  5
262
  8
0
  6
CONTINUOUS
 62
     7
 10
-1326.2918377806
 20
826.6304143518
 30
0.0
 40
2.99998871942328
 50
359.9996684424
 51
90.0000469663
  0
ARC
  5
263
  8
0
  6
CONTINUOUS
 62
     7
 10
-1326.2918474896
 20
826.6304046428
 30
0.0
 40
1.500002839161158
 50
359.9997077434
 51
89.9997230753
  0
LINE
  5
264
  8
0
  6
CONTINUOUS
 62
     7
 10
-1323.8425512754
 20
621.4304042417
 30
0.0
 11
-1323.8425512754
 21
776.2714757021
 31
0.0
  0
LINE
  5
265
  8
0
  6
CONTINUOUS
 62
     7
 10
-1720.8411355459
 20
776.2714757021
 30
0.0
 11
-1720.8411355459
 21
621.4304042417
 31
0.0
  0
LINE
  5
266
  8
0
  6
CONTINUOUS
 62
     7
 10
-1334.9347670519
 20
808.4304018314
 30
0.0
 11
-1709.7489197695
 21
808.4304018314
 31
0.0
  0
POLYLINE
  5
267
  8
0
  6
CONTINUOUS
 62
     7
 66
     1
 10
0.0
 20
0.0
 30
0.0
  0
VERTEX
  5
5EE
  8
0
  6
CONTINUOUS
 62
     7
 10
-1720.8411355459
 20
621.4304042417
 30
0.0
  0
VERTEX
  5
5EF
  8
0
  6
CONTINUOUS
 62
     7
 10
-1720.8183516704
 20
620.9094596463
 30
0.0
  0
VERTEX
  5
5F0
  8
0
  6
CONTINUOUS
 62
     7
 10
-1720.7507152998
 20
620.4043438095
 30
0.0
  0
VERTEX
  5
5F1
  8
0
  6
CONTINUOUS
 62
     7
 10
-1720.640267893
 20
619.9304042286
 30
0.0
  0
VERTEX
  5
5F2
  8
0
  6
CONTINUOUS
 62
     7
 10
-1720.4903622114
 20
619.5020413627
 30
0.0
  0
VERTEX
  5
5F3
  8
0
  6
CONTINUOUS
 62
     7
 10
-1720.3055729114
 20
619.1322709103
 30
0.0
  0
VERTEX
  5
5F4
  8
0
  6
CONTINUOUS
 62
     7
 10
-1720.0914879286
 20
618.8323279978
 30
0.0
  0
VERTEX
  5
5F5
  8
0
  6
CONTINUOUS
 62
     7
 10
-1719.8546339714
 20
618.6113263586
 30
0.0
  0
VERTEX
  5
5F6
  8
0
  6
CONTINUOUS
 62
     7
 10
-1719.6021933996
 20
618.475980956
 30
0.0
  0
VERTEX
  5
5F7
  8
0
  6
CONTINUOUS
 62
     7
 10
-1719.3418403112
 20
618.4304042156
 30
0.0
  0
SEQEND
  5
5F8
  8
0
  6
CONTINUOUS
 62
     7
  0
POLYLINE
  5
268
  8
0
  6
CONTINUOUS
 62
     7
 66
     1
 10
0.0
 20
0.0
 30
0.0
  0
VERTEX
  5
5F9
  8
0
  6
CONTINUOUS
 62
     7
 10
-1325.3418465101
 20
618.4304042156
 30
0.0
  0
VERTEX
  5
5FA
  8
0
  6
CONTINUOUS
 62
     7
 10
-1325.049351617
 20
618.4880483754
 30
0.0
  0
VERTEX
  5
5FB
  8
0
  6
CONTINUOUS
 62
     7
 10
-1324.7680921995
 20
618.6587656168
 30
0.0
  0
VERTEX
  5
5FC
  8
0
  6
CONTINUOUS
 62
     7
 10
-1324.5088865005
 20
618.9359953762
 30
0.0
  0
VERTEX
  5
5FD
  8
0
  6
CONTINUOUS
 62
     7
 10
-1324.2816884958
 20
619.3090838981
 30
0.0
  0
VERTEX
  5
5FE
  8
0
  6
CONTINUOUS
 62
     7
 10
-1324.0952302658
 20
619.7636935297
 30
0.0
  0
VERTEX
  5
5FF
  8
0
  6
CONTINUOUS
 62
     7
 10
-1323.956679269
 20
620.28235394
 30
0.0
  0
VERTEX
  5
600
  8
0
  6
CONTINUOUS
 62
     7
 10
-1323.87135522
 20
620.8451331961
 30
0.0
  0
VERTEX
  5
601
  8
0
  6
CONTINUOUS
 62
     7
 10
-1323.8425512754
 20
621.4304042417
 30
0.0
  0
SEQEND
  5
602
  8
0
  6
CONTINUOUS
 62
     7
  0
LINE
  5
269
  8
0
  6
CONTINUOUS
 62
     7
 10
-1719.3418403112
 20
618.4304042156
 30
0.0
 11
-1325.3418465101
 21
618.4304042156
 31
0.0
  0
LINE
  5
26A
  8
0
  6
CONTINUOUS
 62
     7
 10
-1720.8418508016
 20
621.4304042417
 30
0.0
 11
-1720.8418508016
 21
776.2722505625
 31
0.0
  0
LINE
  5
26B
  8
0
  6
CONTINUOUS
 62
     7
 10
-1722.3418463909
 20
621.4304042417
 30
0.0
 11
-1722.3418463909
 21
777.8898312147
 31
0.0
  0
ARC
  5
26C
  8
0
  6
CONTINUOUS
 62
     7
 10
-1719.3418319192
 20
621.4304186874
 30
0.0
 40
3.000014471762588
 50
180.0002758907
 51
269.9998397243
  0
ARC
  5
26D
  8
0
  6
CONTINUOUS
 62
     7
 10
-1325.3418550945
 20
621.4304188797
 30
0.0
 40
3.000014664104143
 50
270.0001639491
 51
359.9997204359
  0
LINE
  5
26E
  8
0
  6
CONTINUOUS
 62
     7
 10
-1322.3418404304
 20
777.8898312147
 30
0.0
 11
-1322.3418404304
 21
621.4304042417
 31
0.0
  0
LINE
  5
26F
  8
0
  6
CONTINUOUS
 62
     7
 10
-1323.8418360197
 20
776.2722505625
 30
0.0
 11
-1323.8418360197
 21
621.4304042417
 31
0.0
  0
LINE
  5
270
  8
0
  6
CONTINUOUS
 62
     7
 10
-1345.7096775019
 20
814.6304024751
 30
0.0
 11
-1346.3115354025
 21
810.3479279573
 31
0.0
  0
LINE
  5
271
  8
0
  6
CONTINUOUS
 62
     7
 10
-1344.1949446642
 20
814.6304024751
 30
0.0
 11
-1344.8261429512
 21
810.139162689
 31
0.0
  0
LINE
  5
272
  8
0
  6
CONTINUOUS
 62
     7
 10
-1344.8261429512
 20
810.139162689
 30
0.0
 11
-1346.3115354025
 21
810.3479279573
 31
0.0
  0
LINE
  5
273
  8
0
  6
CONTINUOUS
 62
     7
 10
-1700.0515420877
 20
810.139162689
 30
0.0
 11
-1700.6889392578
 21
814.6304024751
 31
0.0
  0
POLYLINE
  5
274
  8
0
  6
CONTINUOUS
 62
     7
 66
     1
 10
0.0
 20
0.0
 30
0.0
  0
VERTEX
  5
603
  8
0
  6
CONTINUOUS
 62
     7
 10
-1700.2092559778
 20
808.9482022817
 30
0.0
  0
VERTEX
  5
604
  8
0
  6
CONTINUOUS
 62
     7
 10
-1700.7197697603
 20
808.565972596
 30
0.0
  0
VERTEX
  5
605
  8
0
  6
CONTINUOUS
 62
     7
 10
-1701.3429512226
 20
808.4304018314
 30
0.0
  0
SEQEND
  5
606
  8
0
  6
CONTINUOUS
 62
     7
  0
POLYLINE
  5
275
  8
0
  6
CONTINUOUS
 62
     7
 66
     1
 10
0.0
 20
0.0
 30
0.0
  0
VERTEX
  5
607
  8
0
  6
CONTINUOUS
 62
     7
 10
-1343.3407355987
 20
808.4304018314
 30
0.0
  0
VERTEX
  5
608
  8
0
  6
CONTINUOUS
 62
     7
 10
-1343.963917061
 20
808.565972596
 30
0.0
  0
VERTEX
  5
609
  8
0
  6
CONTINUOUS
 62
     7
 10
-1344.4744308435
 20
808.9482022817
 30
0.0
  0
SEQEND
  5
60A
  8
0
  6
CONTINUOUS
 62
     7
  0
POLYLINE
  5
276
  8
0
  6
CONTINUOUS
 62
     7
 66
     1
 10
0.0
 20
0.0
 30
0.0
  0
VERTEX
  5
60B
  8
0
  6
CONTINUOUS
 62
     7
 10
-1701.3440539085
 20
808.4304018314
 30
0.0
  0
VERTEX
  5
60C
  8
0
  6
CONTINUOUS
 62
     7
 10
-1700.5925883495
 20
808.565972596
 30
0.0
  0
VERTEX
  5
60D
  8
0
  6
CONTINUOUS
 62
     7
 10
-1699.8411376917
 20
808.9482022817
 30
0.0
  0
SEQEND
  5
60E
  8
0
  6
CONTINUOUS
 62
     7
  0
ARC
  5
277
  8
0
  6
CONTINUOUS
 62
     7
 10
-1671.6696839317
 20
814.5392580588
 30
0.0
 40
28.72091070378037
 50
188.8125217237
 51
191.225357256
  0
ARC
  5
278
  8
0
  6
CONTINUOUS
 62
     7
 10
-1374.5142179222
 20
814.5389417141
 30
0.0
 40
28.72106436876837
 50
348.775346968
 51
351.1881644166
  0
LINE
  5
279
  8
0
  6
CONTINUOUS
 62
     7
 10
-1346.3425447189
 20
808.9482022817
 30
0.0
 11
-1344.8425491297
 21
808.9482022817
 31
0.0
  0
POLYLINE
  5
27A
  8
0
  6
CONTINUOUS
 62
     7
 66
     1
 10
0.0
 20
0.0
 30
0.0
  0
VERTEX
  5
60F
  8
0
  6
CONTINUOUS
 62
     7
 10
-1344.8425491297
 20
808.9482022817
 30
0.0
  0
VERTEX
  5
610
  8
0
  6
CONTINUOUS
 62
     7
 10
-1344.088341757
 20
808.565972596
 30
0.0
  0
VERTEX
  5
611
  8
0
  6
CONTINUOUS
 62
     7
 10
-1343.3341492855
 20
808.4304018314
 30
0.0
  0
SEQEND
  5
612
  8
0
  6
CONTINUOUS
 62
     7
  0
POLYLINE
  5
27B
  8
0
  6
CONTINUOUS
 62
     7
 66
     1
 10
0.0
 20
0.0
 30
0.0
  0
VERTEX
  5
613
  8
0
  6
CONTINUOUS
 62
     7
 10
-1346.2312330448
 20
809.1538234051
 30
0.0
  0
VERTEX
  5
614
  8
0
  6
CONTINUOUS
 62
     7
 10
-1346.2373425209
 20
809.0807481106
 30
0.0
  0
VERTEX
  5
615
  8
0
  6
CONTINUOUS
 62
     7
 10
-1346.2491591417
 20
808.9482022817
 30
0.0
  0
SEQEND
  5
616
  8
0
  6
CONTINUOUS
 62
     7
  0
ARC
  5
27C
  8
0
  6
CONTINUOUS
 62
     7
 10
-1557.4900075782
 20
821.4437127428
 30
0.0
 40
142.9914005349178
 50
184.6183503062
 51
185.0671788829
  0
ARC
  5
27D
  8
0
  6
CONTINUOUS
 62
     7
 10
-1343.8247876357
 20
809.9043691405
 30
0.0
 40
2.525996611197659
 50
169.8865662948
 51
202.2426905256
  0
ARC
  5
27E
  8
0
  6
CONTINUOUS
 62
     7
 10
-1343.340798426
 20
809.93039807
 30
0.0
 40
1.49994367380327
 50
171.9995059972
 51
220.9061378494
  0
POLYLINE
  5
27F
  8
0
  6
CONTINUOUS
 62
     7
 66
     1
 10
0.0
 20
0.0
 30
0.0
  0
VERTEX
  5
617
  8
0
  6
CONTINUOUS
 62
     7
 10
-1699.9689002478
 20
809.3502952154
 30
0.0
  0
VERTEX
  5
618
  8
0
  6
CONTINUOUS
 62
     7
 10
-1700.0269551718
 20
809.2105670269
 30
0.0
  0
VERTEX
  5
619
  8
0
  6
CONTINUOUS
 62
     7
 10
-1700.2092559778
 20
808.9482022817
 30
0.0
  0
SEQEND
  5
61A
  8
0
  6
CONTINUOUS
 62
     7
  0
POLYLINE
  5
280
  8
0
  6
CONTINUOUS
 62
     7
 66
     1
 10
0.0
 20
0.0
 30
0.0
  0
VERTEX
  5
61B
  8
0
  6
CONTINUOUS
 62
     7
 10
-1344.7147865736
 20
809.3502952154
 30
0.0
  0
VERTEX
  5
61C
  8
0
  6
CONTINUOUS
 62
     7
 10
-1344.6847458326
 20
809.7093237932
 30
0.0
  0
VERTEX
  5
61D
  8
0
  6
CONTINUOUS
 62
     7
 10
-1344.6321447336
 20
810.3479279573
 30
0.0
  0
SEQEND
  5
61E
  8
0
  6
CONTINUOUS
 62
     7
  0
LINE
  5
281
  8
0
  6
CONTINUOUS
 62
     7
 10
-1344.6321447336
 20
810.139162689
 30
0.0
 11
-1344.6321447336
 21
810.3479279573
 31
0.0
  0
LINE
  5
282
  8
0
  6
CONTINUOUS
 62
     7
 10
-1344.667028352
 20
809.9274171884
 30
0.0
 11
-1344.6321447336
 21
810.139162689
 31
0.0
  0
LINE
  5
283
  8
0
  6
CONTINUOUS
 62
     7
 10
-1344.024371072
 20
814.6304024751
 30
0.0
 11
-1344.6321447336
 21
810.3479279573
 31
0.0
  0
LINE
  5
284
  8
0
  6
CONTINUOUS
 62
     7
 10
-1344.6321447336
 20
810.139162689
 30
0.0
 11
-1343.9947475635
 21
814.6304024751
 31
0.0
  0
CIRCLE
  5
285
  8
0
  6
CONTINUOUS
 62
     7
 10
-1338.3418434107
 20
770.9304042156
 30
0.0
 40
3.750000000000117
  0
CIRCLE
  5
286
  8
0
  6
CONTINUOUS
 62
     7
 10
-1706.3418434107
 20
770.9304042156
 30
0.0
 40
3.750000000000084
  0
CIRCLE
  5
287
  8
0
  6
CONTINUOUS
 62
     7
 10
-1706.3418434107
 20
795.9304042156
 30
0.0
 40
3.750000000000096
  0
CIRCLE
  5
288
  8
0
  6
CONTINUOUS
 62
     7
 10
-1338.3418434107
 20
795.9304042156
 30
0.0
 40
3.750000000000038
  0
CIRCLE
  5
289
  8
0
  6
CONTINUOUS
 62
     7
 10
-1308.3418434107
 20
803.6304042156
 30
0.0
 40
3.060000000000075
  0
CIRCLE
  5
28A
  8
0
  6
CONTINUOUS
 62
     7
 10
-1308.3418434107
 20
834.2304042156
 30
0.0
 40
3.060000000000147
  0
CIRCLE
  5
28B
  8
0
  6
CONTINUOUS
 62
     7
 10
-1736.3418434107
 20
803.6304042156
 30
0.0
 40
3.06000000000009
  0
CIRCLE
  5
28C
  8
0
  6
CONTINUOUS
 62
     7
 10
-1736.3418434107
 20
834.2304042156
 30
0.0
 40
3.060000000000141
  0
CIRCLE
  5
28D
  8
0
  6
CONTINUOUS
 62
     7
 10
-1706.3418434107
 20
770.9304042156
 30
0.0
 40
3.200000000000045
  0
CIRCLE
  5
28E
  8
0
  6
CONTINUOUS
 62
     7
 10
-1706.3418434107
 20
795.9304042156
 30
0.0
 40
3.200000000000159
  0
CIRCLE
  5
28F
  8
0
  6
CONTINUOUS
 62
     7
 10
-1736.3418434107
 20
834.2304042156
 30
0.0
 40
2.249999999999886
  0
CIRCLE
  5
290
  8
0
  6
CONTINUOUS
 62
     7
 10
-1736.3418434107
 20
803.6304042156
 30
0.0
 40
2.25
  0
ARC
  5
291
  8
0
  6
CONTINUOUS
 62
     7
 10
-1733.5918434107
 20
836.6804042156
 30
0.0
 40
2.950000000000045
 50
0.0
 51
90.0
  0
LINE
  5
292
  8
0
  6
CONTINUOUS
 62
     7
 10
-1730.6418378794
 20
831.9125904138
 30
0.0
 11
-1730.6418378794
 21
836.6804106529
 31
0.0
  0
ARC
  5
293
  8
0
  6
CONTINUOUS
 62
     7
 10
-1727.0918434107
 20
831.9125976008
 30
0.0
 40
3.549999999999955
 50
180.0
 51
222.84
  0
LINE
  5
294
  8
0
  6
CONTINUOUS
 62
     7
 10
-1701.4290352308
 20
799.0171147878
 30
0.0
 11
-1729.6948988878
 21
829.4987662132
 31
0.0
  0
ARC
  5
295
  8
0
  6
CONTINUOUS
 62
     7
 10
-1706.3418434107
 20
794.4614292839
 30
0.0
 40
6.699999999999975
 50
0.0
 51
42.84
  0
LINE
  5
296
  8
0
  6
CONTINUOUS
 62
     7
 10
-1699.6418495619
 20
770.9304077919
 30
0.0
 11
-1699.6418495619
 21
794.4614274795
 31
0.0
  0
ARC
  5
297
  8
0
  6
CONTINUOUS
 62
     7
 10
-1706.3418434107
 20
770.9304042156
 30
0.0
 40
6.700000000000052
 50
222.84
 51
0.0
  0
LINE
  5
298
  8
0
  6
CONTINUOUS
 62
     7
 10
-1741.2549515211
 20
798.7267507608
 30
0.0
 11
-1711.2546523058
 21
766.3747204836
 31
0.0
  0
ARC
  5
299
  8
0
  6
CONTINUOUS
 62
     7
 10
-1739.0918434107
 20
800.7326130478
 30
0.0
 40
2.950000000000045
 50
180.0
 51
222.84
  0
LINE
  5
29A
  8
0
  6
CONTINUOUS
 62
     7
 10
-1742.0418371403
 20
836.6804106529
 30
0.0
 11
-1742.0418371403
 21
800.7326109703
 31
0.0
  0
ARC
  5
29B
  8
0
  6
CONTINUOUS
 62
     7
 10
-1739.0918434107
 20
836.6804042156
 30
0.0
 40
2.950000000000045
 50
90.0
 51
180.0
  0
LINE
  5
29C
  8
0
  6
CONTINUOUS
 62
     7
 10
-1733.5918505632
 20
839.6304084356
 30
0.0
 11
-1739.0918393576
 21
839.6304084356
 31
0.0
  0
ARC
  5
29D
  8
0
  6
CONTINUOUS
 62
     7
 10
-1706.3418434107
 20
770.9304042156
 30
0.0
 40
7.000000000000086
 50
222.84
 51
0.0
  0
LINE
  5
29E
  8
0
  6
CONTINUOUS
 62
     7
 10
-1742.3418422186
 20
800.7326109703
 30
0.0
 11
-1742.3418422186
 21
836.6804106529
 31
0.0
  0
LINE
  5
29F
  8
0
  6
CONTINUOUS
 62
     7
 10
-1699.3418444836
 20
794.4614274795
 30
0.0
 11
-1699.3418444836
 21
770.9304077919
 31
0.0
  0
LINE
  5
2A0
  8
0
  6
CONTINUOUS
 62
     7
 10
-1729.4749279463
 20
829.7027482088
 30
0.0
 11
-1701.2090493881
 21
799.2210967834
 31
0.0
  0
LINE
  5
2A1
  8
0
  6
CONTINUOUS
 62
     7
 10
-1711.4746381485
 20
766.1707235868
 30
0.0
 11
-1741.4749224626
 21
798.5227687652
 31
0.0
  0
ARC
  5
2A2
  8
0
  6
CONTINUOUS
 62
     7
 10
-1706.3418434107
 20
794.4614292839
 30
0.0
 40
7.000000000000009
 50
0.0
 51
42.84
  0
ARC
  5
2A3
  8
0
  6
CONTINUOUS
 62
     7
 10
-1739.0918434107
 20
836.6804042156
 30
0.0
 40
3.250000000000227
 50
90.0
 51
180.0
  0
ARC
  5
2A4
  8
0
  6
CONTINUOUS
 62
     7
 10
-1727.0918434107
 20
831.9125976008
 30
0.0
 40
3.25
 50
180.0
 51
222.84
  0
ARC
  5
2A5
  8
0
  6
CONTINUOUS
 62
     7
 10
-1739.0918434107
 20
800.7326130478
 30
0.0
 40
3.250000000000227
 50
180.0
 51
222.84
  0
LINE
  5
2A6
  8
0
  6
CONTINUOUS
 62
     7
 10
-1739.0918393576
 20
839.9303986128
 30
0.0
 11
-1733.5918505632
 21
839.9303986128
 31
0.0
  0
LINE
  5
2A7
  8
0
  6
CONTINUOUS
 62
     7
 10
-1730.3418477022
 20
836.6804106529
 30
0.0
 11
-1730.3418477022
 21
831.9125904138
 31
0.0
  0
ARC
  5
2A8
  8
0
  6
CONTINUOUS
 62
     7
 10
-1733.5918434107
 20
836.6804042156
 30
0.0
 40
3.25
 50
0.0
 51
90.0
  0
ARC
  5
2A9
  8
0
  6
CONTINUOUS
 62
     7
 10
-1338.3418434107
 20
770.9304042156
 30
0.0
 40
6.70000000000013
 50
180.0
 51
317.16
  0
ARC
  5
2AA
  8
0
  6
CONTINUOUS
 62
     7
 10
-1338.3418434107
 20
770.9304042156
 30
0.0
 40
7.000000000000163
 50
180.0
 51
317.16
  0
CIRCLE
  5
2AB
  8
0
  6
CONTINUOUS
 62
     7
 10
-1338.3418434107
 20
770.9304042156
 30
0.0
 40
3.200000000000159
  0
CIRCLE
  5
2AC
  8
0
  6
CONTINUOUS
 62
     7
 10
-1338.3418434107
 20
795.9304042156
 30
0.0
 40
3.199999999999932
  0
CIRCLE
  5
2AD
  8
0
  6
CONTINUOUS
 62
     7
 10
-1308.3418434107
 20
834.2304042156
 30
0.0
 40
2.249999999999886
  0
CIRCLE
  5
2AE
  8
0
  6
CONTINUOUS
 62
     7
 10
-1308.3418434107
 20
803.6304042156
 30
0.0
 40
2.25
  0
ARC
  5
2AF
  8
0
  6
CONTINUOUS
 62
     7
 10
-1305.5918434107
 20
836.6804042156
 30
0.0
 40
2.950000000000045
 50
0.0
 51
90.0
  0
LINE
  5
2B0
  8
0
  6
CONTINUOUS
 62
     7
 10
-1302.6418496811
 20
800.7326109703
 30
0.0
 11
-1302.6418496811
 21
836.6804106529
 31
0.0
  0
ARC
  5
2B1
  8
0
  6
CONTINUOUS
 62
     7
 10
-1305.5918434107
 20
800.7326130478
 30
0.0
 40
2.950000000000045
 50
317.16
 51
0.0
  0
LINE
  5
2B2
  8
0
  6
CONTINUOUS
 62
     7
 10
-1333.4290345156
 20
766.3747204836
 30
0.0
 11
-1303.4287353002
 21
798.7267507608
 31
0.0
  0
LINE
  5
2B3
  8
0
  6
CONTINUOUS
 62
     7
 10
-1345.0418372595
 20
794.4614274795
 30
0.0
 11
-1345.0418372595
 21
770.9304077919
 31
0.0
  0
ARC
  5
2B4
  8
0
  6
CONTINUOUS
 62
     7
 10
-1338.3418434107
 20
794.4614292839
 30
0.0
 40
6.700000000000142
 50
137.16
 51
180.0
  0
LINE
  5
2B5
  8
0
  6
CONTINUOUS
 62
     7
 10
-1314.9887879335
 20
829.4987662132
 30
0.0
 11
-1343.2546515905
 21
799.0171147878
 31
0.0
  0
ARC
  5
2B6
  8
0
  6
CONTINUOUS
 62
     7
 10
-1317.5918434107
 20
831.9125976008
 30
0.0
 40
3.549999999999955
 50
317.16
 51
0.0
  0
LINE
  5
2B7
  8
0
  6
CONTINUOUS
 62
     7
 10
-1314.041848942
 20
836.6804106529
 30
0.0
 11
-1314.041848942
 21
831.9125904138
 31
0.0
  0
ARC
  5
2B8
  8
0
  6
CONTINUOUS
 62
     7
 10
-1311.0918434107
 20
836.6804042156
 30
0.0
 40
2.950000000000045
 50
90.0
 51
180.0
  0
LINE
  5
2B9
  8
0
  6
CONTINUOUS
 62
     7
 10
-1305.5918474638
 20
839.6304084356
 30
0.0
 11
-1311.0918362581
 21
839.6304084356
 31
0.0
  0
LINE
  5
2BA
  8
0
  6
CONTINUOUS
 62
     7
 10
-1345.3418423378
 20
770.9304077919
 30
0.0
 11
-1345.3418423378
 21
794.4614274795
 31
0.0
  0
LINE
  5
2BB
  8
0
  6
CONTINUOUS
 62
     7
 10
-1303.2087643587
 20
798.5227687652
 30
0.0
 11
-1333.2090486729
 21
766.1707235868
 31
0.0
  0
ARC
  5
2BC
  8
0
  6
CONTINUOUS
 62
     7
 10
-1338.3418434107
 20
794.4614292839
 30
0.0
 40
7.000000000000163
 50
137.16
 51
180.0
  0
LINE
  5
2BD
  8
0
  6
CONTINUOUS
 62
     7
 10
-1343.4746374332
 20
799.2210967834
 30
0.0
 11
-1315.2087588751
 21
829.7027482088
 31
0.0
  0
LINE
  5
2BE
  8
0
  6
CONTINUOUS
 62
     7
 10
-1302.3418446028
 20
836.6804106529
 30
0.0
 11
-1302.3418446028
 21
800.7326109703
 31
0.0
  0
ARC
  5
2BF
  8
0
  6
CONTINUOUS
 62
     7
 10
-1305.5918434107
 20
800.7326130478
 30
0.0
 40
3.25
 50
317.16
 51
0.0
  0
LINE
  5
2C0
  8
0
  6
CONTINUOUS
 62
     7
 10
-1314.3418391191
 20
831.9125904138
 30
0.0
 11
-1314.3418391191
 21
836.6804106529
 31
0.0
  0
ARC
  5
2C1
  8
0
  6
CONTINUOUS
 62
     7
 10
-1317.5918434107
 20
831.9125976008
 30
0.0
 40
3.25
 50
317.16
 51
0.0
  0
ARC
  5
2C2
  8
0
  6
CONTINUOUS
 62
     7
 10
-1311.0918434107
 20
836.6804042156
 30
0.0
 40
3.25
 50
90.0
 51
180.0
  0
LINE
  5
2C3
  8
0
  6
CONTINUOUS
 62
     7
 10
-1311.0918362581
 20
839.9303986128
 30
0.0
 11
-1305.5918474638
 21
839.9303986128
 31
0.0
  0
ARC
  5
2C4
  8
0
  6
CONTINUOUS
 62
     7
 10
-1305.5918434107
 20
836.6804042156
 30
0.0
 40
3.25
 50
0.0
 51
90.0
  0
LINE
  5
2C5
  8
0
  6
CONTINUOUS
 62
     7
 10
-1723.9418436729
 20
758.9303983743
 30
0.0
 11
-1723.9418436729
 21
774.930400997
 31
0.0
  0
LINE
  5
2C6
  8
0
  6
CONTINUOUS
 62
     7
 10
-1723.9418436729
 20
774.930400997
 30
0.0
 11
-1723.9418436729
 21
779.6152515705
 31
0.0
  0
LINE
  5
2C7
  8
0
  6
CONTINUOUS
 62
     7
 10
-1728.3418436491
 20
774.930400997
 30
0.0
 11
-1728.3418436491
 21
762.9304064806
 31
0.0
  0
LINE
  5
2C8
  8
0
  6
CONTINUOUS
 62
     7
 10
-1728.3418436491
 20
784.3601687248
 30
0.0
 11
-1728.3418436491
 21
774.930400997
 31
0.0
  0
LINE
  5
2C9
  8
0
  6
CONTINUOUS
 62
     7
 10
-1720.8418508016
 20
769.2305429275
 30
0.0
 11
-1720.8411355459
 21
769.2305429275
 31
0.0
  0
LINE
  5
2CA
  8
0
  6
CONTINUOUS
 62
     7
 10
-1720.8418508016
 20
759.5152987535
 30
0.0
 11
-1720.8411355459
 21
759.5152987535
 31
0.0
  0
LINE
  5
2CB
  8
0
  6
CONTINUOUS
 62
     7
 10
-1326.7918487036
 20
826.6303969915
 30
0.0
 11
-1326.7918487036
 21
828.0798925455
 31
0.0
  0
ARC
  5
2CC
  8
0
  6
CONTINUOUS
 62
     7
 10
-1327.2918436302
 20
825.6304037899
 30
0.0
 40
2.5
 50
360.0
 51
78.4630409672
  0
LINE
  5
2CD
  8
0
  6
CONTINUOUS
 62
     7
 10
-1341.8412317478
 20
814.6304024751
 30
0.0
 11
-1342.1113003933
 21
812.7087487276
 31
0.0
  0
ARC
  5
2CE
  8
0
  6
CONTINUOUS
 62
     7
 10
-1340.1307710789
 20
812.4304042155
 30
0.0
 40
2.000000082123506
 50
172.0000011903
 51
269.9999999999
  0
LINE
  5
2CF
  8
0
  6
CONTINUOUS
 62
     7
 10
-1340.1307721578
 20
810.4304058845
 30
0.0
 11
-1333.0801536285
 21
810.4304058845
 31
0.0
  0
ARC
  5
2D0
  8
0
  6
CONTINUOUS
 62
     7
 10
-1340.1307710789
 20
812.4304042155
 30
0.0
 40
4.0
 50
172.0000011904
 51
270.0000000001
  0
LINE
  5
2D1
  8
0
  6
CONTINUOUS
 62
     7
 10
-1344.0918435299
 20
812.9871024187
 30
0.0
 11
-1343.8608904325
 21
814.6304024751
 31
0.0
  0
LINE
  5
2D2
  8
0
  6
CONTINUOUS
 62
     7
 10
-1335.3865106546
 20
810.6504066284
 30
0.0
 11
-1338.5918398344
 21
810.6504066284
 31
0.0
  0
LINE
  5
2D3
  8
0
  6
CONTINUOUS
 62
     7
 10
-1333.5918446028
 20
810.6504066284
 30
0.0
 11
-1335.3865106546
 21
810.6504066284
 31
0.0
  0
LINE
  5
2D4
  8
0
  6
CONTINUOUS
 62
     7
 10
-1335.4993720495
 20
811.0503984983
 30
0.0
 11
-1333.9918364727
 21
811.0503984983
 31
0.0
  0
LINE
  5
2D5
  8
0
  6
CONTINUOUS
 62
     7
 10
-1338.1918479645
 20
811.0503984983
 30
0.0
 11
-1335.4993720495
 21
811.0503984983
 31
0.0
  0
LINE
  5
2D6
  8
0
  6
CONTINUOUS
 62
     7
 10
-1702.0418454849
 20
-320.0098254528
 30
0.0
 11
-1702.0418454849
 21
-319.0098234263
 31
0.0
  0
LINE
  5
2D7
  8
0
  6
CONTINUOUS
 62
     7
 10
-1707.5418491804
 20
-319.0098234263
 30
0.0
 11
-1707.5418491804
 21
-320.0098254528
 31
0.0
  0
LINE
  5
2D8
  8
0
  6
CONTINUOUS
 62
     7
 10
-1519.0418436614
 20
-320.0098254528
 30
0.0
 11
-1519.0418436614
 21
-319.0098234263
 31
0.0
  0
LINE
  5
2D9
  8
0
  6
CONTINUOUS
 62
     7
 10
-1524.5418436316
 20
-319.0098234263
 30
0.0
 11
-1524.5418436316
 21
-320.0098254528
 31
0.0
  0
LINE
  5
2DA
  8
0
  6
CONTINUOUS
 62
     7
 10
-1336.0418488228
 20
-320.0098254528
 30
0.0
 11
-1336.0418488228
 21
-319.0098234263
 31
0.0
  0
LINE
  5
2DB
  8
0
  6
CONTINUOUS
 62
     7
 10
-1341.5418376171
 20
-319.0098234263
 30
0.0
 11
-1341.5418376171
 21
-320.0098254528
 31
0.0
  0
LINE
  5
2DC
  8
0
  6
CONTINUOUS
 62
     7
 10
-1709.5418383324
 20
-320.0098254528
 30
0.0
 11
-1709.5418383324
 21
-319.0098234263
 31
0.0
  0
LINE
  5
2DD
  8
0
  6
CONTINUOUS
 62
     7
 10
-1715.0418420278
 20
-319.0098234263
 30
0.0
 11
-1715.0418420278
 21
-320.0098254528
 31
0.0
  0
LINE
  5
2DE
  8
0
  6
CONTINUOUS
 62
     7
 10
-1328.5418410742
 20
-320.0098254528
 30
0.0
 11
-1328.5418410742
 21
-319.0098234263
 31
0.0
  0
LINE
  5
2DF
  8
0
  6
CONTINUOUS
 62
     7
 10
-1334.0418447697
 20
-319.0098234263
 30
0.0
 11
-1334.0418447697
 21
-320.0098254528
 31
0.0
  0
LINE
  5
2E0
  8
0
  6
CONTINUOUS
 62
     7
 10
-1722.3418463909
 20
-248.3098187294
 30
0.0
 11
-1723.9418436729
 21
-248.3098187294
 31
0.0
  0
LINE
  5
2E1
  8
0
  6
CONTINUOUS
 62
     7
 10
-1723.9418436729
 20
-248.3098187294
 30
0.0
 11
-1728.3418436491
 21
-252.3098268357
 31
0.0
  0
ARC
  5
2E2
  8
0
  6
CONTINUOUS
 62
     7
 10
-1326.0918436302
 20
-317.009824145
 30
0.0
 40
0.500000000000104
 50
270.0
 51
17.0714333227
  0
ARC
  5
2E3
  8
0
  6
CONTINUOUS
 62
     7
 10
-1717.4918436302
 20
-317.009824145
 30
0.0
 40
0.5000000000000568
 50
94.4051963235
 51
270.0
  0
ARC
  5
2E4
  8
0
  6
CONTINUOUS
 62
     7
 10
-1712.2918436302
 20
-384.509824145
 30
0.0
 40
68.20000000000034
 50
93.596755981
 51
94.4051963235
  0
LINE
  5
2E5
  8
0
  6
CONTINUOUS
 62
     7
 10
-1338.5918398344
 20
-299.8098262396
 30
0.0
 11
-1338.5918398344
 21
-300.0298269835
 31
0.0
  0
LINE
  5
2E6
  8
0
  6
CONTINUOUS
 62
     7
 10
-1333.5918446028
 20
-300.0298269835
 30
0.0
 11
-1333.5918446028
 21
-299.8098262396
 31
0.0
  0
LINE
  5
2E7
  8
0
  6
CONTINUOUS
 62
     7
 10
-1338.5918398344
 20
-300.0298269835
 30
0.0
 11
-1338.1918479645
 21
-300.4298188534
 31
0.0
  0
LINE
  5
2E8
  8
0
  6
CONTINUOUS
 62
     7
 10
-1333.9918364727
 20
-300.4298188534
 30
0.0
 11
-1333.5918446028
 21
-300.0298269835
 31
0.0
  0
LINE
  5
2E9
  8
0
  6
CONTINUOUS
 62
     7
 10
-1326.2918402397
 20
-320.0098254528
 30
0.0
 11
-1717.2918428623
 21
-320.0098254528
 31
0.0
  0
LINE
  5
2EA
  8
0
  6
CONTINUOUS
 62
     7
 10
-1326.2918402397
 20
-323.0098315325
 30
0.0
 11
-1717.2918428623
 21
-323.0098315325
 31
0.0
  0
LINE
  5
2EB
  8
0
  6
CONTINUOUS
 62
     7
 10
-1719.2918469154
 20
-323.0098315325
 30
0.0
 11
-1719.2918469154
 21
-320.0098254528
 31
0.0
  0
LINE
  5
2EC
  8
0
  6
CONTINUOUS
 62
     7
 10
-1719.2918469154
 20
-320.0098254528
 30
0.0
 11
-1717.2918428623
 21
-320.0098254528
 31
0.0
  0
LINE
  5
2ED
  8
0
  6
CONTINUOUS
 62
     7
 10
-1717.2918428623
 20
-323.0098315325
 30
0.0
 11
-1719.2918469154
 21
-323.0098315325
 31
0.0
  0
LINE
  5
2EE
  8
0
  6
CONTINUOUS
 62
     7
 10
-1324.2918361866
 20
-320.0098254528
 30
0.0
 11
-1324.2918361866
 21
-323.0098315325
 31
0.0
  0
LINE
  5
2EF
  8
0
  6
CONTINUOUS
 62
     7
 10
-1326.2918402397
 20
-320.0098254528
 30
0.0
 11
-1324.2918361866
 21
-320.0098254528
 31
0.0
  0
LINE
  5
2F0
  8
0
  6
CONTINUOUS
 62
     7
 10
-1324.2918361866
 20
-323.0098315325
 30
0.0
 11
-1326.2918402397
 21
-323.0098315325
 31
0.0
  0
ARC
  5
2F1
  8
0
  6
CONTINUOUS
 62
     7
 10
-1718.7918436302
 20
-317.509824145
 30
0.0
 40
2.5
 50
36.8698976458
 51
90.0
  0
LINE
  5
2F2
  8
0
  6
CONTINUOUS
 62
     7
 10
-1718.7918384516
 20
-315.0098302212
 30
0.0
 11
-1718.7918384516
 21
-307.5616338101
 31
0.0
  0
LINE
  5
2F3
  8
0
  6
CONTINUOUS
 62
     7
 10
-1715.4982198917
 20
-304.0098228302
 30
0.0
 11
-1329.1854669296
 21
-304.0098228302
 31
0.0
  0
LINE
  5
2F4
  8
0
  6
CONTINUOUS
 62
     7
 10
-1324.7918446504
 20
-315.0098302212
 30
0.0
 11
-1324.7918446504
 21
-308.7478705492
 31
0.0
  0
ARC
  5
2F5
  8
0
  6
CONTINUOUS
 62
     7
 10
-1324.7918436302
 20
-317.509824145
 30
0.0
 40
2.500000000000057
 50
90.0
 51
143.1301023542
  0
LINE
  5
2F6
  8
0
  6
CONTINUOUS
 62
     7
 10
-1326.7918487036
 20
-319.0098234263
 30
0.0
 11
-1716.7918492996
 21
-319.0098234263
 31
0.0
  0
POLYLINE
  5
2F7
  8
0
  6
CONTINUOUS
 62
     7
 66
     1
 10
0.0
 20
0.0
 30
0.0
  0
VERTEX
  5
61F
  8
0
  6
CONTINUOUS
 62
     7
 10
-1716.7918492996
 20
-319.0098234263
 30
0.0
  0
VERTEX
  5
620
  8
0
  6
CONTINUOUS
 62
     7
 10
-1716.5772725784
 20
-318.9624228325
 30
0.0
  0
VERTEX
  5
621
  8
0
  6
CONTINUOUS
 62
     7
 10
-1716.4201994383
 20
-318.8053496924
 30
0.0
  0
VERTEX
  5
622
  8
0
  6
CONTINUOUS
 62
     7
 10
-1716.3239975416
 20
-318.5261168328
 30
0.0
  0
VERTEX
  5
623
  8
0
  6
CONTINUOUS
 62
     7
 10
-1716.2918408358
 20
-318.131131753
 30
0.0
  0
VERTEX
  5
624
  8
0
  6
CONTINUOUS
 62
     7
 10
-1716.3238336288
 20
-317.6426418867
 30
0.0
  0
VERTEX
  5
625
  8
0
  6
CONTINUOUS
 62
     7
 10
-1716.4198120081
 20
-317.0998819914
 30
0.0
  0
VERTEX
  5
626
  8
0
  6
CONTINUOUS
 62
     7
 10
-1716.57742159
 20
-316.5405818072
 30
0.0
  0
VERTEX
  5
627
  8
0
  6
CONTINUOUS
 62
     7
 10
-1716.7918492996
 20
-316.0098173466
 30
0.0
  0
SEQEND
  5
628
  8
0
  6
CONTINUOUS
 62
     7
  0
POLYLINE
  5
2F8
  8
0
  6
CONTINUOUS
 62
     7
 66
     1
 10
0.0
 20
0.0
 30
0.0
  0
VERTEX
  5
629
  8
0
  6
CONTINUOUS
 62
     7
 10
-1326.7918487036
 20
-319.0098234263
 30
0.0
  0
VERTEX
  5
62A
  8
0
  6
CONTINUOUS
 62
     7
 10
-1327.0064105236
 20
-318.9624228325
 30
0.0
  0
VERTEX
  5
62B
  8
0
  6
CONTINUOUS
 62
     7
 10
-1327.1634985649
 20
-318.8053496924
 30
0.0
  0
VERTEX
  5
62C
  8
0
  6
CONTINUOUS
 62
     7
 10
-1327.2596855604
 20
-318.5261168328
 30
0.0
  0
VERTEX
  5
62D
  8
0
  6
CONTINUOUS
 62
     7
 10
-1327.2918422663
 20
-318.131131753
 30
0.0
  0
VERTEX
  5
62E
  8
0
  6
CONTINUOUS
 62
     7
 10
-1327.2598494732
 20
-317.6426418867
 30
0.0
  0
VERTEX
  5
62F
  8
0
  6
CONTINUOUS
 62
     7
 10
-1327.1638859951
 20
-317.0998819914
 30
0.0
  0
VERTEX
  5
630
  8
0
  6
CONTINUOUS
 62
     7
 10
-1327.006261512
 20
-316.5405818072
 30
0.0
  0
VERTEX
  5
631
  8
0
  6
CONTINUOUS
 62
     7
 10
-1326.7918487036
 20
-316.0098173466
 30
0.0
  0
SEQEND
  5
632
  8
0
  6
CONTINUOUS
 62
     7
  0
ARC
  5
2F9
  8
0
  6
CONTINUOUS
 62
     7
 10
-1326.859976897
 20
-317.0831805833
 30
0.0
 40
0.4320524618949531
 50
178.3137831421
 51
279.0725509354
  0
LINE
  5
2FA
  8
0
  6
CONTINUOUS
 62
     7
 10
-1326.7918487036
 20
-317.509827837
 30
0.0
 11
-1326.7918487036
 21
-319.0098234263
 31
0.0
  0
LINE
  5
2FB
  8
0
  6
CONTINUOUS
 62
     7
 10
-1716.7918492996
 20
-317.509827837
 30
0.0
 11
-1716.7918492996
 21
-319.0098234263
 31
0.0
  0
ARC
  5
2FC
  8
0
  6
CONTINUOUS
 62
     7
 10
-1716.7237092941
 20
-317.0831793786
 30
0.0
 40
0.4320555142428169
 50
260.9259274348
 51
1.6860451166
  0
LINE
  5
2FD
  8
0
  6
CONTINUOUS
 62
     7
 10
-1323.2918490612
 20
-315.0098302212
 30
0.0
 11
-1324.7918446504
 21
-315.0098302212
 31
0.0
  0
LINE
  5
2FE
  8
0
  6
CONTINUOUS
 62
     7
 10
-1323.2918490612
 20
-316.0098173466
 30
0.0
 11
-1324.7918446504
 21
-316.0098173466
 31
0.0
  0
LINE
  5
2FF
  8
0
  6
CONTINUOUS
 62
     7
 10
-1324.7918446504
 20
-315.0098302212
 30
0.0
 11
-1324.7918446504
 21
-316.0098173466
 31
0.0
  0
LINE
  5
300
  8
0
  6
CONTINUOUS
 62
     7
 10
-1323.2918490612
 20
-315.0098302212
 30
0.0
 11
-1323.2918490612
 21
-316.0098173466
 31
0.0
  0
LINE
  5
301
  8
0
  6
CONTINUOUS
 62
     7
 10
-1718.7918384516
 20
-315.0098302212
 30
0.0
 11
-1720.291848942
 21
-315.0098302212
 31
0.0
  0
LINE
  5
302
  8
0
  6
CONTINUOUS
 62
     7
 10
-1720.291848942
 20
-316.0098173466
 30
0.0
 11
-1718.7918384516
 21
-316.0098173466
 31
0.0
  0
LINE
  5
303
  8
0
  6
CONTINUOUS
 62
     7
 10
-1720.291848942
 20
-315.0098302212
 30
0.0
 11
-1720.291848942
 21
-316.0098173466
 31
0.0
  0
LINE
  5
304
  8
0
  6
CONTINUOUS
 62
     7
 10
-1718.7918384516
 20
-315.0098302212
 30
0.0
 11
-1718.7918384516
 21
-316.0098173466
 31
0.0
  0
LINE
  5
305
  8
0
  6
CONTINUOUS
 62
     7
 10
-1323.2918490612
 20
-310.3654512015
 30
0.0
 11
-1323.2918490612
 21
-315.0098302212
 31
0.0
  0
LINE
  5
306
  8
0
  6
CONTINUOUS
 62
     7
 10
-1720.291848942
 20
-309.1792293635
 30
0.0
 11
-1720.291848942
 21
-315.0098302212
 31
0.0
  0
LINE
  5
307
  8
0
  6
CONTINUOUS
 62
     7
 10
-1326.2918402397
 20
-319.0098234263
 30
0.0
 11
-1326.2918402397
 21
-317.509827837
 31
0.0
  0
LINE
  5
308
  8
0
  6
CONTINUOUS
 62
     7
 10
-1326.2918402397
 20
-319.0098234263
 30
0.0
 11
-1326.7918487036
 21
-319.0098234263
 31
0.0
  0
LINE
  5
309
  8
0
  6
CONTINUOUS
 62
     7
 10
-1326.2918402397
 20
-317.509827837
 30
0.0
 11
-1326.7918487036
 21
-317.509827837
 31
0.0
  0
LINE
  5
30A
  8
0
  6
CONTINUOUS
 62
     7
 10
-1717.2918428623
 20
-319.0098234263
 30
0.0
 11
-1717.2918428623
 21
-317.509827837
 31
0.0
  0
LINE
  5
30B
  8
0
  6
CONTINUOUS
 62
     7
 10
-1717.2918428623
 20
-319.0098234263
 30
0.0
 11
-1716.7918492996
 21
-319.0098234263
 31
0.0
  0
LINE
  5
30C
  8
0
  6
CONTINUOUS
 62
     7
 10
-1717.2918428623
 20
-317.509827837
 30
0.0
 11
-1716.7918492996
 21
-317.509827837
 31
0.0
  0
ARC
  5
30D
  8
0
  6
CONTINUOUS
 62
     7
 10
-1326.2918377806
 20
-316.0098347069
 30
0.0
 40
2.99998871942328
 50
269.9999530337
 51
0.0003315576
  0
ARC
  5
30E
  8
0
  6
CONTINUOUS
 62
     7
 10
-1326.2918474896
 20
-316.0098249979
 30
0.0
 40
1.500002839161158
 50
270.0002769247
 51
0.0002922566
  0
ARC
  5
30F
  8
0
  6
CONTINUOUS
 62
     7
 10
-1717.29182992
 20
-316.0098044043
 30
0.0
 40
3.000019021984549
 50
180.0002471778
 51
269.9997528222
  0
ARC
  5
310
  8
0
  6
CONTINUOUS
 62
     7
 10
-1717.2918440919
 20
-316.0098334772
 30
0.0
 40
1.499994359800488
 50
179.9993838535
 51
270.0000469652
  0
LINE
  5
311
  8
0
  6
CONTINUOUS
 62
     7
 10
-1720.8411355459
 20
-110.8098245968
 30
0.0
 11
-1720.8411355459
 21
-265.6508960572
 31
0.0
  0
LINE
  5
312
  8
0
  6
CONTINUOUS
 62
     7
 10
-1323.8425512754
 20
-265.6508960572
 30
0.0
 11
-1323.8425512754
 21
-110.8098245968
 31
0.0
  0
CIRCLE
  5
313
  8
0
  6
CONTINUOUS
 62
     7
 10
-1522.3418434107
 20
-202.8098245707
 30
0.0
 40
25.25
  0
LINE
  5
314
  8
0
  6
CONTINUOUS
 62
     7
 10
-1493.9328336113
 20
-178.9970078316
 30
0.0
 11
-1490.0437478864
 21
-175.1079239693
 31
0.0
  0
ARC
  5
315
  8
0
  6
CONTINUOUS
 62
     7
 10
-1492.3418434107
 20
-172.8098245707
 30
0.0
 40
3.250000000000147
 50
315.0
 51
135.0
  0
LINE
  5
316
  8
0
  6
CONTINUOUS
 62
     7
 10
-1494.6399402761
 20
-170.5117278543
 30
0.0
 11
-1498.5290278637
 21
-174.4008117166
 31
0.0
  0
ARC
  5
317
  8
0
  6
CONTINUOUS
 62
     7
 10
-1496.2309307072
 20
-176.6989118672
 30
0.0
 40
3.250000000000107
 50
135.0
 51
315.0
  0
LINE
  5
318
  8
0
  6
CONTINUOUS
 62
     7
 10
-1554.639938935
 20
-175.1079239693
 30
0.0
 11
-1550.75085321
 21
-178.9970078316
 31
0.0
  0
ARC
  5
319
  8
0
  6
CONTINUOUS
 62
     7
 10
-1548.4527561141
 20
-176.6989118672
 30
0.0
 40
3.250000000000107
 50
225.0
 51
45.0
  0
LINE
  5
31A
  8
0
  6
CONTINUOUS
 62
     7
 10
-1546.1546589577
 20
-174.4008117166
 30
0.0
 11
-1550.0437465453
 21
-170.5117278543
 31
0.0
  0
ARC
  5
31B
  8
0
  6
CONTINUOUS
 62
     7
 10
-1552.3418434107
 20
-172.8098245707
 30
0.0
 40
3.250000000000107
 50
45.0
 51
225.0
  0
LINE
  5
31C
  8
0
  6
CONTINUOUS
 62
     7
 10
-1490.0437478864
 20
-230.5117302385
 30
0.0
 11
-1493.9328336113
 21
-226.6226389256
 31
0.0
  0
ARC
  5
31D
  8
0
  6
CONTINUOUS
 62
     7
 10
-1496.2309307072
 20
-228.9207372742
 30
0.0
 40
3.250000000000127
 50
45.0
 51
225.0
  0
LINE
  5
31E
  8
0
  6
CONTINUOUS
 62
     7
 10
-1498.5290278637
 20
-231.2188350406
 30
0.0
 11
-1494.6399402761
 21
-235.1079263535
 31
0.0
  0
ARC
  5
31F
  8
0
  6
CONTINUOUS
 62
     7
 10
-1492.3418434107
 20
-232.8098245707
 30
0.0
 40
3.250000000000067
 50
225.0
 51
45.0
  0
LINE
  5
320
  8
0
  6
CONTINUOUS
 62
     7
 10
-1550.75085321
 20
-226.6226389256
 30
0.0
 11
-1554.639938935
 21
-230.5117302385
 31
0.0
  0
ARC
  5
321
  8
0
  6
CONTINUOUS
 62
     7
 10
-1552.3418434107
 20
-232.8098245707
 30
0.0
 40
3.250000000000127
 50
135.0
 51
315.0
  0
LINE
  5
322
  8
0
  6
CONTINUOUS
 62
     7
 10
-1550.0437465453
 20
-235.1079263535
 30
0.0
 11
-1546.1546589577
 21
-231.2188350406
 31
0.0
  0
ARC
  5
323
  8
0
  6
CONTINUOUS
 62
     7
 10
-1548.4527561141
 20
-228.9207372742
 30
0.0
 40
3.250000000000167
 50
315.0
 51
135.0
  0
LINE
  5
324
  8
0
  6
CONTINUOUS
 62
     7
 10
-1334.9347670519
 20
-297.8098221865
 30
0.0
 11
-1709.7489197695
 21
-297.8098221865
 31
0.0
  0
POLYLINE
  5
325
  8
0
  6
CONTINUOUS
 62
     7
 66
     1
 10
0.0
 20
0.0
 30
0.0
  0
VERTEX
  5
633
  8
0
  6
CONTINUOUS
 62
     7
 10
-1323.8425512754
 20
-110.8098245968
 30
0.0
  0
VERTEX
  5
634
  8
0
  6
CONTINUOUS
 62
     7
 10
-1323.8653351509
 20
-110.2888800014
 30
0.0
  0
VERTEX
  5
635
  8
0
  6
CONTINUOUS
 62
     7
 10
-1323.9329715216
 20
-109.7837641646
 30
0.0
  0
VERTEX
  5
636
  8
0
  6
CONTINUOUS
 62
     7
 10
-1324.0434189283
 20
-109.3098245837
 30
0.0
  0
VERTEX
  5
637
  8
0
  6
CONTINUOUS
 62
     7
 10
-1324.1933246099
 20
-108.8814617178
 30
0.0
  0
VERTEX
  5
638
  8
0
  6
CONTINUOUS
 62
     7
 10
-1324.3781139099
 20
-108.5116912654
 30
0.0
  0
VERTEX
  5
639
  8
0
  6
CONTINUOUS
 62
     7
 10
-1324.5921988928
 20
-108.2117483529
 30
0.0
  0
VERTEX
  5
63A
  8
0
  6
CONTINUOUS
 62
     7
 10
-1324.82905285
 20
-107.9907467137
 30
0.0
  0
VERTEX
  5
63B
  8
0
  6
CONTINUOUS
 62
     7
 10
-1325.0814934217
 20
-107.8554013111
 30
0.0
  0
VERTEX
  5
63C
  8
0
  6
CONTINUOUS
 62
     7
 10
-1325.3418465101
 20
-107.8098245707
 30
0.0
  0
SEQEND
  5
63D
  8
0
  6
CONTINUOUS
 62
     7
  0
POLYLINE
  5
326
  8
0
  6
CONTINUOUS
 62
     7
 66
     1
 10
0.0
 20
0.0
 30
0.0
  0
VERTEX
  5
63E
  8
0
  6
CONTINUOUS
 62
     7
 10
-1719.3418403112
 20
-107.8098245707
 30
0.0
  0
VERTEX
  5
63F
  8
0
  6
CONTINUOUS
 62
     7
 10
-1719.6021933996
 20
-107.8554013111
 30
0.0
  0
VERTEX
  5
640
  8
0
  6
CONTINUOUS
 62
     7
 10
-1719.8546339714
 20
-107.9907467137
 30
0.0
  0
VERTEX
  5
641
  8
0
  6
CONTINUOUS
 62
     7
 10
-1720.0914879286
 20
-108.2117483529
 30
0.0
  0
VERTEX
  5
642
  8
0
  6
CONTINUOUS
 62
     7
 10
-1720.3055729114
 20
-108.5116912654
 30
0.0
  0
VERTEX
  5
643
  8
0
  6
CONTINUOUS
 62
     7
 10
-1720.4903622114
 20
-108.8814617178
 30
0.0
  0
VERTEX
  5
644
  8
0
  6
CONTINUOUS
 62
     7
 10
-1720.640267893
 20
-109.3098245837
 30
0.0
  0
VERTEX
  5
645
  8
0
  6
CONTINUOUS
 62
     7
 10
-1720.7507152998
 20
-109.7837641646
 30
0.0
  0
VERTEX
  5
646
  8
0
  6
CONTINUOUS
 62
     7
 10
-1720.8183516704
 20
-110.2888800014
 30
0.0
  0
VERTEX
  5
647
  8
0
  6
CONTINUOUS
 62
     7
 10
-1720.8411355459
 20
-110.8098245968
 30
0.0
  0
SEQEND
  5
648
  8
0
  6
CONTINUOUS
 62
     7
  0
LINE
  5
327
  8
0
  6
CONTINUOUS
 62
     7
 10
-1325.3418465101
 20
-107.8098245707
 30
0.0
 11
-1719.3418403112
 21
-107.8098245707
 31
0.0
  0
LINE
  5
328
  8
0
  6
CONTINUOUS
 62
     7
 10
-1720.8418508016
 20
-265.6516709175
 30
0.0
 11
-1720.8418508016
 21
-110.8098245968
 31
0.0
  0
LINE
  5
329
  8
0
  6
CONTINUOUS
 62
     7
 10
-1722.3418463909
 20
-267.2692515698
 30
0.0
 11
-1722.3418463909
 21
-110.8098245968
 31
0.0
  0
ARC
  5
32A
  8
0
  6
CONTINUOUS
 62
     7
 10
-1719.3418317268
 20
-110.8098392348
 30
0.0
 40
3.00001466410437
 50
90.0001639491
 51
179.9997204359
  0
ARC
  5
32B
  8
0
  6
CONTINUOUS
 62
     7
 10
-1325.3418362068
 20
-110.809820347
 30
0.0
 40
2.999995776347359
 50
359.9999188357
 51
90.0001967794
  0
LINE
  5
32C
  8
0
  6
CONTINUOUS
 62
     7
 10
-1323.8418360197
 20
-110.8098245968
 30
0.0
 11
-1323.8418360197
 21
-265.6516709175
 31
0.0
  0
LINE
  5
32D
  8
0
  6
CONTINUOUS
 62
     7
 10
-1322.3418404304
 20
-110.8098245968
 30
0.0
 11
-1322.3418404304
 21
-267.2692515698
 31
0.0
  0
LINE
  5
32E
  8
0
  6
CONTINUOUS
 62
     7
 10
-1698.9740093195
 20
-304.0098228302
 30
0.0
 11
-1698.3721514189
 21
-299.7273483124
 31
0.0
  0
LINE
  5
32F
  8
0
  6
CONTINUOUS
 62
     7
 10
-1699.8575438702
 20
-299.5185830441
 30
0.0
 11
-1698.3721514189
 21
-299.7273483124
 31
0.0
  0
LINE
  5
330
  8
0
  6
CONTINUOUS
 62
     7
 10
-1700.4887421572
 20
-304.0098228302
 30
0.0
 11
-1699.8575438702
 21
-299.5185830441
 31
0.0
  0
LINE
  5
331
  8
0
  6
CONTINUOUS
 62
     7
 10
-1344.6321447336
 20
-299.5185830441
 30
0.0
 11
-1343.9947475635
 21
-304.0098228302
 31
0.0
  0
POLYLINE
  5
332
  8
0
  6
CONTINUOUS
 62
     7
 66
     1
 10
0.0
 20
0.0
 30
0.0
  0
VERTEX
  5
649
  8
0
  6
CONTINUOUS
 62
     7
 10
-1344.4744308435
 20
-298.3276226368
 30
0.0
  0
VERTEX
  5
64A
  8
0
  6
CONTINUOUS
 62
     7
 10
-1343.963917061
 20
-297.945392951
 30
0.0
  0
VERTEX
  5
64B
  8
0
  6
CONTINUOUS
 62
     7
 10
-1343.3407355987
 20
-297.8098221865
 30
0.0
  0
SEQEND
  5
64C
  8
0
  6
CONTINUOUS
 62
     7
  0
POLYLINE
  5
333
  8
0
  6
CONTINUOUS
 62
     7
 66
     1
 10
0.0
 20
0.0
 30
0.0
  0
VERTEX
  5
64D
  8
0
  6
CONTINUOUS
 62
     7
 10
-1701.3429512226
 20
-297.8098221865
 30
0.0
  0
VERTEX
  5
64E
  8
0
  6
CONTINUOUS
 62
     7
 10
-1700.7197697603
 20
-297.945392951
 30
0.0
  0
VERTEX
  5
64F
  8
0
  6
CONTINUOUS
 62
     7
 10
-1700.2092559778
 20
-298.3276226368
 30
0.0
  0
SEQEND
  5
650
  8
0
  6
CONTINUOUS
 62
     7
  0
POLYLINE
  5
334
  8
0
  6
CONTINUOUS
 62
     7
 66
     1
 10
0.0
 20
0.0
 30
0.0
  0
VERTEX
  5
651
  8
0
  6
CONTINUOUS
 62
     7
 10
-1343.3396329128
 20
-297.8098221865
 30
0.0
  0
VERTEX
  5
652
  8
0
  6
CONTINUOUS
 62
     7
 10
-1344.0910984718
 20
-297.945392951
 30
0.0
  0
VERTEX
  5
653
  8
0
  6
CONTINUOUS
 62
     7
 10
-1344.8425491297
 20
-298.3276226368
 30
0.0
  0
SEQEND
  5
654
  8
0
  6
CONTINUOUS
 62
     7
  0
ARC
  5
335
  8
0
  6
CONTINUOUS
 62
     7
 10
-1373.0140028897
 20
-303.9186784139
 30
0.0
 40
28.72091070378038
 50
8.8125217237
 51
11.225357256
  0
ARC
  5
336
  8
0
  6
CONTINUOUS
 62
     7
 10
-1670.1694688991
 20
-303.9183620692
 30
0.0
 40
28.72106436876837
 50
168.775346968
 51
171.1881644166
  0
LINE
  5
337
  8
0
  6
CONTINUOUS
 62
     7
 10
-1698.3411421024
 20
-298.3276226368
 30
0.0
 11
-1699.8411376917
 21
-298.3276226368
 31
0.0
  0
POLYLINE
  5
338
  8
0
  6
CONTINUOUS
 62
     7
 66
     1
 10
0.0
 20
0.0
 30
0.0
  0
VERTEX
  5
655
  8
0
  6
CONTINUOUS
 62
     7
 10
-1699.8411376917
 20
-298.3276226368
 30
0.0
  0
VERTEX
  5
656
  8
0
  6
CONTINUOUS
 62
     7
 10
-1700.5953450643
 20
-297.945392951
 30
0.0
  0
VERTEX
  5
657
  8
0
  6
CONTINUOUS
 62
     7
 10
-1701.3495375358
 20
-297.8098221865
 30
0.0
  0
SEQEND
  5
658
  8
0
  6
CONTINUOUS
 62
     7
  0
POLYLINE
  5
339
  8
0
  6
CONTINUOUS
 62
     7
 66
     1
 10
0.0
 20
0.0
 30
0.0
  0
VERTEX
  5
659
  8
0
  6
CONTINUOUS
 62
     7
 10
-1698.4524537765
 20
-298.5332437601
 30
0.0
  0
VERTEX
  5
65A
  8
0
  6
CONTINUOUS
 62
     7
 10
-1698.4463443005
 20
-298.4601684657
 30
0.0
  0
VERTEX
  5
65B
  8
0
  6
CONTINUOUS
 62
     7
 10
-1698.4345276796
 20
-298.3276226368
 30
0.0
  0
SEQEND
  5
65C
  8
0
  6
CONTINUOUS
 62
     7
  0
ARC
  5
33A
  8
0
  6
CONTINUOUS
 62
     7
 10
-1487.1936792431
 20
-310.8231330979
 30
0.0
 40
142.9914005349178
 50
4.6183503062
 51
5.0671788829
  0
ARC
  5
33B
  8
0
  6
CONTINUOUS
 62
     7
 10
-1701.3428883953
 20
-299.3098184251
 30
0.0
 40
1.499943673803254
 50
351.9995059972
 51
40.9061378494
  0
ARC
  5
33C
  8
0
  6
CONTINUOUS
 62
     7
 10
-1700.8588991857
 20
-299.2837894956
 30
0.0
 40
2.525996611197857
 50
349.8865662948
 51
22.2426905256
  0
POLYLINE
  5
33D
  8
0
  6
CONTINUOUS
 62
     7
 66
     1
 10
0.0
 20
0.0
 30
0.0
  0
VERTEX
  5
65D
  8
0
  6
CONTINUOUS
 62
     7
 10
-1344.7147865736
 20
-298.7297155705
 30
0.0
  0
VERTEX
  5
65E
  8
0
  6
CONTINUOUS
 62
     7
 10
-1344.6567316496
 20
-298.589987382
 30
0.0
  0
VERTEX
  5
65F
  8
0
  6
CONTINUOUS
 62
     7
 10
-1344.4744308435
 20
-298.3276226368
 30
0.0
  0
SEQEND
  5
660
  8
0
  6
CONTINUOUS
 62
     7
  0
POLYLINE
  5
33E
  8
0
  6
CONTINUOUS
 62
     7
 66
     1
 10
0.0
 20
0.0
 30
0.0
  0
VERTEX
  5
661
  8
0
  6
CONTINUOUS
 62
     7
 10
-1699.9689002478
 20
-298.7297155705
 30
0.0
  0
VERTEX
  5
662
  8
0
  6
CONTINUOUS
 62
     7
 10
-1699.9989409887
 20
-299.0887441483
 30
0.0
  0
VERTEX
  5
663
  8
0
  6
CONTINUOUS
 62
     7
 10
-1700.0515420877
 20
-299.7273483124
 30
0.0
  0
SEQEND
  5
664
  8
0
  6
CONTINUOUS
 62
     7
  0
LINE
  5
33F
  8
0
  6
CONTINUOUS
 62
     7
 10
-1700.0515420877
 20
-299.5185830441
 30
0.0
 11
-1700.0515420877
 21
-299.7273483124
 31
0.0
  0
LINE
  5
340
  8
0
  6
CONTINUOUS
 62
     7
 10
-1700.0166584694
 20
-299.3068375435
 30
0.0
 11
-1700.0515420877
 21
-299.5185830441
 31
0.0
  0
LINE
  5
341
  8
0
  6
CONTINUOUS
 62
     7
 10
-1700.6593157493
 20
-304.0098228302
 30
0.0
 11
-1700.0515420877
 21
-299.7273483124
 31
0.0
  0
LINE
  5
342
  8
0
  6
CONTINUOUS
 62
     7
 10
-1700.0515420877
 20
-299.5185830441
 30
0.0
 11
-1700.6889392578
 21
-304.0098228302
 31
0.0
  0
CIRCLE
  5
343
  8
0
  6
CONTINUOUS
 62
     7
 10
-1706.3418434107
 20
-285.3098245707
 30
0.0
 40
3.750000000000061
  0
CIRCLE
  5
344
  8
0
  6
CONTINUOUS
 62
     7
 10
-1706.3418434107
 20
-260.3098245707
 30
0.0
 40
3.749999999999898
  0
CIRCLE
  5
345
  8
0
  6
CONTINUOUS
 62
     7
 10
-1338.3418434107
 20
-285.3098245707
 30
0.0
 40
3.750000000000096
  0
CIRCLE
  5
346
  8
0
  6
CONTINUOUS
 62
     7
 10
-1338.3418434107
 20
-260.3098245707
 30
0.0
 40
3.750000000000084
  0
CIRCLE
  5
347
  8
0
  6
CONTINUOUS
 62
     7
 10
-1736.3418434107
 20
-323.6098245707
 30
0.0
 40
3.059999999999916
  0
CIRCLE
  5
348
  8
0
  6
CONTINUOUS
 62
     7
 10
-1308.3418434107
 20
-323.6098245707
 30
0.0
 40
3.060000000000105
  0
CIRCLE
  5
349
  8
0
  6
CONTINUOUS
 62
     7
 10
-1736.3418434107
 20
-293.0098245707
 30
0.0
 40
3.060000000000028
  0
CIRCLE
  5
34A
  8
0
  6
CONTINUOUS
 62
     7
 10
-1308.3418434107
 20
-293.0098245707
 30
0.0
 40
3.06000000000009
  0
CIRCLE
  5
34B
  8
0
  6
CONTINUOUS
 62
     7
 10
-1706.3418434107
 20
-260.3098245707
 30
0.0
 40
3.200000000000045
  0
CIRCLE
  5
34C
  8
0
  6
CONTINUOUS
 62
     7
 10
-1706.3418434107
 20
-285.3098245707
 30
0.0
 40
3.200000000000045
  0
CIRCLE
  5
34D
  8
0
  6
CONTINUOUS
 62
     7
 10
-1736.3418434107
 20
-323.6098245707
 30
0.0
 40
2.250000000000057
  0
CIRCLE
  5
34E
  8
0
  6
CONTINUOUS
 62
     7
 10
-1736.3418434107
 20
-293.0098245707
 30
0.0
 40
2.25
  0
ARC
  5
34F
  8
0
  6
CONTINUOUS
 62
     7
 10
-1739.0918434107
 20
-326.0598245707
 30
0.0
 40
2.950000000000045
 50
180.0
 51
270.0
  0
LINE
  5
350
  8
0
  6
CONTINUOUS
 62
     7
 10
-1742.0418371403
 20
-290.1120313254
 30
0.0
 11
-1742.0418371403
 21
-326.059831008
 31
0.0
  0
ARC
  5
351
  8
0
  6
CONTINUOUS
 62
     7
 10
-1739.0918434107
 20
-290.1120334028
 30
0.0
 40
2.950000000000045
 50
137.16
 51
180.0
  0
LINE
  5
352
  8
0
  6
CONTINUOUS
 62
     7
 10
-1711.2546523058
 20
-255.7541408387
 30
0.0
 11
-1741.2549515211
 21
-288.1061711159
 31
0.0
  0
ARC
  5
353
  8
0
  6
CONTINUOUS
 62
     7
 10
-1706.3418434107
 20
-260.3098245707
 30
0.0
 40
6.700000000000092
 50
0.0
 51
137.16
  0
LINE
  5
354
  8
0
  6
CONTINUOUS
 62
     7
 10
-1699.6418495619
 20
-283.8408478346
 30
0.0
 11
-1699.6418495619
 21
-260.309828147
 31
0.0
  0
ARC
  5
355
  8
0
  6
CONTINUOUS
 62
     7
 10
-1706.3418434107
 20
-283.840849639
 30
0.0
 40
6.700000000000103
 50
317.16
 51
0.0
  0
LINE
  5
356
  8
0
  6
CONTINUOUS
 62
     7
 10
-1729.6948988878
 20
-318.8781865683
 30
0.0
 11
-1701.4290352308
 21
-288.3965351429
 31
0.0
  0
ARC
  5
357
  8
0
  6
CONTINUOUS
 62
     7
 10
-1727.0918434107
 20
-321.2920179558
 30
0.0
 40
3.550000000000034
 50
137.16
 51
180.0
  0
LINE
  5
358
  8
0
  6
CONTINUOUS
 62
     7
 10
-1730.6418378794
 20
-326.059831008
 30
0.0
 11
-1730.6418378794
 21
-321.2920107689
 31
0.0
  0
ARC
  5
359
  8
0
  6
CONTINUOUS
 62
     7
 10
-1733.5918434107
 20
-326.0598245707
 30
0.0
 40
2.950000000000045
 50
270.0
 51
360.0
  0
LINE
  5
35A
  8
0
  6
CONTINUOUS
 62
     7
 10
-1739.0918393576
 20
-329.0098287907
 30
0.0
 11
-1733.5918505632
 21
-329.0098287907
 31
0.0
  0
ARC
  5
35B
  8
0
  6
CONTINUOUS
 62
     7
 10
-1706.3418434107
 20
-260.3098245707
 30
0.0
 40
7.000000000000086
 50
0.0
 51
137.16
  0
LINE
  5
35C
  8
0
  6
CONTINUOUS
 62
     7
 10
-1699.3418444836
 20
-260.309828147
 30
0.0
 11
-1699.3418444836
 21
-283.8408478346
 31
0.0
  0
LINE
  5
35D
  8
0
  6
CONTINUOUS
 62
     7
 10
-1741.4749224626
 20
-287.9021891203
 30
0.0
 11
-1711.4746381485
 21
-255.5501439419
 31
0.0
  0
LINE
  5
35E
  8
0
  6
CONTINUOUS
 62
     7
 10
-1701.2090493881
 20
-288.6005171385
 30
0.0
 11
-1729.4749279463
 21
-319.0821685639
 31
0.0
  0
ARC
  5
35F
  8
0
  6
CONTINUOUS
 62
     7
 10
-1706.3418434107
 20
-283.840849639
 30
0.0
 40
7.000000000000125
 50
317.16
 51
0.0
  0
ARC
  5
360
  8
0
  6
CONTINUOUS
 62
     7
 10
-1739.0918434107
 20
-290.1120334028
 30
0.0
 40
3.25
 50
137.16
 51
180.0
  0
LINE
  5
361
  8
0
  6
CONTINUOUS
 62
     7
 10
-1742.3418422186
 20
-326.059831008
 30
0.0
 11
-1742.3418422186
 21
-290.1120313254
 31
0.0
  0
ARC
  5
362
  8
0
  6
CONTINUOUS
 62
     7
 10
-1727.0918434107
 20
-321.2920179558
 30
0.0
 40
3.25
 50
137.16
 51
180.0
  0
ARC
  5
363
  8
0
  6
CONTINUOUS
 62
     7
 10
-1733.5918434107
 20
-326.0598245707
 30
0.0
 40
3.25
 50
270.0
 51
360.0
  0
LINE
  5
364
  8
0
  6
CONTINUOUS
 62
     7
 10
-1730.3418477022
 20
-321.2920107689
 30
0.0
 11
-1730.3418477022
 21
-326.059831008
 31
0.0
  0
LINE
  5
365
  8
0
  6
CONTINUOUS
 62
     7
 10
-1733.5918505632
 20
-329.3098189679
 30
0.0
 11
-1739.0918393576
 21
-329.3098189679
 31
0.0
  0
ARC
  5
366
  8
0
  6
CONTINUOUS
 62
     7
 10
-1739.0918434107
 20
-326.0598245707
 30
0.0
 40
3.250000000000057
 50
180.0
 51
270.0
  0
CIRCLE
  5
367
  8
0
  6
CONTINUOUS
 62
     7
 10
-1338.3418434107
 20
-260.3098245707
 30
0.0
 40
3.200000000000045
  0
CIRCLE
  5
368
  8
0
  6
CONTINUOUS
 62
     7
 10
-1338.3418434107
 20
-285.3098245707
 30
0.0
 40
3.199999999999989
  0
CIRCLE
  5
369
  8
0
  6
CONTINUOUS
 62
     7
 10
-1308.3418434107
 20
-323.6098245707
 30
0.0
 40
2.25
  0
CIRCLE
  5
36A
  8
0
  6
CONTINUOUS
 62
     7
 10
-1308.3418434107
 20
-293.0098245707
 30
0.0
 40
2.25
  0
ARC
  5
36B
  8
0
  6
CONTINUOUS
 62
     7
 10
-1311.0918434107
 20
-326.0598245707
 30
0.0
 40
2.950000000000045
 50
180.0
 51
270.0
  0
LINE
  5
36C
  8
0
  6
CONTINUOUS
 62
     7
 10
-1314.041848942
 20
-321.2920107689
 30
0.0
 11
-1314.041848942
 21
-326.059831008
 31
0.0
  0
ARC
  5
36D
  8
0
  6
CONTINUOUS
 62
     7
 10
-1317.5918434107
 20
-321.2920179558
 30
0.0
 40
3.549999999999955
 50
360.0
 51
42.84
  0
LINE
  5
36E
  8
0
  6
CONTINUOUS
 62
     7
 10
-1343.2546515905
 20
-288.3965351429
 30
0.0
 11
-1314.9887879335
 21
-318.8781865683
 31
0.0
  0
ARC
  5
36F
  8
0
  6
CONTINUOUS
 62
     7
 10
-1338.3418434107
 20
-283.840849639
 30
0.0
 40
6.700000000000142
 50
180.0
 51
222.84
  0
LINE
  5
370
  8
0
  6
CONTINUOUS
 62
     7
 10
-1345.0418372595
 20
-260.309828147
 30
0.0
 11
-1345.0418372595
 21
-283.8408478346
 31
0.0
  0
ARC
  5
371
  8
0
  6
CONTINUOUS
 62
     7
 10
-1338.3418434107
 20
-260.3098245707
 30
0.0
 40
6.700000000000052
 50
42.84
 51
180.0
  0
LINE
  5
372
  8
0
  6
CONTINUOUS
 62
     7
 10
-1303.4287353002
 20
-288.1061711159
 30
0.0
 11
-1333.4290345156
 21
-255.7541408387
 31
0.0
  0
ARC
  5
373
  8
0
  6
CONTINUOUS
 62
     7
 10
-1305.5918434107
 20
-290.1120334028
 30
0.0
 40
2.950000000000045
 50
360.0
 51
42.84
  0
LINE
  5
374
  8
0
  6
CONTINUOUS
 62
     7
 10
-1302.6418496811
 20
-326.059831008
 30
0.0
 11
-1302.6418496811
 21
-290.1120313254
 31
0.0
  0
ARC
  5
375
  8
0
  6
CONTINUOUS
 62
     7
 10
-1305.5918434107
 20
-326.0598245707
 30
0.0
 40
2.949999999999932
 50
270.0
 51
360.0
  0
LINE
  5
376
  8
0
  6
CONTINUOUS
 62
     7
 10
-1311.0918362581
 20
-329.0098287907
 30
0.0
 11
-1305.5918474638
 21
-329.0098287907
 31
0.0
  0
LINE
  5
377
  8
0
  6
CONTINUOUS
 62
     7
 10
-1302.3418446028
 20
-290.1120313254
 30
0.0
 11
-1302.3418446028
 21
-326.059831008
 31
0.0
  0
ARC
  5
378
  8
0
  6
CONTINUOUS
 62
     7
 10
-1338.3418434107
 20
-260.3098245707
 30
0.0
 40
7.000000000000125
 50
42.84
 51
180.0
  0
LINE
  5
379
  8
0
  6
CONTINUOUS
 62
     7
 10
-1315.2087588751
 20
-319.0821685639
 30
0.0
 11
-1343.4746374332
 21
-288.6005171385
 31
0.0
  0
LINE
  5
37A
  8
0
  6
CONTINUOUS
 62
     7
 10
-1333.2090486729
 20
-255.5501439419
 30
0.0
 11
-1303.2087643587
 21
-287.9021891203
 31
0.0
  0
LINE
  5
37B
  8
0
  6
CONTINUOUS
 62
     7
 10
-1345.3418423378
 20
-283.8408478346
 30
0.0
 11
-1345.3418423378
 21
-260.309828147
 31
0.0
  0
ARC
  5
37C
  8
0
  6
CONTINUOUS
 62
     7
 10
-1305.5918434107
 20
-326.0598245707
 30
0.0
 40
3.250000000000114
 50
270.0
 51
360.0
  0
ARC
  5
37D
  8
0
  6
CONTINUOUS
 62
     7
 10
-1338.3418434107
 20
-283.840849639
 30
0.0
 40
7.0
 50
180.0
 51
222.84
  0
ARC
  5
37E
  8
0
  6
CONTINUOUS
 62
     7
 10
-1317.5918434107
 20
-321.2920179558
 30
0.0
 40
3.25
 50
360.0
 51
42.84
  0
ARC
  5
37F
  8
0
  6
CONTINUOUS
 62
     7
 10
-1305.5918434107
 20
-290.1120334028
 30
0.0
 40
3.25
 50
360.0
 51
42.84
  0
LINE
  5
380
  8
0
  6
CONTINUOUS
 62
     7
 10
-1305.5918474638
 20
-329.3098189679
 30
0.0
 11
-1311.0918362581
 21
-329.3098189679
 31
0.0
  0
LINE
  5
381
  8
0
  6
CONTINUOUS
 62
     7
 10
-1314.3418391191
 20
-326.059831008
 30
0.0
 11
-1314.3418391191
 21
-321.2920107689
 31
0.0
  0
ARC
  5
382
  8
0
  6
CONTINUOUS
 62
     7
 10
-1311.0918434107
 20
-326.0598245707
 30
0.0
 40
3.25
 50
180.0
 51
270.0
  0
LINE
  5
383
  8
0
  6
CONTINUOUS
 62
     7
 10
-1723.9418436729
 20
-268.9946719256
 30
0.0
 11
-1723.9418436729
 21
-264.309821352
 31
0.0
  0
LINE
  5
384
  8
0
  6
CONTINUOUS
 62
     7
 10
-1723.9418436729
 20
-264.309821352
 30
0.0
 11
-1723.9418436729
 21
-248.3098187294
 31
0.0
  0
LINE
  5
385
  8
0
  6
CONTINUOUS
 62
     7
 10
-1728.3418436491
 20
-264.309821352
 30
0.0
 11
-1728.3418436491
 21
-273.7395890799
 31
0.0
  0
LINE
  5
386
  8
0
  6
CONTINUOUS
 62
     7
 10
-1728.3418436491
 20
-252.3098268357
 30
0.0
 11
-1728.3418436491
 21
-264.309821352
 31
0.0
  0
LINE
  5
387
  8
0
  6
CONTINUOUS
 62
     7
 10
-1720.8411355459
 20
-254.594577178
 30
0.0
 11
-1720.8418508016
 21
-254.594577178
 31
0.0
  0
LINE
  5
388
  8
0
  6
CONTINUOUS
 62
     7
 10
-1720.8418508016
 20
-248.8947191086
 30
0.0
 11
-1720.8411355459
 21
-248.8947191086
 31
0.0
  0
LINE
  5
389
  8
0
  6
CONTINUOUS
 62
     7
 10
-1326.7918487036
 20
-316.0098173466
 30
0.0
 11
-1326.7918487036
 21
-317.4593129006
 31
0.0
  0
ARC
  5
38A
  8
0
  6
CONTINUOUS
 62
     7
 10
-1327.2918436302
 20
-315.009824145
 30
0.0
 40
2.500000000000227
 50
281.5369590328
 51
0.0000000001
  0
LINE
  5
38B
  8
0
  6
CONTINUOUS
 62
     7
 10
-1344.0918435299
 20
-302.3665227738
 30
0.0
 11
-1343.8608904325
 21
-304.0098228302
 31
0.0
  0
ARC
  5
38C
  8
0
  6
CONTINUOUS
 62
     7
 10
-1340.130771079
 20
-301.8098245706
 30
0.0
 40
4.000000000000114
 50
89.9999999999
 51
187.9999988096
  0
LINE
  5
38D
  8
0
  6
CONTINUOUS
 62
     7
 10
-1340.1307721578
 20
-299.8098262396
 30
0.0
 11
-1333.0801536285
 21
-299.8098262396
 31
0.0
  0
ARC
  5
38E
  8
0
  6
CONTINUOUS
 62
     7
 10
-1340.130771079
 20
-301.8098245706
 30
0.0
 40
2.00000008212362
 50
89.9999999998
 51
187.9999988096
  0
LINE
  5
38F
  8
0
  6
CONTINUOUS
 62
     7
 10
-1341.8412317478
 20
-304.0098228302
 30
0.0
 11
-1342.1113003933
 21
-302.0881690827
 31
0.0
  0
LINE
  5
390
  8
0
  6
CONTINUOUS
 62
     7
 10
-1336.5493078672
 20
-300.0298269835
 30
0.0
 11
-1333.5918446028
 21
-300.0298269835
 31
0.0
  0
LINE
  5
391
  8
0
  6
CONTINUOUS
 62
     7
 10
-1338.5918398344
 20
-300.0298269835
 30
0.0
 11
-1336.5493078672
 21
-300.0298269835
 31
0.0
  0
LINE
  5
392
  8
0
  6
CONTINUOUS
 62
     7
 10
-1336.4761133634
 20
-300.4298188534
 30
0.0
 11
-1338.1918479645
 21
-300.4298188534
 31
0.0
  0
LINE
  5
393
  8
0
  6
CONTINUOUS
 62
     7
 10
-1333.9918364727
 20
-300.4298188534
 30
0.0
 11
-1336.4761133634
 21
-300.4298188534
 31
0.0
  0
LINE
  5
394
  8
0
  6
CONTINUOUS
 62
     7
 10
-2054.1243208628
 20
359.2183803044
 30
0.0
 11
-2054.1243208628
 21
33.7115234554
 31
0.0
  0
LINE
  5
395
  8
0
  6
CONTINUOUS
 62
     7
 10
-2020.6329388229
 20
45.9576456194
 30
0.0
 11
-2020.6329388229
 21
371.4644659661
 31
0.0
  0
LINE
  5
396
  8
0
  6
CONTINUOUS
 62
     7
 10
-2356.7660254023
 20
533.9297174996
 30
0.0
 11
-2356.7660254023
 21
208.4228606507
 31
0.0
  0
LINE
  5
397
  8
0
  6
CONTINUOUS
 62
     7
 10
-2323.2746433624
 20
533.7809150747
 30
0.0
 11
-2323.2746433624
 21
534.5598845908
 31
0.0
  0
LINE
  5
398
  8
0
  6
CONTINUOUS
 62
     7
 10
-2059.465759562
 20
43.1035831882
 30
0.0
 11
-2057.3444349194
 21
44.3281978377
 31
0.0
  0
LINE
  5
399
  8
0
  6
CONTINUOUS
 62
     7
 10
-2335.8230245695
 20
526.6676397058
 30
0.0
 11
-2337.9443492121
 21
525.4430250563
 31
0.0
  0
LINE
  5
39A
  8
0
  6
CONTINUOUS
 62
     7
 10
-1906.7458552506
 20
128.9783164615
 30
0.0
 11
-1906.7458552506
 21
452.4267158543
 31
0.0
  0
LINE
  5
39B
  8
0
  6
CONTINUOUS
 62
     7
 10
-1907.4962753197
 20
453.7264069396
 30
0.0
 11
-2187.5957590065
 21
615.4243970335
 31
0.0
  0
LINE
  5
39C
  8
0
  6
CONTINUOUS
 62
     7
 10
-2321.4535834054
 20
534.5995367354
 30
0.0
 11
-2321.4535834054
 21
532.729637574
 31
0.0
  0
LINE
  5
39D
  8
0
  6
CONTINUOUS
 62
     7
 10
-2357.7660226035
 20
538.0603937484
 30
0.0
 11
-2357.7660226035
 21
535.2841444948
 31
0.0
  0
LINE
  5
39E
  8
0
  6
CONTINUOUS
 62
     7
 10
-2279.9154618275
 20
554.3880902922
 30
0.0
 11
-2280.1276185262
 21
554.5106055561
 31
0.0
  0
LINE
  5
39F
  8
0
  6
CONTINUOUS
 62
     7
 10
-2277.8660080984
 20
548.7548752255
 30
0.0
 11
-2277.8660080984
 21
551.5311244791
 31
0.0
  0
LINE
  5
3A0
  8
0
  6
CONTINUOUS
 62
     7
 10
-2357.7660226035
 20
208.1779064279
 30
0.0
 11
-2357.7660226035
 21
205.4016571743
 31
0.0
  0
LINE
  5
3A1
  8
0
  6
CONTINUOUS
 62
     7
 10
-2055.124318064
 20
363.3490565531
 30
0.0
 11
-2055.124318064
 21
360.5728072995
 31
0.0
  0
LINE
  5
3A2
  8
0
  6
CONTINUOUS
 62
     7
 10
-2019.7001658451
 20
404.1689974248
 30
0.0
 11
-2019.9123225438
 21
404.2915126888
 31
0.0
  0
LINE
  5
3A3
  8
0
  6
CONTINUOUS
 62
     7
 10
-2017.650712116
 20
398.5357823581
 30
0.0
 11
-2017.650712116
 21
401.3120316117
 31
0.0
  0
LINE
  5
3A4
  8
0
  6
CONTINUOUS
 62
     7
 10
-2055.124318064
 20
33.4665692326
 30
0.0
 11
-2055.124318064
 21
30.690319979
 31
0.0
  0
LINE
  5
3A5
  8
0
  6
CONTINUOUS
 62
     7
 10
-2117.3497197396
 20
518.2118612374
 30
0.0
 11
-2114.0608114895
 21
516.3132149184
 31
0.0
  0
LINE
  5
3A6
  8
0
  6
CONTINUOUS
 62
     7
 10
-2078.4305809377
 20
495.7443206421
 30
0.0
 11
-2077.1341721949
 21
494.9959198051
 31
0.0
  0
ARC
  5
3A7
  8
0
  6
CONTINUOUS
 62
     7
 10
-2047.9852425188
 20
33.61855207
 30
0.0
 40
3.458310179776587
 50
242.6097546831
 51
297.3902453169
  0
LINE
  5
3A8
  8
0
  6
CONTINUOUS
 62
     7
 10
-2053.4653127395
 20
32.7930579063
 30
0.0
 11
-2049.5762333666
 21
30.547940173
 31
0.0
  0
LINE
  5
3A9
  8
0
  6
CONTINUOUS
 62
     7
 10
-2046.3942516711
 20
30.547940173
 30
0.0
 11
-2021.2919574829
 21
45.039186153
 31
0.0
  0
ARC
  5
3AA
  8
0
  6
CONTINUOUS
 62
     7
 10
-2052.9982763412
 20
33.8238163457
 30
0.0
 40
1.131629779451871
 50
185.6948966713
 51
245.6247313458
  0
ARC
  5
3AB
  8
0
  6
CONTINUOUS
 62
     7
 10
-2021.7589987648
 20
46.0699617584
 30
0.0
 40
1.131647430863102
 50
294.3751351755
 51
354.3040095176
  0
ARC
  5
3AC
  8
0
  6
CONTINUOUS
 62
     7
 10
-2350.6269470583
 20
208.329854623
 30
0.0
 40
3.458279421211664
 50
242.6094906418
 51
297.3905093582
  0
LINE
  5
3AD
  8
0
  6
CONTINUOUS
 62
     7
 10
-2338.3586421962
 20
211.4231595468
 30
0.0
 11
-2349.0359562106
 21
205.2592773682
 31
0.0
  0
LINE
  5
3AE
  8
0
  6
CONTINUOUS
 62
     7
 10
-2352.217937906
 20
205.2592773682
 30
0.0
 11
-2356.107017279
 21
207.5043951016
 31
0.0
  0
ARC
  5
3AF
  8
0
  6
CONTINUOUS
 62
     7
 10
-2355.6399808807
 20
208.535153541
 30
0.0
 40
1.13162977945281
 50
185.6948966714
 51
245.6247313458
  0
ARC
  5
3B0
  8
0
  6
CONTINUOUS
 62
     7
 10
-2337.4964871617
 20
524.6671809013
 30
0.0
 40
0.8734233963826418
 50
50.7972730604
 51
189.2134786943
  0
LINE
  5
3B1
  8
0
  6
CONTINUOUS
 62
     7
 10
-2060.4656724695
 20
365.7362223426
 30
0.0
 11
-2336.9444257679
 21
525.3440092745
 31
0.0
  0
ARC
  5
3B2
  8
0
  6
CONTINUOUS
 62
     7
 10
-2062.1219252283
 20
363.1469878948
 30
0.0
 40
3.073647381678444
 50
2.6057831488
 51
57.3942169968
  0
LINE
  5
3B3
  8
0
  6
CONTINUOUS
 62
     7
 10
-2059.0514560411
 20
44.0192680542
 30
0.0
 11
-2059.0514560411
 21
363.286727643
 31
0.0
  0
ARC
  5
3B4
  8
0
  6
CONTINUOUS
 62
     7
 10
-2059.9136110757
 20
43.8794212605
 30
0.0
 40
0.8734233963826088
 50
230.7972730604
 51
9.2134786943
  0
LINE
  5
3B5
  8
0
  6
CONTINUOUS
 62
     7
 10
-2336.9444257679
 20
202.8103798191
 30
0.0
 11
-2060.4656724695
 21
43.2025928872
 31
0.0
  0
ARC
  5
3B6
  8
0
  6
CONTINUOUS
 62
     7
 10
-2335.288173009
 20
205.3996142669
 30
0.0
 40
3.073647381680286
 50
182.6057831488
 51
237.3942169968
  0
LINE
  5
3B7
  8
0
  6
CONTINUOUS
 62
     7
 10
-2338.3586421962
 20
524.5273341075
 30
0.0
 11
-2338.3586421962
 21
205.2598745187
 31
0.0
  0
ARC
  5
3B8
  8
0
  6
CONTINUOUS
 62
     7
 10
-2060.0006005858
 20
364.3716025443
 30
0.0
 40
3.073647381679274
 50
2.6057831488
 51
57.3942169968
  0
LINE
  5
3B9
  8
0
  6
CONTINUOUS
 62
     7
 10
-2056.9301313986
 20
45.2438827037
 30
0.0
 11
-2056.9301313986
 21
364.5113422925
 31
0.0
  0
LINE
  5
3BA
  8
0
  6
CONTINUOUS
 62
     7
 10
-2058.3443478269
 20
366.9608369921
 30
0.0
 11
-2334.8231011253
 21
526.568623924
 31
0.0
  0
ARC
  5
3BB
  8
0
  6
CONTINUOUS
 62
     7
 10
-2057.8815310149
 20
45.12277676
 30
0.0
 40
0.9590765764461863
 50
304.0567504776
 51
7.2543039972
  0
ARC
  5
3BC
  8
0
  6
CONTINUOUS
 62
     7
 10
-2335.4089459617
 20
525.7508302808
 30
0.0
 40
1.005982412967528
 50
54.3832314225
 51
114.3063993263
  0
ARC
  5
3BD
  8
0
  6
CONTINUOUS
 62
     7
 10
-2055.4978840639
 20
367.2294851666
 30
0.0
 40
2.835602475553523
 50
238.6294314779
 51
317.8799515709
  0
ARC
  5
3BE
  8
0
  6
CONTINUOUS
 62
     7
 10
-2055.5140261712
 20
65.08466249
 30
0.0
 40
18.30530924051049
 50
265.7796499093
 51
274.353979141
  0
LINE
  5
3BF
  8
0
  6
CONTINUOUS
 62
     7
 10
-2057.2029584857
 20
365.5783847832
 30
0.0
 11
-2056.5765825598
 21
365.9399839083
 31
0.0
  0
ARC
  5
3C0
  8
0
  6
CONTINUOUS
 62
     7
 10
-2055.5159217745
 20
366.4756485755
 30
0.0
 40
1.188249947277623
 50
206.7951086559
 51
333.2052199255
  0
LINE
  5
3C1
  8
0
  6
CONTINUOUS
 62
     7
 10
-2053.3946008644
 20
365.3276857076
 30
0.0
 11
-2054.4552579173
 21
365.939989991
 31
0.0
  0
ARC
  5
3C2
  8
0
  6
CONTINUOUS
 62
     7
 10
-2310.0099072952
 20
513.9243210673
 30
0.0
 40
26.26039790024
 50
145.4589218491
 51
153.3629620419
  0
ARC
  5
3C3
  8
0
  6
CONTINUOUS
 62
     7
 10
-2055.2419008827
 20
366.8163453605
 30
0.0
 40
2.86747687942864
 50
102.6420323966
 51
180.9302555883
  0
LINE
  5
3C4
  8
0
  6
CONTINUOUS
 62
     7
 10
-2055.8694743457
 20
368.3894846907
 30
0.0
 11
-2055.8694743457
 21
369.6143044743
 31
0.0
  0
ARC
  5
3C5
  8
0
  6
CONTINUOUS
 62
     7
 10
-2055.935925352
 20
367.2031010721
 30
0.0
 40
1.188243168155002
 50
86.7941329901
 51
213.2055382295
  0
LINE
  5
3C6
  8
0
  6
CONTINUOUS
 62
     7
 10
-2056.9301419353
 20
366.5523667083
 30
0.0
 11
-2057.5570868436
 21
366.1904391166
 31
0.0
  0
ARC
  5
3C7
  8
0
  6
CONTINUOUS
 62
     7
 10
-2056.433447169
 20
367.5234482534
 30
0.0
 40
3.749127901309739
 50
324.1494596736
 51
357.6385200562
  0
LINE
  5
3C8
  8
0
  6
CONTINUOUS
 62
     7
 10
-2049.7748714636
 20
369.0503959451
 30
0.0
 11
-2052.6875031869
 21
367.3689694414
 31
0.0
  0
ARC
  5
3C9
  8
0
  6
CONTINUOUS
 62
     7
 10
-2057.4941042219
 20
368.1357525368
 30
0.0
 40
3.749127901309361
 50
324.1494596736
 51
357.6385200562
  0
LINE
  5
3CA
  8
0
  6
CONTINUOUS
 62
     7
 10
-2052.6875031869
 20
367.3689694414
 30
0.0
 11
-2053.7481602398
 21
367.9812737248
 31
0.0
  0
ARC
  5
3CB
  8
0
  6
CONTINUOUS
 62
     7
 10
-2332.7875580173
 20
528.9683615429
 30
0.0
 40
1.156799017359335
 50
352.3259923227
 51
67.6798774571
  0
LINE
  5
3CC
  8
0
  6
CONTINUOUS
 62
     7
 10
-2332.3482276441
 20
530.0384890071
 30
0.0
 11
-2324.5700478248
 21
534.5287366392
 31
0.0
  0
LINE
  5
3CD
  8
0
  6
CONTINUOUS
 62
     7
 10
-2324.5700478248
 20
534.5287366392
 30
0.0
 11
-2049.3440674515
 21
375.644160123
 31
0.0
  0
LINE
  5
3CE
  8
0
  6
CONTINUOUS
 62
     7
 10
-2053.7481602398
 20
369.2060935085
 30
0.0
 11
-2049.6085705361
 21
371.5958277775
 31
0.0
  0
ARC
  5
3CF
  8
0
  6
CONTINUOUS
 62
     7
 10
-2055.4872891655
 20
365.8844437462
 30
0.0
 40
3.749390158871905
 50
62.3646219119
 51
95.8504704978
  0
LINE
  5
3D0
  8
0
  6
CONTINUOUS
 62
     7
 10
-2053.7481602398
 20
367.9812737248
 30
0.0
 11
-2053.7481602398
 21
369.2060935085
 31
0.0
  0
ARC
  5
3D1
  8
0
  6
CONTINUOUS
 62
     7
 10
-2055.4872891655
 20
364.6596239625
 30
0.0
 40
3.749390158871855
 50
62.3646219119
 51
95.8504704978
  0
LINE
  5
3D2
  8
0
  6
CONTINUOUS
 62
     7
 10
-2053.7481602398
 20
367.9812737248
 30
0.0
 11
-2049.6917262682
 21
370.3230032115
 31
0.0
  0
ARC
  5
3D3
  8
0
  6
CONTINUOUS
 62
     7
 10
-2053.030498706
 20
368.3955715825
 30
0.0
 40
4.313307492401677
 50
205.2982221878
 51
214.7017779579
  0
LINE
  5
3D4
  8
0
  6
CONTINUOUS
 62
     7
 10
-2332.3482276441
 20
530.0384890071
 30
0.0
 11
-2332.3482276441
 21
528.8136692234
 31
0.0
  0
ARC
  5
3D5
  8
0
  6
CONTINUOUS
 62
     7
 10
-2333.2180859108
 20
527.2495180394
 30
0.0
 40
1.789754824241198
 50
40.8110373342
 51
60.9206187323
  0
ARC
  5
3D6
  8
0
  6
CONTINUOUS
 62
     7
 10
-2056.8024098133
 20
48.9111098689
 30
0.0
 40
3.586967782977518
 50
267.4648881451
 51
285.0754193154
  0
ARC
  5
3D7
  8
0
  6
CONTINUOUS
 62
     7
 10
-2056.1377774799
 20
49.1463090432
 30
0.0
 40
2.488405854042192
 50
250.3893562792
 51
276.1897377775
  0
LINE
  5
3D8
  8
0
  6
CONTINUOUS
 62
     7
 10
-2055.8694743457
 20
46.6724098693
 30
0.0
 11
-2055.8694743457
 21
45.4475900856
 31
0.0
  0
ARC
  5
3D9
  8
0
  6
CONTINUOUS
 62
     7
 10
-2331.5217774936
 20
524.7918655529
 30
0.0
 40
3.667795333987258
 50
135.0152998885
 51
151.7489870826
  0
LINE
  5
3DA
  8
0
  6
CONTINUOUS
 62
     7
 10
-2334.1159929112
 20
527.3846958558
 30
0.0
 11
-2333.0553253215
 21
526.7723854897
 31
0.0
  0
ARC
  5
3DB
  8
0
  6
CONTINUOUS
 62
     7
 10
-2331.0472708786
 20
525.3030761829
 30
0.0
 40
2.488202661509627
 50
143.8067708075
 51
169.6100280524
  0
ARC
  5
3DC
  8
0
  6
CONTINUOUS
 62
     7
 10
-2055.4985085116
 20
41.5226398722
 30
0.0
 40
3.942442114691419
 50
69.6005810005
 51
95.3992592513
  0
ARC
  5
3DD
  8
0
  6
CONTINUOUS
 62
     7
 10
-2336.0941716262
 20
528.9681480354
 30
0.0
 40
3.749127901309361
 50
324.1494596736
 51
357.6385200562
  0
LINE
  5
3DE
  8
0
  6
CONTINUOUS
 62
     7
 10
-2332.3482276441
 20
528.8136692234
 30
0.0
 11
-2333.4088952337
 21
529.4259795895
 31
0.0
  0
ARC
  5
3DF
  8
0
  6
CONTINUOUS
 62
     7
 10
-2337.1548392158
 20
529.5804584015
 30
0.0
 40
3.749127901309796
 50
324.1494596736
 51
357.6385200562
  0
LINE
  5
3E0
  8
0
  6
CONTINUOUS
 62
     7
 10
-2332.3482276441
 20
530.0382899556
 30
0.0
 11
-2333.4088952337
 21
529.4259795895
 31
0.0
  0
LINE
  5
3E1
  8
0
  6
CONTINUOUS
 62
     7
 10
-1907.6245369466
 20
451.5606783264
 30
0.0
 11
-2018.3578835504
 21
387.6356780138
 31
0.0
  0
LINE
  5
3E2
  8
0
  6
CONTINUOUS
 62
     7
 10
-2020.6329388229
 20
62.156770243
 30
0.0
 11
-1907.6245369466
 21
127.3951320087
 31
0.0
  0
LINE
  5
3E3
  8
0
  6
CONTINUOUS
 62
     7
 10
-2189.4060908208
 20
615.4550985221
 30
0.0
 11
-2293.3277164519
 21
555.4624210253
 31
0.0
  0
LINE
  5
3E4
  8
0
  6
CONTINUOUS
 62
     7
 10
-2018.1915088659
 20
390.1823082339
 30
0.0
 11
-1908.6856997617
 21
453.3986662318
 31
0.0
  0
POLYLINE
  5
3E5
  8
0
  6
CONTINUOUS
 62
     7
 66
     1
 10
0.0
 20
0.0
 30
0.0
  0
VERTEX
  5
665
  8
0
  6
CONTINUOUS
 62
     7
 10
-2131.9541651456
 20
507.179262501
 30
0.0
  0
VERTEX
  5
666
  8
0
  6
CONTINUOUS
 62
     7
 10
-2133.9405500672
 20
505.8878558453
 30
0.0
  0
VERTEX
  5
667
  8
0
  6
CONTINUOUS
 62
     7
 10
-2135.6484075404
 20
504.4698922331
 30
0.0
  0
VERTEX
  5
668
  8
0
  6
CONTINUOUS
 62
     7
 10
-2137.0537770818
 20
502.9452682231
 30
0.0
  0
VERTEX
  5
669
  8
0
  6
CONTINUOUS
 62
     7
 10
-2138.1369181614
 20
501.335391929
 30
0.0
  0
VERTEX
  5
66A
  8
0
  6
CONTINUOUS
 62
     7
 10
-2138.8826289375
 20
499.6628621555
 30
0.0
  0
VERTEX
  5
66B
  8
0
  6
CONTINUOUS
 62
     7
 10
-2139.2804411868
 20
497.951155139
 30
0.0
  0
VERTEX
  5
66C
  8
0
  6
CONTINUOUS
 62
     7
 10
-2139.3247691347
 20
496.2243029238
 30
0.0
  0
VERTEX
  5
66D
  8
0
  6
CONTINUOUS
 62
     7
 10
-2139.0149970421
 20
494.506542466
 30
0.0
  0
VERTEX
  5
66E
  8
0
  6
CONTINUOUS
 62
     7
 10
-2138.3554699858
 20
492.8219879264
 30
0.0
  0
VERTEX
  5
66F
  8
0
  6
CONTINUOUS
 62
     7
 10
-2137.355441833
 20
491.1942904194
 30
0.0
  0
VERTEX
  5
670
  8
0
  6
CONTINUOUS
 62
     7
 10
-2136.0289570332
 20
489.6462960504
 30
0.0
  0
VERTEX
  5
671
  8
0
  6
CONTINUOUS
 62
     7
 10
-2134.3946314873
 20
488.1997369322
 30
0.0
  0
VERTEX
  5
672
  8
0
  6
CONTINUOUS
 62
     7
 10
-2132.4754085567
 20
486.8749200171
 30
0.0
  0
VERTEX
  5
673
  8
0
  6
CONTINUOUS
 62
     7
 10
-2130.2982373642
 20
485.6904379769
 30
0.0
  0
VERTEX
  5
674
  8
0
  6
CONTINUOUS
 62
     7
 10
-2127.8936702593
 20
484.6629246598
 30
0.0
  0
VERTEX
  5
675
  8
0
  6
CONTINUOUS
 62
     7
 10
-2125.2954662089
 20
483.8068018013
 30
0.0
  0
VERTEX
  5
676
  8
0
  6
CONTINUOUS
 62
     7
 10
-2122.5400988653
 20
483.1340862791
 30
0.0
  0
VERTEX
  5
677
  8
0
  6
CONTINUOUS
 62
     7
 10
-2119.6662468525
 20
482.6542235984
 30
0.0
  0
VERTEX
  5
678
  8
0
  6
CONTINUOUS
 62
     7
 10
-2116.7142545824
 20
482.3739469437
 30
0.0
  0
VERTEX
  5
679
  8
0
  6
CONTINUOUS
 62
     7
 10
-2113.7255570172
 20
482.2971944926
 30
0.0
  0
VERTEX
  5
67A
  8
0
  6
CONTINUOUS
 62
     7
 10
-2110.7421120029
 20
482.4250432657
 30
0.0
  0
VERTEX
  5
67B
  8
0
  6
CONTINUOUS
 62
     7
 10
-2107.8058042874
 20
482.7556935398
 30
0.0
  0
VERTEX
  5
67C
  8
0
  6
CONTINUOUS
 62
     7
 10
-2104.9578495373
 20
483.2845080055
 30
0.0
  0
VERTEX
  5
67D
  8
0
  6
CONTINUOUS
 62
     7
 10
-2102.2382214042
 20
484.0040642305
 30
0.0
  0
VERTEX
  5
67E
  8
0
  6
CONTINUOUS
 62
     7
 10
-2099.6851062499
 20
484.9042595865
 30
0.0
  0
VERTEX
  5
67F
  8
0
  6
CONTINUOUS
 62
     7
 10
-2097.3343407495
 20
485.9724549532
 30
0.0
  0
VERTEX
  5
680
  8
0
  6
CONTINUOUS
 62
     7
 10
-2095.2189219341
 20
487.1936602412
 30
0.0
  0
VERTEX
  5
681
  8
0
  6
CONTINUOUS
 62
     7
 10
-2093.3685475269
 20
488.55073132
 30
0.0
  0
VERTEX
  5
682
  8
0
  6
CONTINUOUS
 62
     7
 10
-2091.8091944744
 20
490.0246133261
 30
0.0
  0
VERTEX
  5
683
  8
0
  6
CONTINUOUS
 62
     7
 10
-2090.5627567474
 20
491.5946181874
 30
0.0
  0
VERTEX
  5
684
  8
0
  6
CONTINUOUS
 62
     7
 10
-2089.6467187027
 20
493.2387105106
 30
0.0
  0
VERTEX
  5
685
  8
0
  6
CONTINUOUS
 62
     7
 10
-2089.0739535681
 20
494.9338048736
 30
0.0
  0
VERTEX
  5
686
  8
0
  6
CONTINUOUS
 62
     7
 10
-2088.8524890013
 20
496.65611102
 30
0.0
  0
VERTEX
  5
687
  8
0
  6
CONTINUOUS
 62
     7
 10
-2088.9854478204
 20
498.3814463583
 30
0.0
  0
VERTEX
  5
688
  8
0
  6
CONTINUOUS
 62
     7
 10
-2089.4709485637
 20
500.0855982633
 30
0.0
  0
VERTEX
  5
689
  8
0
  6
CONTINUOUS
 62
     7
 10
-2090.3021851736
 20
501.7446377167
 30
0.0
  0
VERTEX
  5
68A
  8
0
  6
CONTINUOUS
 62
     7
 10
-2091.4674889001
 20
503.3352774264
 30
0.0
  0
VERTEX
  5
68B
  8
0
  6
CONTINUOUS
 62
     7
 10
-2092.9505031439
 20
504.8351856568
 30
0.0
  0
VERTEX
  5
68C
  8
0
  6
CONTINUOUS
 62
     7
 10
-2094.7304012704
 20
506.2233126994
 30
0.0
  0
VERTEX
  5
68D
  8
0
  6
CONTINUOUS
 62
     7
 10
-2096.7822013936
 20
507.4801699172
 30
0.0
  0
VERTEX
  5
68E
  8
0
  6
CONTINUOUS
 62
     7
 10
-2099.0771002585
 20
508.5881137319
 30
0.0
  0
VERTEX
  5
68F
  8
0
  6
CONTINUOUS
 62
     7
 10
-2101.5828856543
 20
509.5315897871
 30
0.0
  0
VERTEX
  5
690
  8
0
  6
CONTINUOUS
 62
     7
 10
-2104.264381097
 20
510.2973531622
 30
0.0
  0
VERTEX
  5
691
  8
0
  6
CONTINUOUS
 62
     7
 10
-2107.0839466519
 20
510.8746540852
 30
0.0
  0
VERTEX
  5
692
  8
0
  6
CONTINUOUS
 62
     7
 10
-2110.0019916111
 20
511.255393992
 30
0.0
  0
VERTEX
  5
693
  8
0
  6
CONTINUOUS
 62
     7
 10
-2112.9775624087
 20
511.4342216146
 30
0.0
  0
VERTEX
  5
694
  8
0
  6
CONTINUOUS
 62
     7
 10
-2115.9688875665
 20
511.4086285936
 30
0.0
  0
VERTEX
  5
695
  8
0
  6
CONTINUOUS
 62
     7
 10
-2118.9339723599
 20
511.1789764703
 30
0.0
  0
VERTEX
  5
696
  8
0
  6
CONTINUOUS
 62
     7
 10
-2121.8311928247
 20
510.7484868025
 30
0.0
  0
VERTEX
  5
697
  8
0
  6
CONTINUOUS
 62
     7
 10
-2124.6198825203
 20
510.1232027669
 30
0.0
  0
VERTEX
  5
698
  8
0
  6
CONTINUOUS
 62
     7
 10
-2127.2608896588
 20
509.311903241
 30
0.0
  0
VERTEX
  5
699
  8
0
  6
CONTINUOUS
 62
     7
 10
-2129.7171460868
 20
508.3259750664
 30
0.0
  0
VERTEX
  5
69A
  8
0
  6
CONTINUOUS
 62
     7
 10
-2131.9541651456
 20
507.179262501
 30
0.0
  0
SEQEND
  5
69B
  8
0
  6
CONTINUOUS
 62
     7
  0
LINE
  5
3E6
  8
0
  6
CONTINUOUS
 62
     7
 10
-2077.1733114707
 20
494.9959245948
 30
0.0
 11
-2071.6733150103
 21
494.9959238345
 31
0.0
  0
POLYLINE
  5
3E7
  8
0
  6
CONTINUOUS
 62
     7
 66
     1
 10
0.0
 20
0.0
 30
0.0
  0
VERTEX
  5
69C
  8
0
  6
CONTINUOUS
 62
     7
 10
-2071.6733150103
 20
494.9959238345
 30
0.0
  0
VERTEX
  5
69D
  8
0
  6
CONTINUOUS
 62
     7
 10
-2070.5617498327
 20
495.1090714471
 30
0.0
  0
VERTEX
  5
69E
  8
0
  6
CONTINUOUS
 62
     7
 10
-2069.5842511461
 20
495.4348692357
 30
0.0
  0
VERTEX
  5
69F
  8
0
  6
CONTINUOUS
 62
     7
 10
-2068.8587273933
 20
495.9340183031
 30
0.0
  0
VERTEX
  5
6A0
  8
0
  6
CONTINUOUS
 62
     7
 10
-2068.4726886027
 20
496.5463134624
 30
0.0
  0
VERTEX
  5
6A1
  8
0
  6
CONTINUOUS
 62
     7
 10
-2068.4726886027
 20
497.1979059984
 30
0.0
  0
VERTEX
  5
6A2
  8
0
  6
CONTINUOUS
 62
     7
 10
-2068.8587287104
 20
497.810201918
 30
0.0
  0
VERTEX
  5
6A3
  8
0
  6
CONTINUOUS
 62
     7
 10
-2069.5842524632
 20
498.3093509854
 30
0.0
  0
VERTEX
  5
6A4
  8
0
  6
CONTINUOUS
 62
     7
 10
-2070.5617471985
 20
498.635146493
 30
0.0
  0
VERTEX
  5
6A5
  8
0
  6
CONTINUOUS
 62
     7
 10
-2071.6733123761
 20
498.7482941056
 30
0.0
  0
SEQEND
  5
6A6
  8
0
  6
CONTINUOUS
 62
     7
  0
LINE
  5
3E8
  8
0
  6
CONTINUOUS
 62
     7
 10
-2071.6733123761
 20
498.7482941056
 30
0.0
 11
-2077.1733101536
 21
498.7482956263
 31
0.0
  0
POLYLINE
  5
3E9
  8
0
  6
CONTINUOUS
 62
     7
 66
     1
 10
0.0
 20
0.0
 30
0.0
  0
VERTEX
  5
6A7
  8
0
  6
CONTINUOUS
 62
     7
 10
-2077.1733101536
 20
498.7482956263
 30
0.0
  0
VERTEX
  5
6A8
  8
0
  6
CONTINUOUS
 62
     7
 10
-2078.2848753311
 20
498.6351480137
 30
0.0
  0
VERTEX
  5
6A9
  8
0
  6
CONTINUOUS
 62
     7
 10
-2079.2623727007
 20
498.3093494647
 30
0.0
  0
VERTEX
  5
6AA
  8
0
  6
CONTINUOUS
 62
     7
 10
-2079.9878964535
 20
497.8102003973
 30
0.0
  0
VERTEX
  5
6AB
  8
0
  6
CONTINUOUS
 62
     7
 10
-2080.3739365611
 20
497.1979059984
 30
0.0
  0
VERTEX
  5
6AC
  8
0
  6
CONTINUOUS
 62
     7
 10
-2080.3739365611
 20
496.5463134624
 30
0.0
  0
VERTEX
  5
6AD
  8
0
  6
CONTINUOUS
 62
     7
 10
-2079.9878951364
 20
495.9340167824
 30
0.0
  0
VERTEX
  5
6AE
  8
0
  6
CONTINUOUS
 62
     7
 10
-2079.2623687494
 20
495.4348692357
 30
0.0
  0
VERTEX
  5
6AF
  8
0
  6
CONTINUOUS
 62
     7
 10
-2078.2848766482
 20
495.1090722074
 30
0.0
  0
VERTEX
  5
6B0
  8
0
  6
CONTINUOUS
 62
     7
 10
-2077.1733114707
 20
494.9959245948
 30
0.0
  0
SEQEND
  5
6B1
  8
0
  6
CONTINUOUS
 62
     7
  0
LINE
  5
3EA
  8
0
  6
CONTINUOUS
 62
     7
 10
-2117.3497197396
 20
521.3643510169
 30
0.0
 11
-2117.3497184225
 21
518.1892706439
 31
0.0
  0
POLYLINE
  5
3EB
  8
0
  6
CONTINUOUS
 62
     7
 66
     1
 10
0.0
 20
0.0
 30
0.0
  0
VERTEX
  5
6B2
  8
0
  6
CONTINUOUS
 62
     7
 10
-2117.3497184225
 20
518.1892706439
 30
0.0
  0
VERTEX
  5
6B3
  8
0
  6
CONTINUOUS
 62
     7
 10
-2117.1537197719
 20
517.5475777257
 30
0.0
  0
VERTEX
  5
6B4
  8
0
  6
CONTINUOUS
 62
     7
 10
-2116.5893616165
 20
516.983283547
 30
0.0
  0
VERTEX
  5
6B5
  8
0
  6
CONTINUOUS
 62
     7
 10
-2115.7247190193
 20
516.564446079
 30
0.0
  0
VERTEX
  5
6B6
  8
0
  6
CONTINUOUS
 62
     7
 10
-2114.6640751373
 20
516.3415891081
 30
0.0
  0
VERTEX
  5
6B7
  8
0
  6
CONTINUOUS
 62
     7
 10
-2113.5353614607
 20
516.3415891081
 30
0.0
  0
VERTEX
  5
6B8
  8
0
  6
CONTINUOUS
 62
     7
 10
-2112.47472153
 20
516.5644453187
 30
0.0
  0
VERTEX
  5
6B9
  8
0
  6
CONTINUOUS
 62
     7
 10
-2111.6100762986
 20
516.983281266
 30
0.0
  0
VERTEX
  5
6BA
  8
0
  6
CONTINUOUS
 62
     7
 10
-2111.045715509
 20
517.547578486
 30
0.0
  0
VERTEX
  5
6BB
  8
0
  6
CONTINUOUS
 62
     7
 10
-2110.8497168584
 20
518.1892714042
 30
0.0
  0
SEQEND
  5
6BC
  8
0
  6
CONTINUOUS
 62
     7
  0
LINE
  5
3EC
  8
0
  6
CONTINUOUS
 62
     7
 10
-2110.8497168584
 20
518.1892714042
 30
0.0
 11
-2110.8497194926
 21
521.3643525376
 31
0.0
  0
POLYLINE
  5
3ED
  8
0
  6
CONTINUOUS
 62
     7
 66
     1
 10
0.0
 20
0.0
 30
0.0
  0
VERTEX
  5
6BD
  8
0
  6
CONTINUOUS
 62
     7
 10
-2110.8497194926
 20
521.3643525376
 30
0.0
  0
VERTEX
  5
6BE
  8
0
  6
CONTINUOUS
 62
     7
 10
-2111.0457181432
 20
522.0060454558
 30
0.0
  0
VERTEX
  5
6BF
  8
0
  6
CONTINUOUS
 62
     7
 10
-2111.6100736644
 20
522.5703411552
 30
0.0
  0
VERTEX
  5
6C0
  8
0
  6
CONTINUOUS
 62
     7
 10
-2112.4747188958
 20
522.9891771025
 30
0.0
  0
VERTEX
  5
6C1
  8
0
  6
CONTINUOUS
 62
     7
 10
-2113.5353614607
 20
523.212033313
 30
0.0
  0
VERTEX
  5
6C2
  8
0
  6
CONTINUOUS
 62
     7
 10
-2114.6640751373
 20
523.212033313
 30
0.0
  0
VERTEX
  5
6C3
  8
0
  6
CONTINUOUS
 62
     7
 10
-2115.7247163851
 20
522.9891778628
 30
0.0
  0
VERTEX
  5
6C4
  8
0
  6
CONTINUOUS
 62
     7
 10
-2116.5893616165
 20
522.5703419155
 30
0.0
  0
VERTEX
  5
6C5
  8
0
  6
CONTINUOUS
 62
     7
 10
-2117.1537210889
 20
522.0060439351
 30
0.0
  0
VERTEX
  5
6C6
  8
0
  6
CONTINUOUS
 62
     7
 10
-2117.3497197396
 20
521.3643510169
 30
0.0
  0
SEQEND
  5
6C7
  8
0
  6
CONTINUOUS
 62
     7
  0
LINE
  5
3EE
  8
0
  6
CONTINUOUS
 62
     7
 10
-2110.8497221268
 20
472.3798654025
 30
0.0
 11
-2110.8497181755
 21
475.5549488169
 31
0.0
  0
POLYLINE
  5
3EF
  8
0
  6
CONTINUOUS
 62
     7
 66
     1
 10
0.0
 20
0.0
 30
0.0
  0
VERTEX
  5
6C8
  8
0
  6
CONTINUOUS
 62
     7
 10
-2110.8497181755
 20
475.5549488169
 30
0.0
  0
VERTEX
  5
6C9
  8
0
  6
CONTINUOUS
 62
     7
 10
-2111.0457168261
 20
476.1966417351
 30
0.0
  0
VERTEX
  5
6CA
  8
0
  6
CONTINUOUS
 62
     7
 10
-2111.6100749815
 20
476.7609359138
 30
0.0
  0
VERTEX
  5
6CB
  8
0
  6
CONTINUOUS
 62
     7
 10
-2112.4747175787
 20
477.1797733818
 30
0.0
  0
VERTEX
  5
6CC
  8
0
  6
CONTINUOUS
 62
     7
 10
-2113.5353614607
 20
477.4026303526
 30
0.0
  0
VERTEX
  5
6CD
  8
0
  6
CONTINUOUS
 62
     7
 10
-2114.6640751373
 20
477.4026303526
 30
0.0
  0
VERTEX
  5
6CE
  8
0
  6
CONTINUOUS
 62
     7
 10
-2115.7247203364
 20
477.1797711007
 30
0.0
  0
VERTEX
  5
6CF
  8
0
  6
CONTINUOUS
 62
     7
 10
-2116.5893655678
 20
476.7609351534
 30
0.0
  0
VERTEX
  5
6D0
  8
0
  6
CONTINUOUS
 62
     7
 10
-2117.1537210889
 20
476.1966409748
 30
0.0
  0
VERTEX
  5
6D1
  8
0
  6
CONTINUOUS
 62
     7
 10
-2117.3497197396
 20
475.5549480566
 30
0.0
  0
SEQEND
  5
6D2
  8
0
  6
CONTINUOUS
 62
     7
  0
LINE
  5
3F0
  8
0
  6
CONTINUOUS
 62
     7
 10
-2117.3497197396
 20
475.5549480566
 30
0.0
 11
-2117.3497223738
 21
472.3798638818
 31
0.0
  0
POLYLINE
  5
3F1
  8
0
  6
CONTINUOUS
 62
     7
 66
     1
 10
0.0
 20
0.0
 30
0.0
  0
VERTEX
  5
6D3
  8
0
  6
CONTINUOUS
 62
     7
 10
-2117.3497223738
 20
472.3798638818
 30
0.0
  0
VERTEX
  5
6D4
  8
0
  6
CONTINUOUS
 62
     7
 10
-2117.1537184548
 20
471.738174005
 30
0.0
  0
VERTEX
  5
6D5
  8
0
  6
CONTINUOUS
 62
     7
 10
-2116.5893655678
 20
471.1738767849
 30
0.0
  0
VERTEX
  5
6D6
  8
0
  6
CONTINUOUS
 62
     7
 10
-2115.7247177022
 20
470.7550423583
 30
0.0
  0
VERTEX
  5
6D7
  8
0
  6
CONTINUOUS
 62
     7
 10
-2114.6640751373
 20
470.5321861478
 30
0.0
  0
VERTEX
  5
6D8
  8
0
  6
CONTINUOUS
 62
     7
 10
-2113.5353614607
 20
470.5321861478
 30
0.0
  0
VERTEX
  5
6D9
  8
0
  6
CONTINUOUS
 62
     7
 10
-2112.4747149445
 20
470.7550446393
 30
0.0
  0
VERTEX
  5
6DA
  8
0
  6
CONTINUOUS
 62
     7
 10
-2111.6100749815
 20
471.1738775453
 30
0.0
  0
VERTEX
  5
6DB
  8
0
  6
CONTINUOUS
 62
     7
 10
-2111.0457207774
 20
471.7381724843
 30
0.0
  0
VERTEX
  5
6DC
  8
0
  6
CONTINUOUS
 62
     7
 10
-2110.8497221268
 20
472.3798654025
 30
0.0
  0
SEQEND
  5
6DD
  8
0
  6
CONTINUOUS
 62
     7
  0
LINE
  5
3F2
  8
0
  6
CONTINUOUS
 62
     7
 10
-2151.0261251273
 20
498.748294866
 30
0.0
 11
-2156.5261268561
 21
498.7482925849
 31
0.0
  0
POLYLINE
  5
3F3
  8
0
  6
CONTINUOUS
 62
     7
 66
     1
 10
0.0
 20
0.0
 30
0.0
  0
VERTEX
  5
6DE
  8
0
  6
CONTINUOUS
 62
     7
 10
-2156.5261268561
 20
498.7482925849
 30
0.0
  0
VERTEX
  5
6DF
  8
0
  6
CONTINUOUS
 62
     7
 10
-2157.6376920336
 20
498.6351449723
 30
0.0
  0
VERTEX
  5
6E0
  8
0
  6
CONTINUOUS
 62
     7
 10
-2158.6151854519
 20
498.3093502251
 30
0.0
  0
VERTEX
  5
6E1
  8
0
  6
CONTINUOUS
 62
     7
 10
-2159.3407039363
 20
497.810204199
 30
0.0
  0
VERTEX
  5
6E2
  8
0
  6
CONTINUOUS
 62
     7
 10
-2159.7267479953
 20
497.1979059984
 30
0.0
  0
VERTEX
  5
6E3
  8
0
  6
CONTINUOUS
 62
     7
 10
-2159.7267479953
 20
496.5463134624
 30
0.0
  0
VERTEX
  5
6E4
  8
0
  6
CONTINUOUS
 62
     7
 10
-2159.3407078876
 20
495.9340175428
 30
0.0
  0
VERTEX
  5
6E5
  8
0
  6
CONTINUOUS
 62
     7
 10
-2158.615186769
 20
495.4348669547
 30
0.0
  0
VERTEX
  5
6E6
  8
0
  6
CONTINUOUS
 62
     7
 10
-2157.6376893994
 20
495.1090729678
 30
0.0
  0
VERTEX
  5
6E7
  8
0
  6
CONTINUOUS
 62
     7
 10
-2156.5261294902
 20
494.9959223138
 30
0.0
  0
SEQEND
  5
6E8
  8
0
  6
CONTINUOUS
 62
     7
  0
LINE
  5
3F4
  8
0
  6
CONTINUOUS
 62
     7
 10
-2156.5261294902
 20
494.9959223138
 30
0.0
 11
-2151.0261264444
 21
494.9959238345
 31
0.0
  0
POLYLINE
  5
3F5
  8
0
  6
CONTINUOUS
 62
     7
 66
     1
 10
0.0
 20
0.0
 30
0.0
  0
VERTEX
  5
6E9
  8
0
  6
CONTINUOUS
 62
     7
 10
-2151.0261264444
 20
494.9959238345
 30
0.0
  0
VERTEX
  5
6EA
  8
0
  6
CONTINUOUS
 62
     7
 10
-2149.9145612669
 20
495.1090714471
 30
0.0
  0
VERTEX
  5
6EB
  8
0
  6
CONTINUOUS
 62
     7
 10
-2148.9370691657
 20
495.4348669547
 30
0.0
  0
VERTEX
  5
6EC
  8
0
  6
CONTINUOUS
 62
     7
 10
-2148.2115454129
 20
495.9340160221
 30
0.0
  0
VERTEX
  5
6ED
  8
0
  6
CONTINUOUS
 62
     7
 10
-2147.8255000369
 20
496.5463134624
 30
0.0
  0
VERTEX
  5
6EE
  8
0
  6
CONTINUOUS
 62
     7
 10
-2147.8255000369
 20
497.1979059984
 30
0.0
  0
VERTEX
  5
6EF
  8
0
  6
CONTINUOUS
 62
     7
 10
-2148.2115414616
 20
497.8102026783
 30
0.0
  0
VERTEX
  5
6F0
  8
0
  6
CONTINUOUS
 62
     7
 10
-2148.9370678486
 20
498.3093502251
 30
0.0
  0
VERTEX
  5
6F1
  8
0
  6
CONTINUOUS
 62
     7
 10
-2149.9145599498
 20
498.6351472534
 30
0.0
  0
VERTEX
  5
6F2
  8
0
  6
CONTINUOUS
 62
     7
 10
-2151.0261251273
 20
498.748294866
 30
0.0
  0
SEQEND
  5
6F3
  8
0
  6
CONTINUOUS
 62
     7
  0
LINE
  5
3F6
  8
0
  6
CONTINUOUS
 62
     7
 10
-1908.6851939995
 20
452.1729826098
 30
0.0
 11
-2018.274738355
 21
388.9082852802
 31
0.0
  0
LINE
  5
3F7
  8
0
  6
CONTINUOUS
 62
     7
 10
-2018.2746645981
 20
388.9094958353
 30
0.0
 11
-1908.6856997617
 21
452.1738586156
 31
0.0
  0
LINE
  5
3F8
  8
0
  6
CONTINUOUS
 62
     7
 10
-2054.7019644951
 20
367.8826697681
 30
0.0
 11
-2054.1859711655
 21
368.182821177
 31
0.0
  0
LINE
  5
3F9
  8
0
  6
CONTINUOUS
 62
     7
 10
-2054.7011847784
 20
367.8768416537
 30
0.0
 11
-2054.17698335
 21
368.1795550718
 31
0.0
  0
LINE
  5
3FA
  8
0
  6
CONTINUOUS
 62
     7
 10
-2319.7851266501
 20
534.6358558334
 30
0.0
 11
-2317.29121333
 21
530.3267474028
 31
0.0
  0
LINE
  5
3FB
  8
0
  6
CONTINUOUS
 62
     7
 10
-2056.8234050414
 20
366.494031383
 30
0.0
 11
-2056.8844652882
 21
366.4586744405
 31
0.0
  0
POLYLINE
  5
3FC
  8
0
  6
CONTINUOUS
 62
     7
 66
     1
 10
0.0
 20
0.0
 30
0.0
  0
VERTEX
  5
6F4
  8
0
  6
CONTINUOUS
 62
     7
 10
-2056.3219945214
 20
365.6750644511
 30
0.0
  0
VERTEX
  5
6F5
  8
0
  6
CONTINUOUS
 62
     7
 10
-2056.1841743268
 20
365.687871391
 30
0.0
  0
VERTEX
  5
6F6
  8
0
  6
CONTINUOUS
 62
     7
 10
-2055.8697483002
 20
365.6776028715
 30
0.0
  0
SEQEND
  5
6F7
  8
0
  6
CONTINUOUS
 62
     7
  0
LINE
  5
3FD
  8
0
  6
CONTINUOUS
 62
     7
 10
-2054.9622318213
 20
367.6804865359
 30
0.0
 11
-2054.7019644951
 21
367.8826697681
 31
0.0
  0
LINE
  5
3FE
  8
0
  6
CONTINUOUS
 62
     7
 10
-2054.7011847784
 20
367.8768416537
 30
0.0
 11
-2055.0035146594
 21
367.752757
 31
0.0
  0
POLYLINE
  5
3FF
  8
0
  6
CONTINUOUS
 62
     7
 66
     1
 10
0.0
 20
0.0
 30
0.0
  0
VERTEX
  5
6F8
  8
0
  6
CONTINUOUS
 62
     7
 10
-2055.3272972864
 20
367.6198617442
 30
0.0
  0
VERTEX
  5
6F9
  8
0
  6
CONTINUOUS
 62
     7
 10
-2055.3284141779
 20
367.6193993096
 30
0.0
  0
VERTEX
  5
6FA
  8
0
  6
CONTINUOUS
 62
     7
 10
-2056.1300472366
 20
367.3532614695
 30
0.0
  0
SEQEND
  5
6FB
  8
0
  6
CONTINUOUS
 62
     7
  0
ARC
  5
400
  8
0
  6
CONTINUOUS
 62
     7
 10
-2057.9587400827
 20
368.1195611771
 30
0.0
 40
1.982758877721625
 50
304.9319889784
 51
337.2642529858
  0
LINE
  5
401
  8
0
  6
CONTINUOUS
 62
     7
 10
-2055.8697483002
 20
365.6776028715
 30
0.0
 11
-2055.9231272838
 21
366.1079792488
 31
0.0
  0
ARC
  5
402
  8
0
  6
CONTINUOUS
 62
     7
 10
-1908.5327533379
 20
128.9346306956
 30
0.0
 40
1.787432018474833
 50
300.5381799464
 51
1.4004780268
  0
POLYLINE
  5
403
  8
0
  6
CONTINUOUS
 62
     7
 66
     1
 10
0.0
 20
0.0
 30
0.0
  0
VERTEX
  5
6FC
  8
0
  6
CONTINUOUS
 62
     7
 10
-1907.6245412271
 20
452.7856694061
 30
0.0
  0
VERTEX
  5
6FD
  8
0
  6
CONTINUOUS
 62
     7
 10
-1907.2514513612
 20
452.7620620687
 30
0.0
  0
VERTEX
  5
6FE
  8
0
  6
CONTINUOUS
 62
     7
 10
-1906.9742161366
 20
452.6923024327
 30
0.0
  0
VERTEX
  5
6FF
  8
0
  6
CONTINUOUS
 62
     7
 10
-1906.8035063771
 20
452.5790731936
 30
0.0
  0
VERTEX
  5
700
  8
0
  6
CONTINUOUS
 62
     7
 10
-1906.7458552506
 20
452.4267158543
 30
0.0
  0
VERTEX
  5
701
  8
0
  6
CONTINUOUS
 62
     7
 10
-1906.8035051423
 20
452.241100192
 30
0.0
  0
VERTEX
  5
702
  8
0
  6
CONTINUOUS
 62
     7
 10
-1906.9742179064
 20
452.0293445501
 30
0.0
  0
VERTEX
  5
703
  8
0
  6
CONTINUOUS
 62
     7
 10
-1907.2514543606
 20
451.7996027668
 30
0.0
  0
VERTEX
  5
704
  8
0
  6
CONTINUOUS
 62
     7
 10
-1907.6245369466
 20
451.5606783264
 30
0.0
  0
SEQEND
  5
705
  8
0
  6
CONTINUOUS
 62
     7
  0
LINE
  5
404
  8
0
  6
CONTINUOUS
 62
     7
 10
-1908.6852014081
 20
452.1733633169
 30
0.0
 11
-1907.6245412271
 21
452.7856694061
 31
0.0
  0
POLYLINE
  5
405
  8
0
  6
CONTINUOUS
 62
     7
 66
     1
 10
0.0
 20
0.0
 30
0.0
  0
VERTEX
  5
706
  8
0
  6
CONTINUOUS
 62
     7
 10
-1908.6852014081
 20
452.1733633169
 30
0.0
  0
VERTEX
  5
707
  8
0
  6
CONTINUOUS
 62
     7
 10
-1908.4986512248
 20
452.2809736052
 30
0.0
  0
VERTEX
  5
708
  8
0
  6
CONTINUOUS
 62
     7
 10
-1908.3600441518
 20
452.3609297649
 30
0.0
  0
VERTEX
  5
709
  8
0
  6
CONTINUOUS
 62
     7
 10
-1908.2746786736
 20
452.4101351143
 30
0.0
  0
VERTEX
  5
70A
  8
0
  6
CONTINUOUS
 62
     7
 10
-1908.2458583787
 20
452.4267177076
 30
0.0
  0
VERTEX
  5
70B
  8
0
  6
CONTINUOUS
 62
     7
 10
-1908.2746780973
 20
452.4100321886
 30
0.0
  0
VERTEX
  5
70C
  8
0
  6
CONTINUOUS
 62
     7
 10
-1908.3600397889
 20
452.360723657
 30
0.0
  0
VERTEX
  5
70D
  8
0
  6
CONTINUOUS
 62
     7
 10
-1908.4986579749
 20
452.2806880732
 30
0.0
  0
VERTEX
  5
70E
  8
0
  6
CONTINUOUS
 62
     7
 10
-1908.6851939995
 20
452.1729826098
 30
0.0
  0
SEQEND
  5
70F
  8
0
  6
CONTINUOUS
 62
     7
  0
POLYLINE
  5
406
  8
0
  6
CONTINUOUS
 62
     7
 66
     1
 10
0.0
 20
0.0
 30
0.0
  0
VERTEX
  5
710
  8
0
  6
CONTINUOUS
 62
     7
 10
-1908.6856997617
 20
453.3986662318
 30
0.0
  0
VERTEX
  5
711
  8
0
  6
CONTINUOUS
 62
     7
 10
-1908.3334469385
 20
453.5833983032
 30
0.0
  0
VERTEX
  5
712
  8
0
  6
CONTINUOUS
 62
     7
 10
-1908.0241022413
 20
453.7066815263
 30
0.0
  0
VERTEX
  5
713
  8
0
  6
CONTINUOUS
 62
     7
 10
-1907.7670744601
 20
453.7647758626
 30
0.0
  0
VERTEX
  5
714
  8
0
  6
CONTINUOUS
 62
     7
 10
-1907.5701754968
 20
453.7559097085
 30
0.0
  0
VERTEX
  5
715
  8
0
  6
CONTINUOUS
 62
     7
 10
-1907.4393740696
 20
453.6803490623
 30
0.0
  0
VERTEX
  5
716
  8
0
  6
CONTINUOUS
 62
     7
 10
-1907.3786633453
 20
453.5404130738
 30
0.0
  0
VERTEX
  5
717
  8
0
  6
CONTINUOUS
 62
     7
 10
-1907.3898726269
 20
453.3403150617
 30
0.0
  0
VERTEX
  5
718
  8
0
  6
CONTINUOUS
 62
     7
 10
-1907.472671415
 20
453.086160132
 30
0.0
  0
VERTEX
  5
719
  8
0
  6
CONTINUOUS
 62
     7
 10
-1907.6245412271
 20
452.7856694061
 30
0.0
  0
SEQEND
  5
71A
  8
0
  6
CONTINUOUS
 62
     7
  0
ARC
  5
407
  8
0
  6
CONTINUOUS
 62
     7
 10
-2188.5268686278
 20
613.9099610096
 30
0.0
 40
1.777774338143366
 50
58.415856283
 51
119.6409672273
  0
POLYLINE
  5
408
  8
0
  6
CONTINUOUS
 62
     7
 66
     1
 10
0.0
 20
0.0
 30
0.0
  0
VERTEX
  5
71B
  8
0
  6
CONTINUOUS
 62
     7
 10
-1908.6856997617
 20
452.1738586156
 30
0.0
  0
VERTEX
  5
71C
  8
0
  6
CONTINUOUS
 62
     7
 10
-1908.4991426636
 20
452.2815275788
 30
0.0
  0
VERTEX
  5
71D
  8
0
  6
CONTINUOUS
 62
     7
 10
-1908.3605034043
 20
452.3615266623
 30
0.0
  0
VERTEX
  5
71E
  8
0
  6
CONTINUOUS
 62
     7
 10
-1908.2750995658
 20
452.4107621934
 30
0.0
  0
VERTEX
  5
71F
  8
0
  6
CONTINUOUS
 62
     7
 10
-1908.2462166269
 20
452.4273382117
 30
0.0
  0
VERTEX
  5
720
  8
0
  6
CONTINUOUS
 62
     7
 10
-1908.2749631648
 20
452.4106278676
 30
0.0
  0
VERTEX
  5
721
  8
0
  6
CONTINUOUS
 62
     7
 10
-1908.3602338126
 20
452.3612582671
 30
0.0
  0
VERTEX
  5
722
  8
0
  6
CONTINUOUS
 62
     7
 10
-1908.4987565919
 20
452.2811561064
 30
0.0
  0
VERTEX
  5
723
  8
0
  6
CONTINUOUS
 62
     7
 10
-1908.6852014081
 20
452.1733633169
 30
0.0
  0
SEQEND
  5
724
  8
0
  6
CONTINUOUS
 62
     7
  0
POLYLINE
  5
409
  8
0
  6
CONTINUOUS
 62
     7
 66
     1
 10
0.0
 20
0.0
 30
0.0
  0
VERTEX
  5
725
  8
0
  6
CONTINUOUS
 62
     7
 10
-2110.8497181755
 20
474.3301412006
 30
0.0
  0
VERTEX
  5
726
  8
0
  6
CONTINUOUS
 62
     7
 10
-2111.0457168261
 20
474.9718341188
 30
0.0
  0
VERTEX
  5
727
  8
0
  6
CONTINUOUS
 62
     7
 10
-2111.6100749815
 20
475.5361282975
 30
0.0
  0
VERTEX
  5
728
  8
0
  6
CONTINUOUS
 62
     7
 10
-2112.4747175787
 20
475.9549657655
 30
0.0
  0
VERTEX
  5
729
  8
0
  6
CONTINUOUS
 62
     7
 10
-2113.5353614607
 20
476.1778227364
 30
0.0
  0
VERTEX
  5
72A
  8
0
  6
CONTINUOUS
 62
     7
 10
-2114.6640751373
 20
476.1778227364
 30
0.0
  0
VERTEX
  5
72B
  8
0
  6
CONTINUOUS
 62
     7
 10
-2115.7247203364
 20
475.9549634845
 30
0.0
  0
VERTEX
  5
72C
  8
0
  6
CONTINUOUS
 62
     7
 10
-2116.5893655678
 20
475.5361275372
 30
0.0
  0
VERTEX
  5
72D
  8
0
  6
CONTINUOUS
 62
     7
 10
-2117.1537210889
 20
474.9718333585
 30
0.0
  0
VERTEX
  5
72E
  8
0
  6
CONTINUOUS
 62
     7
 10
-2117.3497197396
 20
474.3301404403
 30
0.0
  0
SEQEND
  5
72F
  8
0
  6
CONTINUOUS
 62
     7
  0
POLYLINE
  5
40A
  8
0
  6
CONTINUOUS
 62
     7
 66
     1
 10
0.0
 20
0.0
 30
0.0
  0
VERTEX
  5
730
  8
0
  6
CONTINUOUS
 62
     7
 10
-2131.9541651456
 20
505.9544548847
 30
0.0
  0
VERTEX
  5
731
  8
0
  6
CONTINUOUS
 62
     7
 10
-2133.9405500672
 20
504.6630482291
 30
0.0
  0
VERTEX
  5
732
  8
0
  6
CONTINUOUS
 62
     7
 10
-2135.6484075404
 20
503.2450846168
 30
0.0
  0
VERTEX
  5
733
  8
0
  6
CONTINUOUS
 62
     7
 10
-2137.0537770818
 20
501.7204606068
 30
0.0
  0
VERTEX
  5
734
  8
0
  6
CONTINUOUS
 62
     7
 10
-2138.1369181614
 20
500.1105843127
 30
0.0
  0
VERTEX
  5
735
  8
0
  6
CONTINUOUS
 62
     7
 10
-2138.8826289375
 20
498.4380545392
 30
0.0
  0
VERTEX
  5
736
  8
0
  6
CONTINUOUS
 62
     7
 10
-2139.2804411868
 20
496.7263475227
 30
0.0
  0
VERTEX
  5
737
  8
0
  6
CONTINUOUS
 62
     7
 10
-2139.3274257033
 20
496.2597067623
 30
0.0
  0
SEQEND
  5
738
  8
0
  6
CONTINUOUS
 62
     7
  0
POLYLINE
  5
40B
  8
0
  6
CONTINUOUS
 62
     7
 66
     1
 10
0.0
 20
0.0
 30
0.0
  0
VERTEX
  5
739
  8
0
  6
CONTINUOUS
 62
     7
 10
-2088.8720122118
 20
496.2597075226
 30
0.0
  0
VERTEX
  5
73A
  8
0
  6
CONTINUOUS
 62
     7
 10
-2088.9854478204
 20
497.156638742
 30
0.0
  0
VERTEX
  5
73B
  8
0
  6
CONTINUOUS
 62
     7
 10
-2089.4709485637
 20
498.860790647
 30
0.0
  0
VERTEX
  5
73C
  8
0
  6
CONTINUOUS
 62
     7
 10
-2090.3021851736
 20
500.5198301004
 30
0.0
  0
VERTEX
  5
73D
  8
0
  6
CONTINUOUS
 62
     7
 10
-2091.4674889001
 20
502.1104698101
 30
0.0
  0
VERTEX
  5
73E
  8
0
  6
CONTINUOUS
 62
     7
 10
-2092.9505031439
 20
503.6103780405
 30
0.0
  0
VERTEX
  5
73F
  8
0
  6
CONTINUOUS
 62
     7
 10
-2094.7304012704
 20
504.9985050831
 30
0.0
  0
VERTEX
  5
740
  8
0
  6
CONTINUOUS
 62
     7
 10
-2096.7822013936
 20
506.255362301
 30
0.0
  0
VERTEX
  5
741
  8
0
  6
CONTINUOUS
 62
     7
 10
-2099.0771002585
 20
507.3633061156
 30
0.0
  0
VERTEX
  5
742
  8
0
  6
CONTINUOUS
 62
     7
 10
-2101.5828856543
 20
508.3067821708
 30
0.0
  0
VERTEX
  5
743
  8
0
  6
CONTINUOUS
 62
     7
 10
-2104.264381097
 20
509.0725455459
 30
0.0
  0
VERTEX
  5
744
  8
0
  6
CONTINUOUS
 62
     7
 10
-2107.0839466519
 20
509.6498464689
 30
0.0
  0
VERTEX
  5
745
  8
0
  6
CONTINUOUS
 62
     7
 10
-2110.0019916111
 20
510.0305863757
 30
0.0
  0
VERTEX
  5
746
  8
0
  6
CONTINUOUS
 62
     7
 10
-2112.9775624087
 20
510.2094139983
 30
0.0
  0
VERTEX
  5
747
  8
0
  6
CONTINUOUS
 62
     7
 10
-2115.9688875665
 20
510.1838209773
 30
0.0
  0
VERTEX
  5
748
  8
0
  6
CONTINUOUS
 62
     7
 10
-2118.9339723599
 20
509.9541688541
 30
0.0
  0
VERTEX
  5
749
  8
0
  6
CONTINUOUS
 62
     7
 10
-2121.8311928247
 20
509.5236791862
 30
0.0
  0
VERTEX
  5
74A
  8
0
  6
CONTINUOUS
 62
     7
 10
-2124.6198825203
 20
508.8983951506
 30
0.0
  0
VERTEX
  5
74B
  8
0
  6
CONTINUOUS
 62
     7
 10
-2127.2608896588
 20
508.0870956247
 30
0.0
  0
VERTEX
  5
74C
  8
0
  6
CONTINUOUS
 62
     7
 10
-2129.7171460868
 20
507.1011674501
 30
0.0
  0
VERTEX
  5
74D
  8
0
  6
CONTINUOUS
 62
     7
 10
-2131.9541651456
 20
505.9544548847
 30
0.0
  0
SEQEND
  5
74E
  8
0
  6
CONTINUOUS
 62
     7
  0
ARC
  5
40C
  8
0
  6
CONTINUOUS
 62
     7
 10
-2077.5340043124
 20
494.0346788043
 30
0.0
 40
3.507405016580186
 50
84.0973871545
 51
140.6259448008
  0
ARC
  5
40D
  8
0
  6
CONTINUOUS
 62
     7
 10
-2071.3126164875
 20
494.0346814883
 30
0.0
 40
3.507401012096001
 50
39.3740200289
 51
95.9026480157
  0
ARC
  5
40E
  8
0
  6
CONTINUOUS
 62
     7
 10
-2156.8868125037
 20
494.0346467451
 30
0.0
 40
3.507433005339851
 50
84.0975742008
 51
140.6256746686
  0
ARC
  5
40F
  8
0
  6
CONTINUOUS
 62
     7
 10
-2150.6654263757
 20
494.0346975367
 30
0.0
 40
3.507386099500481
 50
39.3738647378
 51
95.9027202208
  0
LINE
  5
410
  8
0
  6
CONTINUOUS
 62
     7
 10
-2071.6733123761
 20
497.5234864893
 30
0.0
 11
-2077.1733101536
 21
497.52348801
 31
0.0
  0
LINE
  5
411
  8
0
  6
CONTINUOUS
 62
     7
 10
-2151.0261251273
 20
497.5234872497
 30
0.0
 11
-2156.5261268561
 21
497.5234849687
 31
0.0
  0
POLYLINE
  5
412
  8
0
  6
CONTINUOUS
 62
     7
 66
     1
 10
0.0
 20
0.0
 30
0.0
  0
VERTEX
  5
74F
  8
0
  6
CONTINUOUS
 62
     7
 10
-2110.8497194926
 20
520.1395449213
 30
0.0
  0
VERTEX
  5
750
  8
0
  6
CONTINUOUS
 62
     7
 10
-2111.0457181432
 20
520.7812378395
 30
0.0
  0
VERTEX
  5
751
  8
0
  6
CONTINUOUS
 62
     7
 10
-2111.6100736644
 20
521.3455335389
 30
0.0
  0
VERTEX
  5
752
  8
0
  6
CONTINUOUS
 62
     7
 10
-2112.4747188958
 20
521.7643694862
 30
0.0
  0
VERTEX
  5
753
  8
0
  6
CONTINUOUS
 62
     7
 10
-2113.5353614607
 20
521.9872256967
 30
0.0
  0
VERTEX
  5
754
  8
0
  6
CONTINUOUS
 62
     7
 10
-2114.6640751373
 20
521.9872256967
 30
0.0
  0
VERTEX
  5
755
  8
0
  6
CONTINUOUS
 62
     7
 10
-2115.7247163851
 20
521.7643702465
 30
0.0
  0
VERTEX
  5
756
  8
0
  6
CONTINUOUS
 62
     7
 10
-2116.5893616165
 20
521.3455342992
 30
0.0
  0
VERTEX
  5
757
  8
0
  6
CONTINUOUS
 62
     7
 10
-2117.1537210889
 20
520.7812363189
 30
0.0
  0
VERTEX
  5
758
  8
0
  6
CONTINUOUS
 62
     7
 10
-2117.3497197396
 20
520.1395434007
 30
0.0
  0
SEQEND
  5
759
  8
0
  6
CONTINUOUS
 62
     7
  0
LINE
  5
413
  8
0
  6
CONTINUOUS
 62
     7
 10
-2319.7529580679
 20
534.6365584777
 30
0.0
 11
-2317.251426705
 21
530.303779073
 31
0.0
  0
LINE
  5
414
  8
0
  6
CONTINUOUS
 62
     7
 10
-1908.6856997617
 20
126.7823366106
 30
0.0
 11
-2020.6329493596
 21
62.1565650159
 31
0.0
  0
POLYLINE
  5
415
  8
0
  6
CONTINUOUS
 62
     7
 66
     1
 10
0.0
 20
0.0
 30
0.0
  0
VERTEX
  5
75A
  8
0
  6
CONTINUOUS
 62
     7
 10
-2306.0517025033
 20
542.3360282794
 30
0.0
  0
VERTEX
  5
75B
  8
0
  6
CONTINUOUS
 62
     7
 10
-2306.2895266328
 20
541.6727751798
 30
0.0
  0
VERTEX
  5
75C
  8
0
  6
CONTINUOUS
 62
     7
 10
-2306.1606837169
 20
540.9995646768
 30
0.0
  0
VERTEX
  5
75D
  8
0
  6
CONTINUOUS
 62
     7
 10
-2305.6777862001
 20
540.3822908157
 30
0.0
  0
VERTEX
  5
75E
  8
0
  6
CONTINUOUS
 62
     7
 10
-2304.8881017729
 20
539.8813671164
 30
0.0
  0
VERTEX
  5
75F
  8
0
  6
CONTINUOUS
 62
     7
 10
-2303.868917219
 20
539.5458385053
 30
0.0
  0
VERTEX
  5
760
  8
0
  6
CONTINUOUS
 62
     7
 10
-2302.7200257387
 20
539.4085455578
 30
0.0
  0
VERTEX
  5
761
  8
0
  6
CONTINUOUS
 62
     7
 10
-2301.5538540505
 20
539.4829189072
 30
0.0
  0
VERTEX
  5
762
  8
0
  6
CONTINUOUS
 62
     7
 10
-2300.4845779671
 20
539.7616957926
 30
0.0
  0
VERTEX
  5
763
  8
0
  6
CONTINUOUS
 62
     7
 10
-2299.6168691867
 20
540.2175769915
 30
0.0
  0
VERTEX
  5
764
  8
0
  6
CONTINUOUS
 62
     7
 10
-2299.035653609
 20
540.8059275454
 30
0.0
  0
VERTEX
  5
765
  8
0
  6
CONTINUOUS
 62
     7
 10
-2298.7978294796
 20
541.4691806449
 30
0.0
  0
VERTEX
  5
766
  8
0
  6
CONTINUOUS
 62
     7
 10
-2298.9266723955
 20
542.142391148
 30
0.0
  0
VERTEX
  5
767
  8
0
  6
CONTINUOUS
 62
     7
 10
-2299.4095699123
 20
542.759665009
 30
0.0
  0
VERTEX
  5
768
  8
0
  6
CONTINUOUS
 62
     7
 10
-2300.1992543394
 20
543.2605887084
 30
0.0
  0
VERTEX
  5
769
  8
0
  6
CONTINUOUS
 62
     7
 10
-2301.2184388934
 20
543.5961173194
 30
0.0
  0
VERTEX
  5
76A
  8
0
  6
CONTINUOUS
 62
     7
 10
-2302.3673303736
 20
543.733410267
 30
0.0
  0
VERTEX
  5
76B
  8
0
  6
CONTINUOUS
 62
     7
 10
-2303.5335020618
 20
543.6590369176
 30
0.0
  0
VERTEX
  5
76C
  8
0
  6
CONTINUOUS
 62
     7
 10
-2304.6027781452
 20
543.3802600322
 30
0.0
  0
VERTEX
  5
76D
  8
0
  6
CONTINUOUS
 62
     7
 10
-2305.470476389
 20
542.924384916
 30
0.0
  0
VERTEX
  5
76E
  8
0
  6
CONTINUOUS
 62
     7
 10
-2306.0517025033
 20
542.3360282794
 30
0.0
  0
SEQEND
  5
76F
  8
0
  6
CONTINUOUS
 62
     7
  0
POLYLINE
  5
416
  8
0
  6
CONTINUOUS
 62
     7
 66
     1
 10
0.0
 20
0.0
 30
0.0
  0
VERTEX
  5
770
  8
0
  6
CONTINUOUS
 62
     7
 10
-2287.6891846175
 20
553.2009606415
 30
0.0
  0
VERTEX
  5
771
  8
0
  6
CONTINUOUS
 62
     7
 10
-2288.3137376922
 20
552.6275918132
 30
0.0
  0
VERTEX
  5
772
  8
0
  6
CONTINUOUS
 62
     7
 10
-2288.6007893407
 20
551.970871549
 30
0.0
  0
VERTEX
  5
773
  8
0
  6
CONTINUOUS
 62
     7
 10
-2288.5222697619
 20
551.2950819751
 30
0.0
  0
VERTEX
  5
774
  8
0
  6
CONTINUOUS
 62
     7
 10
-2288.0858496823
 20
550.6663786936
 30
0.0
  0
VERTEX
  5
775
  8
0
  6
CONTINUOUS
 62
     7
 10
-2287.3342449328
 20
550.1462944438
 30
0.0
  0
VERTEX
  5
776
  8
0
  6
CONTINUOUS
 62
     7
 10
-2286.3410333742
 20
549.7857476282
 30
0.0
  0
VERTEX
  5
777
  8
0
  6
CONTINUOUS
 62
     7
 10
-2285.2034267126
 20
549.6200301561
 30
0.0
  0
VERTEX
  5
778
  8
0
  6
CONTINUOUS
 62
     7
 10
-2284.032808532
 20
549.6653646268
 30
0.0
  0
VERTEX
  5
779
  8
0
  6
CONTINUOUS
 62
     7
 10
-2282.9437339664
 20
549.9173106588
 30
0.0
  0
VERTEX
  5
77A
  8
0
  6
CONTINUOUS
 62
     7
 10
-2282.0428345428
 20
550.3511967623
 30
0.0
  0
VERTEX
  5
77B
  8
0
  6
CONTINUOUS
 62
     7
 10
-2281.4182814682
 20
550.9245655906
 30
0.0
  0
VERTEX
  5
77C
  8
0
  6
CONTINUOUS
 62
     7
 10
-2281.1312192829
 20
551.5812919375
 30
0.0
  0
VERTEX
  5
77D
  8
0
  6
CONTINUOUS
 62
     7
 10
-2281.2097388617
 20
552.2570815114
 30
0.0
  0
VERTEX
  5
77E
  8
0
  6
CONTINUOUS
 62
     7
 10
-2281.6461589413
 20
552.8857847929
 30
0.0
  0
VERTEX
  5
77F
  8
0
  6
CONTINUOUS
 62
     7
 10
-2282.3977742275
 20
553.40586296
 30
0.0
  0
VERTEX
  5
780
  8
0
  6
CONTINUOUS
 62
     7
 10
-2283.3909857861
 20
553.7664097756
 30
0.0
  0
VERTEX
  5
781
  8
0
  6
CONTINUOUS
 62
     7
 10
-2284.5285924477
 20
553.9321272477
 30
0.0
  0
VERTEX
  5
782
  8
0
  6
CONTINUOUS
 62
     7
 10
-2285.6992106284
 20
553.886792777
 30
0.0
  0
VERTEX
  5
783
  8
0
  6
CONTINUOUS
 62
     7
 10
-2286.7882746572
 20
553.6348528277
 30
0.0
  0
VERTEX
  5
784
  8
0
  6
CONTINUOUS
 62
     7
 10
-2287.6891846175
 20
553.2009606415
 30
0.0
  0
SEQEND
  5
785
  8
0
  6
CONTINUOUS
 62
     7
  0
POLYLINE
  5
417
  8
0
  6
CONTINUOUS
 62
     7
 66
     1
 10
0.0
 20
0.0
 30
0.0
  0
VERTEX
  5
786
  8
0
  6
CONTINUOUS
 62
     7
 10
-2040.1164048284
 20
389.6037767843
 30
0.0
  0
VERTEX
  5
787
  8
0
  6
CONTINUOUS
 62
     7
 10
-2039.2889146782
 20
390.0839340965
 30
0.0
  0
VERTEX
  5
788
  8
0
  6
CONTINUOUS
 62
     7
 10
-2038.758960205
 20
390.6882031142
 30
0.0
  0
VERTEX
  5
789
  8
0
  6
CONTINUOUS
 62
     7
 10
-2038.5783925693
 20
391.3574416047
 30
0.0
  0
VERTEX
  5
78A
  8
0
  6
CONTINUOUS
 62
     7
 10
-2038.7649134474
 20
392.0261387336
 30
0.0
  0
VERTEX
  5
78B
  8
0
  6
CONTINUOUS
 62
     7
 10
-2039.300231107
 20
392.6288323282
 30
0.0
  0
VERTEX
  5
78C
  8
0
  6
CONTINUOUS
 62
     7
 10
-2040.131978089
 20
393.1065322238
 30
0.0
  0
VERTEX
  5
78D
  8
0
  6
CONTINUOUS
 62
     7
 10
-2041.1787266819
 20
393.4124745118
 30
0.0
  0
VERTEX
  5
78E
  8
0
  6
CONTINUOUS
 62
     7
 10
-2042.338017897
 20
393.5167079064
 30
0.0
  0
VERTEX
  5
78F
  8
0
  6
CONTINUOUS
 62
     7
 10
-2043.4963502713
 20
393.4090377782
 30
0.0
  0
VERTEX
  5
790
  8
0
  6
CONTINUOUS
 62
     7
 10
-2044.5403593191
 20
393.0999933058
 30
0.0
  0
VERTEX
  5
791
  8
0
  6
CONTINUOUS
 62
     7
 10
-2045.3678389326
 20
392.6198420762
 30
0.0
  0
VERTEX
  5
792
  8
0
  6
CONTINUOUS
 62
     7
 10
-2045.8978039425
 20
392.0155669759
 30
0.0
  0
VERTEX
  5
793
  8
0
  6
CONTINUOUS
 62
     7
 10
-2046.0783715782
 20
391.3463284854
 30
0.0
  0
VERTEX
  5
794
  8
0
  6
CONTINUOUS
 62
     7
 10
-2045.8918507001
 20
390.6776313565
 30
0.0
  0
VERTEX
  5
795
  8
0
  6
CONTINUOUS
 62
     7
 10
-2045.3565330405
 20
390.0749377619
 30
0.0
  0
VERTEX
  5
796
  8
0
  6
CONTINUOUS
 62
     7
 10
-2044.5247755218
 20
389.597243949
 30
0.0
  0
VERTEX
  5
797
  8
0
  6
CONTINUOUS
 62
     7
 10
-2043.4780269289
 20
389.291301661
 30
0.0
  0
VERTEX
  5
798
  8
0
  6
CONTINUOUS
 62
     7
 10
-2042.3187567872
 20
389.1870682664
 30
0.0
  0
VERTEX
  5
799
  8
0
  6
CONTINUOUS
 62
     7
 10
-2041.1604138762
 20
389.2947323119
 30
0.0
  0
VERTEX
  5
79A
  8
0
  6
CONTINUOUS
 62
     7
 10
-2040.1164048284
 20
389.6037767843
 30
0.0
  0
SEQEND
  5
79B
  8
0
  6
CONTINUOUS
 62
     7
  0
POLYLINE
  5
418
  8
0
  6
CONTINUOUS
 62
     7
 66
     1
 10
0.0
 20
0.0
 30
0.0
  0
VERTEX
  5
79C
  8
0
  6
CONTINUOUS
 62
     7
 10
-2023.637229405
 20
399.4727194018
 30
0.0
  0
VERTEX
  5
79D
  8
0
  6
CONTINUOUS
 62
     7
 10
-2022.5711354087
 20
399.7555352096
 30
0.0
  0
VERTEX
  5
79E
  8
0
  6
CONTINUOUS
 62
     7
 10
-2021.7086106906
 20
400.2146767434
 30
0.0
  0
VERTEX
  5
79F
  8
0
  6
CONTINUOUS
 62
     7
 10
-2021.1340859251
 20
400.8052231573
 30
0.0
  0
VERTEX
  5
7A0
  8
0
  6
CONTINUOUS
 62
     7
 10
-2020.9037850082
 20
401.4693521676
 30
0.0
  0
VERTEX
  5
7A1
  8
0
  6
CONTINUOUS
 62
     7
 10
-2021.0402565036
 20
402.1420638881
 30
0.0
  0
VERTEX
  5
7A2
  8
0
  6
CONTINUOUS
 62
     7
 10
-2021.5301503973
 20
402.7575007694
 30
0.0
  0
VERTEX
  5
7A3
  8
0
  6
CONTINUOUS
 62
     7
 10
-2022.3255141123
 20
403.2554256905
 30
0.0
  0
VERTEX
  5
7A4
  8
0
  6
CONTINUOUS
 62
     7
 10
-2023.3484708092
 20
403.5870978606
 30
0.0
  0
VERTEX
  5
7A5
  8
0
  6
CONTINUOUS
 62
     7
 10
-2024.4989111861
 20
403.7200416674
 30
0.0
  0
VERTEX
  5
7A6
  8
0
  6
CONTINUOUS
 62
     7
 10
-2025.6641977905
 20
403.6412522673
 30
0.0
  0
VERTEX
  5
7A7
  8
0
  6
CONTINUOUS
 62
     7
 10
-2026.7302917869
 20
403.358448625
 30
0.0
  0
VERTEX
  5
7A8
  8
0
  6
CONTINUOUS
 62
     7
 10
-2027.5928165049
 20
402.8992949257
 30
0.0
  0
VERTEX
  5
7A9
  8
0
  6
CONTINUOUS
 62
     7
 10
-2028.1673412704
 20
402.3087485118
 30
0.0
  0
VERTEX
  5
7AA
  8
0
  6
CONTINUOUS
 62
     7
 10
-2028.3976421874
 20
401.6446195014
 30
0.0
  0
VERTEX
  5
7AB
  8
0
  6
CONTINUOUS
 62
     7
 10
-2028.2611601552
 20
400.9719138637
 30
0.0
  0
VERTEX
  5
7AC
  8
0
  6
CONTINUOUS
 62
     7
 10
-2027.7712662615
 20
400.3564769824
 30
0.0
  0
VERTEX
  5
7AD
  8
0
  6
CONTINUOUS
 62
     7
 10
-2026.9759130833
 20
399.8585459786
 30
0.0
  0
VERTEX
  5
7AE
  8
0
  6
CONTINUOUS
 62
     7
 10
-2025.9529458496
 20
399.5268798912
 30
0.0
  0
VERTEX
  5
7AF
  8
0
  6
CONTINUOUS
 62
     7
 10
-2024.8025160094
 20
399.3939300017
 30
0.0
  0
VERTEX
  5
7B0
  8
0
  6
CONTINUOUS
 62
     7
 10
-2023.637229405
 20
399.4727194018
 30
0.0
  0
SEQEND
  5
7B1
  8
0
  6
CONTINUOUS
 62
     7
  0
POLYLINE
  5
419
  8
0
  6
CONTINUOUS
 62
     7
 66
     1
 10
0.0
 20
0.0
 30
0.0
  0
VERTEX
  5
7B2
  8
0
  6
CONTINUOUS
 62
     7
 10
-2353.5563532274
 20
537.3705807473
 30
0.0
  0
VERTEX
  5
7B3
  8
0
  6
CONTINUOUS
 62
     7
 10
-2352.9112219539
 20
536.8830572679
 30
0.0
  0
VERTEX
  5
7B4
  8
0
  6
CONTINUOUS
 62
     7
 10
-2352.0161598688
 20
536.5523096704
 30
0.0
  0
VERTEX
  5
7B5
  8
0
  6
CONTINUOUS
 62
     7
 10
-2350.9791155878
 20
536.4182344788
 30
0.0
  0
VERTEX
  5
7B6
  8
0
  6
CONTINUOUS
 62
     7
 10
-2349.9251914939
 20
536.4970056307
 30
0.0
  0
VERTEX
  5
7B7
  8
0
  6
CONTINUOUS
 62
     7
 10
-2348.9814919456
 20
536.7791158436
 30
0.0
  0
VERTEX
  5
7B8
  8
0
  6
CONTINUOUS
 62
     7
 10
-2348.2618345073
 20
537.2305384128
 30
0.0
  0
VERTEX
  5
7B9
  8
0
  6
CONTINUOUS
 62
     7
 10
-2347.8530416869
 20
537.7968330442
 30
0.0
  0
VERTEX
  5
7BA
  8
0
  6
CONTINUOUS
 62
     7
 10
-2347.8044042237
 20
538.4096908546
 30
0.0
  0
VERTEX
  5
7BB
  8
0
  6
CONTINUOUS
 62
     7
 10
-2348.1217805297
 20
538.9951946982
 30
0.0
  0
VERTEX
  5
7BC
  8
0
  6
CONTINUOUS
 62
     7
 10
-2348.7669118031
 20
539.4827181776
 30
0.0
  0
VERTEX
  5
7BD
  8
0
  6
CONTINUOUS
 62
     7
 10
-2349.6619844249
 20
539.8134596924
 30
0.0
  0
VERTEX
  5
7BE
  8
0
  6
CONTINUOUS
 62
     7
 10
-2350.6990181693
 20
539.9475288013
 30
0.0
  0
VERTEX
  5
7BF
  8
0
  6
CONTINUOUS
 62
     7
 10
-2351.7529527998
 20
539.8687637321
 30
0.0
  0
VERTEX
  5
7C0
  8
0
  6
CONTINUOUS
 62
     7
 10
-2352.6966523481
 20
539.5866535192
 30
0.0
  0
VERTEX
  5
7C1
  8
0
  6
CONTINUOUS
 62
     7
 10
-2353.4162992497
 20
539.1352248673
 30
0.0
  0
VERTEX
  5
7C2
  8
0
  6
CONTINUOUS
 62
     7
 10
-2353.8251026069
 20
538.5689363186
 30
0.0
  0
VERTEX
  5
7C3
  8
0
  6
CONTINUOUS
 62
     7
 10
-2353.8737400701
 20
537.9560785082
 30
0.0
  0
VERTEX
  5
7C4
  8
0
  6
CONTINUOUS
 62
     7
 10
-2353.5563532274
 20
537.3705807473
 30
0.0
  0
SEQEND
  5
7C5
  8
0
  6
CONTINUOUS
 62
     7
  0
POLYLINE
  5
41A
  8
0
  6
CONTINUOUS
 62
     7
 66
     1
 10
0.0
 20
0.0
 30
0.0
  0
VERTEX
  5
7C6
  8
0
  6
CONTINUOUS
 62
     7
 10
-2045.1529321521
 20
363.2936159234
 30
0.0
  0
VERTEX
  5
7C7
  8
0
  6
CONTINUOUS
 62
     7
 10
-2045.231114556
 20
363.9054518378
 30
0.0
  0
VERTEX
  5
7C8
  8
0
  6
CONTINUOUS
 62
     7
 10
-2045.6670710203
 20
364.4649581599
 30
0.0
  0
VERTEX
  5
7C9
  8
0
  6
CONTINUOUS
 62
     7
 10
-2046.4082233514
 20
364.9046410902
 30
0.0
  0
VERTEX
  5
7CA
  8
0
  6
CONTINUOUS
 62
     7
 10
-2047.3651675468
 20
365.1714654417
 30
0.0
  0
VERTEX
  5
7CB
  8
0
  6
CONTINUOUS
 62
     7
 10
-2048.4224949987
 20
365.2332597377
 30
0.0
  0
VERTEX
  5
7CC
  8
0
  6
CONTINUOUS
 62
     7
 10
-2049.4526693434
 20
365.0825665702
 30
0.0
  0
VERTEX
  5
7CD
  8
0
  6
CONTINUOUS
 62
     7
 10
-2050.3314205982
 20
364.7375610901
 30
0.0
  0
VERTEX
  5
7CE
  8
0
  6
CONTINUOUS
 62
     7
 10
-2050.9527810491
 20
364.2398551467
 30
0.0
  0
VERTEX
  5
7CF
  8
0
  6
CONTINUOUS
 62
     7
 10
-2051.2418030627
 20
363.6494790489
 30
0.0
  0
VERTEX
  5
7D0
  8
0
  6
CONTINUOUS
 62
     7
 10
-2051.1636206587
 20
363.0376431345
 30
0.0
  0
VERTEX
  5
7D1
  8
0
  6
CONTINUOUS
 62
     7
 10
-2050.7276536577
 20
362.4781428951
 30
0.0
  0
VERTEX
  5
7D2
  8
0
  6
CONTINUOUS
 62
     7
 10
-2049.9865013267
 20
362.0384599648
 30
0.0
  0
VERTEX
  5
7D3
  8
0
  6
CONTINUOUS
 62
     7
 10
-2049.029567668
 20
361.7716295305
 30
0.0
  0
VERTEX
  5
7D4
  8
0
  6
CONTINUOUS
 62
     7
 10
-2047.9722402161
 20
361.7098352346
 30
0.0
  0
VERTEX
  5
7D5
  8
0
  6
CONTINUOUS
 62
     7
 10
-2046.9420658713
 20
361.860528402
 30
0.0
  0
VERTEX
  5
7D6
  8
0
  6
CONTINUOUS
 62
     7
 10
-2046.0633040799
 20
362.2055399649
 30
0.0
  0
VERTEX
  5
7D7
  8
0
  6
CONTINUOUS
 62
     7
 10
-2045.441943629
 20
362.7032459083
 30
0.0
  0
VERTEX
  5
7D8
  8
0
  6
CONTINUOUS
 62
     7
 10
-2045.1529321521
 20
363.2936159234
 30
0.0
  0
SEQEND
  5
7D9
  8
0
  6
CONTINUOUS
 62
     7
  0
POLYLINE
  5
41B
  8
0
  6
CONTINUOUS
 62
     7
 66
     1
 10
0.0
 20
0.0
 30
0.0
  0
VERTEX
  5
7DA
  8
0
  6
CONTINUOUS
 62
     7
 10
-2332.2035691233
 20
550.3315130984
 30
0.0
  0
VERTEX
  5
7DB
  8
0
  6
CONTINUOUS
 62
     7
 10
-2331.8196534802
 20
549.759445971
 30
0.0
  0
VERTEX
  5
7DC
  8
0
  6
CONTINUOUS
 62
     7
 10
-2331.119973648
 20
549.2976706218
 30
0.0
  0
VERTEX
  5
7DD
  8
0
  6
CONTINUOUS
 62
     7
 10
-2330.1889076176
 20
549.001904715
 30
0.0
  0
VERTEX
  5
7DE
  8
0
  6
CONTINUOUS
 62
     7
 10
-2329.1387556667
 20
548.9078051226
 30
0.0
  0
VERTEX
  5
7DF
  8
0
  6
CONTINUOUS
 62
     7
 10
-2328.0961901485
 20
549.0267221899
 30
0.0
  0
VERTEX
  5
7E0
  8
0
  6
CONTINUOUS
 62
     7
 10
-2327.1869456488
 20
549.3443189588
 30
0.0
  0
VERTEX
  5
7E1
  8
0
  6
CONTINUOUS
 62
     7
 10
-2326.5206988043
 20
549.8222925765
 30
0.0
  0
VERTEX
  5
7E2
  8
0
  6
CONTINUOUS
 62
     7
 10
-2326.1778131182
 20
550.4029728276
 30
0.0
  0
VERTEX
  5
7E3
  8
0
  6
CONTINUOUS
 62
     7
 10
-2326.1996346491
 20
551.0163476687
 30
0.0
  0
VERTEX
  5
7E4
  8
0
  6
CONTINUOUS
 62
     7
 10
-2326.5835502921
 20
551.5884147961
 30
0.0
  0
VERTEX
  5
7E5
  8
0
  6
CONTINUOUS
 62
     7
 10
-2327.283240661
 20
552.0501840626
 30
0.0
  0
VERTEX
  5
7E6
  8
0
  6
CONTINUOUS
 62
     7
 10
-2328.2142961547
 20
552.3459560521
 30
0.0
  0
VERTEX
  5
7E7
  8
0
  6
CONTINUOUS
 62
     7
 10
-2329.2644481056
 20
552.4400556444
 30
0.0
  0
VERTEX
  5
7E8
  8
0
  6
CONTINUOUS
 62
     7
 10
-2330.3070241605
 20
552.3211324945
 30
0.0
  0
VERTEX
  5
7E9
  8
0
  6
CONTINUOUS
 62
     7
 10
-2331.2162581235
 20
552.0035418083
 30
0.0
  0
VERTEX
  5
7EA
  8
0
  6
CONTINUOUS
 62
     7
 10
-2331.882504968
 20
551.5255681905
 30
0.0
  0
VERTEX
  5
7EB
  8
0
  6
CONTINUOUS
 62
     7
 10
-2332.2253906541
 20
550.9448879395
 30
0.0
  0
VERTEX
  5
7EC
  8
0
  6
CONTINUOUS
 62
     7
 10
-2332.2035691233
 20
550.3315130984
 30
0.0
  0
SEQEND
  5
7ED
  8
0
  6
CONTINUOUS
 62
     7
  0
POLYLINE
  5
41C
  8
0
  6
CONTINUOUS
 62
     7
 66
     1
 10
0.0
 20
0.0
 30
0.0
  0
VERTEX
  5
7EE
  8
0
  6
CONTINUOUS
 62
     7
 10
-2023.7223344289
 20
375.3014051703
 30
0.0
  0
VERTEX
  5
7EF
  8
0
  6
CONTINUOUS
 62
     7
 10
-2023.5017272871
 20
375.9015318594
 30
0.0
  0
VERTEX
  5
7F0
  8
0
  6
CONTINUOUS
 62
     7
 10
-2023.6499788267
 20
376.5090368811
 30
0.0
  0
VERTEX
  5
7F1
  8
0
  6
CONTINUOUS
 62
     7
 10
-2024.149218784
 20
377.0506235264
 30
0.0
  0
VERTEX
  5
7F2
  8
0
  6
CONTINUOUS
 62
     7
 10
-2024.9392193125
 20
377.4609877732
 30
0.0
  0
VERTEX
  5
7F3
  8
0
  6
CONTINUOUS
 62
     7
 10
-2025.9246969244
 20
377.6906102432
 30
0.0
  0
VERTEX
  5
7F4
  8
0
  6
CONTINUOUS
 62
     7
 10
-2026.9867869702
 20
377.7118206684
 30
0.0
  0
VERTEX
  5
7F5
  8
0
  6
CONTINUOUS
 62
     7
 10
-2027.9973841038
 20
377.522039978
 30
0.0
  0
VERTEX
  5
7F6
  8
0
  6
CONTINUOUS
 62
     7
 10
-2028.834610176
 20
377.1441695917
 30
0.0
  0
VERTEX
  5
7F7
  8
0
  6
CONTINUOUS
 62
     7
 10
-2029.3974708012
 20
376.6237872889
 30
0.0
  0
VERTEX
  5
7F8
  8
0
  6
CONTINUOUS
 62
     7
 10
-2029.618077943
 20
376.0236484344
 30
0.0
  0
VERTEX
  5
7F9
  8
0
  6
CONTINUOUS
 62
     7
 10
-2029.4698158666
 20
375.4161494955
 30
0.0
  0
VERTEX
  5
7FA
  8
0
  6
CONTINUOUS
 62
     7
 10
-2028.9705759093
 20
374.8745628501
 30
0.0
  0
VERTEX
  5
7FB
  8
0
  6
CONTINUOUS
 62
     7
 10
-2028.1805753808
 20
374.4641986033
 30
0.0
  0
VERTEX
  5
7FC
  8
0
  6
CONTINUOUS
 62
     7
 10
-2027.1951083057
 20
374.2345700506
 30
0.0
  0
VERTEX
  5
7FD
  8
0
  6
CONTINUOUS
 62
     7
 10
-2026.1330077232
 20
374.2133657081
 30
0.0
  0
VERTEX
  5
7FE
  8
0
  6
CONTINUOUS
 62
     7
 10
-2025.1224105896
 20
374.4031463985
 30
0.0
  0
VERTEX
  5
7FF
  8
0
  6
CONTINUOUS
 62
     7
 10
-2024.2851845173
 20
374.7810167848
 30
0.0
  0
VERTEX
  5
800
  8
0
  6
CONTINUOUS
 62
     7
 10
-2023.7223344289
 20
375.3014051703
 30
0.0
  0
SEQEND
  5
801
  8
0
  6
CONTINUOUS
 62
     7
  0
POLYLINE
  5
41D
  8
0
  6
CONTINUOUS
 62
     7
 66
     1
 10
0.0
 20
0.0
 30
0.0
  0
VERTEX
  5
802
  8
0
  6
CONTINUOUS
 62
     7
 10
-2282.6032611875
 20
553.0823355445
 30
0.0
  0
VERTEX
  5
803
  8
0
  6
CONTINUOUS
 62
     7
 10
-2283.5136225786
 20
553.4503215199
 30
0.0
  0
VERTEX
  5
804
  8
0
  6
CONTINUOUS
 62
     7
 10
-2284.5871133469
 20
553.6163735413
 30
0.0
  0
VERTEX
  5
805
  8
0
  6
CONTINUOUS
 62
     7
 10
-2285.6942373003
 20
553.5604551474
 30
0.0
  0
VERTEX
  5
806
  8
0
  6
CONTINUOUS
 62
     7
 10
-2286.7014521493
 20
553.2893181514
 30
0.0
  0
VERTEX
  5
807
  8
0
  6
CONTINUOUS
 62
     7
 10
-2287.4872906765
 20
552.835663226
 30
0.0
  0
VERTEX
  5
808
  8
0
  6
CONTINUOUS
 62
     7
 10
-2287.9569751563
 20
552.2542043875
 30
0.0
  0
VERTEX
  5
809
  8
0
  6
CONTINUOUS
 62
     7
 10
-2288.0538391509
 20
551.6150753335
 30
0.0
  0
VERTEX
  5
80A
  8
0
  6
CONTINUOUS
 62
     7
 10
-2287.7661869098
 20
550.9953683866
 30
0.0
  0
VERTEX
  5
80B
  8
0
  6
CONTINUOUS
 62
     7
 10
-2287.1287474362
 20
550.469827942
 30
0.0
  0
VERTEX
  5
80C
  8
0
  6
CONTINUOUS
 62
     7
 10
-2286.2183860451
 20
550.1018419666
 30
0.0
  0
VERTEX
  5
80D
  8
0
  6
CONTINUOUS
 62
     7
 10
-2285.1449058135
 20
549.9357838625
 30
0.0
  0
VERTEX
  5
80E
  8
0
  6
CONTINUOUS
 62
     7
 10
-2284.0377818601
 20
549.9917022563
 30
0.0
  0
VERTEX
  5
80F
  8
0
  6
CONTINUOUS
 62
     7
 10
-2283.0305564744
 20
550.2628453351
 30
0.0
  0
VERTEX
  5
810
  8
0
  6
CONTINUOUS
 62
     7
 10
-2282.2447179472
 20
550.7165002605
 30
0.0
  0
VERTEX
  5
811
  8
0
  6
CONTINUOUS
 62
     7
 10
-2281.7750440041
 20
551.2979530163
 30
0.0
  0
VERTEX
  5
812
  8
0
  6
CONTINUOUS
 62
     7
 10
-2281.6781800095
 20
551.9370820703
 30
0.0
  0
VERTEX
  5
813
  8
0
  6
CONTINUOUS
 62
     7
 10
-2281.9658217139
 20
552.5567950999
 30
0.0
  0
VERTEX
  5
814
  8
0
  6
CONTINUOUS
 62
     7
 10
-2282.6032611875
 20
553.0823355445
 30
0.0
  0
SEQEND
  5
815
  8
0
  6
CONTINUOUS
 62
     7
  0
POLYLINE
  5
41E
  8
0
  6
CONTINUOUS
 62
     7
 66
     1
 10
0.0
 20
0.0
 30
0.0
  0
VERTEX
  5
816
  8
0
  6
CONTINUOUS
 62
     7
 10
-2300.2809349318
 20
542.8772317137
 30
0.0
  0
VERTEX
  5
817
  8
0
  6
CONTINUOUS
 62
     7
 10
-2301.1912963229
 20
543.245217689
 30
0.0
  0
VERTEX
  5
818
  8
0
  6
CONTINUOUS
 62
     7
 10
-2302.2647870912
 20
543.4112697104
 30
0.0
  0
VERTEX
  5
819
  8
0
  6
CONTINUOUS
 62
     7
 10
-2303.3719005079
 20
543.3553573993
 30
0.0
  0
VERTEX
  5
81A
  8
0
  6
CONTINUOUS
 62
     7
 10
-2304.3791258936
 20
543.0842143205
 30
0.0
  0
VERTEX
  5
81B
  8
0
  6
CONTINUOUS
 62
     7
 10
-2305.1649644208
 20
542.6305593951
 30
0.0
  0
VERTEX
  5
81C
  8
0
  6
CONTINUOUS
 62
     7
 10
-2305.6346489006
 20
542.0491005566
 30
0.0
  0
VERTEX
  5
81D
  8
0
  6
CONTINUOUS
 62
     7
 10
-2305.7315023585
 20
541.4099775853
 30
0.0
  0
VERTEX
  5
81E
  8
0
  6
CONTINUOUS
 62
     7
 10
-2305.4438606541
 20
540.7902645557
 30
0.0
  0
VERTEX
  5
81F
  8
0
  6
CONTINUOUS
 62
     7
 10
-2304.8064211805
 20
540.2647241111
 30
0.0
  0
VERTEX
  5
820
  8
0
  6
CONTINUOUS
 62
     7
 10
-2303.8960597894
 20
539.8967381358
 30
0.0
  0
VERTEX
  5
821
  8
0
  6
CONTINUOUS
 62
     7
 10
-2302.8225690211
 20
539.7306861144
 30
0.0
  0
VERTEX
  5
822
  8
0
  6
CONTINUOUS
 62
     7
 10
-2301.7154556044
 20
539.7865984255
 30
0.0
  0
VERTEX
  5
823
  8
0
  6
CONTINUOUS
 62
     7
 10
-2300.7082302187
 20
540.0577415042
 30
0.0
  0
VERTEX
  5
824
  8
0
  6
CONTINUOUS
 62
     7
 10
-2299.9223916915
 20
540.5113964296
 30
0.0
  0
VERTEX
  5
825
  8
0
  6
CONTINUOUS
 62
     7
 10
-2299.4527072117
 20
541.0928552681
 30
0.0
  0
VERTEX
  5
826
  8
0
  6
CONTINUOUS
 62
     7
 10
-2299.3558537538
 20
541.7319782395
 30
0.0
  0
VERTEX
  5
827
  8
0
  6
CONTINUOUS
 62
     7
 10
-2299.6434954582
 20
542.351691269
 30
0.0
  0
VERTEX
  5
828
  8
0
  6
CONTINUOUS
 62
     7
 10
-2300.2809349318
 20
542.8772317137
 30
0.0
  0
SEQEND
  5
829
  8
0
  6
CONTINUOUS
 62
     7
  0
POLYLINE
  5
41F
  8
0
  6
CONTINUOUS
 62
     7
 66
     1
 10
0.0
 20
0.0
 30
0.0
  0
VERTEX
  5
82A
  8
0
  6
CONTINUOUS
 62
     7
 10
-2349.2480812991
 20
539.1013441478
 30
0.0
  0
VERTEX
  5
82B
  8
0
  6
CONTINUOUS
 62
     7
 10
-2349.9780331052
 20
539.3829069164
 30
0.0
  0
VERTEX
  5
82C
  8
0
  6
CONTINUOUS
 62
     7
 10
-2350.8390616102
 20
539.4817814396
 30
0.0
  0
VERTEX
  5
82D
  8
0
  6
CONTINUOUS
 62
     7
 10
-2351.7001111885
 20
539.3829069164
 30
0.0
  0
VERTEX
  5
82E
  8
0
  6
CONTINUOUS
 62
     7
 10
-2352.4300629946
 20
539.1013441478
 30
0.0
  0
VERTEX
  5
82F
  8
0
  6
CONTINUOUS
 62
     7
 10
-2352.9177968623
 20
538.6799519398
 30
0.0
  0
VERTEX
  5
830
  8
0
  6
CONTINUOUS
 62
     7
 10
-2353.0890605812
 20
538.1828846814
 30
0.0
  0
VERTEX
  5
831
  8
0
  6
CONTINUOUS
 62
     7
 10
-2352.9177968623
 20
537.685817423
 30
0.0
  0
VERTEX
  5
832
  8
0
  6
CONTINUOUS
 62
     7
 10
-2352.4300629946
 20
537.264425215
 30
0.0
  0
VERTEX
  5
833
  8
0
  6
CONTINUOUS
 62
     7
 10
-2351.7001111885
 20
536.9828624464
 30
0.0
  0
VERTEX
  5
834
  8
0
  6
CONTINUOUS
 62
     7
 10
-2350.8390616102
 20
536.8839879232
 30
0.0
  0
VERTEX
  5
835
  8
0
  6
CONTINUOUS
 62
     7
 10
-2349.9780331052
 20
536.9828624464
 30
0.0
  0
VERTEX
  5
836
  8
0
  6
CONTINUOUS
 62
     7
 10
-2349.2480812991
 20
537.264425215
 30
0.0
  0
VERTEX
  5
837
  8
0
  6
CONTINUOUS
 62
     7
 10
-2348.7603474315
 20
537.685817423
 30
0.0
  0
VERTEX
  5
838
  8
0
  6
CONTINUOUS
 62
     7
 10
-2348.5890626391
 20
538.1828846814
 30
0.0
  0
VERTEX
  5
839
  8
0
  6
CONTINUOUS
 62
     7
 10
-2348.7603474315
 20
538.6799519398
 30
0.0
  0
VERTEX
  5
83A
  8
0
  6
CONTINUOUS
 62
     7
 10
-2349.2480812991
 20
539.1013441478
 30
0.0
  0
SEQEND
  5
83B
  8
0
  6
CONTINUOUS
 62
     7
  0
POLYLINE
  5
420
  8
0
  6
CONTINUOUS
 62
     7
 66
     1
 10
0.0
 20
0.0
 30
0.0
  0
VERTEX
  5
83C
  8
0
  6
CONTINUOUS
 62
     7
 10
-2327.6106163068
 20
551.5923868086
 30
0.0
  0
VERTEX
  5
83D
  8
0
  6
CONTINUOUS
 62
     7
 10
-2328.3405575761
 20
551.8739556599
 30
0.0
  0
VERTEX
  5
83E
  8
0
  6
CONTINUOUS
 62
     7
 10
-2329.2015966178
 20
551.9728241004
 30
0.0
  0
VERTEX
  5
83F
  8
0
  6
CONTINUOUS
 62
     7
 10
-2330.0626356595
 20
551.8739556599
 30
0.0
  0
VERTEX
  5
840
  8
0
  6
CONTINUOUS
 62
     7
 10
-2330.7925980022
 20
551.5923868086
 30
0.0
  0
VERTEX
  5
841
  8
0
  6
CONTINUOUS
 62
     7
 10
-2331.2803318699
 20
551.1709946005
 30
0.0
  0
VERTEX
  5
842
  8
0
  6
CONTINUOUS
 62
     7
 10
-2331.4515955888
 20
550.6739273422
 30
0.0
  0
VERTEX
  5
843
  8
0
  6
CONTINUOUS
 62
     7
 10
-2331.2803318699
 20
550.1768600838
 30
0.0
  0
VERTEX
  5
844
  8
0
  6
CONTINUOUS
 62
     7
 10
-2330.7925980022
 20
549.7554678757
 30
0.0
  0
VERTEX
  5
845
  8
0
  6
CONTINUOUS
 62
     7
 10
-2330.0626461962
 20
549.4739051072
 30
0.0
  0
VERTEX
  5
846
  8
0
  6
CONTINUOUS
 62
     7
 10
-2329.2015966178
 20
549.375030584
 30
0.0
  0
VERTEX
  5
847
  8
0
  6
CONTINUOUS
 62
     7
 10
-2328.3405681129
 20
549.4739051072
 30
0.0
  0
VERTEX
  5
848
  8
0
  6
CONTINUOUS
 62
     7
 10
-2327.6106163068
 20
549.7554678757
 30
0.0
  0
VERTEX
  5
849
  8
0
  6
CONTINUOUS
 62
     7
 10
-2327.1228719024
 20
550.1768661665
 30
0.0
  0
VERTEX
  5
84A
  8
0
  6
CONTINUOUS
 62
     7
 10
-2326.9515976468
 20
550.6739273422
 30
0.0
  0
VERTEX
  5
84B
  8
0
  6
CONTINUOUS
 62
     7
 10
-2327.1228719024
 20
551.1710006833
 30
0.0
  0
VERTEX
  5
84C
  8
0
  6
CONTINUOUS
 62
     7
 10
-2327.6106163068
 20
551.5923868086
 30
0.0
  0
SEQEND
  5
84D
  8
0
  6
CONTINUOUS
 62
     7
  0
ARC
  5
421
  8
0
  6
CONTINUOUS
 62
     7
 10
-2356.144958735
 20
538.3053418885
 30
0.0
 40
1.288013062387739
 50
110.7832855227
 51
249.2167144773
  0
LINE
  5
422
  8
0
  6
CONTINUOUS
 62
     7
 10
-2331.1830569436
 20
554.1835805798
 30
0.0
 11
-2356.6019898679
 21
539.5095429483
 31
0.0
  0
ARC
  5
423
  8
0
  6
CONTINUOUS
 62
     7
 10
-2329.1989338926
 20
550.4766553422
 30
0.0
 40
4.204526013574591
 50
90.1274623245
 51
118.1578121636
  0
LINE
  5
424
  8
0
  6
CONTINUOUS
 62
     7
 10
-2285.118532423
 20
555.6411571095
 30
0.0
 11
-2329.20828743
 21
554.6811709516
 31
0.0
  0
POLYLINE
  5
425
  8
0
  6
CONTINUOUS
 62
     7
 66
     1
 10
0.0
 20
0.0
 30
0.0
  0
VERTEX
  5
84E
  8
0
  6
CONTINUOUS
 62
     7
 10
-2280.1283982429
 20
549.0411138922
 30
0.0
  0
VERTEX
  5
84F
  8
0
  6
CONTINUOUS
 62
     7
 10
-2279.1401600124
 20
549.7675968083
 30
0.0
  0
VERTEX
  5
850
  8
0
  6
CONTINUOUS
 62
     7
 10
-2278.4784966377
 20
550.6086294027
 30
0.0
  0
VERTEX
  5
851
  8
0
  6
CONTINUOUS
 62
     7
 10
-2278.1811400847
 20
551.5162373066
 30
0.0
  0
VERTEX
  5
852
  8
0
  6
CONTINUOUS
 62
     7
 10
-2278.2650544601
 20
552.438680951
 30
0.0
  0
VERTEX
  5
853
  8
0
  6
CONTINUOUS
 62
     7
 10
-2278.7254455598
 20
553.3233266078
 30
0.0
  0
VERTEX
  5
854
  8
0
  6
CONTINUOUS
 62
     7
 10
-2279.5360558972
 20
554.1197242437
 30
0.0
  0
VERTEX
  5
855
  8
0
  6
CONTINUOUS
 62
     7
 10
-2280.6506503795
 20
554.7824603124
 30
0.0
  0
VERTEX
  5
856
  8
0
  6
CONTINUOUS
 62
     7
 10
-2282.0056715591
 20
555.2737246612
 30
0.0
  0
VERTEX
  5
857
  8
0
  6
CONTINUOUS
 62
     7
 10
-2283.5238221159
 20
555.5655003074
 30
0.0
  0
VERTEX
  5
858
  8
0
  6
CONTINUOUS
 62
     7
 10
-2285.118532423
 20
555.6411571095
 30
0.0
  0
SEQEND
  5
859
  8
0
  6
CONTINUOUS
 62
     7
  0
LINE
  5
426
  8
0
  6
CONTINUOUS
 62
     7
 10
-2296.7673418323
 20
539.435656216
 30
0.0
 11
-2280.1283982429
 21
549.0411138922
 31
0.0
  0
ARC
  5
427
  8
0
  6
CONTINUOUS
 62
     7
 10
-2301.2736139615
 20
547.8546695991
 30
0.0
 40
9.549150477719587
 50
270.1271038576
 51
298.1578911708
  0
LINE
  5
428
  8
0
  6
CONTINUOUS
 62
     7
 10
-2342.7931966193
 20
537.4010490639
 30
0.0
 11
-2301.2524303267
 21
538.305542618
 31
0.0
  0
ARC
  5
429
  8
0
  6
CONTINUOUS
 62
     7
 10
-2342.7819692617
 20
532.3414377353
 30
0.0
 40
5.05962378551858
 50
90.1271400325
 51
118.1578204067
  0
LINE
  5
42A
  8
0
  6
CONTINUOUS
 62
     7
 10
-2348.540973085
 20
534.8560170126
 30
0.0
 11
-2345.1696150624
 21
536.802260572
 31
0.0
  0
ARC
  5
42B
  8
0
  6
CONTINUOUS
 62
     7
 10
-2350.6269359201
 20
538.8819629385
 30
0.0
 40
4.534256449259257
 50
242.6098098477
 51
297.390023077
  0
LINE
  5
42C
  8
0
  6
CONTINUOUS
 62
     7
 10
-2356.6019898679
 20
537.1011408286
 30
0.0
 11
-2352.712910495
 21
534.8560230953
 31
0.0
  0
LINE
  5
42D
  8
0
  6
CONTINUOUS
 62
     7
 10
-2301.2411138979
 20
537.8875230041
 30
0.0
 11
-2342.7818907272
 21
536.9830355327
 31
0.0
  0
LINE
  5
42E
  8
0
  6
CONTINUOUS
 62
     7
 10
-2342.7818907272
 20
534.2067862791
 30
0.0
 11
-2301.2411138979
 21
535.1112737505
 31
0.0
  0
LINE
  5
42F
  8
0
  6
CONTINUOUS
 62
     7
 10
-2301.2524303267
 20
535.0393849188
 30
0.0
 11
-2342.7931966193
 21
534.1348913647
 31
0.0
  0
ARC
  5
430
  8
0
  6
CONTINUOUS
 62
     7
 10
-2350.6269359202
 20
538.9239048321
 30
0.0
 40
4.995306550861101
 50
242.6095512693
 51
297.3902970773
  0
ARC
  5
431
  8
0
  6
CONTINUOUS
 62
     7
 10
-2350.6269359202
 20
536.1476555786
 30
0.0
 40
4.995306550861488
 50
242.6095512693
 51
297.3902970773
  0
LINE
  5
432
  8
0
  6
CONTINUOUS
 62
     7
 10
-2344.9574899739
 20
536.4348491422
 30
0.0
 11
-2348.3288479964
 21
534.4886055827
 31
0.0
  0
LINE
  5
433
  8
0
  6
CONTINUOUS
 62
     7
 10
-2352.9250355835
 20
534.4886116655
 30
0.0
 11
-2356.8141149564
 21
536.7337293988
 31
0.0
  0
LINE
  5
434
  8
0
  6
CONTINUOUS
 62
     7
 10
-2348.3288479964
 20
531.7123563292
 30
0.0
 11
-2344.9574899739
 21
533.6585998886
 31
0.0
  0
LINE
  5
435
  8
0
  6
CONTINUOUS
 62
     7
 10
-2356.8141149564
 20
533.9574801452
 30
0.0
 11
-2352.9250355835
 21
531.7123624119
 31
0.0
  0
ARC
  5
436
  8
0
  6
CONTINUOUS
 62
     7
 10
-2350.6269359201
 20
535.6158052393
 30
0.0
 40
4.534256449257541
 50
242.6098098477
 51
297.390023077
  0
LINE
  5
437
  8
0
  6
CONTINUOUS
 62
     7
 10
-2345.1696150624
 20
533.5361028728
 30
0.0
 11
-2348.540973085
 21
531.5898593134
 31
0.0
  0
LINE
  5
438
  8
0
  6
CONTINUOUS
 62
     7
 10
-2356.6019898679
 20
533.8349831294
 30
0.0
 11
-2356.8141149564
 21
533.9574801452
 31
0.0
  0
LINE
  5
439
  8
0
  6
CONTINUOUS
 62
     7
 10
-2352.712910495
 20
531.5898653961
 30
0.0
 11
-2356.6019898679
 21
533.8349831294
 31
0.0
  0
ARC
  5
43A
  8
0
  6
CONTINUOUS
 62
     7
 10
-2342.7715567263
 20
532.3507555473
 30
0.0
 40
4.632291512250439
 50
90.1278190554
 51
118.1570675391
  0
ARC
  5
43B
  8
0
  6
CONTINUOUS
 62
     7
 10
-2342.7715567263
 20
529.5745062937
 30
0.0
 40
4.632291512250439
 50
90.1278190554
 51
118.1570675391
  0
ARC
  5
43C
  8
0
  6
CONTINUOUS
 62
     7
 10
-2356.310609996
 20
538.0603927065
 30
0.0
 40
1.418997102636882
 50
110.7835767071
 51
249.2168783518
  0
LINE
  5
43D
  8
0
  6
CONTINUOUS
 62
     7
 10
-2356.6019898679
 20
539.5095429483
 30
0.0
 11
-2356.8141254931
 21
539.3870520152
 31
0.0
  0
ARC
  5
43E
  8
0
  6
CONTINUOUS
 62
     7
 10
-2356.1395565149
 20
535.4463273973
 30
0.0
 40
1.634532113816327
 50
185.6944193572
 51
245.625941009
  0
ARC
  5
43F
  8
0
  6
CONTINUOUS
 62
     7
 10
-2301.2632976111
 20
547.8644048762
 30
0.0
 40
9.976906534988414
 50
270.1273976241
 51
298.157630207
  0
ARC
  5
440
  8
0
  6
CONTINUOUS
 62
     7
 10
-2301.2632976111
 20
545.0881556226
 30
0.0
 40
9.97690653498328
 50
270.1273976241
 51
298.157630207
  0
ARC
  5
441
  8
0
  6
CONTINUOUS
 62
     7
 10
-2342.7819692617
 20
529.075280036
 30
0.0
 40
5.059623785518696
 50
90.1271400325
 51
118.1578204067
  0
ARC
  5
442
  8
0
  6
CONTINUOUS
 62
     7
 10
-2301.2736139615
 20
544.5885118998
 30
0.0
 40
9.549150477719587
 50
270.1271038576
 51
298.1578911708
  0
LINE
  5
443
  8
0
  6
CONTINUOUS
 62
     7
 10
-2279.9162626176
 20
548.6736963797
 30
0.0
 11
-2296.555206207
 21
539.0682387034
 31
0.0
  0
LINE
  5
444
  8
0
  6
CONTINUOUS
 62
     7
 10
-2296.555206207
 20
536.2919894499
 30
0.0
 11
-2279.9162626176
 21
545.8974471261
 31
0.0
  0
LINE
  5
445
  8
0
  6
CONTINUOUS
 62
     7
 10
-2279.9162626176
 20
545.8974471261
 30
0.0
 11
-2280.1283982429
 21
545.774956193
 31
0.0
  0
LINE
  5
446
  8
0
  6
CONTINUOUS
 62
     7
 10
-2280.1283982429
 20
545.774956193
 30
0.0
 11
-2296.7673418323
 21
536.1694985168
 31
0.0
  0
POLYLINE
  5
447
  8
0
  6
CONTINUOUS
 62
     7
 66
     1
 10
0.0
 20
0.0
 30
0.0
  0
VERTEX
  5
85A
  8
0
  6
CONTINUOUS
 62
     7
 10
-2279.9154618275
 20
554.3880902922
 30
0.0
  0
VERTEX
  5
85B
  8
0
  6
CONTINUOUS
 62
     7
 10
-2279.2973993675
 20
553.9797090103
 30
0.0
  0
VERTEX
  5
85C
  8
0
  6
CONTINUOUS
 62
     7
 10
-2278.4504900568
 20
553.1476484197
 30
0.0
  0
VERTEX
  5
85D
  8
0
  6
CONTINUOUS
 62
     7
 10
-2277.9694891482
 20
552.2233921265
 30
0.0
  0
VERTEX
  5
85E
  8
0
  6
CONTINUOUS
 62
     7
 10
-2277.8818131666
 20
551.2596529338
 30
0.0
  0
VERTEX
  5
85F
  8
0
  6
CONTINUOUS
 62
     7
 10
-2278.1924881237
 20
550.311400332
 30
0.0
  0
VERTEX
  5
860
  8
0
  6
CONTINUOUS
 62
     7
 10
-2278.8837807329
 20
549.4327035698
 30
0.0
  0
VERTEX
  5
861
  8
0
  6
CONTINUOUS
 62
     7
 10
-2279.9162626176
 20
548.6736963797
 30
0.0
  0
SEQEND
  5
862
  8
0
  6
CONTINUOUS
 62
     7
  0
ARC
  5
448
  8
0
  6
CONTINUOUS
 62
     7
 10
-2281.2555680747
 20
549.0226829059
 30
0.0
 40
3.40012320164233
 50
293.1973312021
 51
355.4824696768
  0
POLYLINE
  5
449
  8
0
  6
CONTINUOUS
 62
     7
 66
     1
 10
0.0
 20
0.0
 30
0.0
  0
VERTEX
  5
863
  8
0
  6
CONTINUOUS
 62
     7
 10
-2356.7660254023
 20
209.5242577538
 30
0.0
  0
VERTEX
  5
864
  8
0
  6
CONTINUOUS
 62
     7
 10
-2356.9688571107
 20
209.3689903851
 30
0.0
  0
VERTEX
  5
865
  8
0
  6
CONTINUOUS
 62
     7
 10
-2357.2414734636
 20
209.0745687582
 30
0.0
  0
VERTEX
  5
866
  8
0
  6
CONTINUOUS
 62
     7
 10
-2357.4093338245
 20
208.7550985133
 30
0.0
  0
VERTEX
  5
867
  8
0
  6
CONTINUOUS
 62
     7
 10
-2357.4660213358
 20
208.4228606507
 30
0.0
  0
VERTEX
  5
868
  8
0
  6
CONTINUOUS
 62
     7
 10
-2357.4093443612
 20
208.0906167054
 30
0.0
  0
VERTEX
  5
869
  8
0
  6
CONTINUOUS
 62
     7
 10
-2357.2414734636
 20
207.7711525432
 30
0.0
  0
VERTEX
  5
86A
  8
0
  6
CONTINUOUS
 62
     7
 10
-2356.9688676474
 20
207.4767248336
 30
0.0
  0
VERTEX
  5
86B
  8
0
  6
CONTINUOUS
 62
     7
 10
-2356.6019898679
 20
207.2186535082
 30
0.0
  0
SEQEND
  5
86C
  8
0
  6
CONTINUOUS
 62
     7
  0
LINE
  5
44A
  8
0
  6
CONTINUOUS
 62
     7
 10
-2342.7931966193
 20
207.5185617435
 30
0.0
 11
-2338.3586316595
 21
207.6151187525
 31
0.0
  0
ARC
  5
44B
  8
0
  6
CONTINUOUS
 62
     7
 10
-2342.7819692617
 20
202.4589504148
 30
0.0
 40
5.05962378551858
 50
90.1271400325
 51
118.1578204067
  0
LINE
  5
44C
  8
0
  6
CONTINUOUS
 62
     7
 10
-2348.540973085
 20
204.9735296921
 30
0.0
 11
-2345.1696150624
 21
206.9197732516
 31
0.0
  0
ARC
  5
44D
  8
0
  6
CONTINUOUS
 62
     7
 10
-2350.6269359201
 20
208.999475618
 30
0.0
 40
4.534256449257641
 50
242.6098098477
 51
297.390023077
  0
LINE
  5
44E
  8
0
  6
CONTINUOUS
 62
     7
 10
-2356.6019898679
 20
207.2186535082
 30
0.0
 11
-2352.712910495
 21
204.9735357748
 31
0.0
  0
LINE
  5
44F
  8
0
  6
CONTINUOUS
 62
     7
 10
-2338.3586316595
 20
207.1968558299
 30
0.0
 11
-2342.7818907272
 21
207.1005482122
 31
0.0
  0
LINE
  5
450
  8
0
  6
CONTINUOUS
 62
     7
 10
-2342.7818907272
 20
204.3242989586
 30
0.0
 11
-2338.2025618795
 21
204.424000731
 31
0.0
  0
LINE
  5
451
  8
0
  6
CONTINUOUS
 62
     7
 10
-2338.1764519068
 20
204.3529269831
 30
0.0
 11
-2342.7931966193
 21
204.2524040443
 31
0.0
  0
ARC
  5
452
  8
0
  6
CONTINUOUS
 62
     7
 10
-2350.6269359202
 20
209.0414175117
 30
0.0
 40
4.995306550861101
 50
242.6095512693
 51
297.3902970773
  0
ARC
  5
453
  8
0
  6
CONTINUOUS
 62
     7
 10
-2350.6269359202
 20
206.2651682581
 30
0.0
 40
4.995306550860892
 50
242.6095512693
 51
297.3902970773
  0
LINE
  5
454
  8
0
  6
CONTINUOUS
 62
     7
 10
-2344.9574899739
 20
206.5523618217
 30
0.0
 11
-2348.3288479964
 21
204.6061182623
 31
0.0
  0
LINE
  5
455
  8
0
  6
CONTINUOUS
 62
     7
 10
-2352.9250355835
 20
204.606124345
 30
0.0
 11
-2356.8141149564
 21
206.8512420783
 31
0.0
  0
LINE
  5
456
  8
0
  6
CONTINUOUS
 62
     7
 10
-2348.3288479964
 20
201.8298690087
 30
0.0
 11
-2344.9574899739
 21
203.7761125681
 31
0.0
  0
LINE
  5
457
  8
0
  6
CONTINUOUS
 62
     7
 10
-2356.8141149564
 20
204.0749928247
 30
0.0
 11
-2352.9250355835
 21
201.8298750914
 31
0.0
  0
ARC
  5
458
  8
0
  6
CONTINUOUS
 62
     7
 10
-2350.6269359201
 20
205.7333179188
 30
0.0
 40
4.534256449259058
 50
242.6098098477
 51
297.390023077
  0
LINE
  5
459
  8
0
  6
CONTINUOUS
 62
     7
 10
-2345.1696150624
 20
203.6536155524
 30
0.0
 11
-2348.540973085
 21
201.7073719929
 31
0.0
  0
LINE
  5
45A
  8
0
  6
CONTINUOUS
 62
     7
 10
-2356.6019898679
 20
203.9524958089
 30
0.0
 11
-2356.8141149564
 21
204.0749928247
 31
0.0
  0
LINE
  5
45B
  8
0
  6
CONTINUOUS
 62
     7
 10
-2352.712910495
 20
201.7073780756
 30
0.0
 11
-2356.6019898679
 21
203.9524958089
 31
0.0
  0
ARC
  5
45C
  8
0
  6
CONTINUOUS
 62
     7
 10
-2342.7715567263
 20
202.4682682268
 30
0.0
 40
4.632291512250414
 50
90.1278190554
 51
118.1570675391
  0
ARC
  5
45D
  8
0
  6
CONTINUOUS
 62
     7
 10
-2342.7715567263
 20
199.6920189733
 30
0.0
 40
4.632291512250464
 50
90.1278190554
 51
118.1570675391
  0
ARC
  5
45E
  8
0
  6
CONTINUOUS
 62
     7
 10
-2356.310609996
 20
208.177905386
 30
0.0
 40
1.418997102636856
 50
110.7835767071
 51
249.2168783518
  0
LINE
  5
45F
  8
0
  6
CONTINUOUS
 62
     7
 10
-2356.7660254023
 20
209.5323291455
 30
0.0
 11
-2356.8141254931
 21
209.5045646948
 31
0.0
  0
ARC
  5
460
  8
0
  6
CONTINUOUS
 62
     7
 10
-2356.1395565149
 20
205.5638400768
 30
0.0
 40
1.63453211381567
 50
185.6944193572
 51
245.625941009
  0
ARC
  5
461
  8
0
  6
CONTINUOUS
 62
     7
 10
-2342.7819692617
 20
199.1927927156
 30
0.0
 40
5.059623785518596
 50
90.1271400325
 51
118.1578204067
  0
ARC
  5
462
  8
0
  6
CONTINUOUS
 62
     7
 10
-2047.9852425188
 20
364.1705683205
 30
0.0
 40
4.534200339876105
 50
242.6096009984
 51
297.3903990016
  0
ARC
  5
463
  8
0
  6
CONTINUOUS
 62
     7
 10
-2047.9852313807
 20
364.2125676369
 30
0.0
 40
4.995306550861501
 50
242.6095512693
 51
297.3902970773
  0
ARC
  5
464
  8
0
  6
CONTINUOUS
 62
     7
 10
-2047.9852313807
 20
361.4363183833
 30
0.0
 40
4.995306550860795
 50
242.6095512693
 51
297.3902970773
  0
POLYLINE
  5
465
  8
0
  6
CONTINUOUS
 62
     7
 66
     1
 10
0.0
 20
0.0
 30
0.0
  0
VERTEX
  5
86D
  8
0
  6
CONTINUOUS
 62
     7
 10
-2022.387965205
 20
402.8632426772
 30
0.0
  0
VERTEX
  5
86E
  8
0
  6
CONTINUOUS
 62
     7
 10
-2021.7505257315
 20
402.3377022325
 30
0.0
  0
VERTEX
  5
86F
  8
0
  6
CONTINUOUS
 62
     7
 10
-2021.4628840271
 20
401.717989203
 30
0.0
  0
VERTEX
  5
870
  8
0
  6
CONTINUOUS
 62
     7
 10
-2021.5597480217
 20
401.0788601489
 30
0.0
  0
VERTEX
  5
871
  8
0
  6
CONTINUOUS
 62
     7
 10
-2022.0294219648
 20
400.4974073932
 30
0.0
  0
VERTEX
  5
872
  8
0
  6
CONTINUOUS
 62
     7
 10
-2022.815260492
 20
400.0437524677
 30
0.0
  0
VERTEX
  5
873
  8
0
  6
CONTINUOUS
 62
     7
 10
-2023.8224858777
 20
399.772609389
 30
0.0
  0
VERTEX
  5
874
  8
0
  6
CONTINUOUS
 62
     7
 10
-2024.9296098311
 20
399.7166909952
 30
0.0
  0
VERTEX
  5
875
  8
0
  6
CONTINUOUS
 62
     7
 10
-2026.0030900626
 20
399.8827490993
 30
0.0
  0
VERTEX
  5
876
  8
0
  6
CONTINUOUS
 62
     7
 10
-2026.9134514538
 20
400.2507350746
 30
0.0
  0
VERTEX
  5
877
  8
0
  6
CONTINUOUS
 62
     7
 10
-2027.5508909274
 20
400.7762755193
 30
0.0
  0
VERTEX
  5
878
  8
0
  6
CONTINUOUS
 62
     7
 10
-2027.8385431684
 20
401.3959824661
 30
0.0
  0
VERTEX
  5
879
  8
0
  6
CONTINUOUS
 62
     7
 10
-2027.7416791739
 20
402.0351115202
 30
0.0
  0
VERTEX
  5
87A
  8
0
  6
CONTINUOUS
 62
     7
 10
-2027.2719946941
 20
402.6165703586
 30
0.0
  0
VERTEX
  5
87B
  8
0
  6
CONTINUOUS
 62
     7
 10
-2026.4861561669
 20
403.0702252841
 30
0.0
  0
VERTEX
  5
87C
  8
0
  6
CONTINUOUS
 62
     7
 10
-2025.4789413179
 20
403.3413622801
 30
0.0
  0
VERTEX
  5
87D
  8
0
  6
CONTINUOUS
 62
     7
 10
-2024.3718173645
 20
403.3972806739
 30
0.0
  0
VERTEX
  5
87E
  8
0
  6
CONTINUOUS
 62
     7
 10
-2023.2983265962
 20
403.2312286525
 30
0.0
  0
VERTEX
  5
87F
  8
0
  6
CONTINUOUS
 62
     7
 10
-2022.387965205
 20
402.8632426772
 30
0.0
  0
SEQEND
  5
880
  8
0
  6
CONTINUOUS
 62
     7
  0
POLYLINE
  5
466
  8
0
  6
CONTINUOUS
 62
     7
 66
     1
 10
0.0
 20
0.0
 30
0.0
  0
VERTEX
  5
881
  8
0
  6
CONTINUOUS
 62
     7
 10
-2040.0656389494
 20
392.6581388463
 30
0.0
  0
VERTEX
  5
882
  8
0
  6
CONTINUOUS
 62
     7
 10
-2039.4281994758
 20
392.1325984017
 30
0.0
  0
VERTEX
  5
883
  8
0
  6
CONTINUOUS
 62
     7
 10
-2039.1405577714
 20
391.5128853721
 30
0.0
  0
VERTEX
  5
884
  8
0
  6
CONTINUOUS
 62
     7
 10
-2039.2374112293
 20
390.8737624008
 30
0.0
  0
VERTEX
  5
885
  8
0
  6
CONTINUOUS
 62
     7
 10
-2039.7070957091
 20
390.2923035623
 30
0.0
  0
VERTEX
  5
886
  8
0
  6
CONTINUOUS
 62
     7
 10
-2040.4929342363
 20
389.8386486369
 30
0.0
  0
VERTEX
  5
887
  8
0
  6
CONTINUOUS
 62
     7
 10
-2041.500159622
 20
389.5675055581
 30
0.0
  0
VERTEX
  5
888
  8
0
  6
CONTINUOUS
 62
     7
 10
-2042.6072730387
 20
389.511593247
 30
0.0
  0
VERTEX
  5
889
  8
0
  6
CONTINUOUS
 62
     7
 10
-2043.680763807
 20
389.6776452684
 30
0.0
  0
VERTEX
  5
88A
  8
0
  6
CONTINUOUS
 62
     7
 10
-2044.5911251981
 20
390.0456312437
 30
0.0
  0
VERTEX
  5
88B
  8
0
  6
CONTINUOUS
 62
     7
 10
-2045.2285646717
 20
390.5711716884
 30
0.0
  0
VERTEX
  5
88C
  8
0
  6
CONTINUOUS
 62
     7
 10
-2045.5162063761
 20
391.190884718
 30
0.0
  0
VERTEX
  5
88D
  8
0
  6
CONTINUOUS
 62
     7
 10
-2045.4193529182
 20
391.8300076893
 30
0.0
  0
VERTEX
  5
88E
  8
0
  6
CONTINUOUS
 62
     7
 10
-2044.9496684384
 20
392.4114665278
 30
0.0
  0
VERTEX
  5
88F
  8
0
  6
CONTINUOUS
 62
     7
 10
-2044.1638299112
 20
392.8651214532
 30
0.0
  0
VERTEX
  5
890
  8
0
  6
CONTINUOUS
 62
     7
 10
-2043.1566045255
 20
393.1362645319
 30
0.0
  0
VERTEX
  5
891
  8
0
  6
CONTINUOUS
 62
     7
 10
-2042.0494911088
 20
393.1921768431
 30
0.0
  0
VERTEX
  5
892
  8
0
  6
CONTINUOUS
 62
     7
 10
-2040.9760003405
 20
393.0261248216
 30
0.0
  0
VERTEX
  5
893
  8
0
  6
CONTINUOUS
 62
     7
 10
-2040.0656389494
 20
392.6581388463
 30
0.0
  0
SEQEND
  5
894
  8
0
  6
CONTINUOUS
 62
     7
  0
POLYLINE
  5
467
  8
0
  6
CONTINUOUS
 62
     7
 66
     1
 10
0.0
 20
0.0
 30
0.0
  0
VERTEX
  5
895
  8
0
  6
CONTINUOUS
 62
     7
 10
-2046.6063767597
 20
364.3900069526
 30
0.0
  0
VERTEX
  5
896
  8
0
  6
CONTINUOUS
 62
     7
 10
-2046.118642892
 20
363.9686147445
 30
0.0
  0
VERTEX
  5
897
  8
0
  6
CONTINUOUS
 62
     7
 10
-2045.9473686363
 20
363.4715535689
 30
0.0
  0
VERTEX
  5
898
  8
0
  6
CONTINUOUS
 62
     7
 10
-2046.118642892
 20
362.9744802278
 30
0.0
  0
VERTEX
  5
899
  8
0
  6
CONTINUOUS
 62
     7
 10
-2046.6063767597
 20
362.5530880197
 30
0.0
  0
VERTEX
  5
89A
  8
0
  6
CONTINUOUS
 62
     7
 10
-2047.3363285657
 20
362.2715252511
 30
0.0
  0
VERTEX
  5
89B
  8
0
  6
CONTINUOUS
 62
     7
 10
-2048.1973676074
 20
362.1726568107
 30
0.0
  0
VERTEX
  5
89C
  8
0
  6
CONTINUOUS
 62
     7
 10
-2049.058406649
 20
362.2715252511
 30
0.0
  0
VERTEX
  5
89D
  8
0
  6
CONTINUOUS
 62
     7
 10
-2049.7883584551
 20
362.5530880197
 30
0.0
  0
VERTEX
  5
89E
  8
0
  6
CONTINUOUS
 62
     7
 10
-2050.2760923228
 20
362.9744802278
 30
0.0
  0
VERTEX
  5
89F
  8
0
  6
CONTINUOUS
 62
     7
 10
-2050.4473665784
 20
363.4715535689
 30
0.0
  0
VERTEX
  5
8A0
  8
0
  6
CONTINUOUS
 62
     7
 10
-2050.2760923228
 20
363.9686147445
 30
0.0
  0
VERTEX
  5
8A1
  8
0
  6
CONTINUOUS
 62
     7
 10
-2049.7883584551
 20
364.3900069526
 30
0.0
  0
VERTEX
  5
8A2
  8
0
  6
CONTINUOUS
 62
     7
 10
-2049.058406649
 20
364.6715697212
 30
0.0
  0
VERTEX
  5
8A3
  8
0
  6
CONTINUOUS
 62
     7
 10
-2048.1973676074
 20
364.770450327
 30
0.0
  0
VERTEX
  5
8A4
  8
0
  6
CONTINUOUS
 62
     7
 10
-2047.3363285657
 20
364.6715697212
 30
0.0
  0
VERTEX
  5
8A5
  8
0
  6
CONTINUOUS
 62
     7
 10
-2046.6063767597
 20
364.3900069526
 30
0.0
  0
SEQEND
  5
8A6
  8
0
  6
CONTINUOUS
 62
     7
  0
POLYLINE
  5
468
  8
0
  6
CONTINUOUS
 62
     7
 66
     1
 10
0.0
 20
0.0
 30
0.0
  0
VERTEX
  5
8A7
  8
0
  6
CONTINUOUS
 62
     7
 10
-2024.9689117673
 20
376.8810496133
 30
0.0
  0
VERTEX
  5
8A8
  8
0
  6
CONTINUOUS
 62
     7
 10
-2024.4811673629
 20
376.459663488
 30
0.0
  0
VERTEX
  5
8A9
  8
0
  6
CONTINUOUS
 62
     7
 10
-2024.309903644
 20
375.9625962296
 30
0.0
  0
VERTEX
  5
8AA
  8
0
  6
CONTINUOUS
 62
     7
 10
-2024.4811673629
 20
375.4655289713
 30
0.0
  0
VERTEX
  5
8AB
  8
0
  6
CONTINUOUS
 62
     7
 10
-2024.9689117673
 20
375.0441306805
 30
0.0
  0
VERTEX
  5
8AC
  8
0
  6
CONTINUOUS
 62
     7
 10
-2025.6988635734
 20
374.7625679119
 30
0.0
  0
VERTEX
  5
8AD
  8
0
  6
CONTINUOUS
 62
     7
 10
-2026.559902615
 20
374.6636994714
 30
0.0
  0
VERTEX
  5
8AE
  8
0
  6
CONTINUOUS
 62
     7
 10
-2027.4209416567
 20
374.7625679119
 30
0.0
  0
VERTEX
  5
8AF
  8
0
  6
CONTINUOUS
 62
     7
 10
-2028.1508934628
 20
375.0441306805
 30
0.0
  0
VERTEX
  5
8B0
  8
0
  6
CONTINUOUS
 62
     7
 10
-2028.6386273304
 20
375.4655228885
 30
0.0
  0
VERTEX
  5
8B1
  8
0
  6
CONTINUOUS
 62
     7
 10
-2028.8099015861
 20
375.9625962296
 30
0.0
  0
VERTEX
  5
8B2
  8
0
  6
CONTINUOUS
 62
     7
 10
-2028.6386273304
 20
376.4596574053
 30
0.0
  0
VERTEX
  5
8B3
  8
0
  6
CONTINUOUS
 62
     7
 10
-2028.1508934628
 20
376.8810496133
 30
0.0
  0
VERTEX
  5
8B4
  8
0
  6
CONTINUOUS
 62
     7
 10
-2027.42093112
 20
377.1626184646
 30
0.0
  0
VERTEX
  5
8B5
  8
0
  6
CONTINUOUS
 62
     7
 10
-2026.559902615
 20
377.2614929878
 30
0.0
  0
VERTEX
  5
8B6
  8
0
  6
CONTINUOUS
 62
     7
 10
-2025.6988530367
 20
377.1626184646
 30
0.0
  0
VERTEX
  5
8B7
  8
0
  6
CONTINUOUS
 62
     7
 10
-2024.9689117673
 20
376.8810496133
 30
0.0
  0
SEQEND
  5
8B8
  8
0
  6
CONTINUOUS
 62
     7
  0
ARC
  5
469
  8
0
  6
CONTINUOUS
 62
     7
 10
-2053.5032454897
 20
363.5940097341
 30
0.0
 40
1.28802086442127
 50
110.7840693557
 51
249.2164319788
  0
LINE
  5
46A
  8
0
  6
CONTINUOUS
 62
     7
 10
-2050.5889378426
 20
366.7444553952
 30
0.0
 11
-2053.9602958651
 21
364.7982118357
 31
0.0
  0
ARC
  5
46B
  8
0
  6
CONTINUOUS
 62
     7
 10
-2051.3604711713
 20
368.4058506536
 30
0.0
 40
1.83180181292493
 50
294.9096269727
 51
350.9062131477
  0
LINE
  5
46C
  8
0
  6
CONTINUOUS
 62
     7
 10
-2047.9848948073
 20
392.0973064925
 30
0.0
 11
-2049.551693364
 21
368.1163325612
 31
0.0
  0
ARC
  5
46D
  8
0
  6
CONTINUOUS
 62
     7
 10
-2044.5711398221
 20
391.5508943813
 30
0.0
 40
3.457208309378189
 50
114.9095048937
 51
170.9062649954
  0
LINE
  5
46E
  8
0
  6
CONTINUOUS
 62
     7
 10
-2029.388324935
 20
404.2919506442
 30
0.0
 11
-2046.0272685244
 21
394.686492968
 31
0.0
  0
POLYLINE
  5
46F
  8
0
  6
CONTINUOUS
 62
     7
 66
     1
 10
0.0
 20
0.0
 30
0.0
  0
VERTEX
  5
8B9
  8
0
  6
CONTINUOUS
 62
     7
 10
-2017.9554759776
 20
401.4112075003
 30
0.0
  0
VERTEX
  5
8BA
  8
0
  6
CONTINUOUS
 62
     7
 10
-2018.086531603
 20
402.331814165
 30
0.0
  0
VERTEX
  5
8BB
  8
0
  6
CONTINUOUS
 62
     7
 10
-2018.5919566104
 20
403.2082238265
 30
0.0
  0
VERTEX
  5
8BC
  8
0
  6
CONTINUOUS
 62
     7
 10
-2019.4429436286
 20
403.9904609031
 30
0.0
  0
VERTEX
  5
8BD
  8
0
  6
CONTINUOUS
 62
     7
 10
-2020.5909605618
 20
404.6339026017
 30
0.0
  0
VERTEX
  5
8BE
  8
0
  6
CONTINUOUS
 62
     7
 10
-2021.9705112073
 20
405.1018579888
 30
0.0
  0
VERTEX
  5
8BF
  8
0
  6
CONTINUOUS
 62
     7
 10
-2023.5029284723
 20
405.3676361134
 30
0.0
  0
VERTEX
  5
8C0
  8
0
  6
CONTINUOUS
 62
     7
 10
-2025.1008208664
 20
405.4160788512
 30
0.0
  0
VERTEX
  5
8C1
  8
0
  6
CONTINUOUS
 62
     7
 10
-2026.6730142197
 20
405.244418567
 30
0.0
  0
VERTEX
  5
8C2
  8
0
  6
CONTINUOUS
 62
     7
 10
-2028.1298832588
 20
404.8624484312
 30
0.0
  0
VERTEX
  5
8C3
  8
0
  6
CONTINUOUS
 62
     7
 10
-2029.388324935
 20
404.2919506442
 30
0.0
  0
SEQEND
  5
8C4
  8
0
  6
CONTINUOUS
 62
     7
  0
LINE
  5
470
  8
0
  6
CONTINUOUS
 62
     7
 10
-2019.618400959
 20
375.958733706
 30
0.0
 11
-2017.9554759776
 21
401.4112075003
 31
0.0
  0
ARC
  5
471
  8
0
  6
CONTINUOUS
 62
     7
 10
-2021.1214988037
 20
376.1993470049
 30
0.0
 40
1.522234505690387
 50
294.909851796
 51
350.9053506665
  0
LINE
  5
472
  8
0
  6
CONTINUOUS
 62
     7
 10
-2045.8992790822
 20
360.1446859
 30
0.0
 11
-2020.4803461579
 21
374.8187235316
 31
0.0
  0
LINE
  5
473
  8
0
  6
CONTINUOUS
 62
     7
 10
-2053.9602853284
 20
362.3898036334
 30
0.0
 11
-2050.0712059555
 21
360.1446859
 31
0.0
  0
LINE
  5
474
  8
0
  6
CONTINUOUS
 62
     7
 10
-2020.2682105326
 20
374.451306019
 30
0.0
 11
-2045.6871434569
 21
359.7772683875
 31
0.0
  0
LINE
  5
475
  8
0
  6
CONTINUOUS
 62
     7
 10
-2050.283331044
 20
359.7772744702
 30
0.0
 11
-2054.1724104169
 21
362.0223922035
 31
0.0
  0
LINE
  5
476
  8
0
  6
CONTINUOUS
 62
     7
 10
-2054.1724104169
 20
359.2461429499
 30
0.0
 11
-2050.283331044
 21
357.0010252166
 31
0.0
  0
LINE
  5
477
  8
0
  6
CONTINUOUS
 62
     7
 10
-2045.6871434569
 20
357.0010191339
 30
0.0
 11
-2020.2682105326
 21
371.6750567654
 31
0.0
  0
ARC
  5
478
  8
0
  6
CONTINUOUS
 62
     7
 10
-2047.9852425188
 20
360.9044106213
 30
0.0
 40
4.534200339876004
 50
242.6096009984
 51
297.3903990016
  0
LINE
  5
479
  8
0
  6
CONTINUOUS
 62
     7
 10
-2020.4803461579
 20
371.5525658324
 30
0.0
 11
-2020.2682105326
 21
371.6750567654
 31
0.0
  0
LINE
  5
47A
  8
0
  6
CONTINUOUS
 62
     7
 10
-2020.4803461579
 20
371.5525658324
 30
0.0
 11
-2045.8992790822
 21
356.8785282008
 31
0.0
  0
LINE
  5
47B
  8
0
  6
CONTINUOUS
 62
     7
 10
-2053.9602853284
 20
359.1236459342
 30
0.0
 11
-2054.1724104169
 21
359.2461429499
 31
0.0
  0
LINE
  5
47C
  8
0
  6
CONTINUOUS
 62
     7
 10
-2050.0712059555
 20
356.8785282008
 30
0.0
 11
-2053.9602853284
 21
359.1236459342
 31
0.0
  0
ARC
  5
47D
  8
0
  6
CONTINUOUS
 62
     7
 10
-2053.6689054565
 20
363.3490555112
 30
0.0
 40
1.418997102637097
 50
110.7835767071
 51
249.2168783518
  0
LINE
  5
47E
  8
0
  6
CONTINUOUS
 62
     7
 10
-2053.9602958651
 20
364.7982118357
 30
0.0
 11
-2054.1724209537
 21
364.67571482
 31
0.0
  0
ARC
  5
47F
  8
0
  6
CONTINUOUS
 62
     7
 10
-2053.4978519754
 20
360.734990202
 30
0.0
 40
1.634532113817062
 50
185.6944193572
 51
245.6259410089
  0
ARC
  5
480
  8
0
  6
CONTINUOUS
 62
     7
 10
-2051.5074664639
 20
368.1430059341
 30
0.0
 40
1.677078297125998
 50
294.911055544
 51
350.9049345145
  0
LINE
  5
481
  8
0
  6
CONTINUOUS
 62
     7
 10
-2049.8514733608
 20
367.877905091
 30
0.0
 11
-2048.2846853408
 21
391.858885105
 31
0.0
  0
ARC
  5
482
  8
0
  6
CONTINUOUS
 62
     7
 10
-2020.974541373
 20
375.9722986128
 30
0.0
 40
1.676997831328172
 50
294.9095939633
 51
350.9063960952
  0
ARC
  5
483
  8
0
  6
CONTINUOUS
 62
     7
 10
-2020.974541373
 20
373.1960493592
 30
0.0
 40
1.676997831328224
 50
294.9095939633
 51
350.9063960952
  0
LINE
  5
484
  8
0
  6
CONTINUOUS
 62
     7
 10
-2017.6556749074
 20
401.1597265249
 30
0.0
 11
-2019.3186209622
 21
375.7072527306
 31
0.0
  0
LINE
  5
485
  8
0
  6
CONTINUOUS
 62
     7
 10
-2019.3186209622
 20
372.931003477
 30
0.0
 11
-2017.6556749074
 21
398.3834772714
 31
0.0
  0
ARC
  5
486
  8
0
  6
CONTINUOUS
 62
     7
 10
-2044.7180206402
 20
391.2879612265
 30
0.0
 40
3.612070204370593
 50
114.9100138654
 51
170.9056894195
  0
LINE
  5
487
  8
0
  6
CONTINUOUS
 62
     7
 10
-2046.2394041497
 20
394.5640020349
 30
0.0
 11
-2046.0272685244
 21
394.686492968
 31
0.0
  0
ARC
  5
488
  8
0
  6
CONTINUOUS
 62
     7
 10
-2021.1976236653
 20
400.9524820174
 30
0.0
 40
3.548006664200901
 50
3.3486403544
 51
65.0355347387
  0
LINE
  5
489
  8
0
  6
CONTINUOUS
 62
     7
 10
-2017.6556749074
 20
398.3834772714
 30
0.0
 11
-2017.650712116
 21
398.5357823581
 31
0.0
  0
ARC
  5
48A
  8
0
  6
CONTINUOUS
 62
     7
 10
-2047.9852425188
 20
34.288081
 30
0.0
 40
4.534200339877247
 50
242.6096009985
 51
297.3903990015
  0
ARC
  5
48B
  8
0
  6
CONTINUOUS
 62
     7
 10
-2047.9852313807
 20
34.3300803164
 30
0.0
 40
4.99530655086105
 50
242.6095512693
 51
297.3902970773
  0
ARC
  5
48C
  8
0
  6
CONTINUOUS
 62
     7
 10
-2047.9852313807
 20
31.5538310628
 30
0.0
 40
4.995306550861675
 50
242.6095512693
 51
297.3902970773
  0
POLYLINE
  5
48D
  8
0
  6
CONTINUOUS
 62
     7
 66
     1
 10
0.0
 20
0.0
 30
0.0
  0
VERTEX
  5
8C5
  8
0
  6
CONTINUOUS
 62
     7
 10
-2054.1243208628
 20
34.8129205586
 30
0.0
  0
VERTEX
  5
8C6
  8
0
  6
CONTINUOUS
 62
     7
 10
-2054.327163108
 20
34.6576592726
 30
0.0
  0
VERTEX
  5
8C7
  8
0
  6
CONTINUOUS
 62
     7
 10
-2054.5997689241
 20
34.3632315629
 30
0.0
  0
VERTEX
  5
8C8
  8
0
  6
CONTINUOUS
 62
     7
 10
-2054.767629285
 20
34.043761318
 30
0.0
  0
VERTEX
  5
8C9
  8
0
  6
CONTINUOUS
 62
     7
 10
-2054.8243167963
 20
33.7115234554
 30
0.0
  0
VERTEX
  5
8CA
  8
0
  6
CONTINUOUS
 62
     7
 10
-2054.7676398218
 20
33.3792795102
 30
0.0
  0
VERTEX
  5
8CB
  8
0
  6
CONTINUOUS
 62
     7
 10
-2054.5997689241
 20
33.0598153479
 30
0.0
  0
VERTEX
  5
8CC
  8
0
  6
CONTINUOUS
 62
     7
 10
-2054.327163108
 20
32.7653876383
 30
0.0
  0
VERTEX
  5
8CD
  8
0
  6
CONTINUOUS
 62
     7
 10
-2053.9602853284
 20
32.5073163129
 30
0.0
  0
SEQEND
  5
8CE
  8
0
  6
CONTINUOUS
 62
     7
  0
LINE
  5
48E
  8
0
  6
CONTINUOUS
 62
     7
 10
-2019.618400959
 20
46.0762463855
 30
0.0
 11
-2018.4868529069
 21
63.395480127
 31
0.0
  0
ARC
  5
48F
  8
0
  6
CONTINUOUS
 62
     7
 10
-2021.1214988037
 20
46.3168596844
 30
0.0
 40
1.522234505690411
 50
294.909851796
 51
350.9053506665
  0
LINE
  5
490
  8
0
  6
CONTINUOUS
 62
     7
 10
-2045.8992790822
 20
30.2621985796
 30
0.0
 11
-2020.4803461579
 21
44.9362362111
 31
0.0
  0
LINE
  5
491
  8
0
  6
CONTINUOUS
 62
     7
 10
-2053.9602853284
 20
32.5073163129
 30
0.0
 11
-2050.0712059555
 21
30.2621985796
 31
0.0
  0
LINE
  5
492
  8
0
  6
CONTINUOUS
 62
     7
 10
-2020.2682105326
 20
44.5688186985
 30
0.0
 11
-2045.6871434569
 21
29.894781067
 31
0.0
  0
LINE
  5
493
  8
0
  6
CONTINUOUS
 62
     7
 10
-2050.283331044
 20
29.8947871497
 30
0.0
 11
-2054.1724104169
 21
32.139904883
 31
0.0
  0
LINE
  5
494
  8
0
  6
CONTINUOUS
 62
     7
 10
-2045.6871434569
 20
27.1185318134
 30
0.0
 11
-2020.2682105326
 21
41.792569445
 31
0.0
  0
LINE
  5
495
  8
0
  6
CONTINUOUS
 62
     7
 10
-2054.1724104169
 20
29.3636556294
 30
0.0
 11
-2050.283331044
 21
27.1185378961
 31
0.0
  0
ARC
  5
496
  8
0
  6
CONTINUOUS
 62
     7
 10
-2047.9852425188
 20
31.0219233008
 30
0.0
 40
4.534200339875649
 50
242.6096009984
 51
297.3903990016
  0
LINE
  5
497
  8
0
  6
CONTINUOUS
 62
     7
 10
-2020.4803461579
 20
41.6700785119
 30
0.0
 11
-2020.2682105326
 21
41.792569445
 31
0.0
  0
LINE
  5
498
  8
0
  6
CONTINUOUS
 62
     7
 10
-2020.4803461579
 20
41.6700785119
 30
0.0
 11
-2045.8992790822
 21
26.9960408804
 31
0.0
  0
LINE
  5
499
  8
0
  6
CONTINUOUS
 62
     7
 10
-2053.9602853284
 20
29.2411586137
 30
0.0
 11
-2054.1724104169
 21
29.3636556294
 31
0.0
  0
LINE
  5
49A
  8
0
  6
CONTINUOUS
 62
     7
 10
-2050.0712059555
 20
26.9960408804
 30
0.0
 11
-2053.9602853284
 21
29.2411586137
 31
0.0
  0
ARC
  5
49B
  8
0
  6
CONTINUOUS
 62
     7
 10
-2053.6689054565
 20
33.4665681908
 30
0.0
 40
1.418997102636902
 50
110.7835767071
 51
249.2168783518
  0
LINE
  5
49C
  8
0
  6
CONTINUOUS
 62
     7
 10
-2054.1243313995
 20
34.820998033
 30
0.0
 11
-2054.1724209537
 21
34.7932274995
 31
0.0
  0
ARC
  5
49D
  8
0
  6
CONTINUOUS
 62
     7
 10
-2053.4978519754
 20
30.8525028815
 30
0.0
 40
1.63453211381701
 50
185.6944193572
 51
245.6259410089
  0
ARC
  5
49E
  8
0
  6
CONTINUOUS
 62
     7
 10
-2020.974541373
 20
46.0898112923
 30
0.0
 40
1.676997831328204
 50
294.9095939633
 51
350.9063960952
  0
ARC
  5
49F
  8
0
  6
CONTINUOUS
 62
     7
 10
-2020.974541373
 20
43.3135620387
 30
0.0
 40
1.676997831328043
 50
294.9095939633
 51
350.9063960952
  0
LINE
  5
4A0
  8
0
  6
CONTINUOUS
 62
     7
 10
-2018.1582444658
 20
63.5851905952
 30
0.0
 11
-2019.3186209622
 21
45.8247654101
 31
0.0
  0
LINE
  5
4A1
  8
0
  6
CONTINUOUS
 62
     7
 10
-2019.3186209622
 20
43.0485161565
 30
0.0
 11
-2017.9697532225
 21
63.6939910472
 31
0.0
  0
POLYLINE
  5
4A2
  8
0
  6
CONTINUOUS
 62
     7
 66
     1
 10
0.0
 20
0.0
 30
0.0
  0
VERTEX
  5
8CF
  8
0
  6
CONTINUOUS
 62
     7
 10
-2088.8720122118
 20
496.2597075226
 30
0.0
  0
VERTEX
  5
8D0
  8
0
  6
CONTINUOUS
 62
     7
 10
-2089.0739509339
 20
497.5856069709
 30
0.0
  0
VERTEX
  5
8D1
  8
0
  6
CONTINUOUS
 62
     7
 10
-2089.6467187027
 20
499.2807028546
 30
0.0
  0
VERTEX
  5
8D2
  8
0
  6
CONTINUOUS
 62
     7
 10
-2090.5627560889
 20
500.9247917562
 30
0.0
  0
VERTEX
  5
8D3
  8
0
  6
CONTINUOUS
 62
     7
 10
-2091.8091948037
 20
502.4948002292
 30
0.0
  0
VERTEX
  5
8D4
  8
0
  6
CONTINUOUS
 62
     7
 10
-2093.368548844
 20
503.9686812849
 30
0.0
  0
VERTEX
  5
8D5
  8
0
  6
CONTINUOUS
 62
     7
 10
-2095.2189240744
 20
505.3257482768
 30
0.0
  0
VERTEX
  5
8D6
  8
0
  6
CONTINUOUS
 62
     7
 10
-2097.3343412434
 20
506.5469526144
 30
0.0
  0
VERTEX
  5
8D7
  8
0
  6
CONTINUOUS
 62
     7
 10
-2099.6851049328
 20
507.6151514977
 30
0.0
  0
VERTEX
  5
8D8
  8
0
  6
CONTINUOUS
 62
     7
 10
-2102.2382184407
 20
508.5153474239
 30
0.0
  0
VERTEX
  5
8D9
  8
0
  6
CONTINUOUS
 62
     7
 10
-2104.9578475617
 20
509.2349011778
 30
0.0
  0
VERTEX
  5
8DA
  8
0
  6
CONTINUOUS
 62
     7
 10
-2107.8058016532
 20
509.7637183047
 30
0.0
  0
VERTEX
  5
8DB
  8
0
  6
CONTINUOUS
 62
     7
 10
-2110.7421120029
 20
510.0943700995
 30
0.0
  0
VERTEX
  5
8DC
  8
0
  6
CONTINUOUS
 62
     7
 10
-2113.7255583343
 20
510.2222150708
 30
0.0
  0
VERTEX
  5
8DD
  8
0
  6
CONTINUOUS
 62
     7
 10
-2116.7142532653
 20
510.1454626197
 30
0.0
  0
VERTEX
  5
8DE
  8
0
  6
CONTINUOUS
 62
     7
 10
-2119.6662461939
 20
509.8651871056
 30
0.0
  0
VERTEX
  5
8DF
  8
0
  6
CONTINUOUS
 62
     7
 10
-2122.5400975483
 20
509.385324805
 30
0.0
  0
VERTEX
  5
8E0
  8
0
  6
CONTINUOUS
 62
     7
 10
-2125.2954635747
 20
508.7126100432
 30
0.0
  0
VERTEX
  5
8E1
  8
0
  6
CONTINUOUS
 62
     7
 10
-2127.8936692715
 20
507.8564862343
 30
0.0
  0
VERTEX
  5
8E2
  8
0
  6
CONTINUOUS
 62
     7
 10
-2130.298235224
 20
506.8289720617
 30
0.0
  0
VERTEX
  5
8E3
  8
0
  6
CONTINUOUS
 62
     7
 10
-2132.475408392
 20
505.6444934431
 30
0.0
  0
VERTEX
  5
8E4
  8
0
  6
CONTINUOUS
 62
     7
 10
-2134.3946309934
 20
504.3196736767
 30
0.0
  0
VERTEX
  5
8E5
  8
0
  6
CONTINUOUS
 62
     7
 10
-2136.0289540698
 20
502.8731159842
 30
0.0
  0
VERTEX
  5
8E6
  8
0
  6
CONTINUOUS
 62
     7
 10
-2137.3554431501
 20
501.3251206647
 30
0.0
  0
VERTEX
  5
8E7
  8
0
  6
CONTINUOUS
 62
     7
 10
-2138.3554706443
 20
499.6974220173
 30
0.0
  0
VERTEX
  5
8E8
  8
0
  6
CONTINUOUS
 62
     7
 10
-2139.0149963836
 20
498.0128697587
 30
0.0
  0
VERTEX
  5
8E9
  8
0
  6
CONTINUOUS
 62
     7
 10
-2139.3247717689
 20
496.2951089206
 30
0.0
  0
VERTEX
  5
8EA
  8
0
  6
CONTINUOUS
 62
     7
 10
-2139.3274257033
 20
496.2597067623
 30
0.0
  0
SEQEND
  5
8EB
  8
0
  6
CONTINUOUS
 62
     7
  0
POLYLINE
  5
4A3
  8
0
  6
CONTINUOUS
 62
     7
 66
     1
 10
0.0
 20
0.0
 30
0.0
  0
VERTEX
  5
8EC
  8
0
  6
CONTINUOUS
 62
     7
 10
-2110.8497181755
 20
474.3301412006
 30
0.0
  0
VERTEX
  5
8ED
  8
0
  6
CONTINUOUS
 62
     7
 10
-2111.0457168261
 20
474.9718341188
 30
0.0
  0
VERTEX
  5
8EE
  8
0
  6
CONTINUOUS
 62
     7
 10
-2111.6100749815
 20
475.5361282975
 30
0.0
  0
VERTEX
  5
8EF
  8
0
  6
CONTINUOUS
 62
     7
 10
-2112.4747175787
 20
475.9549657655
 30
0.0
  0
VERTEX
  5
8F0
  8
0
  6
CONTINUOUS
 62
     7
 10
-2113.5353614607
 20
476.1778227364
 30
0.0
  0
VERTEX
  5
8F1
  8
0
  6
CONTINUOUS
 62
     7
 10
-2114.6640751373
 20
476.1778227364
 30
0.0
  0
VERTEX
  5
8F2
  8
0
  6
CONTINUOUS
 62
     7
 10
-2115.7247203364
 20
475.9549634845
 30
0.0
  0
VERTEX
  5
8F3
  8
0
  6
CONTINUOUS
 62
     7
 10
-2116.5893655678
 20
475.5361275372
 30
0.0
  0
VERTEX
  5
8F4
  8
0
  6
CONTINUOUS
 62
     7
 10
-2117.1537210889
 20
474.9718333585
 30
0.0
  0
VERTEX
  5
8F5
  8
0
  6
CONTINUOUS
 62
     7
 10
-2117.3497197396
 20
474.3301404403
 30
0.0
  0
SEQEND
  5
8F6
  8
0
  6
CONTINUOUS
 62
     7
  0
POLYLINE
  5
4A4
  8
0
  6
CONTINUOUS
 62
     7
 66
     1
 10
0.0
 20
0.0
 30
0.0
  0
VERTEX
  5
8F7
  8
0
  6
CONTINUOUS
 62
     7
 10
-2110.8497194926
 20
520.1395449213
 30
0.0
  0
VERTEX
  5
8F8
  8
0
  6
CONTINUOUS
 62
     7
 10
-2111.0457181432
 20
520.7812378395
 30
0.0
  0
VERTEX
  5
8F9
  8
0
  6
CONTINUOUS
 62
     7
 10
-2111.6100736644
 20
521.3455335389
 30
0.0
  0
VERTEX
  5
8FA
  8
0
  6
CONTINUOUS
 62
     7
 10
-2112.4747188958
 20
521.7643694862
 30
0.0
  0
VERTEX
  5
8FB
  8
0
  6
CONTINUOUS
 62
     7
 10
-2113.5353614607
 20
521.9872256967
 30
0.0
  0
VERTEX
  5
8FC
  8
0
  6
CONTINUOUS
 62
     7
 10
-2114.6640751373
 20
521.9872256967
 30
0.0
  0
VERTEX
  5
8FD
  8
0
  6
CONTINUOUS
 62
     7
 10
-2115.7247163851
 20
521.7643702465
 30
0.0
  0
VERTEX
  5
8FE
  8
0
  6
CONTINUOUS
 62
     7
 10
-2116.5893616165
 20
521.3455342992
 30
0.0
  0
VERTEX
  5
8FF
  8
0
  6
CONTINUOUS
 62
     7
 10
-2117.1537210889
 20
520.7812363189
 30
0.0
  0
VERTEX
  5
900
  8
0
  6
CONTINUOUS
 62
     7
 10
-2117.3497197396
 20
520.1395434007
 30
0.0
  0
SEQEND
  5
901
  8
0
  6
CONTINUOUS
 62
     7
  0
POLYLINE
  5
4A5
  8
0
  6
CONTINUOUS
 62
     7
 66
     1
 10
0.0
 20
0.0
 30
0.0
  0
VERTEX
  5
902
  8
0
  6
CONTINUOUS
 62
     7
 10
-2117.3497197396
 20
472.697055507
 30
0.0
  0
VERTEX
  5
903
  8
0
  6
CONTINUOUS
 62
     7
 10
-2117.1537210889
 20
473.3387484252
 30
0.0
  0
VERTEX
  5
904
  8
0
  6
CONTINUOUS
 62
     7
 10
-2116.5893655678
 20
473.9030426038
 30
0.0
  0
VERTEX
  5
905
  8
0
  6
CONTINUOUS
 62
     7
 10
-2115.7247203364
 20
474.3218785512
 30
0.0
  0
VERTEX
  5
906
  8
0
  6
CONTINUOUS
 62
     7
 10
-2114.6640751373
 20
474.544737803
 30
0.0
  0
VERTEX
  5
907
  8
0
  6
CONTINUOUS
 62
     7
 10
-2113.5353614607
 20
474.544737803
 30
0.0
  0
VERTEX
  5
908
  8
0
  6
CONTINUOUS
 62
     7
 10
-2112.4747175787
 20
474.3218808322
 30
0.0
  0
VERTEX
  5
909
  8
0
  6
CONTINUOUS
 62
     7
 10
-2111.6100749815
 20
473.9030433642
 30
0.0
  0
VERTEX
  5
90A
  8
0
  6
CONTINUOUS
 62
     7
 10
-2111.0457168261
 20
473.3387491855
 30
0.0
  0
VERTEX
  5
90B
  8
0
  6
CONTINUOUS
 62
     7
 10
-2110.8497181755
 20
472.6970562673
 30
0.0
  0
SEQEND
  5
90C
  8
0
  6
CONTINUOUS
 62
     7
  0
ARC
  5
4A6
  8
0
  6
CONTINUOUS
 62
     7
 10
-2102.1287109134
 20
492.0821715214
 30
0.0
 40
13.57986508661878
 50
14.3295186952
 51
64.3262012828
  0
POLYLINE
  5
4A7
  8
0
  6
CONTINUOUS
 62
     7
 66
     1
 10
0.0
 20
0.0
 30
0.0
  0
VERTEX
  5
90D
  8
0
  6
CONTINUOUS
 62
     7
 10
-2139.2281013864
 20
495.4431623737
 30
0.0
  0
VERTEX
  5
90E
  8
0
  6
CONTINUOUS
 62
     7
 10
-2139.2139900947
 20
495.5235560897
 30
0.0
  0
VERTEX
  5
90F
  8
0
  6
CONTINUOUS
 62
     7
 10
-2138.7284860587
 20
497.2277053335
 30
0.0
  0
VERTEX
  5
910
  8
0
  6
CONTINUOUS
 62
     7
 10
-2137.8972501073
 20
498.8867444067
 30
0.0
  0
VERTEX
  5
911
  8
0
  6
CONTINUOUS
 62
     7
 10
-2136.7319476979
 20
500.4773833561
 30
0.0
  0
VERTEX
  5
912
  8
0
  6
CONTINUOUS
 62
     7
 10
-2135.248937076
 20
501.9772955783
 30
0.0
  0
VERTEX
  5
913
  8
0
  6
CONTINUOUS
 62
     7
 10
-2133.4690374678
 20
503.3654219556
 30
0.0
  0
VERTEX
  5
914
  8
0
  6
CONTINUOUS
 62
     7
 10
-2131.4172380032
 20
504.6222772726
 30
0.0
  0
VERTEX
  5
915
  8
0
  6
CONTINUOUS
 62
     7
 10
-2129.1223341992
 20
505.7302208972
 30
0.0
  0
VERTEX
  5
916
  8
0
  6
CONTINUOUS
 62
     7
 10
-2126.6165512729
 20
506.6736955267
 30
0.0
  0
VERTEX
  5
917
  8
0
  6
CONTINUOUS
 62
     7
 10
-2123.9350541839
 20
507.439461373
 30
0.0
  0
VERTEX
  5
918
  8
0
  6
CONTINUOUS
 62
     7
 10
-2121.1154971901
 20
508.0167619158
 30
0.0
  0
VERTEX
  5
919
  8
0
  6
CONTINUOUS
 62
     7
 10
-2118.1974456455
 20
508.3975010622
 30
0.0
  0
VERTEX
  5
91A
  8
0
  6
CONTINUOUS
 62
     7
 10
-2115.2218741893
 20
508.5763305857
 30
0.0
  0
VERTEX
  5
91B
  8
0
  6
CONTINUOUS
 62
     7
 10
-2112.2305503486
 20
508.550738325
 30
0.0
  0
VERTEX
  5
91C
  8
0
  6
CONTINUOUS
 62
     7
 10
-2109.2654675308
 20
508.3210858216
 30
0.0
  0
VERTEX
  5
91D
  8
0
  6
CONTINUOUS
 62
     7
 10
-2106.3682444319
 20
507.8905961538
 30
0.0
  0
VERTEX
  5
91E
  8
0
  6
CONTINUOUS
 62
     7
 10
-2103.5795567118
 20
507.265311738
 30
0.0
  0
VERTEX
  5
91F
  8
0
  6
CONTINUOUS
 62
     7
 10
-2100.9385495734
 20
506.4540106914
 30
0.0
  0
VERTEX
  5
920
  8
0
  6
CONTINUOUS
 62
     7
 10
-2098.4822957795
 20
505.4680825168
 30
0.0
  0
VERTEX
  5
921
  8
0
  6
CONTINUOUS
 62
     7
 10
-2096.2452754036
 20
504.3213676704
 30
0.0
  0
SEQEND
  5
922
  8
0
  6
CONTINUOUS
 62
     7
  0
ARC
  5
4A8
  8
0
  6
CONTINUOUS
 62
     7
 10
-2071.5579518012
 20
491.2512526454
 30
0.0
 40
4.640583010521538
 50
64.5973322527
 51
91.4244664967
  0
ARC
  5
4A9
  8
0
  6
CONTINUOUS
 62
     7
 10
-2077.2885122099
 20
491.2505076965
 30
0.0
 40
4.641325312178771
 50
88.5777188385
 51
115.4004824122
  0
ARC
  5
4AA
  8
0
  6
CONTINUOUS
 62
     7
 10
-2156.6412480667
 20
491.2500979665
 30
0.0
 40
4.641729869668279
 50
88.5788410614
 51
115.399251896
  0
ARC
  5
4AB
  8
0
  6
CONTINUOUS
 62
     7
 10
-2150.9107658551
 20
491.2512732493
 30
0.0
 40
4.640563140719135
 50
64.5972339477
 51
91.4244565081
  0
LINE
  5
4AC
  8
0
  6
CONTINUOUS
 62
     7
 10
-2077.1733101536
 20
495.8904030767
 30
0.0
 11
-2071.6733123761
 21
495.890401556
 31
0.0
  0
LINE
  5
4AD
  8
0
  6
CONTINUOUS
 62
     7
 10
-2156.5261268561
 20
495.8904000354
 30
0.0
 11
-2151.0261251273
 21
495.8904023164
 31
0.0
  0
POLYLINE
  5
4AE
  8
0
  6
CONTINUOUS
 62
     7
 66
     1
 10
0.0
 20
0.0
 30
0.0
  0
VERTEX
  5
923
  8
0
  6
CONTINUOUS
 62
     7
 10
-2117.3497197396
 20
518.5064584674
 30
0.0
  0
VERTEX
  5
924
  8
0
  6
CONTINUOUS
 62
     7
 10
-2117.1537210889
 20
519.1481513855
 30
0.0
  0
VERTEX
  5
925
  8
0
  6
CONTINUOUS
 62
     7
 10
-2116.5893616165
 20
519.7124493659
 30
0.0
  0
VERTEX
  5
926
  8
0
  6
CONTINUOUS
 62
     7
 10
-2115.7247163851
 20
520.1312853132
 30
0.0
  0
VERTEX
  5
927
  8
0
  6
CONTINUOUS
 62
     7
 10
-2114.6640751373
 20
520.3541407634
 30
0.0
  0
VERTEX
  5
928
  8
0
  6
CONTINUOUS
 62
     7
 10
-2113.5353614607
 20
520.3541407634
 30
0.0
  0
VERTEX
  5
929
  8
0
  6
CONTINUOUS
 62
     7
 10
-2112.4747188958
 20
520.1312845529
 30
0.0
  0
VERTEX
  5
92A
  8
0
  6
CONTINUOUS
 62
     7
 10
-2111.6100736644
 20
519.7124486056
 30
0.0
  0
VERTEX
  5
92B
  8
0
  6
CONTINUOUS
 62
     7
 10
-2111.0457181432
 20
519.1481529062
 30
0.0
  0
VERTEX
  5
92C
  8
0
  6
CONTINUOUS
 62
     7
 10
-2110.8497194926
 20
518.506459988
 30
0.0
  0
SEQEND
  5
92D
  8
0
  6
CONTINUOUS
 62
     7
  0
ENDSEC
  0
EOF
