  0
SECTION
  2
HEADER
  9
$ACADVER
  1
AC1009
  9
$DWGCODEPAGE
  3
ansi_1252
  9
$INSBASE
 10
0.0
 20
0.0
 30
0.0
  9
$EXTMIN
 10
0.0
 20
0.0
 30
0.0
  9
$EXTMAX
 10
297.0
 20
420.0
 30
0.0
  9
$LIMMIN
 10
0.0
 20
0.0
  9
$LIMMAX
 10
297.0
 20
420.0
  9
$ORTHOMODE
 70
     0
  9
$REGENMODE
 70
     1
  9
$FILLMODE
 70
     1
  9
$QTEXTMODE
 70
     0
  9
$MIRRTEXT
 70
     1
  9
$DRAGMODE
 70
     2
  9
$LTSCALE
 40
1.0
  9
$OSMODE
 70
    37
  9
$ATTMODE
 70
     1
  9
$TEXTSIZE
 40
4.2333333333
  9
$TRACEWID
 40
1.0
  9
$TEXTSTYLE
  7
STANDARD
  9
$CLAYER
  8
0
  9
$CELTYPE
  6
BYLAYER
  9
$CECOLOR
 62
   256
  9
$DIMSCALE
 40
1.0
  9
$DIMASZ
 40
3.5
  9
$DIMEXO
 40
1.0
  9
$DIMDLI
 40
3.75
  9
$DIMRND
 40
0.0
  9
$DIMDLE
 40
0.0
  9
$DIMEXE
 40
1.0
  9
$DIMTP
 40
0.0
  9
$DIMTM
 40
0.0
  9
$DIMTXT
 40
3.5277777778
  9
$DIMCEN
 40
2.5
  9
$DIMTSZ
 40
0.0
  9
$DIMTOL
 70
     0
  9
$DIMLIM
 70
     0
  9
$DIMTIH
 70
     1
  9
$DIMTOH
 70
     1
  9
$DIMSE1
 70
     0
  9
$DIMSE2
 70
     0
  9
$DIMTAD
 70
     1
  9
$DIMZIN
 70
     0
  9
$DIMBLK
  1

  9
$DIMASO
 70
     1
  9
$DIMSHO
 70
     1
  9
$DIMPOST
  1

  9
$DIMAPOST
  1

  9
$DIMALT
 70
     0
  9
$DIMALTD
 70
     3
  9
$DIMALTF
 40
0.0393700787
  9
$DIMLFAC
 40
1.0
  9
$DIMTOFL
 70
     1
  9
$DIMTVP
 40
0.0
  9
$DIMTIX
 70
     0
  9
$DIMSOXD
 70
     0
  9
$DIMSAH
 70
     0
  9
$DIMBLK1
  1

  9
$DIMBLK2
  1

  9
$DIMSTYLE
  2
ISO-25
  9
$DIMCLRD
 70
     0
  9
$DIMCLRE
 70
     0
  9
$DIMCLRT
 70
     0
  9
$DIMTFAC
 40
1.0
  9
$DIMGAP
 40
1.524
  9
$LUNITS
 70
     2
  9
$LUPREC
 70
     2
  9
$SKETCHINC
 40
1.0
  9
$FILLETRAD
 40
10.0
  9
$AUNITS
 70
     0
  9
$AUPREC
 70
     2
  9
$MENU
  1
.
  9
$ELEVATION
 40
0.0
  9
$PELEVATION
 40
0.0
  9
$THICKNESS
 40
0.0
  9
$LIMCHECK
 70
     0
  9
$CHAMFERA
 40
10.0
  9
$CHAMFERB
 40
10.0
  9
$SKPOLY
 70
     0
  9
$TDCREATE
 40
2455889.623970359
  9
$TDUPDATE
 40
2455889.62397037
  9
$TDINDWG
 40
0.0000000116
  9
$TDUSRTIMER
 40
0.0000000116
  9
$USRTIMER
 70
     1
  9
$ANGBASE
 50
0.0
  9
$ANGDIR
 70
     0
  9
$PDMODE
 70
     0
  9
$PDSIZE
 40
-1.0
  9
$PLINEWID
 40
0.0
  9
$COORDS
 70
     1
  9
$SPLFRAME
 70
     0
  9
$SPLINETYPE
 70
     6
  9
$SPLINESEGS
 70
     8
  9
$ATTDIA
 70
     0
  9
$ATTREQ
 70
     1
  9
$HANDLING
 70
     1
  9
$HANDSEED
  5
948
  9
$SURFTAB1
 70
     6
  9
$SURFTAB2
 70
     6
  9
$SURFTYPE
 70
     6
  9
$SURFU
 70
     6
  9
$SURFV
 70
     6
  9
$UCSNAME
  2

  9
$UCSORG
 10
0.0
 20
0.0
 30
0.0
  9
$UCSXDIR
 10
1.0
 20
0.0
 30
0.0
  9
$UCSYDIR
 10
0.0
 20
1.0
 30
0.0
  9
$PUCSNAME
  2

  9
$PUCSORG
 10
0.0
 20
0.0
 30
0.0
  9
$PUCSXDIR
 10
1.0
 20
0.0
 30
0.0
  9
$PUCSYDIR
 10
0.0
 20
1.0
 30
0.0
  9
$USERI1
 70
     0
  9
$USERI2
 70
     0
  9
$USERI3
 70
     0
  9
$USERI4
 70
     0
  9
$USERI5
 70
     0
  9
$USERR1
 40
0.0
  9
$USERR2
 40
0.0
  9
$USERR3
 40
0.0
  9
$USERR4
 40
0.0
  9
$USERR5
 40
0.0
  9
$WORLDVIEW
 70
     1
  9
$SHADEDGE
 70
     3
  9
$SHADEDIF
 70
    70
  9
$TILEMODE
 70
     1
  9
$MAXACTVP
 70
    64
  9
$PLIMCHECK
 70
     0
  9
$PEXTMIN
 10
1.0000000000E+20
 20
1.0000000000E+20
 30
1.0000000000E+20
  9
$PEXTMAX
 10
-1.0000000000E+20
 20
-1.0000000000E+20
 30
-1.0000000000E+20
  9
$PLIMMIN
 10
0.0
 20
0.0
  9
$PLIMMAX
 10
420.0
 20
297.0
  9
$UNITMODE
 70
     0
  9
$VISRETAIN
 70
     1
  9
$PLINEGEN
 70
     0
  9
$PSLTSCALE
 70
     1
  0
ENDSEC
  0
SECTION
  2
TABLES
  0
TABLE
  2
VPORT
 70
     1
  0
VPORT
  2
*ACTIVE
 70
     0
 10
0.0
 20
0.0
 11
1.0
 21
1.0
 12
148.5
 22
210.0
 13
0.0
 23
0.0
 14
10.0
 24
10.0
 15
10.0
 25
10.0
 16
0.0
 26
0.0
 36
1.0
 17
0.0
 27
0.0
 37
0.0
 40
420.0
 41
0.7071428571
 42
50.0
 43
0.0
 44
0.0
 50
0.0
 51
0.0
 71
     0
 72
  2000
 73
     1
 74
     3
 75
     0
 76
     0
 77
     0
 78
     0
  0
ENDTAB
  0
TABLE
  2
LTYPE
 70
     6
  0
LTYPE
  2
CONTINUOUS
 70
     0
  3
Solid line
 72
    65
 73
     0
 40
0.0
  0
LTYPE
  2
HIDDEN
 70
     0
  3
Hidden __ __ __ __ __ __ __ __ __ __ __ __ __ __
 72
    65
 73
     2
 40
1.905
 49
1.27
 49
-0.635
  0
LTYPE
  2
PHANTOM
 70
     0
  3
Phantom ______  __  __  ______  __  __  ______
 72
    65
 73
     6
 40
12.7
 49
6.35
 49
-1.27
 49
1.27
 49
-1.27
 49
1.27
 49
-1.27
  0
LTYPE
  2
CENTER
 70
     0
  3
Center ____ _ ____ _ ____ _ ____ _ ____ _ ____
 72
    65
 73
     4
 40
10.16
 49
6.35
 49
-1.27
 49
1.27
 49
-1.27
  0
LTYPE
  2
CENTERX2
 70
     0
  3
Center (2x) ________  __  ________  __  _____
 72
    65
 73
     4
 40
20.32
 49
12.7
 49
-2.54
 49
2.54
 49
-2.54
  0
LTYPE
  2
DOT2
 70
     0
  3
Dot (.5x) ........................................
 72
    65
 73
     2
 40
0.635
 49
0.0
 49
-0.635
  0
ENDTAB
  0
TABLE
  2
LAYER
 70
     8
  0
LAYER
  2
0
 70
     0
 62
     7
  6
CONTINUOUS
  0
LAYER
  2
SLD-0
 70
     0
 62
     7
  6
CONTINUOUS
  0
LAYER
  2
AM_BOR
 70
     0
 62
     7
  6
CONTINUOUS
  0
LAYER
  2
BIEGLINIE__ZU_
 70
     0
 62
     8
  6
CONTINUOUS
  0
LAYER
  2
BIEGELINIE__WEG_
 70
     0
 62
     8
  6
HIDDEN
  0
LAYER
  2
BIEGELINIE__ZU_
 70
     0
 62
     8
  6
CONTINUOUS
  0
LAYER
  2
LAYER0
 70
     0
 62
     7
  6
CONTINUOUS
  0
LAYER
  2
CK_LEVEL_1
 70
     0
 62
     7
  6
CONTINUOUS
  0
ENDTAB
  0
TABLE
  2
STYLE
 70
     1
  0
STYLE
  2
STANDARD
 70
     0
 40
0.0
 41
1.0
 50
0.0
 71
     0
 42
2.5
  3
txt
  4

  0
ENDTAB
  0
TABLE
  2
VIEW
 70
     0
  0
ENDTAB
  0
TABLE
  2
UCS
 70
     0
  0
ENDTAB
  0
TABLE
  2
APPID
 70
     1
  0
APPID
  2
ACAD
 70
     0
  0
ENDTAB
  0
TABLE
  2
DIMSTYLE
 70
     1
  0
DIMSTYLE
  2
ISO-25
 70
     0
  3

  4

  5

  6

  7

 40
1.0
 41
2.5
 42
0.625
 43
3.75
 44
1.25
 45
0.0
 46
0.0
 47
0.0
 48
0.0
140
2.5
141
2.5
142
0.0
143
0.0393700787
144
1.0
145
0.0
146
1.0
147
0.625
 71
     0
 72
     0
 73
     0
 74
     0
 75
     0
 76
     0
 77
     1
 78
     8
170
     0
171
     3
172
     1
173
     0
174
     0
175
     0
176
     0
177
     0
178
     0
  0
ENDTAB
  0
ENDSEC
  0
SECTION
  2
BLOCKS
  0
BLOCK
  8
0
  2
$MODEL_SPACE
 70
     0
 10
0.0
 20
0.0
 30
0.0
  3
$MODEL_SPACE
  1

  0
ENDBLK
  5
21
  8
0
  0
BLOCK
 67
     1
  8
0
  2
$PAPER_SPACE
 70
     0
 10
0.0
 20
0.0
 30
0.0
  3
$PAPER_SPACE
  1

  0
ENDBLK
  5
1D
 67
     1
  8
0
  0
BLOCK
  8
0
  2
ERDUNG2
 70
     0
 10
0.0
 20
0.0
 30
0.0
  3
ERDUNG2
  1

  0
CIRCLE
  5
4E
  8
CK_LEVEL_1
  6
CONTINUOUS
 62
     7
 10
7.882894401
 20
8.75
 30
0.0
 40
9.354800019675764
  0
LINE
  5
4F
  8
CK_LEVEL_1
  6
CONTINUOUS
 62
     7
 10
8.7487451733
 20
3.8098753807
 30
0.0
 11
9.700327903
 21
3.8098753807
 31
0.0
  0
LINE
  5
50
  8
CK_LEVEL_1
  6
CONTINUOUS
 62
     7
 10
8.7487451733
 20
3.8098753807
 30
0.0
 11
6.6709551936
 21
3.8098753807
 31
0.0
  0
LINE
  5
51
  8
CK_LEVEL_1
  6
CONTINUOUS
 62
     7
 10
7.882894401
 20
8.75
 30
0.0
 11
12.815547
 21
8.75
 31
0.0
  0
LINE
  5
52
  8
CK_LEVEL_1
  6
CONTINUOUS
 62
     7
 10
11.24812514
 20
6.3492067038
 30
0.0
 11
4.4479159892
 21
6.3492067038
 31
0.0
  0
LINE
  5
53
  8
CK_LEVEL_1
  6
CONTINUOUS
 62
     7
 10
7.882894401
 20
8.75
 30
0.0
 11
2.6893228315
 21
8.75
 31
0.0
  0
LINE
  5
54
  8
CK_LEVEL_1
  6
CONTINUOUS
 62
     7
 10
7.882894401
 20
8.75
 30
0.0
 11
7.882894401
 21
15.2853511284
 31
0.0
  0
ENDBLK
  5
4D
  8
0
  0
ENDSEC
  0
SECTION
  2
ENTITIES
  0
LINE
  5
55
  8
0
  6
CONTINUOUS
 62
     7
 10
-1464.6458761563
 20
455.6578138897
 30
0.0
 11
-1464.6458761563
 21
55.6578079292
 31
0.0
  0
LINE
  5
56
  8
0
  6
CONTINUOUS
 62
     7
 10
-1474.6458964219
 20
55.6578079292
 30
0.0
 11
-1474.6458964219
 21
455.6578138897
 31
0.0
  0
LINE
  5
57
  8
0
  6
CONTINUOUS
 62
     7
 10
-2102.6458876004
 20
55.6578079292
 30
0.0
 11
-2102.6458876004
 21
455.6578138897
 31
0.0
  0
LINE
  5
58
  8
0
  6
CONTINUOUS
 62
     7
 10
-2092.6458673349
 20
455.6578138897
 30
0.0
 11
-2092.6458673349
 21
55.6578079292
 31
0.0
  0
ARC
  5
59
  8
0
  6
CONTINUOUS
 62
     7
 10
-2078.595882098
 20
451.1578109094
 30
0.0
 40
2.000000000000455
 50
90.0
 51
180.0
  0
LINE
  5
5A
  8
0
  6
CONTINUOUS
 62
     7
 10
-1487.5958697667
 20
453.1578162739
 30
0.0
 11
-2078.5958902707
 21
453.1578162739
 31
0.0
  0
ARC
  5
5B
  8
0
  6
CONTINUOUS
 62
     7
 10
-1487.595882098
 20
451.1578109094
 30
0.0
 40
2.000000000000227
 50
360.0
 51
90.0
  0
LINE
  5
5C
  8
0
  6
CONTINUOUS
 62
     7
 10
-1485.5958955159
 20
60.1578095981
 30
0.0
 11
-1485.5958955159
 21
451.1578122207
 31
0.0
  0
ARC
  5
5D
  8
0
  6
CONTINUOUS
 62
     7
 10
-1487.595882098
 20
60.1578109094
 30
0.0
 40
2.000000000000227
 50
270.0
 51
0.0
  0
LINE
  5
5E
  8
0
  6
CONTINUOUS
 62
     7
 10
-2078.5958902707
 20
58.157805545
 30
0.0
 11
-1487.5958697667
 21
58.157805545
 31
0.0
  0
ARC
  5
5F
  8
0
  6
CONTINUOUS
 62
     7
 10
-2078.595882098
 20
60.1578109094
 30
0.0
 40
2.000000000000455
 50
180.0
 51
270.0
  0
LINE
  5
60
  8
0
  6
CONTINUOUS
 62
     7
 10
-2080.5958943238
 20
451.1578122207
 30
0.0
 11
-2080.5958943238
 21
60.1578095981
 31
0.0
  0
POLYLINE
  5
61
  8
0
  6
CONTINUOUS
 62
     7
 66
     1
 10
0.0
 20
0.0
 30
0.0
  0
VERTEX
  5
4B0
  8
0
  6
CONTINUOUS
 62
     7
 10
-2077.595873343
 20
453.2791862318
 30
0.0
  0
VERTEX
  5
4B1
  8
0
  6
CONTINUOUS
 62
     7
 10
-2077.6278810372
 20
453.6745438406
 30
0.0
  0
VERTEX
  5
4B2
  8
0
  6
CONTINUOUS
 62
     7
 10
-2077.7238445153
 20
453.9527634212
 30
0.0
  0
VERTEX
  5
4B3
  8
0
  6
CONTINUOUS
 62
     7
 10
-2077.8814689984
 20
454.1104922125
 30
0.0
  0
VERTEX
  5
4B4
  8
0
  6
CONTINUOUS
 62
     7
 10
-2078.095896708
 20
454.1578183004
 30
0.0
  0
SEQEND
  5
4B5
  8
0
  6
CONTINUOUS
 62
     7
  0
LINE
  5
62
  8
0
  6
CONTINUOUS
 62
     7
 10
-1488.0958931317
 20
454.1578183004
 30
0.0
 11
-2078.095896708
 21
454.1578183004
 31
0.0
  0
POLYLINE
  5
63
  8
0
  6
CONTINUOUS
 62
     7
 66
     1
 10
0.0
 20
0.0
 30
0.0
  0
VERTEX
  5
4B6
  8
0
  6
CONTINUOUS
 62
     7
 10
-1488.5958866944
 20
453.2791862318
 30
0.0
  0
VERTEX
  5
4B7
  8
0
  6
CONTINUOUS
 62
     7
 10
-1488.5639088025
 20
453.6745438406
 30
0.0
  0
VERTEX
  5
4B8
  8
0
  6
CONTINUOUS
 62
     7
 10
-1488.4679155221
 20
453.9527634212
 30
0.0
  0
VERTEX
  5
4B9
  8
0
  6
CONTINUOUS
 62
     7
 10
-1488.310291039
 20
454.1104922125
 30
0.0
  0
VERTEX
  5
4BA
  8
0
  6
CONTINUOUS
 62
     7
 10
-1488.0958931317
 20
454.1578183004
 30
0.0
  0
SEQEND
  5
4BB
  8
0
  6
CONTINUOUS
 62
     7
  0
LINE
  5
64
  8
0
  6
CONTINUOUS
 62
     7
 10
-2078.095896708
 20
453.1578162739
 30
0.0
 11
-2078.095896708
 21
454.1578183004
 31
0.0
  0
LINE
  5
65
  8
0
  6
CONTINUOUS
 62
     7
 10
-1488.0958931317
 20
453.1578162739
 30
0.0
 11
-1488.0958931317
 21
454.1578183004
 31
0.0
  0
POLYLINE
  5
66
  8
0
  6
CONTINUOUS
 62
     7
 66
     1
 10
0.0
 20
0.0
 30
0.0
  0
VERTEX
  5
4BC
  8
0
  6
CONTINUOUS
 62
     7
 10
-2081.5958814492
 20
450.6578037569
 30
0.0
  0
VERTEX
  5
4BD
  8
0
  6
CONTINUOUS
 62
     7
 10
-2081.5484957566
 20
450.4432419369
 30
0.0
  0
VERTEX
  5
4BE
  8
0
  6
CONTINUOUS
 62
     7
 10
-2081.3914077153
 20
450.2861538956
 30
0.0
  0
VERTEX
  5
4BF
  8
0
  6
CONTINUOUS
 62
     7
 10
-2081.1121897569
 20
450.1899669
 30
0.0
  0
VERTEX
  5
4C0
  8
0
  6
CONTINUOUS
 62
     7
 10
-2080.717189776
 20
450.1578101942
 30
0.0
  0
VERTEX
  5
4C1
  8
0
  6
CONTINUOUS
 62
     7
 10
-2080.7171301713
 20
450.1578101942
 30
0.0
  0
SEQEND
  5
4C2
  8
0
  6
CONTINUOUS
 62
     7
  0
LINE
  5
67
  8
0
  6
CONTINUOUS
 62
     7
 10
-2081.5958814492
 20
450.6578037569
 30
0.0
 11
-2080.5958943238
 21
450.6578037569
 31
0.0
  0
POLYLINE
  5
68
  8
0
  6
CONTINUOUS
 62
     7
 66
     1
 10
0.0
 20
0.0
 30
0.0
  0
VERTEX
  5
4C3
  8
0
  6
CONTINUOUS
 62
     7
 10
-2081.5958814492
 20
60.657818062
 30
0.0
  0
VERTEX
  5
4C4
  8
0
  6
CONTINUOUS
 62
     7
 10
-2081.5484957566
 20
60.872379882
 30
0.0
  0
VERTEX
  5
4C5
  8
0
  6
CONTINUOUS
 62
     7
 10
-2081.3914077153
 20
61.0294679233
 30
0.0
  0
VERTEX
  5
4C6
  8
0
  6
CONTINUOUS
 62
     7
 10
-2081.1121897569
 20
61.1256549188
 30
0.0
  0
VERTEX
  5
4C7
  8
0
  6
CONTINUOUS
 62
     7
 10
-2080.717189776
 20
61.1578116247
 30
0.0
  0
VERTEX
  5
4C8
  8
0
  6
CONTINUOUS
 62
     7
 10
-2080.7171301713
 20
61.1578116247
 30
0.0
  0
SEQEND
  5
4C9
  8
0
  6
CONTINUOUS
 62
     7
  0
LINE
  5
69
  8
0
  6
CONTINUOUS
 62
     7
 10
-2081.5958814492
 20
450.6578037569
 30
0.0
 11
-2081.5958814492
 21
60.657818062
 31
0.0
  0
POLYLINE
  5
6A
  8
0
  6
CONTINUOUS
 62
     7
 66
     1
 10
0.0
 20
0.0
 30
0.0
  0
VERTEX
  5
4CA
  8
0
  6
CONTINUOUS
 62
     7
 10
-1484.5958785882
 20
450.6578037569
 30
0.0
  0
VERTEX
  5
4CB
  8
0
  6
CONTINUOUS
 62
     7
 10
-1484.6432940831
 20
450.4432419369
 30
0.0
  0
VERTEX
  5
4CC
  8
0
  6
CONTINUOUS
 62
     7
 10
-1484.8003523221
 20
450.2861538956
 30
0.0
  0
VERTEX
  5
4CD
  8
0
  6
CONTINUOUS
 62
     7
 10
-1485.0796000829
 20
450.1899669
 30
0.0
  0
VERTEX
  5
4CE
  8
0
  6
CONTINUOUS
 62
     7
 10
-1485.4745702615
 20
450.1578101942
 30
0.0
  0
VERTEX
  5
4CF
  8
0
  6
CONTINUOUS
 62
     7
 10
-1485.4746298661
 20
450.1578101942
 30
0.0
  0
SEQEND
  5
4D0
  8
0
  6
CONTINUOUS
 62
     7
  0
LINE
  5
6B
  8
0
  6
CONTINUOUS
 62
     7
 10
-1484.5958785882
 20
60.657818062
 30
0.0
 11
-1484.5958785882
 21
450.6578037569
 31
0.0
  0
POLYLINE
  5
6C
  8
0
  6
CONTINUOUS
 62
     7
 66
     1
 10
0.0
 20
0.0
 30
0.0
  0
VERTEX
  5
4D1
  8
0
  6
CONTINUOUS
 62
     7
 10
-1484.5958785882
 20
60.657818062
 30
0.0
  0
VERTEX
  5
4D2
  8
0
  6
CONTINUOUS
 62
     7
 10
-1484.6432940831
 20
60.872379882
 30
0.0
  0
VERTEX
  5
4D3
  8
0
  6
CONTINUOUS
 62
     7
 10
-1484.8003523221
 20
61.0294679233
 30
0.0
  0
VERTEX
  5
4D4
  8
0
  6
CONTINUOUS
 62
     7
 10
-1485.0796000829
 20
61.1256549188
 30
0.0
  0
VERTEX
  5
4D5
  8
0
  6
CONTINUOUS
 62
     7
 10
-1485.4745702615
 20
61.1578116247
 30
0.0
  0
VERTEX
  5
4D6
  8
0
  6
CONTINUOUS
 62
     7
 10
-1485.4746298661
 20
61.1578116247
 30
0.0
  0
SEQEND
  5
4D7
  8
0
  6
CONTINUOUS
 62
     7
  0
LINE
  5
6D
  8
0
  6
CONTINUOUS
 62
     7
 10
-1484.5958785882
 20
450.6578037569
 30
0.0
 11
-1485.5958955159
 21
450.6578037569
 31
0.0
  0
LINE
  5
6E
  8
0
  6
CONTINUOUS
 62
     7
 10
-2081.5958814492
 20
60.657818062
 30
0.0
 11
-2080.5958943238
 21
60.657818062
 31
0.0
  0
LINE
  5
6F
  8
0
  6
CONTINUOUS
 62
     7
 10
-1484.5958785882
 20
60.657818062
 30
0.0
 11
-1485.5958955159
 21
60.657818062
 31
0.0
  0
POLYLINE
  5
70
  8
0
  6
CONTINUOUS
 62
     7
 66
     1
 10
0.0
 20
0.0
 30
0.0
  0
VERTEX
  5
4D8
  8
0
  6
CONTINUOUS
 62
     7
 10
-2077.595873343
 20
58.0364355871
 30
0.0
  0
VERTEX
  5
4D9
  8
0
  6
CONTINUOUS
 62
     7
 10
-2077.6278810372
 20
57.6410779783
 30
0.0
  0
VERTEX
  5
4DA
  8
0
  6
CONTINUOUS
 62
     7
 10
-2077.7238445153
 20
57.3628583977
 30
0.0
  0
VERTEX
  5
4DB
  8
0
  6
CONTINUOUS
 62
     7
 10
-2077.8814689984
 20
57.2051296064
 30
0.0
  0
VERTEX
  5
4DC
  8
0
  6
CONTINUOUS
 62
     7
 10
-2078.095896708
 20
57.1578035185
 30
0.0
  0
SEQEND
  5
4DD
  8
0
  6
CONTINUOUS
 62
     7
  0
LINE
  5
71
  8
0
  6
CONTINUOUS
 62
     7
 10
-2078.095896708
 20
58.157805545
 30
0.0
 11
-2078.095896708
 21
57.1578035185
 31
0.0
  0
POLYLINE
  5
72
  8
0
  6
CONTINUOUS
 62
     7
 66
     1
 10
0.0
 20
0.0
 30
0.0
  0
VERTEX
  5
4DE
  8
0
  6
CONTINUOUS
 62
     7
 10
-1488.5958866944
 20
58.0364355871
 30
0.0
  0
VERTEX
  5
4DF
  8
0
  6
CONTINUOUS
 62
     7
 10
-1488.5639088025
 20
57.6410779783
 30
0.0
  0
VERTEX
  5
4E0
  8
0
  6
CONTINUOUS
 62
     7
 10
-1488.4679155221
 20
57.3628583977
 30
0.0
  0
VERTEX
  5
4E1
  8
0
  6
CONTINUOUS
 62
     7
 10
-1488.310291039
 20
57.2051296064
 30
0.0
  0
VERTEX
  5
4E2
  8
0
  6
CONTINUOUS
 62
     7
 10
-1488.0958931317
 20
57.1578035185
 30
0.0
  0
SEQEND
  5
4E3
  8
0
  6
CONTINUOUS
 62
     7
  0
LINE
  5
73
  8
0
  6
CONTINUOUS
 62
     7
 10
-2078.095896708
 20
57.1578035185
 30
0.0
 11
-1488.0958931317
 21
57.1578035185
 31
0.0
  0
LINE
  5
74
  8
0
  6
CONTINUOUS
 62
     7
 10
-1488.0958931317
 20
58.157805545
 30
0.0
 11
-1488.0958931317
 21
57.1578035185
 31
0.0
  0
LINE
  5
75
  8
0
  6
CONTINUOUS
 62
     7
 10
-2080.0958709588
 20
454.1578183004
 30
0.0
 11
-2080.0958709588
 21
452.65780781
 31
0.0
  0
LINE
  5
76
  8
0
  6
CONTINUOUS
 62
     7
 10
-2078.095896708
 20
454.1578183004
 30
0.0
 11
-2080.0958709588
 21
454.1578183004
 31
0.0
  0
LINE
  5
77
  8
0
  6
CONTINUOUS
 62
     7
 10
-2079.9187557569
 20
452.65780781
 30
0.0
 11
-2080.0958709588
 21
452.65780781
 31
0.0
  0
LINE
  5
78
  8
0
  6
CONTINUOUS
 62
     7
 10
-1486.0958890786
 20
452.65780781
 30
0.0
 11
-1486.0958890786
 21
454.1578183004
 31
0.0
  0
LINE
  5
79
  8
0
  6
CONTINUOUS
 62
     7
 10
-1486.2730042806
 20
452.65780781
 30
0.0
 11
-1486.0958890786
 21
452.65780781
 31
0.0
  0
LINE
  5
7A
  8
0
  6
CONTINUOUS
 62
     7
 10
-1488.0958931317
 20
454.1578183004
 30
0.0
 11
-1486.0958890786
 21
454.1578183004
 31
0.0
  0
LINE
  5
7B
  8
0
  6
CONTINUOUS
 62
     7
 10
-2080.0958709588
 20
452.65780781
 30
0.0
 11
-2081.5958814492
 21
452.65780781
 31
0.0
  0
LINE
  5
7C
  8
0
  6
CONTINUOUS
 62
     7
 10
-2081.5958814492
 20
452.65780781
 30
0.0
 11
-2081.5958814492
 21
450.6578037569
 31
0.0
  0
LINE
  5
7D
  8
0
  6
CONTINUOUS
 62
     7
 10
-2080.0958709588
 20
452.65780781
 30
0.0
 11
-2080.0958709588
 21
452.4806926081
 31
0.0
  0
LINE
  5
7E
  8
0
  6
CONTINUOUS
 62
     7
 10
-1484.5958785882
 20
452.65780781
 30
0.0
 11
-1486.0958890786
 21
452.65780781
 31
0.0
  0
LINE
  5
7F
  8
0
  6
CONTINUOUS
 62
     7
 10
-1484.5958785882
 20
452.65780781
 30
0.0
 11
-1484.5958785882
 21
450.6578037569
 31
0.0
  0
LINE
  5
80
  8
0
  6
CONTINUOUS
 62
     7
 10
-1486.0958890786
 20
452.65780781
 30
0.0
 11
-1486.0958890786
 21
452.4806926081
 31
0.0
  0
LINE
  5
81
  8
0
  6
CONTINUOUS
 62
     7
 10
-2081.5958814492
 20
58.6578140089
 30
0.0
 11
-2080.0958709588
 21
58.6578140089
 31
0.0
  0
LINE
  5
82
  8
0
  6
CONTINUOUS
 62
     7
 10
-2081.5958814492
 20
58.6578140089
 30
0.0
 11
-2081.5958814492
 21
60.657818062
 31
0.0
  0
LINE
  5
83
  8
0
  6
CONTINUOUS
 62
     7
 10
-2080.0958709588
 20
58.6578140089
 30
0.0
 11
-2080.0958709588
 21
58.8349292108
 31
0.0
  0
LINE
  5
84
  8
0
  6
CONTINUOUS
 62
     7
 10
-1486.0958890786
 20
58.6578140089
 30
0.0
 11
-1484.5958785882
 21
58.6578140089
 31
0.0
  0
LINE
  5
85
  8
0
  6
CONTINUOUS
 62
     7
 10
-1484.5958785882
 20
58.6578140089
 30
0.0
 11
-1484.5958785882
 21
60.657818062
 31
0.0
  0
LINE
  5
86
  8
0
  6
CONTINUOUS
 62
     7
 10
-1486.0958890786
 20
58.6578140089
 30
0.0
 11
-1486.0958890786
 21
58.8349292108
 31
0.0
  0
LINE
  5
87
  8
0
  6
CONTINUOUS
 62
     7
 10
-2078.095896708
 20
57.1578035185
 30
0.0
 11
-2080.0958709588
 21
57.1578035185
 31
0.0
  0
LINE
  5
88
  8
0
  6
CONTINUOUS
 62
     7
 10
-2080.0958709588
 20
58.6578140089
 30
0.0
 11
-2080.0958709588
 21
57.1578035185
 31
0.0
  0
LINE
  5
89
  8
0
  6
CONTINUOUS
 62
     7
 10
-2079.9187557569
 20
58.6578140089
 30
0.0
 11
-2080.0958709588
 21
58.6578140089
 31
0.0
  0
LINE
  5
8A
  8
0
  6
CONTINUOUS
 62
     7
 10
-1486.0958890786
 20
57.1578035185
 30
0.0
 11
-1486.0958890786
 21
58.6578140089
 31
0.0
  0
LINE
  5
8B
  8
0
  6
CONTINUOUS
 62
     7
 10
-1488.0958931317
 20
57.1578035185
 30
0.0
 11
-1486.0958890786
 21
57.1578035185
 31
0.0
  0
LINE
  5
8C
  8
0
  6
CONTINUOUS
 62
     7
 10
-1486.2730042806
 20
58.6578140089
 30
0.0
 11
-1486.0958890786
 21
58.6578140089
 31
0.0
  0
LINE
  5
8D
  8
0
  6
CONTINUOUS
 62
     7
 10
-2081.1451809278
 20
57.8841010162
 30
0.0
 11
-2080.6469755044
 21
58.6578140089
 31
0.0
  0
LINE
  5
8E
  8
0
  6
CONTINUOUS
 62
     7
 10
-2081.1451809278
 20
57.8841010162
 30
0.0
 11
-2081.1451809278
 21
58.270950062
 31
0.0
  0
ARC
  5
8F
  8
0
  6
CONTINUOUS
 62
     7
 10
-2108.4487923249
 20
68.5162180143
 30
0.0
 40
29.30066735052168
 50
333.9698790353
 51
338.7238960957
  0
POLYLINE
  5
90
  8
0
  6
CONTINUOUS
 62
     7
 66
     1
 10
0.0
 20
0.0
 30
0.0
  0
VERTEX
  5
4E4
  8
0
  6
CONTINUOUS
 62
     7
 10
-1486.0958890786
 20
57.7518830129
 30
0.0
  0
VERTEX
  5
4E5
  8
0
  6
CONTINUOUS
 62
     7
 10
-1486.0376255384
 20
57.641510112
 30
0.0
  0
VERTEX
  5
4E6
  8
0
  6
CONTINUOUS
 62
     7
 10
-1485.6417612901
 20
56.7368904182
 30
0.0
  0
VERTEX
  5
4E7
  8
0
  6
CONTINUOUS
 62
     7
 10
-1485.3997068277
 20
56.0583660433
 30
0.0
  0
VERTEX
  5
4E8
  8
0
  6
CONTINUOUS
 62
     7
 10
-1485.2838652005
 20
55.7767489979
 30
0.0
  0
VERTEX
  5
4E9
  8
0
  6
CONTINUOUS
 62
     7
 10
-1485.1714806428
 20
55.6578079292
 30
0.0
  0
SEQEND
  5
4EA
  8
0
  6
CONTINUOUS
 62
     7
  0
LINE
  5
91
  8
0
  6
CONTINUOUS
 62
     7
 10
-1504.5594410768
 20
55.6578079292
 30
0.0
 11
-2062.73232268
 21
55.6578079292
 31
0.0
  0
POLYLINE
  5
92
  8
0
  6
CONTINUOUS
 62
     7
 66
     1
 10
0.0
 20
0.0
 30
0.0
  0
VERTEX
  5
4EB
  8
0
  6
CONTINUOUS
 62
     7
 10
-2081.2447802892
 20
453.1571010181
 30
0.0
  0
VERTEX
  5
4EC
  8
0
  6
CONTINUOUS
 62
     7
 10
-2081.2541382184
 20
453.165967209
 30
0.0
  0
VERTEX
  5
4ED
  8
0
  6
CONTINUOUS
 62
     7
 10
-2081.6500024667
 20
453.6182621548
 30
0.0
  0
VERTEX
  5
4EE
  8
0
  6
CONTINUOUS
 62
     7
 10
-2081.8920569291
 20
453.9575317928
 30
0.0
  0
VERTEX
  5
4EF
  8
0
  6
CONTINUOUS
 62
     7
 10
-2082.0078985562
 20
454.0983477661
 30
0.0
  0
VERTEX
  5
4F0
  8
0
  6
CONTINUOUS
 62
     7
 10
-2082.120283114
 20
454.1578183004
 30
0.0
  0
SEQEND
  5
4F1
  8
0
  6
CONTINUOUS
 62
     7
  0
LINE
  5
93
  8
0
  6
CONTINUOUS
 62
     7
 10
-2082.120283114
 20
455.6578138897
 30
0.0
 11
-2082.120283114
 21
454.1578183004
 31
0.0
  0
POLYLINE
  5
94
  8
0
  6
CONTINUOUS
 62
     7
 66
     1
 10
0.0
 20
0.0
 30
0.0
  0
VERTEX
  5
4F2
  8
0
  6
CONTINUOUS
 62
     7
 10
-2080.7176666131
 20
452.65780781
 30
0.0
  0
VERTEX
  5
4F3
  8
0
  6
CONTINUOUS
 62
     7
 10
-2081.2541382184
 20
453.6741117069
 30
0.0
  0
VERTEX
  5
4F4
  8
0
  6
CONTINUOUS
 62
     7
 10
-2081.6500024667
 20
454.5787314007
 30
0.0
  0
VERTEX
  5
4F5
  8
0
  6
CONTINUOUS
 62
     7
 10
-2081.8920569291
 20
455.2572557756
 30
0.0
  0
VERTEX
  5
4F6
  8
0
  6
CONTINUOUS
 62
     7
 10
-2082.0078985562
 20
455.538872821
 30
0.0
  0
VERTEX
  5
4F7
  8
0
  6
CONTINUOUS
 62
     7
 10
-2082.120283114
 20
455.6578138897
 30
0.0
  0
SEQEND
  5
4F8
  8
0
  6
CONTINUOUS
 62
     7
  0
POLYLINE
  5
95
  8
0
  6
CONTINUOUS
 62
     7
 66
     1
 10
0.0
 20
0.0
 30
0.0
  0
VERTEX
  5
4F9
  8
0
  6
CONTINUOUS
 62
     7
 10
-1486.0469834676
 20
58.1585208008
 30
0.0
  0
VERTEX
  5
4FA
  8
0
  6
CONTINUOUS
 62
     7
 10
-1486.0376255384
 20
58.1496546099
 30
0.0
  0
VERTEX
  5
4FB
  8
0
  6
CONTINUOUS
 62
     7
 10
-1485.6417612901
 20
57.6973596641
 30
0.0
  0
VERTEX
  5
4FC
  8
0
  6
CONTINUOUS
 62
     7
 10
-1485.3997068277
 20
57.3580900261
 30
0.0
  0
VERTEX
  5
4FD
  8
0
  6
CONTINUOUS
 62
     7
 10
-1485.2838652005
 20
57.2172740528
 30
0.0
  0
VERTEX
  5
4FE
  8
0
  6
CONTINUOUS
 62
     7
 10
-1485.1714806428
 20
57.1578035185
 30
0.0
  0
SEQEND
  5
4FF
  8
0
  6
CONTINUOUS
 62
     7
  0
LINE
  5
96
  8
0
  6
CONTINUOUS
 62
     7
 10
-1485.1714806428
 20
55.6578079292
 30
0.0
 11
-1485.1714806428
 21
57.1578035185
 31
0.0
  0
ARC
  5
97
  8
0
  6
CONTINUOUS
 62
     7
 10
-1458.8429714319
 20
442.7994038045
 30
0.0
 40
29.30066735052144
 50
153.9698790353
 51
158.7238960957
  0
LINE
  5
98
  8
0
  6
CONTINUOUS
 62
     7
 10
-1504.5594410768
 20
455.6578138897
 30
0.0
 11
-2062.73232268
 21
455.6578138897
 31
0.0
  0
LINE
  5
99
  8
0
  6
CONTINUOUS
 62
     7
 10
-1485.8721630445
 20
58.1585208008
 30
0.0
 11
-1486.0958890786
 21
58.302570326
 31
0.0
  0
LINE
  5
9A
  8
0
  6
CONTINUOUS
 62
     7
 10
-1485.8721630445
 20
58.1585208008
 30
0.0
 11
-1486.2590269914
 21
58.1585208008
 31
0.0
  0
LINE
  5
9B
  8
0
  6
CONTINUOUS
 62
     7
 10
-1483.6458699575
 20
57.1834037134
 30
0.0
 11
-1483.6458699575
 21
454.1322181055
 31
0.0
  0
ARC
  5
9C
  8
0
  6
CONTINUOUS
 62
     7
 10
-1496.5013652972
 20
30.8619664052
 30
0.0
 40
29.29303368378152
 50
63.96893162
 51
68.7241999763
  0
POLYLINE
  5
9D
  8
0
  6
CONTINUOUS
 62
     7
 66
     1
 10
0.0
 20
0.0
 30
0.0
  0
VERTEX
  5
500
  8
0
  6
CONTINUOUS
 62
     7
 10
-1486.0958890786
 20
453.0199209282
 30
0.0
  0
VERTEX
  5
501
  8
0
  6
CONTINUOUS
 62
     7
 10
-1485.6295721402
 20
453.2660732099
 30
0.0
  0
VERTEX
  5
502
  8
0
  6
CONTINUOUS
 62
     7
 10
-1484.7249524465
 20
453.6619523594
 30
0.0
  0
VERTEX
  5
503
  8
0
  6
CONTINUOUS
 62
     7
 10
-1484.0464429727
 20
453.9039919206
 30
0.0
  0
VERTEX
  5
504
  8
0
  6
CONTINUOUS
 62
     7
 10
-1483.7648110261
 20
454.0198335478
 30
0.0
  0
VERTEX
  5
505
  8
0
  6
CONTINUOUS
 62
     7
 10
-1483.6458699575
 20
454.1322181055
 30
0.0
  0
SEQEND
  5
506
  8
0
  6
CONTINUOUS
 62
     7
  0
LINE
  5
9E
  8
0
  6
CONTINUOUS
 62
     7
 10
-2080.5738108029
 20
58.6578140089
 30
0.0
 11
-2080.6020932069
 21
58.6294272968
 31
0.0
  0
ARC
  5
9F
  8
0
  6
CONTINUOUS
 62
     7
 10
-2084.1440701365
 20
62.1585180162
 30
0.0
 40
4.999999999972671
 50
314.3979399628
 51
315.1044244628
  0
LINE
  5
A0
  8
0
  6
CONTINUOUS
 62
     7
 10
-2080.6458728185
 20
452.6589104959
 30
0.0
 11
-2080.6447701326
 21
452.65780781
 31
0.0
  0
LINE
  5
A1
  8
0
  6
CONTINUOUS
 62
     7
 10
-2081.4196007123
 20
453.1571010181
 30
0.0
 11
-2080.6458728185
 21
452.6589104959
 31
0.0
  0
LINE
  5
A2
  8
0
  6
CONTINUOUS
 62
     7
 10
-2081.4196007123
 20
453.1571010181
 30
0.0
 11
-2081.0327367654
 21
453.1571010181
 31
0.0
  0
ARC
  5
A3
  8
0
  6
CONTINUOUS
 62
     7
 10
-2070.7903984596
 20
480.4536554137
 30
0.0
 40
29.29303368378162
 50
243.96893162
 51
248.7241999763
  0
POLYLINE
  5
A4
  8
0
  6
CONTINUOUS
 62
     7
 66
     1
 10
0.0
 20
0.0
 30
0.0
  0
VERTEX
  5
507
  8
0
  6
CONTINUOUS
 62
     7
 10
-2080.6458728185
 20
58.5860351154
 30
0.0
  0
VERTEX
  5
508
  8
0
  6
CONTINUOUS
 62
     7
 10
-2081.6621916165
 20
58.049548609
 30
0.0
  0
VERTEX
  5
509
  8
0
  6
CONTINUOUS
 62
     7
 10
-2082.5668113103
 20
57.6536694595
 30
0.0
  0
VERTEX
  5
50A
  8
0
  6
CONTINUOUS
 62
     7
 10
-2083.2453207841
 20
57.4116298982
 30
0.0
  0
VERTEX
  5
50B
  8
0
  6
CONTINUOUS
 62
     7
 10
-2083.5269527307
 20
57.2957882711
 30
0.0
  0
VERTEX
  5
50C
  8
0
  6
CONTINUOUS
 62
     7
 10
-2083.6458937993
 20
57.1834037134
 30
0.0
  0
SEQEND
  5
50D
  8
0
  6
CONTINUOUS
 62
     7
  0
LINE
  5
A5
  8
0
  6
CONTINUOUS
 62
     7
 10
-2083.6458937993
 20
57.1834037134
 30
0.0
 11
-2083.6458937993
 21
454.1322181055
 31
0.0
  0
POLYLINE
  5
A6
  8
0
  6
CONTINUOUS
 62
     7
 66
     1
 10
0.0
 20
0.0
 30
0.0
  0
VERTEX
  5
50E
  8
0
  6
CONTINUOUS
 62
     7
 10
-2081.1451809278
 20
58.0589065382
 30
0.0
  0
VERTEX
  5
50F
  8
0
  6
CONTINUOUS
 62
     7
 10
-2081.1540322175
 20
58.049548609
 30
0.0
  0
VERTEX
  5
510
  8
0
  6
CONTINUOUS
 62
     7
 10
-2081.6063420644
 20
57.6536694595
 30
0.0
  0
VERTEX
  5
511
  8
0
  6
CONTINUOUS
 62
     7
 10
-2081.9456117025
 20
57.4116298982
 30
0.0
  0
VERTEX
  5
512
  8
0
  6
CONTINUOUS
 62
     7
 10
-2082.0864276757
 20
57.2957882711
 30
0.0
  0
VERTEX
  5
513
  8
0
  6
CONTINUOUS
 62
     7
 10
-2082.1458833089
 20
57.1834037134
 30
0.0
  0
SEQEND
  5
514
  8
0
  6
CONTINUOUS
 62
     7
  0
LINE
  5
A7
  8
0
  6
CONTINUOUS
 62
     7
 10
-2083.6458937993
 20
57.1834037134
 30
0.0
 11
-2082.1458833089
 21
57.1834037134
 31
0.0
  0
ARC
  5
A8
  8
0
  6
CONTINUOUS
 62
     7
 10
-1419.473399438
 20
377.9617866364
 30
0.0
 40
100.5724087022529
 50
130.7671934839
 51
131.4856977212
  0
LINE
  5
A9
  8
0
  6
CONTINUOUS
 62
     7
 10
-1483.6458699575
 20
454.1322181055
 30
0.0
 11
-1485.1458804479
 21
454.1322181055
 31
0.0
  0
LINE
  5
AA
  8
0
  6
CONTINUOUS
 62
     7
 10
-2082.120283114
 20
57.1578035185
 30
0.0
 11
-2082.120283114
 21
55.6578079292
 31
0.0
  0
ARC
  5
AB
  8
0
  6
CONTINUOUS
 62
     7
 10
-2091.6852484171
 20
66.5202530444
 30
0.0
 40
13.38446944693555
 50
315.613018559
 51
321.9510881376
  0
LINE
  5
AC
  8
0
  6
CONTINUOUS
 62
     7
 10
-1485.1714806428
 20
454.1578183004
 30
0.0
 11
-1485.1714806428
 21
455.6578138897
 31
0.0
  0
ARC
  5
AD
  8
0
  6
CONTINUOUS
 62
     7
 10
-1475.6065153396
 20
444.7953687745
 30
0.0
 40
13.38446944693515
 50
135.613018559
 51
141.9510881376
  0
LINE
  5
AE
  8
0
  6
CONTINUOUS
 62
     7
 10
-2082.1458833089
 20
454.1322181055
 30
0.0
 11
-2083.6458937993
 21
454.1322181055
 31
0.0
  0
ARC
  5
AF
  8
0
  6
CONTINUOUS
 62
     7
 10
-2072.7876833711
 20
463.6921712171
 30
0.0
 40
13.37791499341879
 50
225.6110092844
 51
231.9522294635
  0
ARC
  5
B0
  8
0
  6
CONTINUOUS
 62
     7
 10
-1493.4422577222
 20
48.740360028
 30
0.0
 40
11.83701239972017
 50
45.50199773
 51
51.6380694484
  0
LINE
  5
B1
  8
0
  6
CONTINUOUS
 62
     7
 10
-1485.1458804479
 20
57.1834037134
 30
0.0
 11
-1483.6458699575
 21
57.1834037134
 31
0.0
  0
LINE
  5
B2
  8
0
  6
CONTINUOUS
 62
     7
 10
-2082.1451680532
 20
55.6578079292
 30
0.0
 11
-2082.1451680532
 21
57.1578035185
 31
0.0
  0
LINE
  5
B3
  8
0
  6
CONTINUOUS
 62
     7
 10
-2082.120283114
 20
57.1578035185
 30
0.0
 11
-2082.1451680532
 21
57.1578035185
 31
0.0
  0
LINE
  5
B4
  8
0
  6
CONTINUOUS
 62
     7
 10
-1485.1465957036
 20
57.1578035185
 30
0.0
 11
-1485.1714806428
 21
57.1578035185
 31
0.0
  0
LINE
  5
B5
  8
0
  6
CONTINUOUS
 62
     7
 10
-1485.1465957036
 20
55.6578079292
 30
0.0
 11
-1485.1465957036
 21
57.1578035185
 31
0.0
  0
LINE
  5
B6
  8
0
  6
CONTINUOUS
 62
     7
 10
-1485.1458804479
 20
454.1571030447
 30
0.0
 11
-1485.1458804479
 21
454.1322181055
 31
0.0
  0
LINE
  5
B7
  8
0
  6
CONTINUOUS
 62
     7
 10
-1483.6458699575
 20
454.1571030447
 30
0.0
 11
-1485.1458804479
 21
454.1571030447
 31
0.0
  0
LINE
  5
B8
  8
0
  6
CONTINUOUS
 62
     7
 10
-1483.6458699575
 20
454.1322181055
 30
0.0
 11
-1483.6458699575
 21
454.1571030447
 31
0.0
  0
LINE
  5
B9
  8
0
  6
CONTINUOUS
 62
     7
 10
-1483.6458699575
 20
57.1585187742
 30
0.0
 11
-1483.6458699575
 21
57.1834037134
 31
0.0
  0
LINE
  5
BA
  8
0
  6
CONTINUOUS
 62
     7
 10
-1483.6458699575
 20
57.1585187742
 30
0.0
 11
-1485.1458804479
 21
57.1585187742
 31
0.0
  0
LINE
  5
BB
  8
0
  6
CONTINUOUS
 62
     7
 10
-1485.1458804479
 20
57.1834037134
 30
0.0
 11
-1485.1458804479
 21
57.1585187742
 31
0.0
  0
LINE
  5
BC
  8
0
  6
CONTINUOUS
 62
     7
 10
-2082.1451680532
 20
455.6578138897
 30
0.0
 11
-2082.1451680532
 21
454.1578183004
 31
0.0
  0
LINE
  5
BD
  8
0
  6
CONTINUOUS
 62
     7
 10
-2082.1451680532
 20
454.1578183004
 30
0.0
 11
-2082.120283114
 21
454.1578183004
 31
0.0
  0
LINE
  5
BE
  8
0
  6
CONTINUOUS
 62
     7
 10
-2083.6458937993
 20
57.1585187742
 30
0.0
 11
-2082.1458833089
 21
57.1585187742
 31
0.0
  0
LINE
  5
BF
  8
0
  6
CONTINUOUS
 62
     7
 10
-2083.6458937993
 20
57.1585187742
 30
0.0
 11
-2083.6458937993
 21
57.1834037134
 31
0.0
  0
LINE
  5
C0
  8
0
  6
CONTINUOUS
 62
     7
 10
-2082.1458833089
 20
57.1585187742
 30
0.0
 11
-2082.1458833089
 21
57.1834037134
 31
0.0
  0
LINE
  5
C1
  8
0
  6
CONTINUOUS
 62
     7
 10
-1485.1465957036
 20
455.6578138897
 30
0.0
 11
-1485.1465957036
 21
454.1578183004
 31
0.0
  0
LINE
  5
C2
  8
0
  6
CONTINUOUS
 62
     7
 10
-1485.1714806428
 20
454.1578183004
 30
0.0
 11
-1485.1465957036
 21
454.1578183004
 31
0.0
  0
LINE
  5
C3
  8
0
  6
CONTINUOUS
 62
     7
 10
-2083.6458937993
 20
454.1571030447
 30
0.0
 11
-2082.1458833089
 21
454.1571030447
 31
0.0
  0
LINE
  5
C4
  8
0
  6
CONTINUOUS
 62
     7
 10
-2083.6458937993
 20
454.1322181055
 30
0.0
 11
-2083.6458937993
 21
454.1571030447
 31
0.0
  0
LINE
  5
C5
  8
0
  6
CONTINUOUS
 62
     7
 10
-2082.1458833089
 20
454.1322181055
 30
0.0
 11
-2082.1458833089
 21
454.1571030447
 31
0.0
  0
LINE
  5
C6
  8
0
  6
CONTINUOUS
 62
     7
 10
-1463.6458890309
 20
55.3578177521
 30
0.0
 11
-1466.895891892
 21
55.3578177521
 31
0.0
  0
LINE
  5
C7
  8
0
  6
CONTINUOUS
 62
     7
 10
-1463.6458890309
 20
55.3578177521
 30
0.0
 11
-1463.6458890309
 21
51.9578049013
 31
0.0
  0
LINE
  5
C8
  8
0
  6
CONTINUOUS
 62
     7
 10
-1466.895891892
 20
51.9578049013
 30
0.0
 11
-1463.6458890309
 21
51.9578049013
 31
0.0
  0
LINE
  5
C9
  8
0
  6
CONTINUOUS
 62
     7
 10
-1466.895891892
 20
55.6578079292
 30
0.0
 11
-1463.9458792081
 21
55.6578079292
 31
0.0
  0
LINE
  5
CA
  8
0
  6
CONTINUOUS
 62
     7
 10
-1463.9458792081
 20
55.6578079292
 30
0.0
 11
-1463.6458890309
 21
55.3578177521
 31
0.0
  0
LINE
  5
CB
  8
0
  6
CONTINUOUS
 62
     7
 10
-1472.3958806863
 20
55.6578079292
 30
0.0
 11
-1466.895891892
 21
55.6578079292
 31
0.0
  0
LINE
  5
CC
  8
0
  6
CONTINUOUS
 62
     7
 10
-1466.895891892
 20
55.3578177521
 30
0.0
 11
-1472.3958806863
 21
55.3578177521
 31
0.0
  0
LINE
  5
CD
  8
0
  6
CONTINUOUS
 62
     7
 10
-1472.3958806863
 20
51.9578049013
 30
0.0
 11
-1466.895891892
 21
51.9578049013
 31
0.0
  0
LINE
  5
CE
  8
0
  6
CONTINUOUS
 62
     7
 10
-1463.9458792081
 20
51.6578147241
 30
0.0
 11
-1466.895891892
 21
51.6578147241
 31
0.0
  0
LINE
  5
CF
  8
0
  6
CONTINUOUS
 62
     7
 10
-1463.9458792081
 20
51.6578147241
 30
0.0
 11
-1463.6458890309
 21
51.9578049013
 31
0.0
  0
LINE
  5
D0
  8
0
  6
CONTINUOUS
 62
     7
 10
-1466.895891892
 20
51.6578147241
 30
0.0
 11
-1472.3958806863
 21
51.6578147241
 31
0.0
  0
LINE
  5
D1
  8
0
  6
CONTINUOUS
 62
     7
 10
-1472.3958806863
 20
55.3578177521
 30
0.0
 11
-1475.6458835473
 21
55.3578177521
 31
0.0
  0
LINE
  5
D2
  8
0
  6
CONTINUOUS
 62
     7
 10
-1475.6458835473
 20
51.9578049013
 30
0.0
 11
-1472.3958806863
 21
51.9578049013
 31
0.0
  0
LINE
  5
D3
  8
0
  6
CONTINUOUS
 62
     7
 10
-1475.6458835473
 20
51.9578049013
 30
0.0
 11
-1475.6458835473
 21
55.3578177521
 31
0.0
  0
LINE
  5
D4
  8
0
  6
CONTINUOUS
 62
     7
 10
-1472.3958806863
 20
51.6578147241
 30
0.0
 11
-1475.3458933702
 21
51.6578147241
 31
0.0
  0
LINE
  5
D5
  8
0
  6
CONTINUOUS
 62
     7
 10
-1475.6458835473
 20
51.9578049013
 30
0.0
 11
-1475.3458933702
 21
51.6578147241
 31
0.0
  0
LINE
  5
D6
  8
0
  6
CONTINUOUS
 62
     7
 10
-1475.3458933702
 20
55.6578079292
 30
0.0
 11
-1472.3958806863
 21
55.6578079292
 31
0.0
  0
LINE
  5
D7
  8
0
  6
CONTINUOUS
 62
     7
 10
-1475.3458933702
 20
55.6578079292
 30
0.0
 11
-1475.6458835473
 21
55.3578177521
 31
0.0
  0
LINE
  5
D8
  8
0
  6
CONTINUOUS
 62
     7
 10
-1475.6458835473
 20
55.3578177521
 30
0.0
 11
-1476.5128033033
 21
55.3578177521
 31
0.0
  0
LINE
  5
D9
  8
0
  6
CONTINUOUS
 62
     7
 10
-1476.2928323617
 20
55.6578079292
 30
0.0
 11
-1475.3458933702
 21
55.6578079292
 31
0.0
  0
LINE
  5
DA
  8
0
  6
CONTINUOUS
 62
     7
 10
-1476.5128033033
 20
51.9578049013
 30
0.0
 11
-1475.6458835473
 21
51.9578049013
 31
0.0
  0
LINE
  5
DB
  8
0
  6
CONTINUOUS
 62
     7
 10
-1475.3458933702
 20
51.6578147241
 30
0.0
 11
-1476.2928323617
 21
51.6578147241
 31
0.0
  0
LINE
  5
DC
  8
0
  6
CONTINUOUS
 62
     7
 10
-1476.5128033033
 20
55.3578177521
 30
0.0
 11
-1504.7786669603
 21
55.3578177521
 31
0.0
  0
LINE
  5
DD
  8
0
  6
CONTINUOUS
 62
     7
 10
-1504.7786669603
 20
51.9578049013
 30
0.0
 11
-1476.5128033033
 21
51.9578049013
 31
0.0
  0
LINE
  5
DE
  8
0
  6
CONTINUOUS
 62
     7
 10
-1504.5586960187
 20
55.6578079292
 30
0.0
 11
-1476.2928323617
 21
55.6578079292
 31
0.0
  0
LINE
  5
DF
  8
0
  6
CONTINUOUS
 62
     7
 10
-1476.2928323617
 20
51.6578147241
 30
0.0
 11
-1504.5586960187
 21
51.6578147241
 31
0.0
  0
LINE
  5
E0
  8
0
  6
CONTINUOUS
 62
     7
 10
-1504.7786669603
 20
55.3578177521
 30
0.0
 11
-1506.6458718648
 21
55.3578177521
 31
0.0
  0
LINE
  5
E1
  8
0
  6
CONTINUOUS
 62
     7
 10
-1506.6458718648
 20
51.9578049013
 30
0.0
 11
-1504.7786669603
 21
51.9578049013
 31
0.0
  0
LINE
  5
E2
  8
0
  6
CONTINUOUS
 62
     7
 10
-1506.6458718648
 20
51.9578049013
 30
0.0
 11
-1506.6458718648
 21
55.3578177521
 31
0.0
  0
LINE
  5
E3
  8
0
  6
CONTINUOUS
 62
     7
 10
-1506.6458718648
 20
55.3578177521
 30
0.0
 11
-1506.3458816877
 21
55.6578079292
 31
0.0
  0
LINE
  5
E4
  8
0
  6
CONTINUOUS
 62
     7
 10
-1506.6458718648
 20
51.9578049013
 30
0.0
 11
-1506.3458816877
 21
51.6578147241
 31
0.0
  0
LINE
  5
E5
  8
0
  6
CONTINUOUS
 62
     7
 10
-1504.5586960187
 20
51.6578147241
 30
0.0
 11
-1506.3458816877
 21
51.6578147241
 31
0.0
  0
LINE
  5
E6
  8
0
  6
CONTINUOUS
 62
     7
 10
-2100.3958718648
 20
51.6578147241
 30
0.0
 11
-2103.3458845487
 21
51.6578147241
 31
0.0
  0
LINE
  5
E7
  8
0
  6
CONTINUOUS
 62
     7
 10
-2103.3458845487
 20
51.6578147241
 30
0.0
 11
-2103.6458747258
 21
51.9578049013
 31
0.0
  0
LINE
  5
E8
  8
0
  6
CONTINUOUS
 62
     7
 10
-2103.6458747258
 20
51.9578049013
 30
0.0
 11
-2100.3958718648
 21
51.9578049013
 31
0.0
  0
LINE
  5
E9
  8
0
  6
CONTINUOUS
 62
     7
 10
-2103.6458747258
 20
51.9578049013
 30
0.0
 11
-2103.6458747258
 21
55.3578177521
 31
0.0
  0
LINE
  5
EA
  8
0
  6
CONTINUOUS
 62
     7
 10
-2100.3958718648
 20
55.3578177521
 30
0.0
 11
-2103.6458747258
 21
55.3578177521
 31
0.0
  0
LINE
  5
EB
  8
0
  6
CONTINUOUS
 62
     7
 10
-2100.3958718648
 20
51.9578049013
 30
0.0
 11
-2094.8958830705
 21
51.9578049013
 31
0.0
  0
LINE
  5
EC
  8
0
  6
CONTINUOUS
 62
     7
 10
-2094.8958830705
 20
55.3578177521
 30
0.0
 11
-2100.3958718648
 21
55.3578177521
 31
0.0
  0
LINE
  5
ED
  8
0
  6
CONTINUOUS
 62
     7
 10
-2094.8958830705
 20
51.6578147241
 30
0.0
 11
-2100.3958718648
 21
51.6578147241
 31
0.0
  0
LINE
  5
EE
  8
0
  6
CONTINUOUS
 62
     7
 10
-2103.3458845487
 20
55.6578079292
 30
0.0
 11
-2100.3958718648
 21
55.6578079292
 31
0.0
  0
LINE
  5
EF
  8
0
  6
CONTINUOUS
 62
     7
 10
-2103.3458845487
 20
55.6578079292
 30
0.0
 11
-2103.6458747258
 21
55.3578177521
 31
0.0
  0
LINE
  5
F0
  8
0
  6
CONTINUOUS
 62
     7
 10
-2100.3958718648
 20
55.6578079292
 30
0.0
 11
-2094.8958830705
 21
55.6578079292
 31
0.0
  0
LINE
  5
F1
  8
0
  6
CONTINUOUS
 62
     7
 10
-2094.8958830705
 20
55.6578079292
 30
0.0
 11
-2091.9458703866
 21
55.6578079292
 31
0.0
  0
LINE
  5
F2
  8
0
  6
CONTINUOUS
 62
     7
 10
-2091.6458802095
 20
55.3578177521
 30
0.0
 11
-2091.9458703866
 21
55.6578079292
 31
0.0
  0
LINE
  5
F3
  8
0
  6
CONTINUOUS
 62
     7
 10
-2091.6458802095
 20
55.3578177521
 30
0.0
 11
-2094.8958830705
 21
55.3578177521
 31
0.0
  0
LINE
  5
F4
  8
0
  6
CONTINUOUS
 62
     7
 10
-2091.9458703866
 20
51.6578147241
 30
0.0
 11
-2094.8958830705
 21
51.6578147241
 31
0.0
  0
LINE
  5
F5
  8
0
  6
CONTINUOUS
 62
     7
 10
-2094.8958830705
 20
51.9578049013
 30
0.0
 11
-2091.6458802095
 21
51.9578049013
 31
0.0
  0
LINE
  5
F6
  8
0
  6
CONTINUOUS
 62
     7
 10
-2091.9458703866
 20
51.6578147241
 30
0.0
 11
-2091.6458802095
 21
51.9578049013
 31
0.0
  0
LINE
  5
F7
  8
0
  6
CONTINUOUS
 62
     7
 10
-2091.6458802095
 20
55.3578177521
 30
0.0
 11
-2091.6458802095
 21
51.9578049013
 31
0.0
  0
LINE
  5
F8
  8
0
  6
CONTINUOUS
 62
     7
 10
-2091.6458802095
 20
51.9578049013
 30
0.0
 11
-2090.7789604535
 21
51.9578049013
 31
0.0
  0
LINE
  5
F9
  8
0
  6
CONTINUOUS
 62
     7
 10
-2090.7789604535
 20
55.3578177521
 30
0.0
 11
-2091.6458802095
 21
55.3578177521
 31
0.0
  0
LINE
  5
FA
  8
0
  6
CONTINUOUS
 62
     7
 10
-2090.9989313951
 20
51.6578147241
 30
0.0
 11
-2091.9458703866
 21
51.6578147241
 31
0.0
  0
LINE
  5
FB
  8
0
  6
CONTINUOUS
 62
     7
 10
-2091.9458703866
 20
55.6578079292
 30
0.0
 11
-2090.9989313951
 21
55.6578079292
 31
0.0
  0
LINE
  5
FC
  8
0
  6
CONTINUOUS
 62
     7
 10
-2090.7789604535
 20
51.9578049013
 30
0.0
 11
-2062.5130967965
 21
51.9578049013
 31
0.0
  0
LINE
  5
FD
  8
0
  6
CONTINUOUS
 62
     7
 10
-2062.7330677381
 20
51.6578147241
 30
0.0
 11
-2090.9989313951
 21
51.6578147241
 31
0.0
  0
LINE
  5
FE
  8
0
  6
CONTINUOUS
 62
     7
 10
-2062.5130967965
 20
55.3578177521
 30
0.0
 11
-2090.7789604535
 21
55.3578177521
 31
0.0
  0
LINE
  5
FF
  8
0
  6
CONTINUOUS
 62
     7
 10
-2090.9989313951
 20
55.6578079292
 30
0.0
 11
-2062.7330677381
 21
55.6578079292
 31
0.0
  0
LINE
  5
100
  8
0
  6
CONTINUOUS
 62
     7
 10
-2062.5130967965
 20
51.9578049013
 30
0.0
 11
-2060.645891892
 21
51.9578049013
 31
0.0
  0
LINE
  5
101
  8
0
  6
CONTINUOUS
 62
     7
 10
-2060.645891892
 20
55.3578177521
 30
0.0
 11
-2062.5130967965
 21
55.3578177521
 31
0.0
  0
LINE
  5
102
  8
0
  6
CONTINUOUS
 62
     7
 10
-2060.645891892
 20
55.3578177521
 30
0.0
 11
-2060.645891892
 21
51.9578049013
 31
0.0
  0
LINE
  5
103
  8
0
  6
CONTINUOUS
 62
     7
 10
-2060.645891892
 20
51.9578049013
 30
0.0
 11
-2060.9458820691
 21
51.6578147241
 31
0.0
  0
LINE
  5
104
  8
0
  6
CONTINUOUS
 62
     7
 10
-2060.9458820691
 20
51.6578147241
 30
0.0
 11
-2062.7330677381
 21
51.6578147241
 31
0.0
  0
LINE
  5
105
  8
0
  6
CONTINUOUS
 62
     7
 10
-2060.645891892
 20
55.3578177521
 30
0.0
 11
-2060.9458820691
 21
55.6578079292
 31
0.0
  0
LINE
  5
106
  8
0
  6
CONTINUOUS
 62
     7
 10
-1466.895891892
 20
459.6578070947
 30
0.0
 11
-1463.9458792081
 21
459.6578070947
 31
0.0
  0
LINE
  5
107
  8
0
  6
CONTINUOUS
 62
     7
 10
-1463.9458792081
 20
459.6578070947
 30
0.0
 11
-1463.6458890309
 21
459.3578169176
 31
0.0
  0
LINE
  5
108
  8
0
  6
CONTINUOUS
 62
     7
 10
-1463.6458890309
 20
459.3578169176
 30
0.0
 11
-1466.895891892
 21
459.3578169176
 31
0.0
  0
LINE
  5
109
  8
0
  6
CONTINUOUS
 62
     7
 10
-1463.6458890309
 20
459.3578169176
 30
0.0
 11
-1463.6458890309
 21
455.9578040668
 31
0.0
  0
LINE
  5
10A
  8
0
  6
CONTINUOUS
 62
     7
 10
-1466.895891892
 20
455.9578040668
 30
0.0
 11
-1463.6458890309
 21
455.9578040668
 31
0.0
  0
LINE
  5
10B
  8
0
  6
CONTINUOUS
 62
     7
 10
-1466.895891892
 20
459.3578169176
 30
0.0
 11
-1472.3958806863
 21
459.3578169176
 31
0.0
  0
LINE
  5
10C
  8
0
  6
CONTINUOUS
 62
     7
 10
-1472.3958806863
 20
455.9578040668
 30
0.0
 11
-1466.895891892
 21
455.9578040668
 31
0.0
  0
LINE
  5
10D
  8
0
  6
CONTINUOUS
 62
     7
 10
-1472.3958806863
 20
459.6578070947
 30
0.0
 11
-1466.895891892
 21
459.6578070947
 31
0.0
  0
LINE
  5
10E
  8
0
  6
CONTINUOUS
 62
     7
 10
-1466.895891892
 20
455.6578138897
 30
0.0
 11
-1472.3958806863
 21
455.6578138897
 31
0.0
  0
LINE
  5
10F
  8
0
  6
CONTINUOUS
 62
     7
 10
-1463.9458792081
 20
455.6578138897
 30
0.0
 11
-1466.895891892
 21
455.6578138897
 31
0.0
  0
LINE
  5
110
  8
0
  6
CONTINUOUS
 62
     7
 10
-1463.9458792081
 20
455.6578138897
 30
0.0
 11
-1463.6458890309
 21
455.9578040668
 31
0.0
  0
LINE
  5
111
  8
0
  6
CONTINUOUS
 62
     7
 10
-1472.3958806863
 20
459.3578169176
 30
0.0
 11
-1475.6458835473
 21
459.3578169176
 31
0.0
  0
LINE
  5
112
  8
0
  6
CONTINUOUS
 62
     7
 10
-1475.6458835473
 20
455.9578040668
 30
0.0
 11
-1472.3958806863
 21
455.9578040668
 31
0.0
  0
LINE
  5
113
  8
0
  6
CONTINUOUS
 62
     7
 10
-1475.6458835473
 20
455.9578040668
 30
0.0
 11
-1475.6458835473
 21
459.3578169176
 31
0.0
  0
LINE
  5
114
  8
0
  6
CONTINUOUS
 62
     7
 10
-1475.3458933702
 20
459.6578070947
 30
0.0
 11
-1472.3958806863
 21
459.6578070947
 31
0.0
  0
LINE
  5
115
  8
0
  6
CONTINUOUS
 62
     7
 10
-1475.3458933702
 20
459.6578070947
 30
0.0
 11
-1475.6458835473
 21
459.3578169176
 31
0.0
  0
LINE
  5
116
  8
0
  6
CONTINUOUS
 62
     7
 10
-1472.3958806863
 20
455.6578138897
 30
0.0
 11
-1475.3458933702
 21
455.6578138897
 31
0.0
  0
LINE
  5
117
  8
0
  6
CONTINUOUS
 62
     7
 10
-1475.6458835473
 20
455.9578040668
 30
0.0
 11
-1475.3458933702
 21
455.6578138897
 31
0.0
  0
LINE
  5
118
  8
0
  6
CONTINUOUS
 62
     7
 10
-1475.6458835473
 20
459.3578169176
 30
0.0
 11
-1476.5128033033
 21
459.3578169176
 31
0.0
  0
LINE
  5
119
  8
0
  6
CONTINUOUS
 62
     7
 10
-1476.2928323617
 20
459.6578070947
 30
0.0
 11
-1475.3458933702
 21
459.6578070947
 31
0.0
  0
LINE
  5
11A
  8
0
  6
CONTINUOUS
 62
     7
 10
-1476.5128033033
 20
455.9578040668
 30
0.0
 11
-1475.6458835473
 21
455.9578040668
 31
0.0
  0
LINE
  5
11B
  8
0
  6
CONTINUOUS
 62
     7
 10
-1475.3458933702
 20
455.6578138897
 30
0.0
 11
-1476.2928323617
 21
455.6578138897
 31
0.0
  0
LINE
  5
11C
  8
0
  6
CONTINUOUS
 62
     7
 10
-1476.5128033033
 20
459.3578169176
 30
0.0
 11
-1504.7786669603
 21
459.3578169176
 31
0.0
  0
LINE
  5
11D
  8
0
  6
CONTINUOUS
 62
     7
 10
-1504.5586960187
 20
459.6578070947
 30
0.0
 11
-1476.2928323617
 21
459.6578070947
 31
0.0
  0
LINE
  5
11E
  8
0
  6
CONTINUOUS
 62
     7
 10
-1504.7786669603
 20
455.9578040668
 30
0.0
 11
-1476.5128033033
 21
455.9578040668
 31
0.0
  0
LINE
  5
11F
  8
0
  6
CONTINUOUS
 62
     7
 10
-1476.2928323617
 20
455.6578138897
 30
0.0
 11
-1504.5586960187
 21
455.6578138897
 31
0.0
  0
LINE
  5
120
  8
0
  6
CONTINUOUS
 62
     7
 10
-1504.7786669603
 20
459.3578169176
 30
0.0
 11
-1506.6458718648
 21
459.3578169176
 31
0.0
  0
LINE
  5
121
  8
0
  6
CONTINUOUS
 62
     7
 10
-1506.6458718648
 20
455.9578040668
 30
0.0
 11
-1504.7786669603
 21
455.9578040668
 31
0.0
  0
LINE
  5
122
  8
0
  6
CONTINUOUS
 62
     7
 10
-1506.6458718648
 20
455.9578040668
 30
0.0
 11
-1506.6458718648
 21
459.3578169176
 31
0.0
  0
LINE
  5
123
  8
0
  6
CONTINUOUS
 62
     7
 10
-1506.6458718648
 20
459.3578169176
 30
0.0
 11
-1506.3458816877
 21
459.6578070947
 31
0.0
  0
LINE
  5
124
  8
0
  6
CONTINUOUS
 62
     7
 10
-1506.3458816877
 20
459.6578070947
 30
0.0
 11
-1504.5586960187
 21
459.6578070947
 31
0.0
  0
LINE
  5
125
  8
0
  6
CONTINUOUS
 62
     7
 10
-1506.6458718648
 20
455.9578040668
 30
0.0
 11
-1506.3458816877
 21
455.6578138897
 31
0.0
  0
LINE
  5
126
  8
0
  6
CONTINUOUS
 62
     7
 10
-2103.6458747258
 20
455.9578040668
 30
0.0
 11
-2100.3958718648
 21
455.9578040668
 31
0.0
  0
LINE
  5
127
  8
0
  6
CONTINUOUS
 62
     7
 10
-2103.6458747258
 20
455.9578040668
 30
0.0
 11
-2103.6458747258
 21
459.3578169176
 31
0.0
  0
LINE
  5
128
  8
0
  6
CONTINUOUS
 62
     7
 10
-2100.3958718648
 20
459.3578169176
 30
0.0
 11
-2103.6458747258
 21
459.3578169176
 31
0.0
  0
LINE
  5
129
  8
0
  6
CONTINUOUS
 62
     7
 10
-2100.3958718648
 20
455.6578138897
 30
0.0
 11
-2103.3458845487
 21
455.6578138897
 31
0.0
  0
LINE
  5
12A
  8
0
  6
CONTINUOUS
 62
     7
 10
-2103.3458845487
 20
455.6578138897
 30
0.0
 11
-2103.6458747258
 21
455.9578040668
 31
0.0
  0
LINE
  5
12B
  8
0
  6
CONTINUOUS
 62
     7
 10
-2100.3958718648
 20
455.9578040668
 30
0.0
 11
-2094.8958830705
 21
455.9578040668
 31
0.0
  0
LINE
  5
12C
  8
0
  6
CONTINUOUS
 62
     7
 10
-2094.8958830705
 20
459.3578169176
 30
0.0
 11
-2100.3958718648
 21
459.3578169176
 31
0.0
  0
LINE
  5
12D
  8
0
  6
CONTINUOUS
 62
     7
 10
-2094.8958830705
 20
455.6578138897
 30
0.0
 11
-2100.3958718648
 21
455.6578138897
 31
0.0
  0
LINE
  5
12E
  8
0
  6
CONTINUOUS
 62
     7
 10
-2103.3458845487
 20
459.6578070947
 30
0.0
 11
-2100.3958718648
 21
459.6578070947
 31
0.0
  0
LINE
  5
12F
  8
0
  6
CONTINUOUS
 62
     7
 10
-2103.3458845487
 20
459.6578070947
 30
0.0
 11
-2103.6458747258
 21
459.3578169176
 31
0.0
  0
LINE
  5
130
  8
0
  6
CONTINUOUS
 62
     7
 10
-2100.3958718648
 20
459.6578070947
 30
0.0
 11
-2094.8958830705
 21
459.6578070947
 31
0.0
  0
LINE
  5
131
  8
0
  6
CONTINUOUS
 62
     7
 10
-2091.9458703866
 20
455.6578138897
 30
0.0
 11
-2094.8958830705
 21
455.6578138897
 31
0.0
  0
LINE
  5
132
  8
0
  6
CONTINUOUS
 62
     7
 10
-2094.8958830705
 20
455.9578040668
 30
0.0
 11
-2091.6458802095
 21
455.9578040668
 31
0.0
  0
LINE
  5
133
  8
0
  6
CONTINUOUS
 62
     7
 10
-2091.9458703866
 20
455.6578138897
 30
0.0
 11
-2091.6458802095
 21
455.9578040668
 31
0.0
  0
LINE
  5
134
  8
0
  6
CONTINUOUS
 62
     7
 10
-2091.6458802095
 20
459.3578169176
 30
0.0
 11
-2094.8958830705
 21
459.3578169176
 31
0.0
  0
LINE
  5
135
  8
0
  6
CONTINUOUS
 62
     7
 10
-2091.6458802095
 20
459.3578169176
 30
0.0
 11
-2091.6458802095
 21
455.9578040668
 31
0.0
  0
LINE
  5
136
  8
0
  6
CONTINUOUS
 62
     7
 10
-2094.8958830705
 20
459.6578070947
 30
0.0
 11
-2091.9458703866
 21
459.6578070947
 31
0.0
  0
LINE
  5
137
  8
0
  6
CONTINUOUS
 62
     7
 10
-2091.6458802095
 20
459.3578169176
 30
0.0
 11
-2091.9458703866
 21
459.6578070947
 31
0.0
  0
LINE
  5
138
  8
0
  6
CONTINUOUS
 62
     7
 10
-2091.6458802095
 20
455.9578040668
 30
0.0
 11
-2090.7789604535
 21
455.9578040668
 31
0.0
  0
LINE
  5
139
  8
0
  6
CONTINUOUS
 62
     7
 10
-2090.7789604535
 20
459.3578169176
 30
0.0
 11
-2091.6458802095
 21
459.3578169176
 31
0.0
  0
LINE
  5
13A
  8
0
  6
CONTINUOUS
 62
     7
 10
-2090.9989313951
 20
455.6578138897
 30
0.0
 11
-2091.9458703866
 21
455.6578138897
 31
0.0
  0
LINE
  5
13B
  8
0
  6
CONTINUOUS
 62
     7
 10
-2091.9458703866
 20
459.6578070947
 30
0.0
 11
-2090.9989313951
 21
459.6578070947
 31
0.0
  0
LINE
  5
13C
  8
0
  6
CONTINUOUS
 62
     7
 10
-2090.7789604535
 20
455.9578040668
 30
0.0
 11
-2062.5130967965
 21
455.9578040668
 31
0.0
  0
LINE
  5
13D
  8
0
  6
CONTINUOUS
 62
     7
 10
-2062.5130967965
 20
459.3578169176
 30
0.0
 11
-2090.7789604535
 21
459.3578169176
 31
0.0
  0
LINE
  5
13E
  8
0
  6
CONTINUOUS
 62
     7
 10
-2062.7330677381
 20
455.6578138897
 30
0.0
 11
-2090.9989313951
 21
455.6578138897
 31
0.0
  0
LINE
  5
13F
  8
0
  6
CONTINUOUS
 62
     7
 10
-2090.9989313951
 20
459.6578070947
 30
0.0
 11
-2062.7330677381
 21
459.6578070947
 31
0.0
  0
LINE
  5
140
  8
0
  6
CONTINUOUS
 62
     7
 10
-2062.5130967965
 20
455.9578040668
 30
0.0
 11
-2060.645891892
 21
455.9578040668
 31
0.0
  0
LINE
  5
141
  8
0
  6
CONTINUOUS
 62
     7
 10
-2060.645891892
 20
459.3578169176
 30
0.0
 11
-2062.5130967965
 21
459.3578169176
 31
0.0
  0
LINE
  5
142
  8
0
  6
CONTINUOUS
 62
     7
 10
-2060.645891892
 20
459.3578169176
 30
0.0
 11
-2060.645891892
 21
455.9578040668
 31
0.0
  0
LINE
  5
143
  8
0
  6
CONTINUOUS
 62
     7
 10
-2060.645891892
 20
455.9578040668
 30
0.0
 11
-2060.9458820691
 21
455.6578138897
 31
0.0
  0
LINE
  5
144
  8
0
  6
CONTINUOUS
 62
     7
 10
-2060.645891892
 20
459.3578169176
 30
0.0
 11
-2060.9458820691
 21
459.6578070947
 31
0.0
  0
LINE
  5
145
  8
0
  6
CONTINUOUS
 62
     7
 10
-2062.7330677381
 20
459.6578070947
 30
0.0
 11
-2060.9458820691
 21
459.6578070947
 31
0.0
  0
LINE
  5
146
  8
0
  6
CONTINUOUS
 62
     7
 10
-2085.2458910813
 20
239.6578101495
 30
0.0
 11
-2083.6458937993
 21
239.6578101495
 31
0.0
  0
LINE
  5
147
  8
0
  6
CONTINUOUS
 62
     7
 10
-2085.2458910813
 20
239.6578101495
 30
0.0
 11
-2085.2458910813
 21
271.6578116694
 31
0.0
  0
LINE
  5
148
  8
0
  6
CONTINUOUS
 62
     7
 10
-2083.6458937993
 20
271.6578116694
 30
0.0
 11
-2085.2458910813
 21
271.6578116694
 31
0.0
  0
LINE
  5
149
  8
0
  6
CONTINUOUS
 62
     7
 10
-2089.6458761563
 20
243.6578108051
 30
0.0
 11
-2085.2458910813
 21
239.6578101495
 31
0.0
  0
LINE
  5
14A
  8
0
  6
CONTINUOUS
 62
     7
 10
-2089.6458761563
 20
267.6578110138
 30
0.0
 11
-2089.6458761563
 21
243.6578108051
 31
0.0
  0
LINE
  5
14B
  8
0
  6
CONTINUOUS
 62
     7
 10
-2085.2458910813
 20
271.6578116694
 30
0.0
 11
-2089.6458761563
 21
267.6578110138
 31
0.0
  0
LINE
  5
14C
  8
0
  6
CONTINUOUS
 62
     7
 10
-1023.8377557649
 20
51.9578049013
 30
0.0
 11
-1023.5377506866
 21
51.6578147241
 31
0.0
  0
LINE
  5
14D
  8
0
  6
CONTINUOUS
 62
     7
 10
-1023.5377506866
 20
55.6578079292
 30
0.0
 11
-1023.8377557649
 21
55.3578177521
 31
0.0
  0
LINE
  5
14E
  8
0
  6
CONTINUOUS
 62
     7
 10
-1023.8377557649
 20
55.3578177521
 30
0.0
 11
-1023.8377557649
 21
51.9578049013
 31
0.0
  0
LINE
  5
14F
  8
0
  6
CONTINUOUS
 62
     7
 10
-1023.8377557649
 20
455.9578040668
 30
0.0
 11
-1023.5377506866
 21
455.6578138897
 31
0.0
  0
LINE
  5
150
  8
0
  6
CONTINUOUS
 62
     7
 10
-1023.5377506866
 20
459.6578070947
 30
0.0
 11
-1023.8377557649
 21
459.3578169176
 31
0.0
  0
LINE
  5
151
  8
0
  6
CONTINUOUS
 62
     7
 10
-1023.8377557649
 20
459.3578169176
 30
0.0
 11
-1023.8377557649
 21
455.9578040668
 31
0.0
  0
LINE
  5
152
  8
0
  6
CONTINUOUS
 62
     7
 10
-1022.9377554311
 20
454.1578183004
 30
0.0
 11
-1022.9643242015
 21
454.1571030447
 31
0.0
  0
LINE
  5
153
  8
0
  6
CONTINUOUS
 62
     7
 10
-1010.7111738576
 20
454.1571030447
 30
0.0
 11
-1010.737742628
 21
454.1578183004
 31
0.0
  0
LINE
  5
154
  8
0
  6
CONTINUOUS
 62
     7
 10
-1010.737742628
 20
57.1578035185
 30
0.0
 11
-1010.7111738576
 21
57.1585187742
 31
0.0
  0
LINE
  5
155
  8
0
  6
CONTINUOUS
 62
     7
 10
-1022.9643242015
 20
57.1585187742
 30
0.0
 11
-1022.9377554311
 21
57.1578035185
 31
0.0
  0
LINE
  5
156
  8
0
  6
CONTINUOUS
 62
     7
 10
-997.9377345695
 20
454.1578183004
 30
0.0
 11
-997.9643182411
 21
454.1571030447
 31
0.0
  0
LINE
  5
157
  8
0
  6
CONTINUOUS
 62
     7
 10
-997.9643182411
 20
57.1585187742
 30
0.0
 11
-997.9377345695
 21
57.1578035185
 31
0.0
  0
LINE
  5
158
  8
0
  6
CONTINUOUS
 62
     7
 10
-1010.5877475395
 20
57.1578035185
 30
0.0
 11
-1010.5877475395
 21
57.1585187742
 31
0.0
  0
LINE
  5
159
  8
0
  6
CONTINUOUS
 62
     7
 10
-988.83774444
 20
55.6578079292
 30
0.0
 11
-988.83774444
 21
455.6578138897
 31
0.0
  0
LINE
  5
15A
  8
0
  6
CONTINUOUS
 62
     7
 10
-948.8377527847
 20
455.6578138897
 30
0.0
 11
-948.8377527847
 21
55.6578079292
 31
0.0
  0
LINE
  5
15B
  8
0
  6
CONTINUOUS
 62
     7
 10
-1256.3377487055
 20
57.1585187742
 30
0.0
 11
-988.83774444
 21
57.1585187742
 31
0.0
  0
LINE
  5
15C
  8
0
  6
CONTINUOUS
 62
     7
 10
-988.83774444
 20
454.1571030447
 30
0.0
 11
-1256.3377487055
 21
454.1571030447
 31
0.0
  0
POLYLINE
  5
15D
  8
0
  6
CONTINUOUS
 62
     7
 66
     1
 10
0.0
 20
0.0
 30
0.0
  0
VERTEX
  5
515
  8
0
  6
CONTINUOUS
 62
     7
 10
-1256.3377487055
 20
454.1571030447
 30
0.0
  0
VERTEX
  5
516
  8
0
  6
CONTINUOUS
 62
     7
 10
-1256.8586933008
 20
454.1343191692
 30
0.0
  0
VERTEX
  5
517
  8
0
  6
CONTINUOUS
 62
     7
 10
-1257.3638091377
 20
454.0666827986
 30
0.0
  0
VERTEX
  5
518
  8
0
  6
CONTINUOUS
 62
     7
 10
-1257.8377487185
 20
453.9562353918
 30
0.0
  0
VERTEX
  5
519
  8
0
  6
CONTINUOUS
 62
     7
 10
-1258.2661115844
 20
453.8063297102
 30
0.0
  0
VERTEX
  5
51A
  8
0
  6
CONTINUOUS
 62
     7
 10
-1258.6358820368
 20
453.6215404102
 30
0.0
  0
VERTEX
  5
51B
  8
0
  6
CONTINUOUS
 62
     7
 10
-1258.9358249494
 20
453.4074554273
 30
0.0
  0
VERTEX
  5
51C
  8
0
  6
CONTINUOUS
 62
     7
 10
-1259.1568265885
 20
453.1706014702
 30
0.0
  0
VERTEX
  5
51D
  8
0
  6
CONTINUOUS
 62
     7
 10
-1259.2921719912
 20
452.9181608984
 30
0.0
  0
VERTEX
  5
51E
  8
0
  6
CONTINUOUS
 62
     7
 10
-1259.3377487316
 20
452.65780781
 30
0.0
  0
SEQEND
  5
51F
  8
0
  6
CONTINUOUS
 62
     7
  0
POLYLINE
  5
15E
  8
0
  6
CONTINUOUS
 62
     7
 66
     1
 10
0.0
 20
0.0
 30
0.0
  0
VERTEX
  5
520
  8
0
  6
CONTINUOUS
 62
     7
 10
-1259.3377487316
 20
58.6578140089
 30
0.0
  0
VERTEX
  5
521
  8
0
  6
CONTINUOUS
 62
     7
 10
-1259.2921719912
 20
58.3974609205
 30
0.0
  0
VERTEX
  5
522
  8
0
  6
CONTINUOUS
 62
     7
 10
-1259.1568265885
 20
58.1450203487
 30
0.0
  0
VERTEX
  5
523
  8
0
  6
CONTINUOUS
 62
     7
 10
-1258.9358249494
 20
57.9081663915
 30
0.0
  0
VERTEX
  5
524
  8
0
  6
CONTINUOUS
 62
     7
 10
-1258.6358820368
 20
57.6940814087
 30
0.0
  0
VERTEX
  5
525
  8
0
  6
CONTINUOUS
 62
     7
 10
-1258.2661115844
 20
57.5092921087
 30
0.0
  0
VERTEX
  5
526
  8
0
  6
CONTINUOUS
 62
     7
 10
-1257.8377487185
 20
57.3593864271
 30
0.0
  0
VERTEX
  5
527
  8
0
  6
CONTINUOUS
 62
     7
 10
-1257.3638091377
 20
57.2489390203
 30
0.0
  0
VERTEX
  5
528
  8
0
  6
CONTINUOUS
 62
     7
 10
-1256.8586933008
 20
57.1813026497
 30
0.0
  0
VERTEX
  5
529
  8
0
  6
CONTINUOUS
 62
     7
 10
-1256.3377487055
 20
57.1585187742
 30
0.0
  0
SEQEND
  5
52A
  8
0
  6
CONTINUOUS
 62
     7
  0
LINE
  5
15F
  8
0
  6
CONTINUOUS
 62
     7
 10
-1259.3377487316
 20
452.65780781
 30
0.0
 11
-1259.3377487316
 21
58.6578140089
 31
0.0
  0
LINE
  5
160
  8
0
  6
CONTINUOUS
 62
     7
 10
-1256.3377487055
 20
454.1578183004
 30
0.0
 11
-988.83774444
 21
454.1578183004
 31
0.0
  0
LINE
  5
161
  8
0
  6
CONTINUOUS
 62
     7
 10
-1256.3377487055
 20
455.6578138897
 30
0.0
 11
-1011.055465187
 21
455.6578138897
 31
0.0
  0
ARC
  5
162
  8
0
  6
CONTINUOUS
 62
     7
 10
-1256.3377342598
 20
452.657799418
 30
0.0
 40
3.000014471762511
 50
90.0002758907
 51
179.9998397243
  0
LINE
  5
163
  8
0
  6
CONTINUOUS
 62
     7
 10
-1011.055465187
 20
55.6578079292
 30
0.0
 11
-1256.3377487055
 21
55.6578079292
 31
0.0
  0
LINE
  5
164
  8
0
  6
CONTINUOUS
 62
     7
 10
-988.83774444
 20
57.1578035185
 30
0.0
 11
-1256.3377487055
 21
57.1578035185
 31
0.0
  0
ARC
  5
165
  8
0
  6
CONTINUOUS
 62
     7
 10
-1256.3377340675
 20
58.6578225933
 30
0.0
 40
3.000014664104135
 50
180.0001639491
 51
269.9997204359
  0
LINE
  5
166
  8
0
  6
CONTINUOUS
 62
     7
 10
-951.087738718
 20
51.6578147241
 30
0.0
 11
-987.0355384006
 21
51.6578147241
 31
0.0
  0
LINE
  5
167
  8
0
  6
CONTINUOUS
 62
     7
 10
-987.0355384006
 20
51.9578049013
 30
0.0
 11
-951.087738718
 21
51.9578049013
 31
0.0
  0
LINE
  5
168
  8
0
  6
CONTINUOUS
 62
     7
 10
-951.087738718
 20
55.3578177521
 30
0.0
 11
-987.0355384006
 21
55.3578177521
 31
0.0
  0
LINE
  5
169
  8
0
  6
CONTINUOUS
 62
     7
 10
-987.0355384006
 20
55.6578079292
 30
0.0
 11
-951.087738718
 21
55.6578079292
 31
0.0
  0
LINE
  5
16A
  8
0
  6
CONTINUOUS
 62
     7
 10
-951.087738718
 20
51.9578049013
 30
0.0
 11
-947.837735857
 21
51.9578049013
 31
0.0
  0
LINE
  5
16B
  8
0
  6
CONTINUOUS
 62
     7
 10
-947.837735857
 20
55.3578177521
 30
0.0
 11
-951.087738718
 21
55.3578177521
 31
0.0
  0
LINE
  5
16C
  8
0
  6
CONTINUOUS
 62
     7
 10
-947.837735857
 20
55.3578177521
 30
0.0
 11
-947.837735857
 21
51.9578049013
 31
0.0
  0
LINE
  5
16D
  8
0
  6
CONTINUOUS
 62
     7
 10
-948.1377558364
 20
51.6578147241
 30
0.0
 11
-951.087738718
 21
51.6578147241
 31
0.0
  0
LINE
  5
16E
  8
0
  6
CONTINUOUS
 62
     7
 10
-948.1377558364
 20
51.6578147241
 30
0.0
 11
-947.837735857
 21
51.9578049013
 31
0.0
  0
LINE
  5
16F
  8
0
  6
CONTINUOUS
 62
     7
 10
-951.087738718
 20
55.6578079292
 30
0.0
 11
-948.1377558364
 21
55.6578079292
 31
0.0
  0
LINE
  5
170
  8
0
  6
CONTINUOUS
 62
     7
 10
-948.1377558364
 20
55.6578079292
 30
0.0
 11
-947.837735857
 21
55.3578177521
 31
0.0
  0
LINE
  5
171
  8
0
  6
CONTINUOUS
 62
     7
 10
-989.0414135112
 20
55.6578079292
 30
0.0
 11
-987.0355384006
 21
55.6578079292
 31
0.0
  0
LINE
  5
172
  8
0
  6
CONTINUOUS
 62
     7
 10
-987.0355384006
 20
55.3578177521
 30
0.0
 11
-989.2453806056
 21
55.3578177521
 31
0.0
  0
LINE
  5
173
  8
0
  6
CONTINUOUS
 62
     7
 10
-989.2453806056
 20
51.9578049013
 30
0.0
 11
-987.0355384006
 21
51.9578049013
 31
0.0
  0
LINE
  5
174
  8
0
  6
CONTINUOUS
 62
     7
 10
-987.0355384006
 20
51.6578147241
 30
0.0
 11
-989.0414135112
 21
51.6578147241
 31
0.0
  0
LINE
  5
175
  8
0
  6
CONTINUOUS
 62
     7
 10
-989.2453806056
 20
55.3578177521
 30
0.0
 11
-1021.5974257841
 21
55.3578177521
 31
0.0
  0
LINE
  5
176
  8
0
  6
CONTINUOUS
 62
     7
 10
-1011.055465187
 20
55.6578079292
 30
0.0
 11
-989.0414135112
 21
55.6578079292
 31
0.0
  0
LINE
  5
177
  8
0
  6
CONTINUOUS
 62
     7
 10
-1021.5974257841
 20
51.9578049013
 30
0.0
 11
-989.2453806056
 21
51.9578049013
 31
0.0
  0
LINE
  5
178
  8
0
  6
CONTINUOUS
 62
     7
 10
-989.0414135112
 20
51.6578147241
 30
0.0
 11
-1021.3934437885
 21
51.6578147241
 31
0.0
  0
LINE
  5
179
  8
0
  6
CONTINUOUS
 62
     7
 10
-1023.8377557649
 20
51.9578049013
 30
0.0
 11
-1021.5974257841
 21
51.9578049013
 31
0.0
  0
LINE
  5
17A
  8
0
  6
CONTINUOUS
 62
     7
 10
-1021.3934437885
 20
51.6578147241
 30
0.0
 11
-1023.5377506866
 21
51.6578147241
 31
0.0
  0
LINE
  5
17B
  8
0
  6
CONTINUOUS
 62
     7
 10
-1021.5974257841
 20
55.3578177521
 30
0.0
 11
-1023.8377557649
 21
55.3578177521
 31
0.0
  0
LINE
  5
17C
  8
0
  6
CONTINUOUS
 62
     7
 10
-987.0355384006
 20
459.6578070947
 30
0.0
 11
-951.087738718
 21
459.6578070947
 31
0.0
  0
LINE
  5
17D
  8
0
  6
CONTINUOUS
 62
     7
 10
-951.087738718
 20
459.3578169176
 30
0.0
 11
-987.0355384006
 21
459.3578169176
 31
0.0
  0
LINE
  5
17E
  8
0
  6
CONTINUOUS
 62
     7
 10
-987.0355384006
 20
455.9578040668
 30
0.0
 11
-951.087738718
 21
455.9578040668
 31
0.0
  0
LINE
  5
17F
  8
0
  6
CONTINUOUS
 62
     7
 10
-951.087738718
 20
455.6578138897
 30
0.0
 11
-987.0355384006
 21
455.6578138897
 31
0.0
  0
LINE
  5
180
  8
0
  6
CONTINUOUS
 62
     7
 10
-951.087738718
 20
455.9578040668
 30
0.0
 11
-947.837735857
 21
455.9578040668
 31
0.0
  0
LINE
  5
181
  8
0
  6
CONTINUOUS
 62
     7
 10
-947.837735857
 20
459.3578169176
 30
0.0
 11
-951.087738718
 21
459.3578169176
 31
0.0
  0
LINE
  5
182
  8
0
  6
CONTINUOUS
 62
     7
 10
-947.837735857
 20
459.3578169176
 30
0.0
 11
-947.837735857
 21
455.9578040668
 31
0.0
  0
LINE
  5
183
  8
0
  6
CONTINUOUS
 62
     7
 10
-948.1377558364
 20
455.6578138897
 30
0.0
 11
-951.087738718
 21
455.6578138897
 31
0.0
  0
LINE
  5
184
  8
0
  6
CONTINUOUS
 62
     7
 10
-948.1377558364
 20
455.6578138897
 30
0.0
 11
-947.837735857
 21
455.9578040668
 31
0.0
  0
LINE
  5
185
  8
0
  6
CONTINUOUS
 62
     7
 10
-951.087738718
 20
459.6578070947
 30
0.0
 11
-948.1377558364
 21
459.6578070947
 31
0.0
  0
LINE
  5
186
  8
0
  6
CONTINUOUS
 62
     7
 10
-948.1377558364
 20
459.6578070947
 30
0.0
 11
-947.837735857
 21
459.3578169176
 31
0.0
  0
LINE
  5
187
  8
0
  6
CONTINUOUS
 62
     7
 10
-989.0414135112
 20
459.6578070947
 30
0.0
 11
-987.0355384006
 21
459.6578070947
 31
0.0
  0
LINE
  5
188
  8
0
  6
CONTINUOUS
 62
     7
 10
-987.0355384006
 20
459.3578169176
 30
0.0
 11
-989.2453806056
 21
459.3578169176
 31
0.0
  0
LINE
  5
189
  8
0
  6
CONTINUOUS
 62
     7
 10
-989.2453806056
 20
455.9578040668
 30
0.0
 11
-987.0355384006
 21
455.9578040668
 31
0.0
  0
LINE
  5
18A
  8
0
  6
CONTINUOUS
 62
     7
 10
-987.0355384006
 20
455.6578138897
 30
0.0
 11
-989.0414135112
 21
455.6578138897
 31
0.0
  0
LINE
  5
18B
  8
0
  6
CONTINUOUS
 62
     7
 10
-989.2453806056
 20
459.3578169176
 30
0.0
 11
-1021.5974257841
 21
459.3578169176
 31
0.0
  0
LINE
  5
18C
  8
0
  6
CONTINUOUS
 62
     7
 10
-1021.3934437885
 20
459.6578070947
 30
0.0
 11
-989.0414135112
 21
459.6578070947
 31
0.0
  0
LINE
  5
18D
  8
0
  6
CONTINUOUS
 62
     7
 10
-1021.5974257841
 20
455.9578040668
 30
0.0
 11
-989.2453806056
 21
455.9578040668
 31
0.0
  0
LINE
  5
18E
  8
0
  6
CONTINUOUS
 62
     7
 10
-989.0414135112
 20
455.6578138897
 30
0.0
 11
-1011.055465187
 21
455.6578138897
 31
0.0
  0
LINE
  5
18F
  8
0
  6
CONTINUOUS
 62
     7
 10
-1023.8377557649
 20
455.9578040668
 30
0.0
 11
-1021.5974257841
 21
455.9578040668
 31
0.0
  0
LINE
  5
190
  8
0
  6
CONTINUOUS
 62
     7
 10
-1021.5974257841
 20
459.3578169176
 30
0.0
 11
-1023.8377557649
 21
459.3578169176
 31
0.0
  0
LINE
  5
191
  8
0
  6
CONTINUOUS
 62
     7
 10
-1023.5377506866
 20
459.6578070947
 30
0.0
 11
-1021.3934437885
 21
459.6578070947
 31
0.0
  0
ARC
  5
192
  8
0
  6
CONTINUOUS
 62
     7
 10
-1012.8377487317
 20
255.6578109094
 30
0.0
 40
15.99999999999963
 50
90.0
 51
270.0
  0
ARC
  5
193
  8
0
  6
CONTINUOUS
 62
     7
 10
-1012.8377487317
 20
255.6578109094
 30
0.0
 40
12.00000000000043
 50
90.0
 51
270.0
  0
ARC
  5
194
  8
0
  6
CONTINUOUS
 62
     7
 10
-1012.8377487317
 20
255.6578109094
 30
0.0
 40
12.00000000000043
 50
270.0
 51
90.0
  0
ARC
  5
195
  8
0
  6
CONTINUOUS
 62
     7
 10
-1012.8377487317
 20
255.6578109094
 30
0.0
 40
8.349999999999937
 50
90.0
 51
270.0
  0
ARC
  5
196
  8
0
  6
CONTINUOUS
 62
     7
 10
-1012.8377487317
 20
255.6578109094
 30
0.0
 40
8.349999999999937
 50
270.0
 51
90.0
  0
ARC
  5
197
  8
0
  6
CONTINUOUS
 62
     7
 10
-1012.8377487317
 20
255.6578109094
 30
0.0
 40
15.99999999999963
 50
270.0
 51
90.0
  0
ARC
  5
198
  8
0
  6
CONTINUOUS
 62
     7
 10
-1012.8377487317
 20
255.6578109094
 30
0.0
 40
8.049999999999983
 50
90.0
 51
270.0
  0
ARC
  5
199
  8
0
  6
CONTINUOUS
 62
     7
 10
-1012.8377487317
 20
255.6578109094
 30
0.0
 40
8.049999999999983
 50
270.0
 51
90.0
  0
LINE
  5
19A
  8
0
  6
CONTINUOUS
 62
     7
 10
-1004.9796359195
 20
254.1578108964
 30
0.0
 11
-1008.0680505886
 21
254.1578108964
 31
0.0
  0
ARC
  5
19B
  8
0
  6
CONTINUOUS
 62
     7
 10
-1012.8377487317
 20
255.6578109094
 30
0.0
 40
8.000000000000968
 50
190.8069228749
 51
349.1930771251
  0
LINE
  5
19C
  8
0
  6
CONTINUOUS
 62
     7
 10
-1020.6958608283
 20
254.1578108964
 30
0.0
 11
-1017.6074461593
 21
254.1578108964
 31
0.0
  0
ARC
  5
19D
  8
0
  6
CONTINUOUS
 62
     7
 10
-1012.8377487317
 20
255.6578109094
 30
0.0
 40
5.000000000001156
 50
197.4576031237
 51
342.5423968763
  0
ARC
  5
19E
  8
0
  6
CONTINUOUS
 62
     7
 10
-1012.8377487317
 20
255.6578109094
 30
0.0
 40
1.500000000000455
 50
360.0
 51
180.0
  0
ARC
  5
19F
  8
0
  6
CONTINUOUS
 62
     7
 10
-1012.8377487317
 20
255.6578109094
 30
0.0
 40
1.500000000000455
 50
180.0
 51
360.0
  0
LINE
  5
1A0
  8
0
  6
CONTINUOUS
 62
     7
 10
-1020.6958608283
 20
257.1578109225
 30
0.0
 11
-1017.6074461593
 21
257.1578109225
 31
0.0
  0
LINE
  5
1A1
  8
0
  6
CONTINUOUS
 62
     7
 10
-1004.9796359195
 20
257.1578109225
 30
0.0
 11
-1008.0680505886
 21
257.1578109225
 31
0.0
  0
ARC
  5
1A2
  8
0
  6
CONTINUOUS
 62
     7
 10
-1012.8377487317
 20
255.6578109094
 30
0.0
 40
5.000000000000623
 50
17.4576031237
 51
162.5423968763
  0
ARC
  5
1A3
  8
0
  6
CONTINUOUS
 62
     7
 10
-1012.8377487317
 20
255.6578109094
 30
0.0
 40
8.00000000000035
 50
10.8069228749
 51
169.1930771251
  0
ARC
  5
1A4
  8
0
  6
CONTINUOUS
 62
     7
 10
-1012.8377487317
 20
255.6578109094
 30
0.0
 40
8.000000000000536
 50
169.1930771251
 51
190.8069228749
  0
ARC
  5
1A5
  8
0
  6
CONTINUOUS
 62
     7
 10
-1012.8377487317
 20
255.6578109094
 30
0.0
 40
8.000000000000096
 50
349.1930771251
 51
10.8069228749
  0
LINE
  5
1A6
  8
0
  6
CONTINUOUS
 62
     7
 10
-1191.3377450361
 20
454.1578183004
 30
0.0
 11
-1191.3377450361
 21
454.1571030447
 31
0.0
  0
LINE
  5
1A7
  8
0
  6
CONTINUOUS
 62
     7
 10
-1201.3377504005
 20
454.1571030447
 30
0.0
 11
-1201.3377504005
 21
454.1578183004
 31
0.0
  0
LINE
  5
1A8
  8
0
  6
CONTINUOUS
 62
     7
 10
-1157.4028836145
 20
454.1571030447
 30
0.0
 11
-1157.3377506389
 21
454.1578183004
 31
0.0
  0
LINE
  5
1A9
  8
0
  6
CONTINUOUS
 62
     7
 10
-1081.3377456321
 20
454.1578183004
 30
0.0
 11
-1081.2726126565
 21
454.1571030447
 31
0.0
  0
LINE
  5
1AA
  8
0
  6
CONTINUOUS
 62
     7
 10
-1047.337751235
 20
454.1571030447
 30
0.0
 11
-1047.337751235
 21
454.1578183004
 31
0.0
  0
LINE
  5
1AB
  8
0
  6
CONTINUOUS
 62
     7
 10
-1037.3377458705
 20
454.1578183004
 30
0.0
 11
-1037.3377458705
 21
454.1571030447
 31
0.0
  0
LINE
  5
1AC
  8
0
  6
CONTINUOUS
 62
     7
 10
-735.1048271616
 20
55.6578079292
 30
0.0
 11
-735.1048271616
 21
455.6578138897
 31
0.0
  0
LINE
  5
1AD
  8
0
  6
CONTINUOUS
 62
     7
 10
-725.104806896
 20
455.6578138897
 30
0.0
 11
-725.104806896
 21
55.6578079292
 31
0.0
  0
LINE
  5
1AE
  8
0
  6
CONTINUOUS
 62
     7
 10
-107.1048359831
 20
55.6578079292
 30
0.0
 11
-107.1048359831
 21
455.6578138897
 31
0.0
  0
LINE
  5
1AF
  8
0
  6
CONTINUOUS
 62
     7
 10
-97.1048157175
 20
455.6578138897
 30
0.0
 11
-97.1048157175
 21
55.6578079292
 31
0.0
  0
POLYLINE
  5
1B0
  8
0
  6
CONTINUOUS
 62
     7
 66
     1
 10
0.0
 20
0.0
 30
0.0
  0
VERTEX
  5
52B
  8
0
  6
CONTINUOUS
 62
     7
 10
-713.1048123796
 20
452.65780781
 30
0.0
  0
VERTEX
  5
52C
  8
0
  6
CONTINUOUS
 62
     7
 10
-713.690100189
 20
452.9503027031
 30
0.0
  0
VERTEX
  5
52D
  8
0
  6
CONTINUOUS
 62
     7
 10
-714.2528574427
 20
453.2315621206
 30
0.0
  0
VERTEX
  5
52E
  8
0
  6
CONTINUOUS
 62
     7
 10
-714.7715370615
 20
453.4907678196
 30
0.0
  0
VERTEX
  5
52F
  8
0
  6
CONTINUOUS
 62
     7
 10
-715.2261416872
 20
453.7179658243
 30
0.0
  0
VERTEX
  5
530
  8
0
  6
CONTINUOUS
 62
     7
 10
-715.5992369612
 20
453.9044240543
 30
0.0
  0
VERTEX
  5
531
  8
0
  6
CONTINUOUS
 62
     7
 10
-715.876458164
 20
454.0429750511
 30
0.0
  0
VERTEX
  5
532
  8
0
  6
CONTINUOUS
 62
     7
 10
-716.0471658667
 20
454.1282991001
 30
0.0
  0
VERTEX
  5
533
  8
0
  6
CONTINUOUS
 62
     7
 10
-716.1048333605
 20
454.1571030447
 30
0.0
  0
SEQEND
  5
534
  8
0
  6
CONTINUOUS
 62
     7
  0
LINE
  5
1B1
  8
0
  6
CONTINUOUS
 62
     7
 10
-714.6048228701
 20
454.1571030447
 30
0.0
 11
-716.1048333605
 21
454.1571030447
 31
0.0
  0
POLYLINE
  5
1B2
  8
0
  6
CONTINUOUS
 62
     7
 66
     1
 10
0.0
 20
0.0
 30
0.0
  0
VERTEX
  5
535
  8
0
  6
CONTINUOUS
 62
     7
 10
-713.1048123796
 20
452.65780781
 30
0.0
  0
VERTEX
  5
536
  8
0
  6
CONTINUOUS
 62
     7
 10
-713.3652846773
 20
452.9181608984
 30
0.0
  0
VERTEX
  5
537
  8
0
  6
CONTINUOUS
 62
     7
 10
-713.6178593596
 20
453.1706014702
 30
0.0
  0
VERTEX
  5
538
  8
0
  6
CONTINUOUS
 62
     7
 10
-713.8548176249
 20
453.4074554273
 30
0.0
  0
VERTEX
  5
539
  8
0
  6
CONTINUOUS
 62
     7
 10
-714.0690069159
 20
453.6215404102
 30
0.0
  0
VERTEX
  5
53A
  8
0
  6
CONTINUOUS
 62
     7
 10
-714.253900524
 20
453.8063297102
 30
0.0
  0
VERTEX
  5
53B
  8
0
  6
CONTINUOUS
 62
     7
 10
-714.4038658102
 20
453.9562353918
 30
0.0
  0
VERTEX
  5
53C
  8
0
  6
CONTINUOUS
 62
     7
 10
-714.5143728216
 20
454.0666827986
 30
0.0
  0
VERTEX
  5
53D
  8
0
  6
CONTINUOUS
 62
     7
 10
-714.5820240934
 20
454.1343191692
 30
0.0
  0
VERTEX
  5
53E
  8
0
  6
CONTINUOUS
 62
     7
 10
-714.6048228701
 20
454.1571030447
 30
0.0
  0
SEQEND
  5
53F
  8
0
  6
CONTINUOUS
 62
     7
  0
POLYLINE
  5
1B3
  8
0
  6
CONTINUOUS
 62
     7
 66
     1
 10
0.0
 20
0.0
 30
0.0
  0
VERTEX
  5
540
  8
0
  6
CONTINUOUS
 62
     7
 10
-716.1048333605
 20
57.1585187742
 30
0.0
  0
VERTEX
  5
541
  8
0
  6
CONTINUOUS
 62
     7
 10
-716.0592358072
 20
57.1813026497
 30
0.0
  0
VERTEX
  5
542
  8
0
  6
CONTINUOUS
 62
     7
 10
-715.9239034613
 20
57.2489390203
 30
0.0
  0
VERTEX
  5
543
  8
0
  6
CONTINUOUS
 62
     7
 10
-715.7028894384
 20
57.3593864271
 30
0.0
  0
VERTEX
  5
544
  8
0
  6
CONTINUOUS
 62
     7
 10
-715.4029588659
 20
57.5092921087
 30
0.0
  0
VERTEX
  5
545
  8
0
  6
CONTINUOUS
 62
     7
 10
-715.0331716497
 20
57.6940814087
 30
0.0
  0
VERTEX
  5
546
  8
0
  6
CONTINUOUS
 62
     7
 10
-714.6048228701
 20
57.9081663915
 30
0.0
  0
VERTEX
  5
547
  8
0
  6
CONTINUOUS
 62
     7
 10
-714.1308765371
 20
58.1450203487
 30
0.0
  0
VERTEX
  5
548
  8
0
  6
CONTINUOUS
 62
     7
 10
-713.625756975
 20
58.3974609205
 30
0.0
  0
VERTEX
  5
549
  8
0
  6
CONTINUOUS
 62
     7
 10
-713.1048123796
 20
58.6578140089
 30
0.0
  0
SEQEND
  5
54A
  8
0
  6
CONTINUOUS
 62
     7
  0
LINE
  5
1B4
  8
0
  6
CONTINUOUS
 62
     7
 10
-716.1048333605
 20
57.1585187742
 30
0.0
 11
-716.1048333605
 21
454.1571030447
 31
0.0
  0
POLYLINE
  5
1B5
  8
0
  6
CONTINUOUS
 62
     7
 66
     1
 10
0.0
 20
0.0
 30
0.0
  0
VERTEX
  5
54B
  8
0
  6
CONTINUOUS
 62
     7
 10
-714.6048228701
 20
57.1585187742
 30
0.0
  0
VERTEX
  5
54C
  8
0
  6
CONTINUOUS
 62
     7
 10
-714.5820240934
 20
57.1813026497
 30
0.0
  0
VERTEX
  5
54D
  8
0
  6
CONTINUOUS
 62
     7
 10
-714.5143728216
 20
57.2489390203
 30
0.0
  0
VERTEX
  5
54E
  8
0
  6
CONTINUOUS
 62
     7
 10
-714.4038658102
 20
57.3593864271
 30
0.0
  0
VERTEX
  5
54F
  8
0
  6
CONTINUOUS
 62
     7
 10
-714.253900524
 20
57.5092921087
 30
0.0
  0
VERTEX
  5
550
  8
0
  6
CONTINUOUS
 62
     7
 10
-714.0690069159
 20
57.6940814087
 30
0.0
  0
VERTEX
  5
551
  8
0
  6
CONTINUOUS
 62
     7
 10
-713.8548176249
 20
57.9081663915
 30
0.0
  0
VERTEX
  5
552
  8
0
  6
CONTINUOUS
 62
     7
 10
-713.6178593596
 20
58.1450203487
 30
0.0
  0
VERTEX
  5
553
  8
0
  6
CONTINUOUS
 62
     7
 10
-713.3652846773
 20
58.3974609205
 30
0.0
  0
VERTEX
  5
554
  8
0
  6
CONTINUOUS
 62
     7
 10
-713.1048123796
 20
58.6578140089
 30
0.0
  0
SEQEND
  5
555
  8
0
  6
CONTINUOUS
 62
     7
  0
LINE
  5
1B6
  8
0
  6
CONTINUOUS
 62
     7
 10
-714.6048228701
 20
57.1585187742
 30
0.0
 11
-716.1048333605
 21
57.1585187742
 31
0.0
  0
POLYLINE
  5
1B7
  8
0
  6
CONTINUOUS
 62
     7
 66
     1
 10
0.0
 20
0.0
 30
0.0
  0
VERTEX
  5
556
  8
0
  6
CONTINUOUS
 62
     7
 10
-117.6055352648
 20
55.6578079292
 30
0.0
  0
VERTEX
  5
557
  8
0
  6
CONTINUOUS
 62
     7
 10
-117.6283042391
 20
55.7033905813
 30
0.0
  0
VERTEX
  5
558
  8
0
  6
CONTINUOUS
 62
     7
 10
-117.6959555109
 20
55.8387378284
 30
0.0
  0
VERTEX
  5
559
  8
0
  6
CONTINUOUS
 62
     7
 10
-117.8064029177
 20
56.0597369501
 30
0.0
  0
VERTEX
  5
55A
  8
0
  6
CONTINUOUS
 62
     7
 10
-117.9563085993
 20
56.3596824238
 30
0.0
  0
VERTEX
  5
55B
  8
0
  6
CONTINUOUS
 62
     7
 10
-118.1410829981
 20
56.7294547388
 30
0.0
  0
VERTEX
  5
55C
  8
0
  6
CONTINUOUS
 62
     7
 10
-118.3551828821
 20
57.1578035185
 30
0.0
  0
VERTEX
  5
55D
  8
0
  6
CONTINUOUS
 62
     7
 10
-118.5920219381
 20
57.6317498514
 30
0.0
  0
VERTEX
  5
55E
  8
0
  6
CONTINUOUS
 62
     7
 10
-118.8444774111
 20
58.1368694136
 30
0.0
  0
VERTEX
  5
55F
  8
0
  6
CONTINUOUS
 62
     7
 10
-119.1048304995
 20
58.6578140089
 30
0.0
  0
SEQEND
  5
560
  8
0
  6
CONTINUOUS
 62
     7
  0
LINE
  5
1B8
  8
0
  6
CONTINUOUS
 62
     7
 10
-117.6055352648
 20
55.6578079292
 30
0.0
 11
-714.6041076143
 21
55.6578079292
 31
0.0
  0
POLYLINE
  5
1B9
  8
0
  6
CONTINUOUS
 62
     7
 66
     1
 10
0.0
 20
0.0
 30
0.0
  0
VERTEX
  5
561
  8
0
  6
CONTINUOUS
 62
     7
 10
-713.1048123796
 20
58.6578140089
 30
0.0
  0
VERTEX
  5
562
  8
0
  6
CONTINUOUS
 62
     7
 10
-713.3973221739
 20
58.0725411007
 30
0.0
  0
VERTEX
  5
563
  8
0
  6
CONTINUOUS
 62
     7
 10
-713.6785666903
 20
57.5097540447
 30
0.0
  0
VERTEX
  5
564
  8
0
  6
CONTINUOUS
 62
     7
 10
-713.9377872904
 20
56.9911042282
 30
0.0
  0
VERTEX
  5
565
  8
0
  6
CONTINUOUS
 62
     7
 10
-714.1649703939
 20
56.5364847013
 30
0.0
  0
VERTEX
  5
566
  8
0
  6
CONTINUOUS
 62
     7
 10
-714.3514435251
 20
56.1634043285
 30
0.0
  0
VERTEX
  5
567
  8
0
  6
CONTINUOUS
 62
     7
 10
-714.4899945219
 20
55.8861682245
 30
0.0
  0
VERTEX
  5
568
  8
0
  6
CONTINUOUS
 62
     7
 10
-714.5753185709
 20
55.7154605219
 30
0.0
  0
VERTEX
  5
569
  8
0
  6
CONTINUOUS
 62
     7
 10
-714.6041076143
 20
55.6578079292
 30
0.0
  0
SEQEND
  5
56A
  8
0
  6
CONTINUOUS
 62
     7
  0
LINE
  5
1BA
  8
0
  6
CONTINUOUS
 62
     7
 10
-714.6041076143
 20
57.1578035185
 30
0.0
 11
-714.6041076143
 21
55.6578079292
 31
0.0
  0
POLYLINE
  5
1BB
  8
0
  6
CONTINUOUS
 62
     7
 66
     1
 10
0.0
 20
0.0
 30
0.0
  0
VERTEX
  5
56B
  8
0
  6
CONTINUOUS
 62
     7
 10
-713.1048123796
 20
58.6578140089
 30
0.0
  0
VERTEX
  5
56C
  8
0
  6
CONTINUOUS
 62
     7
 10
-713.3973221739
 20
58.3651701042
 30
0.0
  0
VERTEX
  5
56D
  8
0
  6
CONTINUOUS
 62
     7
 10
-713.6785666903
 20
58.0837914774
 30
0.0
  0
VERTEX
  5
56E
  8
0
  6
CONTINUOUS
 62
     7
 10
-713.9377872904
 20
57.824451668
 30
0.0
  0
VERTEX
  5
56F
  8
0
  6
CONTINUOUS
 62
     7
 10
-714.1649703939
 20
57.5971493551
 30
0.0
  0
VERTEX
  5
570
  8
0
  6
CONTINUOUS
 62
     7
 10
-714.3514435251
 20
57.4106017181
 30
0.0
  0
VERTEX
  5
571
  8
0
  6
CONTINUOUS
 62
     7
 10
-714.4899945219
 20
57.2719911167
 30
0.0
  0
VERTEX
  5
572
  8
0
  6
CONTINUOUS
 62
     7
 10
-714.5753185709
 20
57.1866372654
 30
0.0
  0
VERTEX
  5
573
  8
0
  6
CONTINUOUS
 62
     7
 10
-714.6041076143
 20
57.1578035185
 30
0.0
  0
SEQEND
  5
574
  8
0
  6
CONTINUOUS
 62
     7
  0
POLYLINE
  5
1BC
  8
0
  6
CONTINUOUS
 62
     7
 66
     1
 10
0.0
 20
0.0
 30
0.0
  0
VERTEX
  5
575
  8
0
  6
CONTINUOUS
 62
     7
 10
-714.6041076143
 20
455.6578138897
 30
0.0
  0
VERTEX
  5
576
  8
0
  6
CONTINUOUS
 62
     7
 10
-714.58133864
 20
455.6122312376
 30
0.0
  0
VERTEX
  5
577
  8
0
  6
CONTINUOUS
 62
     7
 10
-714.5136873682
 20
455.4768839905
 30
0.0
  0
VERTEX
  5
578
  8
0
  6
CONTINUOUS
 62
     7
 10
-714.4032399614
 20
455.2558848688
 30
0.0
  0
VERTEX
  5
579
  8
0
  6
CONTINUOUS
 62
     7
 10
-714.2533342798
 20
454.9559393951
 30
0.0
  0
VERTEX
  5
57A
  8
0
  6
CONTINUOUS
 62
     7
 10
-714.068559881
 20
454.5861670801
 30
0.0
  0
VERTEX
  5
57B
  8
0
  6
CONTINUOUS
 62
     7
 10
-713.854459997
 20
454.1578183004
 30
0.0
  0
VERTEX
  5
57C
  8
0
  6
CONTINUOUS
 62
     7
 10
-713.617620941
 20
453.6838719675
 30
0.0
  0
VERTEX
  5
57D
  8
0
  6
CONTINUOUS
 62
     7
 10
-713.365165468
 20
453.1787524053
 30
0.0
  0
VERTEX
  5
57E
  8
0
  6
CONTINUOUS
 62
     7
 10
-713.1048123796
 20
452.65780781
 30
0.0
  0
SEQEND
  5
57F
  8
0
  6
CONTINUOUS
 62
     7
  0
POLYLINE
  5
1BD
  8
0
  6
CONTINUOUS
 62
     7
 66
     1
 10
0.0
 20
0.0
 30
0.0
  0
VERTEX
  5
580
  8
0
  6
CONTINUOUS
 62
     7
 10
-714.6041076143
 20
454.1578183004
 30
0.0
  0
VERTEX
  5
581
  8
0
  6
CONTINUOUS
 62
     7
 10
-714.58133864
 20
454.1350195238
 30
0.0
  0
VERTEX
  5
582
  8
0
  6
CONTINUOUS
 62
     7
 10
-714.5136873682
 20
454.0673533508
 30
0.0
  0
VERTEX
  5
583
  8
0
  6
CONTINUOUS
 62
     7
 10
-714.4032399614
 20
453.9568463394
 30
0.0
  0
VERTEX
  5
584
  8
0
  6
CONTINUOUS
 62
     7
 10
-714.2533342798
 20
453.8068810531
 30
0.0
  0
VERTEX
  5
585
  8
0
  6
CONTINUOUS
 62
     7
 10
-714.068559881
 20
453.6219874451
 30
0.0
  0
VERTEX
  5
586
  8
0
  6
CONTINUOUS
 62
     7
 10
-713.854459997
 20
453.4078130552
 30
0.0
  0
VERTEX
  5
587
  8
0
  6
CONTINUOUS
 62
     7
 10
-713.617620941
 20
453.1708398887
 30
0.0
  0
VERTEX
  5
588
  8
0
  6
CONTINUOUS
 62
     7
 10
-713.365165468
 20
452.9182801077
 30
0.0
  0
VERTEX
  5
589
  8
0
  6
CONTINUOUS
 62
     7
 10
-713.1048123796
 20
452.65780781
 30
0.0
  0
SEQEND
  5
58A
  8
0
  6
CONTINUOUS
 62
     7
  0
LINE
  5
1BE
  8
0
  6
CONTINUOUS
 62
     7
 10
-714.6041076143
 20
454.1578183004
 30
0.0
 11
-714.6041076143
 21
455.6578138897
 31
0.0
  0
LINE
  5
1BF
  8
0
  6
CONTINUOUS
 62
     7
 10
-714.6041076143
 20
455.6578138897
 30
0.0
 11
-117.6055352648
 21
455.6578138897
 31
0.0
  0
POLYLINE
  5
1C0
  8
0
  6
CONTINUOUS
 62
     7
 66
     1
 10
0.0
 20
0.0
 30
0.0
  0
VERTEX
  5
58B
  8
0
  6
CONTINUOUS
 62
     7
 10
-119.1048304995
 20
452.65780781
 30
0.0
  0
VERTEX
  5
58C
  8
0
  6
CONTINUOUS
 62
     7
 10
-118.8444774111
 20
453.1787524053
 30
0.0
  0
VERTEX
  5
58D
  8
0
  6
CONTINUOUS
 62
     7
 10
-118.5920219381
 20
453.6838719675
 30
0.0
  0
VERTEX
  5
58E
  8
0
  6
CONTINUOUS
 62
     7
 10
-118.3551828821
 20
454.1578183004
 30
0.0
  0
VERTEX
  5
58F
  8
0
  6
CONTINUOUS
 62
     7
 10
-118.1410829981
 20
454.5861670801
 30
0.0
  0
VERTEX
  5
590
  8
0
  6
CONTINUOUS
 62
     7
 10
-117.9563085993
 20
454.9559393951
 30
0.0
  0
VERTEX
  5
591
  8
0
  6
CONTINUOUS
 62
     7
 10
-117.8064029177
 20
455.2558848688
 30
0.0
  0
VERTEX
  5
592
  8
0
  6
CONTINUOUS
 62
     7
 10
-117.6959555109
 20
455.4768839905
 30
0.0
  0
VERTEX
  5
593
  8
0
  6
CONTINUOUS
 62
     7
 10
-117.6283042391
 20
455.6122312376
 30
0.0
  0
VERTEX
  5
594
  8
0
  6
CONTINUOUS
 62
     7
 10
-117.6055352648
 20
455.6578138897
 30
0.0
  0
SEQEND
  5
595
  8
0
  6
CONTINUOUS
 62
     7
  0
CIRCLE
  5
1C1
  8
0
  6
CONTINUOUS
 62
     7
 10
-696.1048214396
 20
435.6578109094
 30
0.0
 40
4.5
  0
CIRCLE
  5
1C2
  8
0
  6
CONTINUOUS
 62
     7
 10
-136.1048214396
 20
435.6578109094
 30
0.0
 40
4.5
  0
CIRCLE
  5
1C3
  8
0
  6
CONTINUOUS
 62
     7
 10
-136.1048214396
 20
75.6578109094
 30
0.0
 40
4.5
  0
CIRCLE
  5
1C4
  8
0
  6
CONTINUOUS
 62
     7
 10
-696.1048214396
 20
75.6578109094
 30
0.0
 40
4.500000000000114
  0
POLYLINE
  5
1C5
  8
0
  6
CONTINUOUS
 62
     7
 66
     1
 10
0.0
 20
0.0
 30
0.0
  0
VERTEX
  5
596
  8
0
  6
CONTINUOUS
 62
     7
 10
-117.6055352648
 20
57.1578035185
 30
0.0
  0
VERTEX
  5
597
  8
0
  6
CONTINUOUS
 62
     7
 10
-117.6283042391
 20
57.1806022951
 30
0.0
  0
VERTEX
  5
598
  8
0
  6
CONTINUOUS
 62
     7
 10
-117.6959555109
 20
57.2482684681
 30
0.0
  0
VERTEX
  5
599
  8
0
  6
CONTINUOUS
 62
     7
 10
-117.8064029177
 20
57.3587754795
 30
0.0
  0
VERTEX
  5
59A
  8
0
  6
CONTINUOUS
 62
     7
 10
-117.9563085993
 20
57.5087407657
 30
0.0
  0
VERTEX
  5
59B
  8
0
  6
CONTINUOUS
 62
     7
 10
-118.1410829981
 20
57.6936343738
 30
0.0
  0
VERTEX
  5
59C
  8
0
  6
CONTINUOUS
 62
     7
 10
-118.3551828821
 20
57.9078087637
 30
0.0
  0
VERTEX
  5
59D
  8
0
  6
CONTINUOUS
 62
     7
 10
-118.5920219381
 20
58.1447819301
 30
0.0
  0
VERTEX
  5
59E
  8
0
  6
CONTINUOUS
 62
     7
 10
-118.8444774111
 20
58.3973417112
 30
0.0
  0
VERTEX
  5
59F
  8
0
  6
CONTINUOUS
 62
     7
 10
-119.1048304995
 20
58.6578140089
 30
0.0
  0
SEQEND
  5
5A0
  8
0
  6
CONTINUOUS
 62
     7
  0
LINE
  5
1C6
  8
0
  6
CONTINUOUS
 62
     7
 10
-117.6055352648
 20
57.1578035185
 30
0.0
 11
-117.6055352648
 21
55.6578079292
 31
0.0
  0
POLYLINE
  5
1C7
  8
0
  6
CONTINUOUS
 62
     7
 66
     1
 10
0.0
 20
0.0
 30
0.0
  0
VERTEX
  5
5A1
  8
0
  6
CONTINUOUS
 62
     7
 10
-119.1048304995
 20
58.6578140089
 30
0.0
  0
VERTEX
  5
5A2
  8
0
  6
CONTINUOUS
 62
     7
 10
-118.5838859041
 20
58.3974609205
 30
0.0
  0
VERTEX
  5
5A3
  8
0
  6
CONTINUOUS
 62
     7
 10
-118.078766342
 20
58.1450203487
 30
0.0
  0
VERTEX
  5
5A4
  8
0
  6
CONTINUOUS
 62
     7
 10
-117.604820009
 20
57.9081663915
 30
0.0
  0
VERTEX
  5
5A5
  8
0
  6
CONTINUOUS
 62
     7
 10
-117.1764712294
 20
57.6940814087
 30
0.0
  0
VERTEX
  5
5A6
  8
0
  6
CONTINUOUS
 62
     7
 10
-116.8066840132
 20
57.5092921087
 30
0.0
  0
VERTEX
  5
5A7
  8
0
  6
CONTINUOUS
 62
     7
 10
-116.5067534407
 20
57.3593864271
 30
0.0
  0
VERTEX
  5
5A8
  8
0
  6
CONTINUOUS
 62
     7
 10
-116.2857394178
 20
57.2489390203
 30
0.0
  0
VERTEX
  5
5A9
  8
0
  6
CONTINUOUS
 62
     7
 10
-116.1504070719
 20
57.1813026497
 30
0.0
  0
VERTEX
  5
5AA
  8
0
  6
CONTINUOUS
 62
     7
 10
-116.1048095186
 20
57.1585187742
 30
0.0
  0
SEQEND
  5
5AB
  8
0
  6
CONTINUOUS
 62
     7
  0
LINE
  5
1C8
  8
0
  6
CONTINUOUS
 62
     7
 10
-117.604820009
 20
57.1585187742
 30
0.0
 11
-116.1048095186
 21
57.1585187742
 31
0.0
  0
POLYLINE
  5
1C9
  8
0
  6
CONTINUOUS
 62
     7
 66
     1
 10
0.0
 20
0.0
 30
0.0
  0
VERTEX
  5
5AC
  8
0
  6
CONTINUOUS
 62
     7
 10
-119.1048304995
 20
58.6578140089
 30
0.0
  0
VERTEX
  5
5AD
  8
0
  6
CONTINUOUS
 62
     7
 10
-118.8443582018
 20
58.3974609205
 30
0.0
  0
VERTEX
  5
5AE
  8
0
  6
CONTINUOUS
 62
     7
 10
-118.5917835196
 20
58.1450203487
 30
0.0
  0
VERTEX
  5
5AF
  8
0
  6
CONTINUOUS
 62
     7
 10
-118.3548252543
 20
57.9081663915
 30
0.0
  0
VERTEX
  5
5B0
  8
0
  6
CONTINUOUS
 62
     7
 10
-118.1406359633
 20
57.6940814087
 30
0.0
  0
VERTEX
  5
5B1
  8
0
  6
CONTINUOUS
 62
     7
 10
-117.9557423552
 20
57.5092921087
 30
0.0
  0
VERTEX
  5
5B2
  8
0
  6
CONTINUOUS
 62
     7
 10
-117.8057770689
 20
57.3593864271
 30
0.0
  0
VERTEX
  5
5B3
  8
0
  6
CONTINUOUS
 62
     7
 10
-117.6952700575
 20
57.2489390203
 30
0.0
  0
VERTEX
  5
5B4
  8
0
  6
CONTINUOUS
 62
     7
 10
-117.6276187857
 20
57.1813026497
 30
0.0
  0
VERTEX
  5
5B5
  8
0
  6
CONTINUOUS
 62
     7
 10
-117.604820009
 20
57.1585187742
 30
0.0
  0
SEQEND
  5
5B6
  8
0
  6
CONTINUOUS
 62
     7
  0
POLYLINE
  5
1CA
  8
0
  6
CONTINUOUS
 62
     7
 66
     1
 10
0.0
 20
0.0
 30
0.0
  0
VERTEX
  5
5B7
  8
0
  6
CONTINUOUS
 62
     7
 10
-116.1048095186
 20
454.1571030447
 30
0.0
  0
VERTEX
  5
5B8
  8
0
  6
CONTINUOUS
 62
     7
 10
-116.1504070719
 20
454.1343191692
 30
0.0
  0
VERTEX
  5
5B9
  8
0
  6
CONTINUOUS
 62
     7
 10
-116.2857394178
 20
454.0666827986
 30
0.0
  0
VERTEX
  5
5BA
  8
0
  6
CONTINUOUS
 62
     7
 10
-116.5067534407
 20
453.9562353918
 30
0.0
  0
VERTEX
  5
5BB
  8
0
  6
CONTINUOUS
 62
     7
 10
-116.8066840132
 20
453.8063297102
 30
0.0
  0
VERTEX
  5
5BC
  8
0
  6
CONTINUOUS
 62
     7
 10
-117.1764712294
 20
453.6215404102
 30
0.0
  0
VERTEX
  5
5BD
  8
0
  6
CONTINUOUS
 62
     7
 10
-117.604820009
 20
453.4074554273
 30
0.0
  0
VERTEX
  5
5BE
  8
0
  6
CONTINUOUS
 62
     7
 10
-118.078766342
 20
453.1706014702
 30
0.0
  0
VERTEX
  5
5BF
  8
0
  6
CONTINUOUS
 62
     7
 10
-118.5838859041
 20
452.9181608984
 30
0.0
  0
VERTEX
  5
5C0
  8
0
  6
CONTINUOUS
 62
     7
 10
-119.1048304995
 20
452.65780781
 30
0.0
  0
SEQEND
  5
5C1
  8
0
  6
CONTINUOUS
 62
     7
  0
POLYLINE
  5
1CB
  8
0
  6
CONTINUOUS
 62
     7
 66
     1
 10
0.0
 20
0.0
 30
0.0
  0
VERTEX
  5
5C2
  8
0
  6
CONTINUOUS
 62
     7
 10
-117.604820009
 20
454.1571030447
 30
0.0
  0
VERTEX
  5
5C3
  8
0
  6
CONTINUOUS
 62
     7
 10
-117.6336388548
 20
454.1282991001
 30
0.0
  0
VERTEX
  5
5C4
  8
0
  6
CONTINUOUS
 62
     7
 10
-117.7189927061
 20
454.0429750511
 30
0.0
  0
VERTEX
  5
5C5
  8
0
  6
CONTINUOUS
 62
     7
 10
-117.8576033075
 20
453.9044240543
 30
0.0
  0
VERTEX
  5
5C6
  8
0
  6
CONTINUOUS
 62
     7
 10
-118.0441658457
 20
453.7179658243
 30
0.0
  0
VERTEX
  5
5C7
  8
0
  6
CONTINUOUS
 62
     7
 10
-118.2714681585
 20
453.4907678196
 30
0.0
  0
VERTEX
  5
5C8
  8
0
  6
CONTINUOUS
 62
     7
 10
-118.530807968
 20
453.2315621206
 30
0.0
  0
VERTEX
  5
5C9
  8
0
  6
CONTINUOUS
 62
     7
 10
-118.8121716936
 20
452.9503027031
 30
0.0
  0
VERTEX
  5
5CA
  8
0
  6
CONTINUOUS
 62
     7
 10
-119.1048304995
 20
452.65780781
 30
0.0
  0
SEQEND
  5
5CB
  8
0
  6
CONTINUOUS
 62
     7
  0
LINE
  5
1CC
  8
0
  6
CONTINUOUS
 62
     7
 10
-117.604820009
 20
454.1571030447
 30
0.0
 11
-116.1048095186
 21
454.1571030447
 31
0.0
  0
LINE
  5
1CD
  8
0
  6
CONTINUOUS
 62
     7
 10
-116.1048095186
 20
454.1571030447
 30
0.0
 11
-116.1048095186
 21
57.1585187742
 31
0.0
  0
LINE
  5
1CE
  8
0
  6
CONTINUOUS
 62
     7
 10
-117.6055352648
 20
454.1578183004
 30
0.0
 11
-117.6055352648
 21
455.6578138897
 31
0.0
  0
POLYLINE
  5
1CF
  8
0
  6
CONTINUOUS
 62
     7
 66
     1
 10
0.0
 20
0.0
 30
0.0
  0
VERTEX
  5
5CC
  8
0
  6
CONTINUOUS
 62
     7
 10
-119.1048304995
 20
452.65780781
 30
0.0
  0
VERTEX
  5
5CD
  8
0
  6
CONTINUOUS
 62
     7
 10
-118.8123207052
 20
452.9504517147
 30
0.0
  0
VERTEX
  5
5CE
  8
0
  6
CONTINUOUS
 62
     7
 10
-118.5310761889
 20
453.2318303415
 30
0.0
  0
VERTEX
  5
5CF
  8
0
  6
CONTINUOUS
 62
     7
 10
-118.2718555887
 20
453.4911701509
 30
0.0
  0
VERTEX
  5
5D0
  8
0
  6
CONTINUOUS
 62
     7
 10
-118.0446724852
 20
453.7184724638
 30
0.0
  0
VERTEX
  5
5D1
  8
0
  6
CONTINUOUS
 62
     7
 10
-117.858199354
 20
453.9050201008
 30
0.0
  0
VERTEX
  5
5D2
  8
0
  6
CONTINUOUS
 62
     7
 10
-117.7196483572
 20
454.0436307022
 30
0.0
  0
VERTEX
  5
5D3
  8
0
  6
CONTINUOUS
 62
     7
 10
-117.6343243082
 20
454.1289845535
 30
0.0
  0
VERTEX
  5
5D4
  8
0
  6
CONTINUOUS
 62
     7
 10
-117.6055352648
 20
454.1578183004
 30
0.0
  0
SEQEND
  5
5D5
  8
0
  6
CONTINUOUS
 62
     7
  0
LINE
  5
1D0
  8
0
  6
CONTINUOUS
 62
     7
 10
-699.2758791407
 20
438.850689871
 30
0.0
 11
-695.1059381922
 21
434.6655050346
 31
0.0
  0
LINE
  5
1D1
  8
0
  6
CONTINUOUS
 62
     7
 10
-695.1059381922
 20
76.6556004116
 30
0.0
 11
-699.2862503489
 21
72.4752733538
 31
0.0
  0
ARC
  5
1D2
  8
0
  6
CONTINUOUS
 62
     7
 10
-702.2977747306
 20
89.967647914
 30
0.0
 40
15.13053606128211
 50
298.3801447917
 51
308.6951493333
  0
ARC
  5
1D3
  8
0
  6
CONTINUOUS
 62
     7
 10
-702.3159143649
 20
421.3691109846
 30
0.0
 40
15.1254041646397
 50
51.2011637804
 51
61.5312152657
  0
LINE
  5
1D4
  8
0
  6
CONTINUOUS
 62
     7
 10
-132.9337637384
 20
72.4649319479
 30
0.0
 11
-137.1037046869
 21
76.6501167843
 31
0.0
  0
LINE
  5
1D5
  8
0
  6
CONTINUOUS
 62
     7
 10
-137.1037046869
 20
434.6600214073
 30
0.0
 11
-132.9233925303
 21
438.8403484651
 31
0.0
  0
ARC
  5
1D6
  8
0
  6
CONTINUOUS
 62
     7
 10
-129.9118681485
 20
421.3479739049
 30
0.0
 40
15.13053606128202
 50
118.3801447917
 51
128.6951493333
  0
ARC
  5
1D7
  8
0
  6
CONTINUOUS
 62
     7
 10
-129.8937285143
 20
89.9465108343
 30
0.0
 40
15.12540416463975
 50
231.2011637804
 51
241.5312152657
  0
LINE
  5
1D8
  8
0
  6
CONTINUOUS
 62
     7
 10
-699.2976944407
 20
72.486762149
 30
0.0
 11
-695.1125245054
 21
76.6567030975
 31
0.0
  0
LINE
  5
1D9
  8
0
  6
CONTINUOUS
 62
     7
 10
-137.102602001
 20
76.6567030975
 30
0.0
 11
-132.9222898443
 21
72.4763760397
 31
0.0
  0
LINE
  5
1DA
  8
0
  6
CONTINUOUS
 62
     7
 10
-132.9119484385
 20
438.8288596699
 30
0.0
 11
-137.0971183737
 21
434.6589187214
 31
0.0
  0
LINE
  5
1DB
  8
0
  6
CONTINUOUS
 62
     7
 10
-695.1070408781
 20
434.6589187214
 30
0.0
 11
-699.2873530348
 21
438.8392457792
 31
0.0
  0
ARC
  5
1DC
  8
0
  6
CONTINUOUS
 62
     7
 10
-681.7942818979
 20
441.8513666307
 30
0.0
 40
15.1314526266664
 50
208.3809010123
 51
218.6952631235
  0
ARC
  5
1DD
  8
0
  6
CONTINUOUS
 62
     7
 10
-150.3950368553
 20
441.8700487918
 30
0.0
 40
15.12729429994872
 50
321.201384126
 51
331.530125584
  0
ARC
  5
1DE
  8
0
  6
CONTINUOUS
 62
     7
 10
-681.8146060238
 20
69.4455730271
 30
0.0
 40
15.12729429994874
 50
141.201384126
 51
151.530125584
  0
ARC
  5
1DF
  8
0
  6
CONTINUOUS
 62
     7
 10
-150.4153609812
 20
69.4642551882
 30
0.0
 40
15.13145262666644
 50
28.3809010123
 51
38.6952631235
  0
LINE
  5
1E0
  8
0
  6
CONTINUOUS
 62
     7
 10
-693.1048314531
 20
55.3578177521
 30
0.0
 11
-705.2375953157
 21
55.3578177521
 31
0.0
  0
LINE
  5
1E1
  8
0
  6
CONTINUOUS
 62
     7
 10
-693.1048314531
 20
55.3578177521
 30
0.0
 11
-693.1048314531
 21
51.9578049013
 31
0.0
  0
LINE
  5
1E2
  8
0
  6
CONTINUOUS
 62
     7
 10
-705.2375953157
 20
51.9578049013
 30
0.0
 11
-693.1048314531
 21
51.9578049013
 31
0.0
  0
LINE
  5
1E3
  8
0
  6
CONTINUOUS
 62
     7
 10
-693.4048216303
 20
51.6578147241
 30
0.0
 11
-705.0176243742
 21
51.6578147241
 31
0.0
  0
LINE
  5
1E4
  8
0
  6
CONTINUOUS
 62
     7
 10
-693.1048314531
 20
51.9578049013
 30
0.0
 11
-693.4048216303
 21
51.6578147241
 31
0.0
  0
LINE
  5
1E5
  8
0
  6
CONTINUOUS
 62
     7
 10
-693.1048314531
 20
55.3578177521
 30
0.0
 11
-693.4048216303
 21
55.6578079292
 31
0.0
  0
LINE
  5
1E6
  8
0
  6
CONTINUOUS
 62
     7
 10
-705.2375953157
 20
55.3578177521
 30
0.0
 11
-735.2378945311
 21
55.3578177521
 31
0.0
  0
LINE
  5
1E7
  8
0
  6
CONTINUOUS
 62
     7
 10
-735.2378945311
 20
51.9578049013
 30
0.0
 11
-705.2375953157
 21
51.9578049013
 31
0.0
  0
LINE
  5
1E8
  8
0
  6
CONTINUOUS
 62
     7
 10
-735.0179235895
 20
55.6578079292
 30
0.0
 11
-714.6041076143
 21
55.6578079292
 31
0.0
  0
LINE
  5
1E9
  8
0
  6
CONTINUOUS
 62
     7
 10
-705.0176243742
 20
51.6578147241
 30
0.0
 11
-735.0179235895
 21
51.6578147241
 31
0.0
  0
LINE
  5
1EA
  8
0
  6
CONTINUOUS
 62
     7
 10
-735.8048241098
 20
51.6578147241
 30
0.0
 11
-736.104814287
 21
51.9578049013
 31
0.0
  0
LINE
  5
1EB
  8
0
  6
CONTINUOUS
 62
     7
 10
-736.104814287
 20
51.9578049013
 30
0.0
 11
-735.2378945311
 21
51.9578049013
 31
0.0
  0
LINE
  5
1EC
  8
0
  6
CONTINUOUS
 62
     7
 10
-735.0179235895
 20
51.6578147241
 30
0.0
 11
-735.8048241098
 21
51.6578147241
 31
0.0
  0
LINE
  5
1ED
  8
0
  6
CONTINUOUS
 62
     7
 10
-735.2378945311
 20
55.3578177521
 30
0.0
 11
-736.104814287
 21
55.3578177521
 31
0.0
  0
LINE
  5
1EE
  8
0
  6
CONTINUOUS
 62
     7
 10
-736.104814287
 20
51.9578049013
 30
0.0
 11
-736.104814287
 21
55.3578177521
 31
0.0
  0
LINE
  5
1EF
  8
0
  6
CONTINUOUS
 62
     7
 10
-736.104814287
 20
55.3578177521
 30
0.0
 11
-735.8048241098
 21
55.6578079292
 31
0.0
  0
LINE
  5
1F0
  8
0
  6
CONTINUOUS
 62
     7
 10
-735.8048241098
 20
55.6578079292
 30
0.0
 11
-735.0179235895
 21
55.6578079292
 31
0.0
  0
LINE
  5
1F1
  8
0
  6
CONTINUOUS
 62
     7
 10
-126.9720475634
 20
55.3578177521
 30
0.0
 11
-139.104811426
 21
55.3578177521
 31
0.0
  0
LINE
  5
1F2
  8
0
  6
CONTINUOUS
 62
     7
 10
-139.104811426
 20
55.3578177521
 30
0.0
 11
-138.8048212488
 21
55.6578079292
 31
0.0
  0
LINE
  5
1F3
  8
0
  6
CONTINUOUS
 62
     7
 10
-139.104811426
 20
51.9578049013
 30
0.0
 11
-126.9720475634
 21
51.9578049013
 31
0.0
  0
LINE
  5
1F4
  8
0
  6
CONTINUOUS
 62
     7
 10
-139.104811426
 20
51.9578049013
 30
0.0
 11
-139.104811426
 21
55.3578177521
 31
0.0
  0
LINE
  5
1F5
  8
0
  6
CONTINUOUS
 62
     7
 10
-127.1920185049
 20
51.6578147241
 30
0.0
 11
-138.8048212488
 21
51.6578147241
 31
0.0
  0
LINE
  5
1F6
  8
0
  6
CONTINUOUS
 62
     7
 10
-139.104811426
 20
51.9578049013
 30
0.0
 11
-138.8048212488
 21
51.6578147241
 31
0.0
  0
LINE
  5
1F7
  8
0
  6
CONTINUOUS
 62
     7
 10
-126.9720475634
 20
51.9578049013
 30
0.0
 11
-96.971748348
 21
51.9578049013
 31
0.0
  0
LINE
  5
1F8
  8
0
  6
CONTINUOUS
 62
     7
 10
-96.971748348
 20
55.3578177521
 30
0.0
 11
-126.9720475634
 21
55.3578177521
 31
0.0
  0
LINE
  5
1F9
  8
0
  6
CONTINUOUS
 62
     7
 10
-97.1917192896
 20
51.6578147241
 30
0.0
 11
-127.1920185049
 21
51.6578147241
 31
0.0
  0
LINE
  5
1FA
  8
0
  6
CONTINUOUS
 62
     7
 10
-117.6055352648
 20
55.6578079292
 30
0.0
 11
-97.1917192896
 21
55.6578079292
 31
0.0
  0
LINE
  5
1FB
  8
0
  6
CONTINUOUS
 62
     7
 10
-96.4048187693
 20
55.6578079292
 30
0.0
 11
-96.1048285921
 21
55.3578177521
 31
0.0
  0
LINE
  5
1FC
  8
0
  6
CONTINUOUS
 62
     7
 10
-96.1048285921
 20
55.3578177521
 30
0.0
 11
-96.971748348
 21
55.3578177521
 31
0.0
  0
LINE
  5
1FD
  8
0
  6
CONTINUOUS
 62
     7
 10
-97.1917192896
 20
55.6578079292
 30
0.0
 11
-96.4048187693
 21
55.6578079292
 31
0.0
  0
LINE
  5
1FE
  8
0
  6
CONTINUOUS
 62
     7
 10
-96.971748348
 20
51.9578049013
 30
0.0
 11
-96.1048285921
 21
51.9578049013
 31
0.0
  0
LINE
  5
1FF
  8
0
  6
CONTINUOUS
 62
     7
 10
-96.1048285921
 20
51.9578049013
 30
0.0
 11
-96.4048187693
 21
51.6578147241
 31
0.0
  0
LINE
  5
200
  8
0
  6
CONTINUOUS
 62
     7
 10
-96.4048187693
 20
51.6578147241
 30
0.0
 11
-97.1917192896
 21
51.6578147241
 31
0.0
  0
LINE
  5
201
  8
0
  6
CONTINUOUS
 62
     7
 10
-96.1048285921
 20
55.3578177521
 30
0.0
 11
-96.1048285921
 21
51.9578049013
 31
0.0
  0
LINE
  5
202
  8
0
  6
CONTINUOUS
 62
     7
 10
-693.1048314531
 20
459.3578169176
 30
0.0
 11
-705.2375953157
 21
459.3578169176
 31
0.0
  0
LINE
  5
203
  8
0
  6
CONTINUOUS
 62
     7
 10
-693.1048314531
 20
459.3578169176
 30
0.0
 11
-693.1048314531
 21
455.9578040668
 31
0.0
  0
LINE
  5
204
  8
0
  6
CONTINUOUS
 62
     7
 10
-705.2375953157
 20
455.9578040668
 30
0.0
 11
-693.1048314531
 21
455.9578040668
 31
0.0
  0
LINE
  5
205
  8
0
  6
CONTINUOUS
 62
     7
 10
-693.1048314531
 20
455.9578040668
 30
0.0
 11
-693.4048216303
 21
455.6578138897
 31
0.0
  0
LINE
  5
206
  8
0
  6
CONTINUOUS
 62
     7
 10
-705.0176243742
 20
459.6578070947
 30
0.0
 11
-693.4048216303
 21
459.6578070947
 31
0.0
  0
LINE
  5
207
  8
0
  6
CONTINUOUS
 62
     7
 10
-693.1048314531
 20
459.3578169176
 30
0.0
 11
-693.4048216303
 21
459.6578070947
 31
0.0
  0
LINE
  5
208
  8
0
  6
CONTINUOUS
 62
     7
 10
-705.2375953157
 20
459.3578169176
 30
0.0
 11
-735.2378945311
 21
459.3578169176
 31
0.0
  0
LINE
  5
209
  8
0
  6
CONTINUOUS
 62
     7
 10
-735.2378945311
 20
455.9578040668
 30
0.0
 11
-705.2375953157
 21
455.9578040668
 31
0.0
  0
LINE
  5
20A
  8
0
  6
CONTINUOUS
 62
     7
 10
-735.0179235895
 20
459.6578070947
 30
0.0
 11
-705.0176243742
 21
459.6578070947
 31
0.0
  0
LINE
  5
20B
  8
0
  6
CONTINUOUS
 62
     7
 10
-714.6041076143
 20
455.6578138897
 30
0.0
 11
-735.0179235895
 21
455.6578138897
 31
0.0
  0
LINE
  5
20C
  8
0
  6
CONTINUOUS
 62
     7
 10
-735.2378945311
 20
459.3578169176
 30
0.0
 11
-736.104814287
 21
459.3578169176
 31
0.0
  0
LINE
  5
20D
  8
0
  6
CONTINUOUS
 62
     7
 10
-736.104814287
 20
455.9578040668
 30
0.0
 11
-735.2378945311
 21
455.9578040668
 31
0.0
  0
LINE
  5
20E
  8
0
  6
CONTINUOUS
 62
     7
 10
-736.104814287
 20
455.9578040668
 30
0.0
 11
-736.104814287
 21
459.3578169176
 31
0.0
  0
LINE
  5
20F
  8
0
  6
CONTINUOUS
 62
     7
 10
-736.104814287
 20
459.3578169176
 30
0.0
 11
-735.8048241098
 21
459.6578070947
 31
0.0
  0
LINE
  5
210
  8
0
  6
CONTINUOUS
 62
     7
 10
-735.8048241098
 20
459.6578070947
 30
0.0
 11
-735.0179235895
 21
459.6578070947
 31
0.0
  0
LINE
  5
211
  8
0
  6
CONTINUOUS
 62
     7
 10
-735.8048241098
 20
455.6578138897
 30
0.0
 11
-736.104814287
 21
455.9578040668
 31
0.0
  0
LINE
  5
212
  8
0
  6
CONTINUOUS
 62
     7
 10
-735.0179235895
 20
455.6578138897
 30
0.0
 11
-735.8048241098
 21
455.6578138897
 31
0.0
  0
LINE
  5
213
  8
0
  6
CONTINUOUS
 62
     7
 10
-138.8048212488
 20
459.6578070947
 30
0.0
 11
-127.1920185049
 21
459.6578070947
 31
0.0
  0
LINE
  5
214
  8
0
  6
CONTINUOUS
 62
     7
 10
-126.9720475634
 20
459.3578169176
 30
0.0
 11
-139.104811426
 21
459.3578169176
 31
0.0
  0
LINE
  5
215
  8
0
  6
CONTINUOUS
 62
     7
 10
-139.104811426
 20
459.3578169176
 30
0.0
 11
-138.8048212488
 21
459.6578070947
 31
0.0
  0
LINE
  5
216
  8
0
  6
CONTINUOUS
 62
     7
 10
-139.104811426
 20
455.9578040668
 30
0.0
 11
-126.9720475634
 21
455.9578040668
 31
0.0
  0
LINE
  5
217
  8
0
  6
CONTINUOUS
 62
     7
 10
-139.104811426
 20
455.9578040668
 30
0.0
 11
-139.104811426
 21
459.3578169176
 31
0.0
  0
LINE
  5
218
  8
0
  6
CONTINUOUS
 62
     7
 10
-139.104811426
 20
455.9578040668
 30
0.0
 11
-138.8048212488
 21
455.6578138897
 31
0.0
  0
LINE
  5
219
  8
0
  6
CONTINUOUS
 62
     7
 10
-126.9720475634
 20
455.9578040668
 30
0.0
 11
-96.971748348
 21
455.9578040668
 31
0.0
  0
LINE
  5
21A
  8
0
  6
CONTINUOUS
 62
     7
 10
-96.971748348
 20
459.3578169176
 30
0.0
 11
-126.9720475634
 21
459.3578169176
 31
0.0
  0
LINE
  5
21B
  8
0
  6
CONTINUOUS
 62
     7
 10
-97.1917192896
 20
455.6578138897
 30
0.0
 11
-117.6055352648
 21
455.6578138897
 31
0.0
  0
LINE
  5
21C
  8
0
  6
CONTINUOUS
 62
     7
 10
-127.1920185049
 20
459.6578070947
 30
0.0
 11
-97.1917192896
 21
459.6578070947
 31
0.0
  0
LINE
  5
21D
  8
0
  6
CONTINUOUS
 62
     7
 10
-96.4048187693
 20
459.6578070947
 30
0.0
 11
-96.1048285921
 21
459.3578169176
 31
0.0
  0
LINE
  5
21E
  8
0
  6
CONTINUOUS
 62
     7
 10
-96.1048285921
 20
459.3578169176
 30
0.0
 11
-96.971748348
 21
459.3578169176
 31
0.0
  0
LINE
  5
21F
  8
0
  6
CONTINUOUS
 62
     7
 10
-97.1917192896
 20
459.6578070947
 30
0.0
 11
-96.4048187693
 21
459.6578070947
 31
0.0
  0
LINE
  5
220
  8
0
  6
CONTINUOUS
 62
     7
 10
-96.971748348
 20
455.9578040668
 30
0.0
 11
-96.1048285921
 21
455.9578040668
 31
0.0
  0
LINE
  5
221
  8
0
  6
CONTINUOUS
 62
     7
 10
-96.1048285921
 20
455.9578040668
 30
0.0
 11
-96.4048187693
 21
455.6578138897
 31
0.0
  0
LINE
  5
222
  8
0
  6
CONTINUOUS
 62
     7
 10
-96.4048187693
 20
455.6578138897
 30
0.0
 11
-97.1917192896
 21
455.6578138897
 31
0.0
  0
LINE
  5
223
  8
0
  6
CONTINUOUS
 62
     7
 10
-96.1048285921
 20
459.3578169176
 30
0.0
 11
-96.1048285921
 21
455.9578040668
 31
0.0
  0
LINE
  5
224
  8
0
  6
CONTINUOUS
 62
     7
 10
-114.5048122366
 20
239.6578101495
 30
0.0
 11
-116.1048095186
 21
239.6578101495
 31
0.0
  0
LINE
  5
225
  8
0
  6
CONTINUOUS
 62
     7
 10
-116.1048095186
 20
271.6578116694
 30
0.0
 11
-114.5048122366
 21
271.6578116694
 31
0.0
  0
LINE
  5
226
  8
0
  6
CONTINUOUS
 62
     7
 10
-114.5048122366
 20
271.6578116694
 30
0.0
 11
-114.5048122366
 21
239.6578101495
 31
0.0
  0
LINE
  5
227
  8
0
  6
CONTINUOUS
 62
     7
 10
-110.1048271616
 20
243.6578108051
 30
0.0
 11
-114.5048122366
 21
239.6578101495
 31
0.0
  0
LINE
  5
228
  8
0
  6
CONTINUOUS
 62
     7
 10
-114.5048122366
 20
271.6578116694
 30
0.0
 11
-110.1048271616
 21
267.6578110138
 31
0.0
  0
LINE
  5
229
  8
0
  6
CONTINUOUS
 62
     7
 10
-110.1048271616
 20
243.6578108051
 30
0.0
 11
-110.1048271616
 21
267.6578110138
 31
0.0
  0
LINE
  5
22A
  8
0
  6
CONTINUOUS
 62
     7
 10
-1502.8458969464
 20
948.6874984249
 30
0.0
 11
-1502.8458969464
 21
947.6875112995
 31
0.0
  0
LINE
  5
22B
  8
0
  6
CONTINUOUS
 62
     7
 10
-1497.3458783498
 20
947.6875112995
 30
0.0
 11
-1497.3458783498
 21
948.6874984249
 31
0.0
  0
LINE
  5
22C
  8
0
  6
CONTINUOUS
 62
     7
 10
-1785.8458820993
 20
948.6874984249
 30
0.0
 11
-1785.8458820993
 21
947.6875112995
 31
0.0
  0
LINE
  5
22D
  8
0
  6
CONTINUOUS
 62
     7
 10
-1780.3458821291
 20
947.6875112995
 30
0.0
 11
-1780.3458821291
 21
948.6874984249
 31
0.0
  0
LINE
  5
22E
  8
0
  6
CONTINUOUS
 62
     7
 10
-2068.8458816877
 20
948.6874984249
 30
0.0
 11
-2068.8458816877
 21
947.6875112995
 31
0.0
  0
LINE
  5
22F
  8
0
  6
CONTINUOUS
 62
     7
 10
-2063.3458928933
 20
947.6875112995
 30
0.0
 11
-2063.3458928933
 21
948.6874984249
 31
0.0
  0
LINE
  5
230
  8
0
  6
CONTINUOUS
 62
     7
 10
-1495.3458742967
 20
948.6874984249
 30
0.0
 11
-1495.3458742967
 21
947.6875112995
 31
0.0
  0
LINE
  5
231
  8
0
  6
CONTINUOUS
 62
     7
 10
-1489.8458855024
 20
947.6875112995
 30
0.0
 11
-1489.8458855024
 21
948.6874984249
 31
0.0
  0
LINE
  5
232
  8
0
  6
CONTINUOUS
 62
     7
 10
-2076.3458745351
 20
948.6874984249
 30
0.0
 11
-2076.3458745351
 21
947.6875112995
 31
0.0
  0
LINE
  5
233
  8
0
  6
CONTINUOUS
 62
     7
 10
-2070.8458857408
 20
947.6875112995
 30
0.0
 11
-2070.8458857408
 21
948.6874984249
 31
0.0
  0
LINE
  5
234
  8
0
  6
CONTINUOUS
 62
     7
 10
-2085.2458910813
 20
876.9875066027
 30
0.0
 11
-2083.6458937993
 21
876.9875066027
 31
0.0
  0
LINE
  5
235
  8
0
  6
CONTINUOUS
 62
     7
 10
-2089.6458761563
 20
880.9875147089
 30
0.0
 11
-2085.2458910813
 21
876.9875066027
 31
0.0
  0
ARC
  5
236
  8
0
  6
CONTINUOUS
 62
     7
 10
-1487.395882098
 20
945.687508442
 30
0.0
 40
0.5000000000000411
 50
342.9285716648
 51
89.9999999999
  0
ARC
  5
237
  8
0
  6
CONTINUOUS
 62
     7
 10
-2078.795882098
 20
945.687508442
 30
0.0
 40
0.5000000000000313
 50
89.9999999999
 51
265.5948036765
  0
ARC
  5
238
  8
0
  6
CONTINUOUS
 62
     7
 10
-2073.595882098
 20
1013.187508442
 30
0.0
 40
68.20000000000017
 50
265.5948036765
 51
266.405966506
  0
LINE
  5
239
  8
0
  6
CONTINUOUS
 62
     7
 10
-1494.8958890309
 20
928.4875141129
 30
0.0
 11
-1494.8958890309
 21
928.7075148567
 31
0.0
  0
LINE
  5
23A
  8
0
  6
CONTINUOUS
 62
     7
 10
-1499.8958842626
 20
928.7075148567
 30
0.0
 11
-1499.8958842626
 21
928.4875141129
 31
0.0
  0
LINE
  5
23B
  8
0
  6
CONTINUOUS
 62
     7
 10
-1494.8958890309
 20
928.7075148567
 30
0.0
 11
-1495.295895802
 21
929.1075216278
 31
0.0
  0
LINE
  5
23C
  8
0
  6
CONTINUOUS
 62
     7
 10
-1499.4958774915
 20
929.1075216278
 30
0.0
 11
-1499.8958842626
 21
928.7075148567
 31
0.0
  0
LINE
  5
23D
  8
0
  6
CONTINUOUS
 62
     7
 10
-2080.5958943238
 20
948.6874984249
 30
0.0
 11
-2080.5958943238
 21
951.6875194058
 31
0.0
  0
LINE
  5
23E
  8
0
  6
CONTINUOUS
 62
     7
 10
-2080.5958943238
 20
951.6875194058
 30
0.0
 11
-2078.5958902707
 21
951.6875194058
 31
0.0
  0
LINE
  5
23F
  8
0
  6
CONTINUOUS
 62
     7
 10
-2078.5958902707
 20
948.6874984249
 30
0.0
 11
-2080.5958943238
 21
948.6874984249
 31
0.0
  0
LINE
  5
240
  8
0
  6
CONTINUOUS
 62
     7
 10
-1487.5958697667
 20
951.6875194058
 30
0.0
 11
-1485.5958955159
 21
951.6875194058
 31
0.0
  0
LINE
  5
241
  8
0
  6
CONTINUOUS
 62
     7
 10
-1485.5958955159
 20
951.6875194058
 30
0.0
 11
-1485.5958955159
 21
948.6874984249
 31
0.0
  0
LINE
  5
242
  8
0
  6
CONTINUOUS
 62
     7
 10
-1485.5958955159
 20
948.6874984249
 30
0.0
 11
-1487.5958697667
 21
948.6874984249
 31
0.0
  0
LINE
  5
243
  8
0
  6
CONTINUOUS
 62
     7
 10
-2078.5958902707
 20
948.6874984249
 30
0.0
 11
-1487.5958697667
 21
948.6874984249
 31
0.0
  0
LINE
  5
244
  8
0
  6
CONTINUOUS
 62
     7
 10
-2078.5958902707
 20
951.6875194058
 30
0.0
 11
-1487.5958697667
 21
951.6875194058
 31
0.0
  0
LINE
  5
245
  8
0
  6
CONTINUOUS
 62
     7
 10
-2078.095896708
 20
947.6875112995
 30
0.0
 11
-1488.0958931317
 21
947.6875112995
 31
0.0
  0
POLYLINE
  5
246
  8
0
  6
CONTINUOUS
 62
     7
 66
     1
 10
0.0
 20
0.0
 30
0.0
  0
VERTEX
  5
5D6
  8
0
  6
CONTINUOUS
 62
     7
 10
-1488.0958931317
 20
947.6875112995
 30
0.0
  0
VERTEX
  5
5D7
  8
0
  6
CONTINUOUS
 62
     7
 10
-1488.3104400506
 20
947.6400958046
 30
0.0
  0
VERTEX
  5
5D8
  8
0
  6
CONTINUOUS
 62
     7
 10
-1488.4675280919
 20
947.4830375656
 30
0.0
  0
VERTEX
  5
5D9
  8
0
  6
CONTINUOUS
 62
     7
 10
-1488.5637299886
 20
947.2037898049
 30
0.0
  0
VERTEX
  5
5DA
  8
0
  6
CONTINUOUS
 62
     7
 10
-1488.5958866944
 20
946.8088196263
 30
0.0
  0
VERTEX
  5
5DB
  8
0
  6
CONTINUOUS
 62
     7
 10
-1488.5639088025
 20
946.32032976
 30
0.0
  0
VERTEX
  5
5DC
  8
0
  6
CONTINUOUS
 62
     7
 10
-1488.4679155221
 20
945.7775698647
 30
0.0
  0
VERTEX
  5
5DD
  8
0
  6
CONTINUOUS
 62
     7
 10
-1488.310291039
 20
945.2182696804
 30
0.0
  0
VERTEX
  5
5DE
  8
0
  6
CONTINUOUS
 62
     7
 10
-1488.0958931317
 20
944.687520121
 30
0.0
  0
SEQEND
  5
5DF
  8
0
  6
CONTINUOUS
 62
     7
  0
POLYLINE
  5
247
  8
0
  6
CONTINUOUS
 62
     7
 66
     1
 10
0.0
 20
0.0
 30
0.0
  0
VERTEX
  5
5E0
  8
0
  6
CONTINUOUS
 62
     7
 10
-2078.095896708
 20
947.6875112995
 30
0.0
  0
VERTEX
  5
5E1
  8
0
  6
CONTINUOUS
 62
     7
 10
-2077.8813199868
 20
947.6400958046
 30
0.0
  0
VERTEX
  5
5E2
  8
0
  6
CONTINUOUS
 62
     7
 10
-2077.7242319455
 20
947.4830375656
 30
0.0
  0
VERTEX
  5
5E3
  8
0
  6
CONTINUOUS
 62
     7
 10
-2077.6280300489
 20
947.2037898049
 30
0.0
  0
VERTEX
  5
5E4
  8
0
  6
CONTINUOUS
 62
     7
 10
-2077.595873343
 20
946.8088196263
 30
0.0
  0
VERTEX
  5
5E5
  8
0
  6
CONTINUOUS
 62
     7
 10
-2077.6278810372
 20
946.32032976
 30
0.0
  0
VERTEX
  5
5E6
  8
0
  6
CONTINUOUS
 62
     7
 10
-2077.7238445153
 20
945.7775698647
 30
0.0
  0
VERTEX
  5
5E7
  8
0
  6
CONTINUOUS
 62
     7
 10
-2077.8814689984
 20
945.2182696804
 30
0.0
  0
VERTEX
  5
5E8
  8
0
  6
CONTINUOUS
 62
     7
 10
-2078.095896708
 20
944.687520121
 30
0.0
  0
SEQEND
  5
5E9
  8
0
  6
CONTINUOUS
 62
     7
  0
POLYLINE
  5
248
  8
0
  6
CONTINUOUS
 62
     7
 66
     1
 10
0.0
 20
0.0
 30
0.0
  0
VERTEX
  5
5EA
  8
0
  6
CONTINUOUS
 62
     7
 10
-2078.095896708
 20
946.1875008091
 30
0.0
  0
VERTEX
  5
5EB
  8
0
  6
CONTINUOUS
 62
     7
 10
-2077.8813199868
 20
946.1638079628
 30
0.0
  0
VERTEX
  5
5EC
  8
0
  6
CONTINUOUS
 62
     7
 10
-2077.7242319455
 20
946.0852788433
 30
0.0
  0
VERTEX
  5
5ED
  8
0
  6
CONTINUOUS
 62
     7
 10
-2077.6280300489
 20
945.9456549629
 30
0.0
  0
VERTEX
  5
5EE
  8
0
  6
CONTINUOUS
 62
     7
 10
-2077.595873343
 20
945.7481549725
 30
0.0
  0
VERTEX
  5
5EF
  8
0
  6
CONTINUOUS
 62
     7
 10
-2077.595873343
 20
945.7481549725
 30
0.0
  0
SEQEND
  5
5F0
  8
0
  6
CONTINUOUS
 62
     7
  0
LINE
  5
249
  8
0
  6
CONTINUOUS
 62
     7
 10
-2078.095896708
 20
946.1875008091
 30
0.0
 11
-2078.095896708
 21
947.6875112995
 31
0.0
  0
ARC
  5
24A
  8
0
  6
CONTINUOUS
 62
     7
 10
-1486.095882098
 20
946.1875084419
 30
0.0
 40
2.500000000000182
 50
216.8698976458
 51
270.0
  0
LINE
  5
24B
  8
0
  6
CONTINUOUS
 62
     7
 10
-1486.0958890786
 20
943.6875031933
 30
0.0
 11
-1486.0958890786
 21
937.4255584225
 31
0.0
  0
LINE
  5
24C
  8
0
  6
CONTINUOUS
 62
     7
 10
-1490.4894964566
 20
932.6874958023
 30
0.0
 11
-2076.8022673001
 21
932.6874958023
 31
0.0
  0
LINE
  5
24D
  8
0
  6
CONTINUOUS
 62
     7
 10
-2080.0958709588
 20
943.6875031933
 30
0.0
 11
-2080.0958709588
 21
936.2393067822
 31
0.0
  0
ARC
  5
24E
  8
0
  6
CONTINUOUS
 62
     7
 10
-2080.095882098
 20
946.1875084419
 30
0.0
 40
2.500000000000114
 50
270.0
 51
323.1301023542
  0
LINE
  5
24F
  8
0
  6
CONTINUOUS
 62
     7
 10
-1488.0958931317
 20
946.1875008091
 30
0.0
 11
-1488.0958931317
 21
947.6875112995
 31
0.0
  0
POLYLINE
  5
250
  8
0
  6
CONTINUOUS
 62
     7
 66
     1
 10
0.0
 20
0.0
 30
0.0
  0
VERTEX
  5
5F1
  8
0
  6
CONTINUOUS
 62
     7
 10
-1488.0958931317
 20
946.1875008091
 30
0.0
  0
VERTEX
  5
5F2
  8
0
  6
CONTINUOUS
 62
     7
 10
-1488.3104400506
 20
946.1638079628
 30
0.0
  0
VERTEX
  5
5F3
  8
0
  6
CONTINUOUS
 62
     7
 10
-1488.4675280919
 20
946.0852788433
 30
0.0
  0
VERTEX
  5
5F4
  8
0
  6
CONTINUOUS
 62
     7
 10
-1488.5637299886
 20
945.9456549629
 30
0.0
  0
VERTEX
  5
5F5
  8
0
  6
CONTINUOUS
 62
     7
 10
-1488.5958866944
 20
945.7481549725
 30
0.0
  0
VERTEX
  5
5F6
  8
0
  6
CONTINUOUS
 62
     7
 10
-1488.5958866944
 20
945.7481549725
 30
0.0
  0
SEQEND
  5
5F7
  8
0
  6
CONTINUOUS
 62
     7
  0
LINE
  5
251
  8
0
  6
CONTINUOUS
 62
     7
 10
-2080.0958709588
 20
943.6875031933
 30
0.0
 11
-2080.0958709588
 21
944.687520121
 31
0.0
  0
LINE
  5
252
  8
0
  6
CONTINUOUS
 62
     7
 10
-2081.5958814492
 20
943.6875031933
 30
0.0
 11
-2080.0958709588
 21
943.6875031933
 31
0.0
  0
LINE
  5
253
  8
0
  6
CONTINUOUS
 62
     7
 10
-2081.5958814492
 20
943.6875031933
 30
0.0
 11
-2081.5958814492
 21
944.687520121
 31
0.0
  0
LINE
  5
254
  8
0
  6
CONTINUOUS
 62
     7
 10
-2081.5958814492
 20
944.687520121
 30
0.0
 11
-2080.0958709588
 21
944.687520121
 31
0.0
  0
LINE
  5
255
  8
0
  6
CONTINUOUS
 62
     7
 10
-1486.0958890786
 20
943.6875031933
 30
0.0
 11
-1484.5958785882
 21
943.6875031933
 31
0.0
  0
LINE
  5
256
  8
0
  6
CONTINUOUS
 62
     7
 10
-1486.0958890786
 20
943.6875031933
 30
0.0
 11
-1486.0958890786
 21
944.687520121
 31
0.0
  0
LINE
  5
257
  8
0
  6
CONTINUOUS
 62
     7
 10
-1484.5958785882
 20
944.687520121
 30
0.0
 11
-1486.0958890786
 21
944.687520121
 31
0.0
  0
LINE
  5
258
  8
0
  6
CONTINUOUS
 62
     7
 10
-1484.5958785882
 20
943.6875031933
 30
0.0
 11
-1484.5958785882
 21
944.687520121
 31
0.0
  0
LINE
  5
259
  8
0
  6
CONTINUOUS
 62
     7
 10
-2081.5958814492
 20
937.8569172367
 30
0.0
 11
-2081.5958814492
 21
943.6875031933
 31
0.0
  0
LINE
  5
25A
  8
0
  6
CONTINUOUS
 62
     7
 10
-1484.5958785882
 20
939.0431390747
 30
0.0
 11
-1484.5958785882
 21
943.6875031933
 31
0.0
  0
LINE
  5
25B
  8
0
  6
CONTINUOUS
 62
     7
 10
-2078.5958902707
 20
946.1875008091
 30
0.0
 11
-2078.095896708
 21
946.1875008091
 31
0.0
  0
LINE
  5
25C
  8
0
  6
CONTINUOUS
 62
     7
 10
-2078.5958902707
 20
947.6875112995
 30
0.0
 11
-2078.5958902707
 21
946.1875008091
 31
0.0
  0
LINE
  5
25D
  8
0
  6
CONTINUOUS
 62
     7
 10
-2078.5958902707
 20
947.6875112995
 30
0.0
 11
-2078.095896708
 21
947.6875112995
 31
0.0
  0
LINE
  5
25E
  8
0
  6
CONTINUOUS
 62
     7
 10
-1487.5958697667
 20
947.6875112995
 30
0.0
 11
-1487.5958697667
 21
946.1875008091
 31
0.0
  0
LINE
  5
25F
  8
0
  6
CONTINUOUS
 62
     7
 10
-1487.5958697667
 20
946.1875008091
 30
0.0
 11
-1488.0958931317
 21
946.1875008091
 31
0.0
  0
LINE
  5
260
  8
0
  6
CONTINUOUS
 62
     7
 10
-1487.5958697667
 20
947.6875112995
 30
0.0
 11
-1488.0958931317
 21
947.6875112995
 31
0.0
  0
ARC
  5
261
  8
0
  6
CONTINUOUS
 62
     7
 10
-2078.59589273
 20
944.6875225803
 30
0.0
 40
2.999988719276629
 50
89.9999530319
 51
180.0000469681
  0
ARC
  5
262
  8
0
  6
CONTINUOUS
 62
     7
 10
-2078.5959069019
 20
944.6875367522
 30
0.0
 40
1.499964057049397
 50
89.9993647221
 51
180.0006352779
  0
ARC
  5
263
  8
0
  6
CONTINUOUS
 62
     7
 10
-1487.5958531356
 20
944.6875367522
 30
0.0
 40
1.499964057049397
 50
359.9993647221
 51
90.0006352779
  0
ARC
  5
264
  8
0
  6
CONTINUOUS
 62
     7
 10
-1487.5958673075
 20
944.6875225803
 30
0.0
 40
2.999988719276742
 50
359.9999530319
 51
90.0000469681
  0
LINE
  5
265
  8
0
  6
CONTINUOUS
 62
     7
 10
-1485.1465957036
 20
649.4875088937
 30
0.0
 11
-1485.1465957036
 21
894.3285839304
 31
0.0
  0
LINE
  5
266
  8
0
  6
CONTINUOUS
 62
     7
 10
-2082.1451680532
 20
894.3285839304
 30
0.0
 11
-2082.1451680532
 21
649.4875088937
 31
0.0
  0
LINE
  5
267
  8
0
  6
CONTINUOUS
 62
     7
 10
-1496.2388114801
 20
926.4875100598
 30
0.0
 11
-2071.0529522767
 21
926.4875100598
 31
0.0
  0
POLYLINE
  5
268
  8
0
  6
CONTINUOUS
 62
     7
 66
     1
 10
0.0
 20
0.0
 30
0.0
  0
VERTEX
  5
5F8
  8
0
  6
CONTINUOUS
 62
     7
 10
-2082.1451680532
 20
649.4875088937
 30
0.0
  0
VERTEX
  5
5F9
  8
0
  6
CONTINUOUS
 62
     7
 10
-2082.1223990789
 20
648.9665642984
 30
0.0
  0
VERTEX
  5
5FA
  8
0
  6
CONTINUOUS
 62
     7
 10
-2082.054747807
 20
648.4614484615
 30
0.0
  0
VERTEX
  5
5FB
  8
0
  6
CONTINUOUS
 62
     7
 10
-2081.9443004003
 20
647.9875088807
 30
0.0
  0
VERTEX
  5
5FC
  8
0
  6
CONTINUOUS
 62
     7
 10
-2081.7943947187
 20
647.5591460148
 30
0.0
  0
VERTEX
  5
5FD
  8
0
  6
CONTINUOUS
 62
     7
 10
-2081.6096203199
 20
647.1893755624
 30
0.0
  0
VERTEX
  5
5FE
  8
0
  6
CONTINUOUS
 62
     7
 10
-2081.3955204358
 20
646.8894326499
 30
0.0
  0
VERTEX
  5
5FF
  8
0
  6
CONTINUOUS
 62
     7
 10
-2081.1586813798
 20
646.6684310107
 30
0.0
  0
VERTEX
  5
600
  8
0
  6
CONTINUOUS
 62
     7
 10
-2080.9062259069
 20
646.533085608
 30
0.0
  0
VERTEX
  5
601
  8
0
  6
CONTINUOUS
 62
     7
 10
-2080.6458728185
 20
646.4875088677
 30
0.0
  0
SEQEND
  5
602
  8
0
  6
CONTINUOUS
 62
     7
  0
POLYLINE
  5
269
  8
0
  6
CONTINUOUS
 62
     7
 66
     1
 10
0.0
 20
0.0
 30
0.0
  0
VERTEX
  5
603
  8
0
  6
CONTINUOUS
 62
     7
 10
-1486.6458909383
 20
646.4875088677
 30
0.0
  0
VERTEX
  5
604
  8
0
  6
CONTINUOUS
 62
     7
 10
-1486.3533811441
 20
646.5451530275
 30
0.0
  0
VERTEX
  5
605
  8
0
  6
CONTINUOUS
 62
     7
 10
-1486.0721366277
 20
646.7158702689
 30
0.0
  0
VERTEX
  5
606
  8
0
  6
CONTINUOUS
 62
     7
 10
-1485.8129160276
 20
646.9931000283
 30
0.0
  0
VERTEX
  5
607
  8
0
  6
CONTINUOUS
 62
     7
 10
-1485.585732924
 20
647.3661885502
 30
0.0
  0
VERTEX
  5
608
  8
0
  6
CONTINUOUS
 62
     7
 10
-1485.3992597928
 20
647.8207981817
 30
0.0
  0
VERTEX
  5
609
  8
0
  6
CONTINUOUS
 62
     7
 10
-1485.260708796
 20
648.339458592
 30
0.0
  0
VERTEX
  5
60A
  8
0
  6
CONTINUOUS
 62
     7
 10
-1485.175384747
 20
648.9022378482
 30
0.0
  0
VERTEX
  5
60B
  8
0
  6
CONTINUOUS
 62
     7
 10
-1485.1465957036
 20
649.4875088937
 30
0.0
  0
SEQEND
  5
60C
  8
0
  6
CONTINUOUS
 62
     7
  0
LINE
  5
26A
  8
0
  6
CONTINUOUS
 62
     7
 10
-2080.6458728185
 20
646.4875088677
 30
0.0
 11
-1486.6458909383
 21
646.4875088677
 31
0.0
  0
ARC
  5
26B
  8
0
  6
CONTINUOUS
 62
     7
 10
-1486.6458984614
 20
649.4875373717
 30
0.0
 40
3.000028504058823
 50
270.000143679
 51
359.999456116
  0
ARC
  5
26C
  8
0
  6
CONTINUOUS
 62
     7
 10
-2080.6458732972
 20
649.4875293698
 30
0.0
 40
3.000020502141221
 50
180.0003910613
 51
270.0000091437
  0
LINE
  5
26D
  8
0
  6
CONTINUOUS
 62
     7
 10
-2083.6458937993
 20
649.4875088937
 30
0.0
 11
-2083.6458937993
 21
895.946939443
 31
0.0
  0
LINE
  5
26E
  8
0
  6
CONTINUOUS
 62
     7
 10
-2082.1458833089
 20
649.4875088937
 30
0.0
 11
-2082.1458833089
 21
894.3293438896
 31
0.0
  0
LINE
  5
26F
  8
0
  6
CONTINUOUS
 62
     7
 10
-1485.1458804479
 20
894.3293438896
 30
0.0
 11
-1485.1458804479
 21
649.4875088937
 31
0.0
  0
LINE
  5
270
  8
0
  6
CONTINUOUS
 62
     7
 10
-1483.6458699575
 20
895.946939443
 30
0.0
 11
-1483.6458699575
 21
649.4875088937
 31
0.0
  0
LINE
  5
271
  8
0
  6
CONTINUOUS
 62
     7
 10
-1506.1301724782
 20
928.1962560162
 30
0.0
 11
-1507.6155798307
 21
928.4050212845
 31
0.0
  0
LINE
  5
272
  8
0
  6
CONTINUOUS
 62
     7
 10
-1505.4989890924
 20
932.6874958023
 30
0.0
 11
-1506.1301724782
 21
928.1962560162
 31
0.0
  0
LINE
  5
273
  8
0
  6
CONTINUOUS
 62
     7
 10
-1507.01372193
 20
932.6874958023
 30
0.0
 11
-1507.6155798307
 21
928.4050212845
 31
0.0
  0
LINE
  5
274
  8
0
  6
CONTINUOUS
 62
     7
 10
-2061.355574595
 20
928.1962560162
 30
0.0
 11
-2061.9929866662
 21
932.6874958023
 31
0.0
  0
POLYLINE
  5
275
  8
0
  6
CONTINUOUS
 62
     7
 66
     1
 10
0.0
 20
0.0
 30
0.0
  0
VERTEX
  5
60D
  8
0
  6
CONTINUOUS
 62
     7
 10
-2061.5132884851
 20
927.0052956089
 30
0.0
  0
VERTEX
  5
60E
  8
0
  6
CONTINUOUS
 62
     7
 10
-2062.0238022676
 20
926.6230808243
 30
0.0
  0
VERTEX
  5
60F
  8
0
  6
CONTINUOUS
 62
     7
 10
-2062.646998631
 20
926.4875100598
 30
0.0
  0
SEQEND
  5
610
  8
0
  6
CONTINUOUS
 62
     7
  0
POLYLINE
  5
276
  8
0
  6
CONTINUOUS
 62
     7
 66
     1
 10
0.0
 20
0.0
 30
0.0
  0
VERTEX
  5
611
  8
0
  6
CONTINUOUS
 62
     7
 10
-1504.6447651258
 20
926.4875100598
 30
0.0
  0
VERTEX
  5
612
  8
0
  6
CONTINUOUS
 62
     7
 10
-1505.2679614892
 20
926.6230808243
 30
0.0
  0
VERTEX
  5
613
  8
0
  6
CONTINUOUS
 62
     7
 10
-1505.7784752717
 20
927.0052956089
 30
0.0
  0
SEQEND
  5
614
  8
0
  6
CONTINUOUS
 62
     7
  0
POLYLINE
  5
277
  8
0
  6
CONTINUOUS
 62
     7
 66
     1
 10
0.0
 20
0.0
 30
0.0
  0
VERTEX
  5
615
  8
0
  6
CONTINUOUS
 62
     7
 10
-1507.5352625718
 20
927.2109316334
 30
0.0
  0
VERTEX
  5
616
  8
0
  6
CONTINUOUS
 62
     7
 10
-1507.5414018502
 20
927.1378563389
 30
0.0
  0
VERTEX
  5
617
  8
0
  6
CONTINUOUS
 62
     7
 10
-1507.5532035699
 20
927.0052956089
 30
0.0
  0
SEQEND
  5
618
  8
0
  6
CONTINUOUS
 62
     7
  0
ARC
  5
278
  8
0
  6
CONTINUOUS
 62
     7
 10
-1915.5717179977
 20
939.7741600028
 30
0.0
 40
146.2252855874469
 50
184.6234479417
 51
185.062338643
  0
POLYLINE
  5
279
  8
0
  6
CONTINUOUS
 62
     7
 66
     1
 10
0.0
 20
0.0
 30
0.0
  0
VERTEX
  5
619
  8
0
  6
CONTINUOUS
 62
     7
 10
-2062.6481013169
 20
926.4875100598
 30
0.0
  0
VERTEX
  5
61A
  8
0
  6
CONTINUOUS
 62
     7
 10
-2061.8966357579
 20
926.6230808243
 30
0.0
  0
VERTEX
  5
61B
  8
0
  6
CONTINUOUS
 62
     7
 10
-2061.1451701989
 20
927.0052956089
 30
0.0
  0
SEQEND
  5
61C
  8
0
  6
CONTINUOUS
 62
     7
  0
ARC
  5
27A
  8
0
  6
CONTINUOUS
 62
     7
 10
-2032.9670641876
 20
932.5975266248
 30
0.0
 40
28.72766447381323
 50
188.81280539
 51
191.2250735897
  0
ARC
  5
27B
  8
0
  6
CONTINUOUS
 62
     7
 10
-1535.8971828282
 20
932.6096232954
 30
0.0
 40
28.80113494444399
 50
348.7793991852
 51
351.1855025695
  0
LINE
  5
27C
  8
0
  6
CONTINUOUS
 62
     7
 10
-1507.6465742459
 20
927.0052956089
 30
0.0
 11
-1506.1465935578
 21
927.0052956089
 31
0.0
  0
POLYLINE
  5
27D
  8
0
  6
CONTINUOUS
 62
     7
 66
     1
 10
0.0
 20
0.0
 30
0.0
  0
VERTEX
  5
61D
  8
0
  6
CONTINUOUS
 62
     7
 10
-1506.1465935578
 20
927.0052956089
 30
0.0
  0
VERTEX
  5
61E
  8
0
  6
CONTINUOUS
 62
     7
 10
-1505.3923861852
 20
926.6230808243
 30
0.0
  0
VERTEX
  5
61F
  8
0
  6
CONTINUOUS
 62
     7
 10
-1504.6381788125
 20
926.4875100598
 30
0.0
  0
SEQEND
  5
620
  8
0
  6
CONTINUOUS
 62
     7
  0
ARC
  5
27E
  8
0
  6
CONTINUOUS
 62
     7
 10
-1505.1283080239
 20
927.9615181442
 30
0.0
 40
2.526502736237775
 50
169.8898961263
 51
202.2393606941
  0
ARC
  5
27F
  8
0
  6
CONTINUOUS
 62
     7
 10
-1504.6447635159
 20
927.9874962419
 30
0.0
 40
1.500006809561685
 50
172.000031817
 51
220.90429328
  0
POLYLINE
  5
280
  8
0
  6
CONTINUOUS
 62
     7
 66
     1
 10
0.0
 20
0.0
 30
0.0
  0
VERTEX
  5
621
  8
0
  6
CONTINUOUS
 62
     7
 10
-2061.2377660146
 20
927.4919973358
 30
0.0
  0
VERTEX
  5
622
  8
0
  6
CONTINUOUS
 62
     7
 10
-2061.330987679
 20
927.2676752552
 30
0.0
  0
VERTEX
  5
623
  8
0
  6
CONTINUOUS
 62
     7
 10
-2061.5132884851
 20
927.0052956089
 30
0.0
  0
SEQEND
  5
624
  8
0
  6
CONTINUOUS
 62
     7
  0
POLYLINE
  5
281
  8
0
  6
CONTINUOUS
 62
     7
 66
     1
 10
0.0
 20
0.0
 30
0.0
  0
VERTEX
  5
625
  8
0
  6
CONTINUOUS
 62
     7
 10
-1506.0188310018
 20
927.4073885426
 30
0.0
  0
VERTEX
  5
626
  8
0
  6
CONTINUOUS
 62
     7
 10
-1505.9887902608
 20
927.7664171204
 30
0.0
  0
VERTEX
  5
627
  8
0
  6
CONTINUOUS
 62
     7
 10
-1505.9361891618
 20
928.4050212845
 30
0.0
  0
SEQEND
  5
628
  8
0
  6
CONTINUOUS
 62
     7
  0
LINE
  5
282
  8
0
  6
CONTINUOUS
 62
     7
 10
-1505.9361891618
 20
928.1962560162
 30
0.0
 11
-1505.9361891618
 21
928.4050212845
 31
0.0
  0
LINE
  5
283
  8
0
  6
CONTINUOUS
 62
     7
 10
-1505.971057879
 20
927.9845403179
 30
0.0
 11
-1505.9361891618
 21
928.1962560162
 31
0.0
  0
LINE
  5
284
  8
0
  6
CONTINUOUS
 62
     7
 10
-1505.328400599
 20
932.6874958023
 30
0.0
 11
-1505.9361891618
 21
928.4050212845
 31
0.0
  0
LINE
  5
285
  8
0
  6
CONTINUOUS
 62
     7
 10
-1505.9361891618
 20
928.1962560162
 30
0.0
 11
-1505.2987770906
 21
932.6874958023
 31
0.0
  0
CIRCLE
  5
286
  8
0
  6
CONTINUOUS
 62
     7
 10
-2067.6458818784
 20
913.9875088677
 30
0.0
 40
3.750000000000079
  0
CIRCLE
  5
287
  8
0
  6
CONTINUOUS
 62
     7
 10
-1499.6458818784
 20
888.9875088677
 30
0.0
 40
3.750000000000124
  0
CIRCLE
  5
288
  8
0
  6
CONTINUOUS
 62
     7
 10
-1499.6458818784
 20
913.9875088677
 30
0.0
 40
3.750000000000038
  0
CIRCLE
  5
289
  8
0
  6
CONTINUOUS
 62
     7
 10
-2067.6458818784
 20
888.9875088677
 30
0.0
 40
3.750000000000029
  0
CIRCLE
  5
28A
  8
0
  6
CONTINUOUS
 62
     7
 10
-1469.6458818784
 20
921.6875088677
 30
0.0
 40
3.060000000000107
  0
CIRCLE
  5
28B
  8
0
  6
CONTINUOUS
 62
     7
 10
-2097.6458818784
 20
952.2875088677
 30
0.0
 40
3.060000000000069
  0
CIRCLE
  5
28C
  8
0
  6
CONTINUOUS
 62
     7
 10
-2097.6458818784
 20
921.6875088677
 30
0.0
 40
3.059999999999881
  0
CIRCLE
  5
28D
  8
0
  6
CONTINUOUS
 62
     7
 10
-1469.6458818784
 20
952.2875088677
 30
0.0
 40
3.060000000000147
  0
CIRCLE
  5
28E
  8
0
  6
CONTINUOUS
 62
     7
 10
-1499.6458818784
 20
888.9875088677
 30
0.0
 40
3.200000000000045
  0
CIRCLE
  5
28F
  8
0
  6
CONTINUOUS
 62
     7
 10
-1499.6458818784
 20
913.9875088677
 30
0.0
 40
3.199999999999932
  0
CIRCLE
  5
290
  8
0
  6
CONTINUOUS
 62
     7
 10
-1469.6458818784
 20
952.2875088677
 30
0.0
 40
2.25
  0
CIRCLE
  5
291
  8
0
  6
CONTINUOUS
 62
     7
 10
-1469.6458818784
 20
921.6875088677
 30
0.0
 40
2.250000000000114
  0
ARC
  5
292
  8
0
  6
CONTINUOUS
 62
     7
 10
-1466.8958818784
 20
954.7375088677
 30
0.0
 40
2.950000000000045
 50
360.0
 51
90.0
  0
LINE
  5
293
  8
0
  6
CONTINUOUS
 62
     7
 10
-1463.9458792081
 20
918.7897191986
 30
0.0
 11
-1463.9458792081
 21
954.7375188812
 31
0.0
  0
ARC
  5
294
  8
0
  6
CONTINUOUS
 62
     7
 10
-1466.8958818784
 20
918.7897176998
 30
0.0
 40
2.950000000000043
 50
317.16
 51
360.0
  0
LINE
  5
295
  8
0
  6
CONTINUOUS
 62
     7
 10
-1494.7330789437
 20
884.4318138108
 30
0.0
 11
-1464.7327797284
 21
916.783844088
 31
0.0
  0
ARC
  5
296
  8
0
  6
CONTINUOUS
 62
     7
 10
-1499.6458818784
 20
888.9875088677
 30
0.0
 40
6.699999999999975
 50
180.0
 51
317.16
  0
LINE
  5
297
  8
0
  6
CONTINUOUS
 62
     7
 10
-1506.3458816877
 20
912.5185357079
 30
0.0
 11
-1506.3458816877
 21
888.9875160202
 31
0.0
  0
ARC
  5
298
  8
0
  6
CONTINUOUS
 62
     7
 10
-1499.6458818784
 20
912.518533936
 30
0.0
 40
6.700000000000045
 50
137.16
 51
180.0
  0
LINE
  5
299
  8
0
  6
CONTINUOUS
 62
     7
 10
-1476.2928323617
 20
947.5558744416
 30
0.0
 11
-1504.5586960187
 21
917.074208115
 31
0.0
  0
ARC
  5
29A
  8
0
  6
CONTINUOUS
 62
     7
 10
-1478.8958818784
 20
949.9697022528
 30
0.0
 40
3.549999999999955
 50
317.16
 51
0.0
  0
LINE
  5
29B
  8
0
  6
CONTINUOUS
 62
     7
 10
-1475.3458933702
 20
954.7375188812
 30
0.0
 11
-1475.3458933702
 21
949.9697135433
 31
0.0
  0
ARC
  5
29C
  8
0
  6
CONTINUOUS
 62
     7
 10
-1472.3958818784
 20
954.7375088677
 30
0.0
 40
2.950000000000045
 50
90.0
 51
180.0
  0
LINE
  5
29D
  8
0
  6
CONTINUOUS
 62
     7
 10
-1466.895891892
 20
957.6875017628
 30
0.0
 11
-1472.3958806863
 21
957.6875017628
 31
0.0
  0
LINE
  5
29E
  8
0
  6
CONTINUOUS
 62
     7
 10
-1464.5128087869
 20
916.5798769936
 30
0.0
 11
-1494.5131080022
 21
884.2278318152
 31
0.0
  0
ARC
  5
29F
  8
0
  6
CONTINUOUS
 62
     7
 10
-1499.6458818784
 20
888.9875088677
 30
0.0
 40
7.0
 50
180.0
 51
317.16
  0
ARC
  5
2A0
  8
0
  6
CONTINUOUS
 62
     7
 10
-1466.8958818784
 20
918.7897176998
 30
0.0
 40
3.250000000000077
 50
317.16
 51
360.0
  0
LINE
  5
2A1
  8
0
  6
CONTINUOUS
 62
     7
 10
-1463.6458890309
 20
954.7375188812
 30
0.0
 11
-1463.6458890309
 21
918.7897191986
 31
0.0
  0
LINE
  5
2A2
  8
0
  6
CONTINUOUS
 62
     7
 10
-1506.6458718648
 20
888.9875160202
 30
0.0
 11
-1506.6458718648
 21
912.5185357079
 31
0.0
  0
LINE
  5
2A3
  8
0
  6
CONTINUOUS
 62
     7
 10
-1504.7786669603
 20
917.2782050118
 30
0.0
 11
-1476.5128033033
 21
947.759841536
 31
0.0
  0
ARC
  5
2A4
  8
0
  6
CONTINUOUS
 62
     7
 10
-1499.6458818784
 20
912.518533936
 30
0.0
 40
7.000000000000074
 50
137.16
 51
180.0
  0
LINE
  5
2A5
  8
0
  6
CONTINUOUS
 62
     7
 10
-1475.6458835473
 20
949.9697135433
 30
0.0
 11
-1475.6458835473
 21
954.7375188812
 31
0.0
  0
ARC
  5
2A6
  8
0
  6
CONTINUOUS
 62
     7
 10
-1478.8958818784
 20
949.9697022528
 30
0.0
 40
3.250000000000012
 50
317.16
 51
0.0
  0
ARC
  5
2A7
  8
0
  6
CONTINUOUS
 62
     7
 10
-1472.3958818784
 20
954.7375088677
 30
0.0
 40
3.25
 50
90.0
 51
180.0
  0
ARC
  5
2A8
  8
0
  6
CONTINUOUS
 62
     7
 10
-1466.8958818784
 20
954.7375088677
 30
0.0
 40
3.250000000000227
 50
360.0
 51
90.0
  0
LINE
  5
2A9
  8
0
  6
CONTINUOUS
 62
     7
 10
-1472.3958806863
 20
957.9875217423
 30
0.0
 11
-1466.895891892
 21
957.9875217423
 31
0.0
  0
CIRCLE
  5
2AA
  8
0
  6
CONTINUOUS
 62
     7
 10
-2067.6458818784
 20
888.9875088677
 30
0.0
 40
3.200000000000045
  0
CIRCLE
  5
2AB
  8
0
  6
CONTINUOUS
 62
     7
 10
-2067.6458818784
 20
913.9875088677
 30
0.0
 40
3.200000000000045
  0
CIRCLE
  5
2AC
  8
0
  6
CONTINUOUS
 62
     7
 10
-2097.6458818784
 20
952.2875088677
 30
0.0
 40
2.25
  0
CIRCLE
  5
2AD
  8
0
  6
CONTINUOUS
 62
     7
 10
-2097.6458818784
 20
921.6875088677
 30
0.0
 40
2.25
  0
ARC
  5
2AE
  8
0
  6
CONTINUOUS
 62
     7
 10
-2094.8958818784
 20
954.7375088677
 30
0.0
 40
2.950000000000045
 50
0.0
 51
90.0
  0
LINE
  5
2AF
  8
0
  6
CONTINUOUS
 62
     7
 10
-2091.9458703866
 20
949.9697135433
 30
0.0
 11
-2091.9458703866
 21
954.7375188812
 31
0.0
  0
ARC
  5
2B0
  8
0
  6
CONTINUOUS
 62
     7
 10
-2088.3958818784
 20
949.9697022528
 30
0.0
 40
3.549999999999737
 50
180.0
 51
222.84
  0
LINE
  5
2B1
  8
0
  6
CONTINUOUS
 62
     7
 10
-2062.7330677381
 20
917.074208115
 30
0.0
 11
-2090.9989313951
 21
947.5558744416
 31
0.0
  0
ARC
  5
2B2
  8
0
  6
CONTINUOUS
 62
     7
 10
-2067.6458818784
 20
912.518533936
 30
0.0
 40
6.699999999999963
 50
0.0
 51
42.84
  0
LINE
  5
2B3
  8
0
  6
CONTINUOUS
 62
     7
 10
-2060.9458820691
 20
888.9875160202
 30
0.0
 11
-2060.9458820691
 21
912.5185357079
 31
0.0
  0
ARC
  5
2B4
  8
0
  6
CONTINUOUS
 62
     7
 10
-2067.6458818784
 20
888.9875088677
 30
0.0
 40
6.699999999999963
 50
222.84
 51
360.0
  0
LINE
  5
2B5
  8
0
  6
CONTINUOUS
 62
     7
 10
-2102.5589840284
 20
916.783844088
 30
0.0
 11
-2072.558684813
 21
884.4318138108
 31
0.0
  0
ARC
  5
2B6
  8
0
  6
CONTINUOUS
 62
     7
 10
-2100.3958818784
 20
918.7897176998
 30
0.0
 40
2.949999999999954
 50
180.0
 51
222.84
  0
LINE
  5
2B7
  8
0
  6
CONTINUOUS
 62
     7
 10
-2103.3458845487
 20
954.7375188812
 30
0.0
 11
-2103.3458845487
 21
918.7897191986
 31
0.0
  0
ARC
  5
2B8
  8
0
  6
CONTINUOUS
 62
     7
 10
-2100.3958818784
 20
954.7375088677
 30
0.0
 40
2.949999999999932
 50
90.0
 51
180.0
  0
LINE
  5
2B9
  8
0
  6
CONTINUOUS
 62
     7
 10
-2094.8958830705
 20
957.6875017628
 30
0.0
 11
-2100.3958718648
 21
957.6875017628
 31
0.0
  0
LINE
  5
2BA
  8
0
  6
CONTINUOUS
 62
     7
 10
-2060.645891892
 20
912.5185357079
 30
0.0
 11
-2060.645891892
 21
888.9875160202
 31
0.0
  0
ARC
  5
2BB
  8
0
  6
CONTINUOUS
 62
     7
 10
-2067.6458818784
 20
888.9875088677
 30
0.0
 40
7.0
 50
222.84
 51
0.0
  0
ARC
  5
2BC
  8
0
  6
CONTINUOUS
 62
     7
 10
-2067.6458818784
 20
912.518533936
 30
0.0
 40
6.99999999999983
 50
0.0
 51
42.84
  0
LINE
  5
2BD
  8
0
  6
CONTINUOUS
 62
     7
 10
-2072.7786557546
 20
884.2278318152
 30
0.0
 11
-2102.7789549699
 21
916.5798769936
 31
0.0
  0
LINE
  5
2BE
  8
0
  6
CONTINUOUS
 62
     7
 10
-2090.7789604535
 20
947.759841536
 30
0.0
 11
-2062.5130967965
 21
917.2782050118
 31
0.0
  0
LINE
  5
2BF
  8
0
  6
CONTINUOUS
 62
     7
 10
-2103.6458747258
 20
918.7897191986
 30
0.0
 11
-2103.6458747258
 21
954.7375188812
 31
0.0
  0
ARC
  5
2C0
  8
0
  6
CONTINUOUS
 62
     7
 10
-2088.3958818784
 20
949.9697022528
 30
0.0
 40
3.249999999999545
 50
180.0
 51
222.84
  0
ARC
  5
2C1
  8
0
  6
CONTINUOUS
 62
     7
 10
-2100.3958818784
 20
954.7375088677
 30
0.0
 40
3.25
 50
90.0
 51
180.0
  0
ARC
  5
2C2
  8
0
  6
CONTINUOUS
 62
     7
 10
-2100.3958818784
 20
918.7897176998
 30
0.0
 40
3.249999999999821
 50
180.0
 51
222.84
  0
LINE
  5
2C3
  8
0
  6
CONTINUOUS
 62
     7
 10
-2091.6458802095
 20
954.7375188812
 30
0.0
 11
-2091.6458802095
 21
949.9697135433
 31
0.0
  0
ARC
  5
2C4
  8
0
  6
CONTINUOUS
 62
     7
 10
-2094.8958818784
 20
954.7375088677
 30
0.0
 40
3.25
 50
0.0
 51
90.0
  0
LINE
  5
2C5
  8
0
  6
CONTINUOUS
 62
     7
 10
-2100.3958718648
 20
957.9875217423
 30
0.0
 11
-2094.8958830705
 21
957.9875217423
 31
0.0
  0
LINE
  5
2C6
  8
0
  6
CONTINUOUS
 62
     7
 10
-2085.2458910813
 20
876.9875066027
 30
0.0
 11
-2085.2458910813
 21
892.9875092253
 31
0.0
  0
LINE
  5
2C7
  8
0
  6
CONTINUOUS
 62
     7
 10
-2085.2458910813
 20
892.9875092253
 30
0.0
 11
-2085.2458910813
 21
897.6723597988
 31
0.0
  0
LINE
  5
2C8
  8
0
  6
CONTINUOUS
 62
     7
 10
-2089.6458761563
 20
892.9875092253
 30
0.0
 11
-2089.6458761563
 21
880.9875147089
 31
0.0
  0
LINE
  5
2C9
  8
0
  6
CONTINUOUS
 62
     7
 10
-2089.6458761563
 20
902.4172769531
 30
0.0
 11
-2089.6458761563
 21
892.9875092253
 31
0.0
  0
LINE
  5
2CA
  8
0
  6
CONTINUOUS
 62
     7
 10
-2082.1458833089
 20
887.2876511559
 30
0.0
 11
-2082.1451680532
 21
887.2876511559
 31
0.0
  0
LINE
  5
2CB
  8
0
  6
CONTINUOUS
 62
     7
 10
-2082.1458833089
 20
877.5724069819
 30
0.0
 11
-2082.1451680532
 21
877.5724069819
 31
0.0
  0
LINE
  5
2CC
  8
0
  6
CONTINUOUS
 62
     7
 10
-1488.0958931317
 20
944.687520121
 30
0.0
 11
-1488.0958931317
 21
946.1369858727
 31
0.0
  0
ARC
  5
2CD
  8
0
  6
CONTINUOUS
 62
     7
 10
-1488.595882098
 20
943.687508442
 30
0.0
 40
2.500000000000025
 50
0.0
 51
78.4630409672
  0
LINE
  5
2CE
  8
0
  6
CONTINUOUS
 62
     7
 10
-1503.1452612748
 20
932.6874958023
 30
0.0
 11
-1503.4153597226
 21
930.7658420548
 31
0.0
  0
ARC
  5
2CF
  8
0
  6
CONTINUOUS
 62
     7
 10
-1501.4348095467
 20
930.4875088675
 30
0.0
 40
2.000000082123393
 50
172.0000011903
 51
269.9999999999
  0
LINE
  5
2D0
  8
0
  6
CONTINUOUS
 62
     7
 10
-1501.434816586
 20
928.4875141129
 30
0.0
 11
-1494.3841831555
 21
928.4875141129
 31
0.0
  0
ARC
  5
2D1
  8
0
  6
CONTINUOUS
 62
     7
 10
-1501.4348095467
 20
930.4875088675
 30
0.0
 40
4.0
 50
172.0000011904
 51
270.0000000001
  0
LINE
  5
2D2
  8
0
  6
CONTINUOUS
 62
     7
 10
-1505.3958730569
 20
931.0441957459
 30
0.0
 11
-1505.1649348607
 21
932.6874958023
 31
0.0
  0
LINE
  5
2D3
  8
0
  6
CONTINUOUS
 62
     7
 10
-1496.6905550828
 20
928.7075148567
 30
0.0
 11
-1499.8958842626
 21
928.7075148567
 31
0.0
  0
LINE
  5
2D4
  8
0
  6
CONTINUOUS
 62
     7
 10
-1494.8958890309
 20
928.7075148567
 30
0.0
 11
-1496.6905550828
 21
928.7075148567
 31
0.0
  0
LINE
  5
2D5
  8
0
  6
CONTINUOUS
 62
     7
 10
-1496.8034164777
 20
929.1075216278
 30
0.0
 11
-1495.295895802
 21
929.1075216278
 31
0.0
  0
LINE
  5
2D6
  8
0
  6
CONTINUOUS
 62
     7
 10
-1499.4958774915
 20
929.1075216278
 30
0.0
 11
-1496.8034164777
 21
929.1075216278
 31
0.0
  0
LINE
  5
2D7
  8
0
  6
CONTINUOUS
 62
     7
 10
-2063.3458928933
 20
-454.7444428062
 30
0.0
 11
-2063.3458928933
 21
-453.7444556808
 31
0.0
  0
LINE
  5
2D8
  8
0
  6
CONTINUOUS
 62
     7
 10
-2068.8458816877
 20
-453.7444556808
 30
0.0
 11
-2068.8458816877
 21
-454.7444428062
 31
0.0
  0
LINE
  5
2D9
  8
0
  6
CONTINUOUS
 62
     7
 10
-1780.3458821291
 20
-454.7444428062
 30
0.0
 11
-1780.3458821291
 21
-453.7444556808
 31
0.0
  0
LINE
  5
2DA
  8
0
  6
CONTINUOUS
 62
     7
 10
-1785.8458820993
 20
-453.7444556808
 30
0.0
 11
-1785.8458820993
 21
-454.7444428062
 31
0.0
  0
LINE
  5
2DB
  8
0
  6
CONTINUOUS
 62
     7
 10
-1497.3458783498
 20
-454.7444428062
 30
0.0
 11
-1497.3458783498
 21
-453.7444556808
 31
0.0
  0
LINE
  5
2DC
  8
0
  6
CONTINUOUS
 62
     7
 10
-1502.8458969464
 20
-453.7444556808
 30
0.0
 11
-1502.8458969464
 21
-454.7444428062
 31
0.0
  0
LINE
  5
2DD
  8
0
  6
CONTINUOUS
 62
     7
 10
-2070.8458857408
 20
-454.7444428062
 30
0.0
 11
-2070.8458857408
 21
-453.7444556808
 31
0.0
  0
LINE
  5
2DE
  8
0
  6
CONTINUOUS
 62
     7
 10
-2076.3458745351
 20
-453.7444556808
 30
0.0
 11
-2076.3458745351
 21
-454.7444428062
 31
0.0
  0
LINE
  5
2DF
  8
0
  6
CONTINUOUS
 62
     7
 10
-1489.8458855024
 20
-454.7444428062
 30
0.0
 11
-1489.8458855024
 21
-453.7444556808
 31
0.0
  0
LINE
  5
2E0
  8
0
  6
CONTINUOUS
 62
     7
 10
-1495.3458742967
 20
-453.7444556808
 30
0.0
 11
-1495.3458742967
 21
-454.7444428062
 31
0.0
  0
LINE
  5
2E1
  8
0
  6
CONTINUOUS
 62
     7
 10
-2083.6458937993
 20
-383.044450984
 30
0.0
 11
-2085.2458910813
 21
-383.044450984
 31
0.0
  0
LINE
  5
2E2
  8
0
  6
CONTINUOUS
 62
     7
 10
-2085.2458910813
 20
-383.044450984
 30
0.0
 11
-2089.6458761563
 21
-387.0444590902
 31
0.0
  0
ARC
  5
2E3
  8
0
  6
CONTINUOUS
 62
     7
 10
-1487.395882098
 20
-451.7444528233
 30
0.0
 40
0.5000000000000954
 50
270.0000000001
 51
17.0714480507
  0
ARC
  5
2E4
  8
0
  6
CONTINUOUS
 62
     7
 10
-2078.795882098
 20
-451.7444528233
 30
0.0
 40
0.5000000000000313
 50
94.4051963235
 51
270.0000000001
  0
ARC
  5
2E5
  8
0
  6
CONTINUOUS
 62
     7
 10
-2073.595882098
 20
-519.2444528233
 30
0.0
 40
68.20000000000007
 50
93.5967559811
 51
94.4051963235
  0
LINE
  5
2E6
  8
0
  6
CONTINUOUS
 62
     7
 10
-1499.8958842626
 20
-434.5444584942
 30
0.0
 11
-1499.8958842626
 21
-434.7644592381
 31
0.0
  0
LINE
  5
2E7
  8
0
  6
CONTINUOUS
 62
     7
 10
-1494.8958890309
 20
-434.7644592381
 30
0.0
 11
-1494.8958890309
 21
-434.5444584942
 31
0.0
  0
LINE
  5
2E8
  8
0
  6
CONTINUOUS
 62
     7
 10
-1499.8958842626
 20
-434.7644592381
 30
0.0
 11
-1499.4958774915
 21
-435.1644660091
 31
0.0
  0
LINE
  5
2E9
  8
0
  6
CONTINUOUS
 62
     7
 10
-1495.295895802
 20
-435.1644660091
 30
0.0
 11
-1494.8958890309
 21
-434.7644592381
 31
0.0
  0
LINE
  5
2EA
  8
0
  6
CONTINUOUS
 62
     7
 10
-1485.5958955159
 20
-454.7444428062
 30
0.0
 11
-1485.5958955159
 21
-457.7444637871
 31
0.0
  0
LINE
  5
2EB
  8
0
  6
CONTINUOUS
 62
     7
 10
-1485.5958955159
 20
-457.7444637871
 30
0.0
 11
-1487.5958697667
 21
-457.7444637871
 31
0.0
  0
LINE
  5
2EC
  8
0
  6
CONTINUOUS
 62
     7
 10
-1487.5958697667
 20
-454.7444428062
 30
0.0
 11
-1485.5958955159
 21
-454.7444428062
 31
0.0
  0
LINE
  5
2ED
  8
0
  6
CONTINUOUS
 62
     7
 10
-1487.5958697667
 20
-454.7444428062
 30
0.0
 11
-2078.5958902707
 21
-454.7444428062
 31
0.0
  0
LINE
  5
2EE
  8
0
  6
CONTINUOUS
 62
     7
 10
-1487.5958697667
 20
-457.7444637871
 30
0.0
 11
-2078.5958902707
 21
-457.7444637871
 31
0.0
  0
LINE
  5
2EF
  8
0
  6
CONTINUOUS
 62
     7
 10
-2078.5958902707
 20
-457.7444637871
 30
0.0
 11
-2080.5958943238
 21
-457.7444637871
 31
0.0
  0
LINE
  5
2F0
  8
0
  6
CONTINUOUS
 62
     7
 10
-2080.5958943238
 20
-457.7444637871
 30
0.0
 11
-2080.5958943238
 21
-454.7444428062
 31
0.0
  0
LINE
  5
2F1
  8
0
  6
CONTINUOUS
 62
     7
 10
-2080.5958943238
 20
-454.7444428062
 30
0.0
 11
-2078.5958902707
 21
-454.7444428062
 31
0.0
  0
ARC
  5
2F2
  8
0
  6
CONTINUOUS
 62
     7
 10
-2080.095882098
 20
-452.2444528233
 30
0.0
 40
2.500000000000034
 50
36.8698976458
 51
90.0
  0
LINE
  5
2F3
  8
0
  6
CONTINUOUS
 62
     7
 10
-2080.0958709588
 20
-449.7444475746
 30
0.0
 11
-2080.0958709588
 21
-442.2962511635
 31
0.0
  0
LINE
  5
2F4
  8
0
  6
CONTINUOUS
 62
     7
 10
-2076.8022673001
 20
-438.7444401836
 30
0.0
 11
-1490.4894964566
 21
-438.7444401836
 31
0.0
  0
LINE
  5
2F5
  8
0
  6
CONTINUOUS
 62
     7
 10
-1486.0958890786
 20
-449.7444475746
 30
0.0
 11
-1486.0958890786
 21
-443.4825028038
 31
0.0
  0
ARC
  5
2F6
  8
0
  6
CONTINUOUS
 62
     7
 10
-1486.095882098
 20
-452.2444528233
 30
0.0
 40
2.500000000000057
 50
90.0
 51
143.1301023542
  0
LINE
  5
2F7
  8
0
  6
CONTINUOUS
 62
     7
 10
-1488.0958931317
 20
-453.7444556808
 30
0.0
 11
-2078.095896708
 21
-453.7444556808
 31
0.0
  0
POLYLINE
  5
2F8
  8
0
  6
CONTINUOUS
 62
     7
 66
     1
 10
0.0
 20
0.0
 30
0.0
  0
VERTEX
  5
629
  8
0
  6
CONTINUOUS
 62
     7
 10
-2078.095896708
 20
-453.7444556808
 30
0.0
  0
VERTEX
  5
62A
  8
0
  6
CONTINUOUS
 62
     7
 10
-2077.8813199868
 20
-453.6970401859
 30
0.0
  0
VERTEX
  5
62B
  8
0
  6
CONTINUOUS
 62
     7
 10
-2077.7242319455
 20
-453.5399819469
 30
0.0
  0
VERTEX
  5
62C
  8
0
  6
CONTINUOUS
 62
     7
 10
-2077.6280300489
 20
-453.2607341862
 30
0.0
  0
VERTEX
  5
62D
  8
0
  6
CONTINUOUS
 62
     7
 10
-2077.595873343
 20
-452.8657640076
 30
0.0
  0
VERTEX
  5
62E
  8
0
  6
CONTINUOUS
 62
     7
 10
-2077.6278810372
 20
-452.3772741413
 30
0.0
  0
VERTEX
  5
62F
  8
0
  6
CONTINUOUS
 62
     7
 10
-2077.7238445153
 20
-451.834514246
 30
0.0
  0
VERTEX
  5
630
  8
0
  6
CONTINUOUS
 62
     7
 10
-2077.8814689984
 20
-451.2752140617
 30
0.0
  0
VERTEX
  5
631
  8
0
  6
CONTINUOUS
 62
     7
 10
-2078.095896708
 20
-450.7444645023
 30
0.0
  0
SEQEND
  5
632
  8
0
  6
CONTINUOUS
 62
     7
  0
POLYLINE
  5
2F9
  8
0
  6
CONTINUOUS
 62
     7
 66
     1
 10
0.0
 20
0.0
 30
0.0
  0
VERTEX
  5
633
  8
0
  6
CONTINUOUS
 62
     7
 10
-1488.0958931317
 20
-453.7444556808
 30
0.0
  0
VERTEX
  5
634
  8
0
  6
CONTINUOUS
 62
     7
 10
-1488.3104400506
 20
-453.6970401859
 30
0.0
  0
VERTEX
  5
635
  8
0
  6
CONTINUOUS
 62
     7
 10
-1488.4675280919
 20
-453.5399819469
 30
0.0
  0
VERTEX
  5
636
  8
0
  6
CONTINUOUS
 62
     7
 10
-1488.5637299886
 20
-453.2607341862
 30
0.0
  0
VERTEX
  5
637
  8
0
  6
CONTINUOUS
 62
     7
 10
-1488.5958866944
 20
-452.8657640076
 30
0.0
  0
VERTEX
  5
638
  8
0
  6
CONTINUOUS
 62
     7
 10
-1488.5639088025
 20
-452.3772741413
 30
0.0
  0
VERTEX
  5
639
  8
0
  6
CONTINUOUS
 62
     7
 10
-1488.4679155221
 20
-451.834514246
 30
0.0
  0
VERTEX
  5
63A
  8
0
  6
CONTINUOUS
 62
     7
 10
-1488.310291039
 20
-451.2752140617
 30
0.0
  0
VERTEX
  5
63B
  8
0
  6
CONTINUOUS
 62
     7
 10
-1488.0958931317
 20
-450.7444645023
 30
0.0
  0
SEQEND
  5
63C
  8
0
  6
CONTINUOUS
 62
     7
  0
POLYLINE
  5
2FA
  8
0
  6
CONTINUOUS
 62
     7
 66
     1
 10
0.0
 20
0.0
 30
0.0
  0
VERTEX
  5
63D
  8
0
  6
CONTINUOUS
 62
     7
 10
-1488.0958931317
 20
-452.2444451904
 30
0.0
  0
VERTEX
  5
63E
  8
0
  6
CONTINUOUS
 62
     7
 10
-1488.3104400506
 20
-452.2207523441
 30
0.0
  0
VERTEX
  5
63F
  8
0
  6
CONTINUOUS
 62
     7
 10
-1488.4675280919
 20
-452.1422232246
 30
0.0
  0
VERTEX
  5
640
  8
0
  6
CONTINUOUS
 62
     7
 10
-1488.5637299886
 20
-452.0025993443
 30
0.0
  0
VERTEX
  5
641
  8
0
  6
CONTINUOUS
 62
     7
 10
-1488.5958866944
 20
-451.8050993538
 30
0.0
  0
VERTEX
  5
642
  8
0
  6
CONTINUOUS
 62
     7
 10
-1488.5958866944
 20
-451.8050993538
 30
0.0
  0
SEQEND
  5
643
  8
0
  6
CONTINUOUS
 62
     7
  0
LINE
  5
2FB
  8
0
  6
CONTINUOUS
 62
     7
 10
-1488.0958931317
 20
-452.2444451904
 30
0.0
 11
-1488.0958931317
 21
-453.7444556808
 31
0.0
  0
LINE
  5
2FC
  8
0
  6
CONTINUOUS
 62
     7
 10
-2078.095896708
 20
-452.2444451904
 30
0.0
 11
-2078.095896708
 21
-453.7444556808
 31
0.0
  0
POLYLINE
  5
2FD
  8
0
  6
CONTINUOUS
 62
     7
 66
     1
 10
0.0
 20
0.0
 30
0.0
  0
VERTEX
  5
644
  8
0
  6
CONTINUOUS
 62
     7
 10
-2078.095896708
 20
-452.2444451904
 30
0.0
  0
VERTEX
  5
645
  8
0
  6
CONTINUOUS
 62
     7
 10
-2077.8813199868
 20
-452.2207523441
 30
0.0
  0
VERTEX
  5
646
  8
0
  6
CONTINUOUS
 62
     7
 10
-2077.7242319455
 20
-452.1422232246
 30
0.0
  0
VERTEX
  5
647
  8
0
  6
CONTINUOUS
 62
     7
 10
-2077.6280300489
 20
-452.0025993443
 30
0.0
  0
VERTEX
  5
648
  8
0
  6
CONTINUOUS
 62
     7
 10
-2077.595873343
 20
-451.8050993538
 30
0.0
  0
VERTEX
  5
649
  8
0
  6
CONTINUOUS
 62
     7
 10
-2077.595873343
 20
-451.8050993538
 30
0.0
  0
SEQEND
  5
64A
  8
0
  6
CONTINUOUS
 62
     7
  0
LINE
  5
2FE
  8
0
  6
CONTINUOUS
 62
     7
 10
-1484.5958785882
 20
-449.7444475746
 30
0.0
 11
-1486.0958890786
 21
-449.7444475746
 31
0.0
  0
LINE
  5
2FF
  8
0
  6
CONTINUOUS
 62
     7
 10
-1484.5958785882
 20
-450.7444645023
 30
0.0
 11
-1486.0958890786
 21
-450.7444645023
 31
0.0
  0
LINE
  5
300
  8
0
  6
CONTINUOUS
 62
     7
 10
-1484.5958785882
 20
-449.7444475746
 30
0.0
 11
-1484.5958785882
 21
-450.7444645023
 31
0.0
  0
LINE
  5
301
  8
0
  6
CONTINUOUS
 62
     7
 10
-1486.0958890786
 20
-449.7444475746
 30
0.0
 11
-1486.0958890786
 21
-450.7444645023
 31
0.0
  0
LINE
  5
302
  8
0
  6
CONTINUOUS
 62
     7
 10
-2080.0958709588
 20
-449.7444475746
 30
0.0
 11
-2081.5958814492
 21
-449.7444475746
 31
0.0
  0
LINE
  5
303
  8
0
  6
CONTINUOUS
 62
     7
 10
-2081.5958814492
 20
-450.7444645023
 30
0.0
 11
-2080.0958709588
 21
-450.7444645023
 31
0.0
  0
LINE
  5
304
  8
0
  6
CONTINUOUS
 62
     7
 10
-2080.0958709588
 20
-449.7444475746
 30
0.0
 11
-2080.0958709588
 21
-450.7444645023
 31
0.0
  0
LINE
  5
305
  8
0
  6
CONTINUOUS
 62
     7
 10
-2081.5958814492
 20
-449.7444475746
 30
0.0
 11
-2081.5958814492
 21
-450.7444645023
 31
0.0
  0
LINE
  5
306
  8
0
  6
CONTINUOUS
 62
     7
 10
-1484.5958785882
 20
-445.100083456
 30
0.0
 11
-1484.5958785882
 21
-449.7444475746
 31
0.0
  0
LINE
  5
307
  8
0
  6
CONTINUOUS
 62
     7
 10
-2081.5958814492
 20
-443.913861618
 30
0.0
 11
-2081.5958814492
 21
-449.7444475746
 31
0.0
  0
LINE
  5
308
  8
0
  6
CONTINUOUS
 62
     7
 10
-1487.5958697667
 20
-453.7444556808
 30
0.0
 11
-1487.5958697667
 21
-452.2444451904
 31
0.0
  0
LINE
  5
309
  8
0
  6
CONTINUOUS
 62
     7
 10
-1487.5958697667
 20
-453.7444556808
 30
0.0
 11
-1488.0958931317
 21
-453.7444556808
 31
0.0
  0
LINE
  5
30A
  8
0
  6
CONTINUOUS
 62
     7
 10
-1487.5958697667
 20
-452.2444451904
 30
0.0
 11
-1488.0958931317
 21
-452.2444451904
 31
0.0
  0
LINE
  5
30B
  8
0
  6
CONTINUOUS
 62
     7
 10
-2078.5958902707
 20
-453.7444556808
 30
0.0
 11
-2078.5958902707
 21
-452.2444451904
 31
0.0
  0
LINE
  5
30C
  8
0
  6
CONTINUOUS
 62
     7
 10
-2078.5958902707
 20
-453.7444556808
 30
0.0
 11
-2078.095896708
 21
-453.7444556808
 31
0.0
  0
LINE
  5
30D
  8
0
  6
CONTINUOUS
 62
     7
 10
-2078.5958902707
 20
-452.2444451904
 30
0.0
 11
-2078.095896708
 21
-452.2444451904
 31
0.0
  0
ARC
  5
30E
  8
0
  6
CONTINUOUS
 62
     7
 10
-1487.5958673075
 20
-450.7444669616
 30
0.0
 40
2.999988719276742
 50
269.9999530319
 51
0.0000469681
  0
ARC
  5
30F
  8
0
  6
CONTINUOUS
 62
     7
 10
-1487.5958531356
 20
-450.7444811335
 30
0.0
 40
1.499964057049397
 50
269.9993647221
 51
0.0006352779
  0
ARC
  5
310
  8
0
  6
CONTINUOUS
 62
     7
 10
-2078.59589273
 20
-450.7444669616
 30
0.0
 40
2.999988719276685
 50
179.9999530319
 51
270.0000469681
  0
ARC
  5
311
  8
0
  6
CONTINUOUS
 62
     7
 10
-2078.5959069019
 20
-450.7444811335
 30
0.0
 40
1.49996405704934
 50
179.9993647221
 51
270.0006352779
  0
LINE
  5
312
  8
0
  6
CONTINUOUS
 62
     7
 10
-2082.1451680532
 20
-155.5444532751
 30
0.0
 11
-2082.1451680532
 21
-400.3855283117
 31
0.0
  0
LINE
  5
313
  8
0
  6
CONTINUOUS
 62
     7
 10
-1485.1465957036
 20
-400.3855283117
 30
0.0
 11
-1485.1465957036
 21
-155.5444532751
 31
0.0
  0
CIRCLE
  5
314
  8
0
  6
CONTINUOUS
 62
     7
 10
-1783.6458818784
 20
-292.544453249
 30
0.0
 40
25.25
  0
LINE
  5
315
  8
0
  6
CONTINUOUS
 62
     7
 10
-1755.236872079
 20
-268.731638298
 30
0.0
 11
-1751.3477863541
 21
-264.8425469852
 31
0.0
  0
ARC
  5
316
  8
0
  6
CONTINUOUS
 62
     7
 10
-1753.6458818784
 20
-262.544453249
 30
0.0
 40
3.250000000000107
 50
315.0
 51
135.0
  0
LINE
  5
317
  8
0
  6
CONTINUOUS
 62
     7
 10
-1755.9439787438
 20
-260.2463583207
 30
0.0
 11
-1759.8330663314
 21
-264.135442183
 31
0.0
  0
ARC
  5
318
  8
0
  6
CONTINUOUS
 62
     7
 10
-1757.5349691749
 20
-266.4335405455
 30
0.0
 40
3.250000000000428
 50
135.0
 51
315.0
  0
LINE
  5
319
  8
0
  6
CONTINUOUS
 62
     7
 10
-1815.9439774027
 20
-264.8425469852
 30
0.0
 11
-1812.0548916777
 21
-268.731638298
 31
0.0
  0
ARC
  5
31A
  8
0
  6
CONTINUOUS
 62
     7
 10
-1809.7567945819
 20
-266.4335405455
 30
0.0
 40
3.250000000000107
 50
225.0
 51
45.0
  0
LINE
  5
31B
  8
0
  6
CONTINUOUS
 62
     7
 10
-1807.4586974254
 20
-264.135442183
 30
0.0
 11
-1811.347785013
 21
-260.2463583207
 31
0.0
  0
ARC
  5
31C
  8
0
  6
CONTINUOUS
 62
     7
 10
-1813.6458818784
 20
-262.544453249
 30
0.0
 40
3.250000000000227
 50
45.0
 51
225.0
  0
LINE
  5
31D
  8
0
  6
CONTINUOUS
 62
     7
 10
-1751.3477863541
 20
-320.2463532543
 30
0.0
 11
-1755.236872079
 21
-316.357269392
 31
0.0
  0
ARC
  5
31E
  8
0
  6
CONTINUOUS
 62
     7
 10
-1757.5349691749
 20
-318.6553659525
 30
0.0
 40
3.250000000000107
 50
45.0
 51
225.0
  0
LINE
  5
31F
  8
0
  6
CONTINUOUS
 62
     7
 10
-1759.8330663314
 20
-320.9534580565
 30
0.0
 11
-1755.9439787438
 21
-324.8425568199
 31
0.0
  0
ARC
  5
320
  8
0
  6
CONTINUOUS
 62
     7
 10
-1753.6458818784
 20
-322.544453249
 30
0.0
 40
3.250000000000629
 50
225.0
 51
45.0
  0
LINE
  5
321
  8
0
  6
CONTINUOUS
 62
     7
 10
-1812.0548916777
 20
-316.357269392
 30
0.0
 11
-1815.9439774027
 21
-320.2463532543
 31
0.0
  0
ARC
  5
322
  8
0
  6
CONTINUOUS
 62
     7
 10
-1813.6458818784
 20
-322.544453249
 30
0.0
 40
3.250000000000107
 50
135.0
 51
315.0
  0
LINE
  5
323
  8
0
  6
CONTINUOUS
 62
     7
 10
-1811.347785013
 20
-324.8425568199
 30
0.0
 11
-1807.4586974254
 21
-320.9534580565
 31
0.0
  0
ARC
  5
324
  8
0
  6
CONTINUOUS
 62
     7
 10
-1809.7567945819
 20
-318.6553659525
 30
0.0
 40
3.250000000000147
 50
315.0
 51
135.0
  0
LINE
  5
325
  8
0
  6
CONTINUOUS
 62
     7
 10
-1496.2388114801
 20
-432.5444544411
 30
0.0
 11
-2071.0529522767
 21
-432.5444544411
 31
0.0
  0
POLYLINE
  5
326
  8
0
  6
CONTINUOUS
 62
     7
 66
     1
 10
0.0
 20
0.0
 30
0.0
  0
VERTEX
  5
64B
  8
0
  6
CONTINUOUS
 62
     7
 10
-2080.6458728185
 20
-152.544453249
 30
0.0
  0
VERTEX
  5
64C
  8
0
  6
CONTINUOUS
 62
     7
 10
-2080.9062259069
 20
-152.5900299894
 30
0.0
  0
VERTEX
  5
64D
  8
0
  6
CONTINUOUS
 62
     7
 10
-2081.1586813798
 20
-152.725375392
 30
0.0
  0
VERTEX
  5
64E
  8
0
  6
CONTINUOUS
 62
     7
 10
-2081.3955204358
 20
-152.9463770312
 30
0.0
  0
VERTEX
  5
64F
  8
0
  6
CONTINUOUS
 62
     7
 10
-2081.6096203199
 20
-153.2463199437
 30
0.0
  0
VERTEX
  5
650
  8
0
  6
CONTINUOUS
 62
     7
 10
-2081.7943947187
 20
-153.6160903961
 30
0.0
  0
VERTEX
  5
651
  8
0
  6
CONTINUOUS
 62
     7
 10
-2081.9443004003
 20
-154.044453262
 30
0.0
  0
VERTEX
  5
652
  8
0
  6
CONTINUOUS
 62
     7
 10
-2082.054747807
 20
-154.5183928429
 30
0.0
  0
VERTEX
  5
653
  8
0
  6
CONTINUOUS
 62
     7
 10
-2082.1223990789
 20
-155.0235086797
 30
0.0
  0
VERTEX
  5
654
  8
0
  6
CONTINUOUS
 62
     7
 10
-2082.1451680532
 20
-155.5444532751
 30
0.0
  0
SEQEND
  5
655
  8
0
  6
CONTINUOUS
 62
     7
  0
POLYLINE
  5
327
  8
0
  6
CONTINUOUS
 62
     7
 66
     1
 10
0.0
 20
0.0
 30
0.0
  0
VERTEX
  5
656
  8
0
  6
CONTINUOUS
 62
     7
 10
-1485.1465957036
 20
-155.5444532751
 30
0.0
  0
VERTEX
  5
657
  8
0
  6
CONTINUOUS
 62
     7
 10
-1485.1693646779
 20
-155.0235086797
 30
0.0
  0
VERTEX
  5
658
  8
0
  6
CONTINUOUS
 62
     7
 10
-1485.2370159497
 20
-154.5183928429
 30
0.0
  0
VERTEX
  5
659
  8
0
  6
CONTINUOUS
 62
     7
 10
-1485.3474633565
 20
-154.044453262
 30
0.0
  0
VERTEX
  5
65A
  8
0
  6
CONTINUOUS
 62
     7
 10
-1485.4973690381
 20
-153.6160903961
 30
0.0
  0
VERTEX
  5
65B
  8
0
  6
CONTINUOUS
 62
     7
 10
-1485.6821434369
 20
-153.2463199437
 30
0.0
  0
VERTEX
  5
65C
  8
0
  6
CONTINUOUS
 62
     7
 10
-1485.896243321
 20
-152.9463770312
 30
0.0
  0
VERTEX
  5
65D
  8
0
  6
CONTINUOUS
 62
     7
 10
-1486.133082377
 20
-152.725375392
 30
0.0
  0
VERTEX
  5
65E
  8
0
  6
CONTINUOUS
 62
     7
 10
-1486.3855378499
 20
-152.5900299894
 30
0.0
  0
VERTEX
  5
65F
  8
0
  6
CONTINUOUS
 62
     7
 10
-1486.6458909383
 20
-152.544453249
 30
0.0
  0
SEQEND
  5
660
  8
0
  6
CONTINUOUS
 62
     7
  0
LINE
  5
328
  8
0
  6
CONTINUOUS
 62
     7
 10
-1486.6458909383
 20
-152.544453249
 30
0.0
 11
-2080.6458728185
 21
-152.544453249
 31
0.0
  0
LINE
  5
329
  8
0
  6
CONTINUOUS
 62
     7
 10
-1483.6458699575
 20
-155.5444532751
 30
0.0
 11
-1483.6458699575
 21
-402.0038838243
 31
0.0
  0
LINE
  5
32A
  8
0
  6
CONTINUOUS
 62
     7
 10
-1485.1458804479
 20
-155.5444532751
 30
0.0
 11
-1485.1458804479
 21
-400.386288271
 31
0.0
  0
LINE
  5
32B
  8
0
  6
CONTINUOUS
 62
     7
 10
-2083.6458937993
 20
-402.0038838243
 30
0.0
 11
-2083.6458937993
 21
-155.5444532751
 31
0.0
  0
LINE
  5
32C
  8
0
  6
CONTINUOUS
 62
     7
 10
-2082.1458833089
 20
-400.386288271
 30
0.0
 11
-2082.1458833089
 21
-155.5444532751
 31
0.0
  0
ARC
  5
32D
  8
0
  6
CONTINUOUS
 62
     7
 10
-2080.6458652954
 20
-155.544481753
 30
0.0
 40
3.000028504058687
 50
90.000143679
 51
179.999456116
  0
ARC
  5
32E
  8
0
  6
CONTINUOUS
 62
     7
 10
-1486.645901583
 20
-155.5444848747
 30
0.0
 40
3.000031625719414
 50
0.000603502
 51
89.999796703
  0
LINE
  5
32F
  8
0
  6
CONTINUOUS
 62
     7
 10
-2061.7927746644
 20
-438.7444401836
 30
0.0
 11
-2061.1615912786
 21
-434.2532003975
 31
0.0
  0
LINE
  5
330
  8
0
  6
CONTINUOUS
 62
     7
 10
-2061.1615912786
 20
-434.2532003975
 30
0.0
 11
-2059.6761839261
 21
-434.4619656658
 31
0.0
  0
LINE
  5
331
  8
0
  6
CONTINUOUS
 62
     7
 10
-2060.2780418267
 20
-438.7444401836
 30
0.0
 11
-2059.6761839261
 21
-434.4619656658
 31
0.0
  0
LINE
  5
332
  8
0
  6
CONTINUOUS
 62
     7
 10
-1505.9361891618
 20
-434.2532003975
 30
0.0
 11
-1505.2987770906
 21
-438.7444401836
 31
0.0
  0
POLYLINE
  5
333
  8
0
  6
CONTINUOUS
 62
     7
 66
     1
 10
0.0
 20
0.0
 30
0.0
  0
VERTEX
  5
661
  8
0
  6
CONTINUOUS
 62
     7
 10
-1505.7784752717
 20
-433.0622399902
 30
0.0
  0
VERTEX
  5
662
  8
0
  6
CONTINUOUS
 62
     7
 10
-1505.2679614892
 20
-432.6800252056
 30
0.0
  0
VERTEX
  5
663
  8
0
  6
CONTINUOUS
 62
     7
 10
-1504.6447651258
 20
-432.5444544411
 30
0.0
  0
SEQEND
  5
664
  8
0
  6
CONTINUOUS
 62
     7
  0
POLYLINE
  5
334
  8
0
  6
CONTINUOUS
 62
     7
 66
     1
 10
0.0
 20
0.0
 30
0.0
  0
VERTEX
  5
665
  8
0
  6
CONTINUOUS
 62
     7
 10
-2062.646998631
 20
-432.5444544411
 30
0.0
  0
VERTEX
  5
666
  8
0
  6
CONTINUOUS
 62
     7
 10
-2062.0238022676
 20
-432.6800252056
 30
0.0
  0
VERTEX
  5
667
  8
0
  6
CONTINUOUS
 62
     7
 10
-2061.5132884851
 20
-433.0622399902
 30
0.0
  0
SEQEND
  5
668
  8
0
  6
CONTINUOUS
 62
     7
  0
POLYLINE
  5
335
  8
0
  6
CONTINUOUS
 62
     7
 66
     1
 10
0.0
 20
0.0
 30
0.0
  0
VERTEX
  5
669
  8
0
  6
CONTINUOUS
 62
     7
 10
-2059.756501185
 20
-433.2678760147
 30
0.0
  0
VERTEX
  5
66A
  8
0
  6
CONTINUOUS
 62
     7
 10
-2059.7503619065
 20
-433.1948007202
 30
0.0
  0
VERTEX
  5
66B
  8
0
  6
CONTINUOUS
 62
     7
 10
-2059.7385601869
 20
-433.0622399902
 30
0.0
  0
SEQEND
  5
66C
  8
0
  6
CONTINUOUS
 62
     7
  0
ARC
  5
336
  8
0
  6
CONTINUOUS
 62
     7
 10
-1651.7200457591
 20
-445.8311043841
 30
0.0
 40
146.2252855874469
 50
4.6234479417
 51
5.062338643
  0
ARC
  5
337
  8
0
  6
CONTINUOUS
 62
     7
 10
-1534.3246995692
 20
-438.6544710061
 30
0.0
 40
28.72766447381344
 50
8.81280539
 51
11.2250735897
  0
ARC
  5
338
  8
0
  6
CONTINUOUS
 62
     7
 10
-2031.3945809285
 20
-438.6665676767
 30
0.0
 40
28.80113494444445
 50
168.7793991852
 51
171.1855025695
  0
LINE
  5
339
  8
0
  6
CONTINUOUS
 62
     7
 10
-2059.6451895108
 20
-433.0622399902
 30
0.0
 11
-2061.1451701989
 21
-433.0622399902
 31
0.0
  0
POLYLINE
  5
33A
  8
0
  6
CONTINUOUS
 62
     7
 66
     1
 10
0.0
 20
0.0
 30
0.0
  0
VERTEX
  5
66D
  8
0
  6
CONTINUOUS
 62
     7
 10
-1504.6436624398
 20
-432.5444544411
 30
0.0
  0
VERTEX
  5
66E
  8
0
  6
CONTINUOUS
 62
     7
 10
-1505.3951279988
 20
-432.6800252056
 30
0.0
  0
VERTEX
  5
66F
  8
0
  6
CONTINUOUS
 62
     7
 10
-1506.1465935578
 20
-433.0622399902
 30
0.0
  0
SEQEND
  5
670
  8
0
  6
CONTINUOUS
 62
     7
  0
POLYLINE
  5
33B
  8
0
  6
CONTINUOUS
 62
     7
 66
     1
 10
0.0
 20
0.0
 30
0.0
  0
VERTEX
  5
671
  8
0
  6
CONTINUOUS
 62
     7
 10
-2061.1451701989
 20
-433.0622399902
 30
0.0
  0
VERTEX
  5
672
  8
0
  6
CONTINUOUS
 62
     7
 10
-2061.8993775716
 20
-432.6800252056
 30
0.0
  0
VERTEX
  5
673
  8
0
  6
CONTINUOUS
 62
     7
 10
-2062.6535849443
 20
-432.5444544411
 30
0.0
  0
SEQEND
  5
674
  8
0
  6
CONTINUOUS
 62
     7
  0
ARC
  5
33C
  8
0
  6
CONTINUOUS
 62
     7
 10
-2062.6470002409
 20
-434.0444406232
 30
0.0
 40
1.500006809562126
 50
352.000031817
 51
40.90429328
  0
ARC
  5
33D
  8
0
  6
CONTINUOUS
 62
     7
 10
-2062.1634557329
 20
-434.0184625255
 30
0.0
 40
2.526502736237551
 50
349.8898961263
 51
22.2393606941
  0
POLYLINE
  5
33E
  8
0
  6
CONTINUOUS
 62
     7
 66
     1
 10
0.0
 20
0.0
 30
0.0
  0
VERTEX
  5
675
  8
0
  6
CONTINUOUS
 62
     7
 10
-1506.0539977422
 20
-433.5489417171
 30
0.0
  0
VERTEX
  5
676
  8
0
  6
CONTINUOUS
 62
     7
 10
-1505.9607760778
 20
-433.3246196365
 30
0.0
  0
VERTEX
  5
677
  8
0
  6
CONTINUOUS
 62
     7
 10
-1505.7784752717
 20
-433.0622399902
 30
0.0
  0
SEQEND
  5
678
  8
0
  6
CONTINUOUS
 62
     7
  0
POLYLINE
  5
33F
  8
0
  6
CONTINUOUS
 62
     7
 66
     1
 10
0.0
 20
0.0
 30
0.0
  0
VERTEX
  5
679
  8
0
  6
CONTINUOUS
 62
     7
 10
-2061.272932755
 20
-433.4643329239
 30
0.0
  0
VERTEX
  5
67A
  8
0
  6
CONTINUOUS
 62
     7
 10
-2061.302973496
 20
-433.8233615017
 30
0.0
  0
VERTEX
  5
67B
  8
0
  6
CONTINUOUS
 62
     7
 10
-2061.355574595
 20
-434.4619656658
 30
0.0
  0
SEQEND
  5
67C
  8
0
  6
CONTINUOUS
 62
     7
  0
LINE
  5
340
  8
0
  6
CONTINUOUS
 62
     7
 10
-2061.355574595
 20
-434.2532003975
 30
0.0
 11
-2061.355574595
 21
-434.4619656658
 31
0.0
  0
LINE
  5
341
  8
0
  6
CONTINUOUS
 62
     7
 10
-2061.3207058778
 20
-434.0414846993
 30
0.0
 11
-2061.355574595
 21
-434.2532003975
 31
0.0
  0
LINE
  5
342
  8
0
  6
CONTINUOUS
 62
     7
 10
-2061.9633631578
 20
-438.7444401836
 30
0.0
 11
-2061.355574595
 21
-434.4619656658
 31
0.0
  0
LINE
  5
343
  8
0
  6
CONTINUOUS
 62
     7
 10
-2061.355574595
 20
-434.2532003975
 30
0.0
 11
-2061.9929866662
 21
-438.7444401836
 31
0.0
  0
CIRCLE
  5
344
  8
0
  6
CONTINUOUS
 62
     7
 10
-1499.6458818784
 20
-395.044453249
 30
0.0
 40
3.750000000000112
  0
CIRCLE
  5
345
  8
0
  6
CONTINUOUS
 62
     7
 10
-2067.6458818784
 20
-420.044453249
 30
0.0
 40
3.750000000000061
  0
CIRCLE
  5
346
  8
0
  6
CONTINUOUS
 62
     7
 10
-2067.6458818784
 20
-395.044453249
 30
0.0
 40
3.750000000000128
  0
CIRCLE
  5
347
  8
0
  6
CONTINUOUS
 62
     7
 10
-1499.6458818784
 20
-420.044453249
 30
0.0
 40
3.750000000000096
  0
CIRCLE
  5
348
  8
0
  6
CONTINUOUS
 62
     7
 10
-2097.6458818784
 20
-427.744453249
 30
0.0
 40
3.059999999999949
  0
CIRCLE
  5
349
  8
0
  6
CONTINUOUS
 62
     7
 10
-2097.6458818784
 20
-458.344453249
 30
0.0
 40
3.059999999999916
  0
CIRCLE
  5
34A
  8
0
  6
CONTINUOUS
 62
     7
 10
-1469.6458818784
 20
-427.744453249
 30
0.0
 40
3.06000000000009
  0
CIRCLE
  5
34B
  8
0
  6
CONTINUOUS
 62
     7
 10
-1469.6458818784
 20
-458.344453249
 30
0.0
 40
3.060000000000141
  0
CIRCLE
  5
34C
  8
0
  6
CONTINUOUS
 62
     7
 10
-1499.6458818784
 20
-395.044453249
 30
0.0
 40
3.200000000000045
  0
CIRCLE
  5
34D
  8
0
  6
CONTINUOUS
 62
     7
 10
-1499.6458818784
 20
-420.044453249
 30
0.0
 40
3.199999999999989
  0
CIRCLE
  5
34E
  8
0
  6
CONTINUOUS
 62
     7
 10
-1469.6458818784
 20
-458.344453249
 30
0.0
 40
2.250000000000057
  0
CIRCLE
  5
34F
  8
0
  6
CONTINUOUS
 62
     7
 10
-1469.6458818784
 20
-427.744453249
 30
0.0
 40
2.25
  0
ARC
  5
350
  8
0
  6
CONTINUOUS
 62
     7
 10
-1472.3958818784
 20
-460.794453249
 30
0.0
 40
2.950000000000045
 50
180.0
 51
270.0
  0
LINE
  5
351
  8
0
  6
CONTINUOUS
 62
     7
 10
-1475.3458933702
 20
-456.0266579247
 30
0.0
 11
-1475.3458933702
 21
-460.7944632626
 31
0.0
  0
ARC
  5
352
  8
0
  6
CONTINUOUS
 62
     7
 10
-1478.8958818784
 20
-456.0266466341
 30
0.0
 40
3.549999999999955
 50
360.0
 51
42.84
  0
LINE
  5
353
  8
0
  6
CONTINUOUS
 62
     7
 10
-1504.5586960187
 20
-423.1311524963
 30
0.0
 11
-1476.2928323617
 21
-453.6128188229
 31
0.0
  0
ARC
  5
354
  8
0
  6
CONTINUOUS
 62
     7
 10
-1499.6458818784
 20
-418.5754783173
 30
0.0
 40
6.699999999999886
 50
180.0
 51
222.84
  0
LINE
  5
355
  8
0
  6
CONTINUOUS
 62
     7
 10
-1506.3458816877
 20
-395.0444604015
 30
0.0
 11
-1506.3458816877
 21
-418.5754800892
 31
0.0
  0
ARC
  5
356
  8
0
  6
CONTINUOUS
 62
     7
 10
-1499.6458818784
 20
-395.044453249
 30
0.0
 40
6.699999999999924
 50
42.84
 51
180.0
  0
LINE
  5
357
  8
0
  6
CONTINUOUS
 62
     7
 10
-1464.7327797284
 20
-422.8407884693
 30
0.0
 11
-1494.7330789437
 21
-390.4887581921
 31
0.0
  0
ARC
  5
358
  8
0
  6
CONTINUOUS
 62
     7
 10
-1466.8958818784
 20
-424.8466620811
 30
0.0
 40
2.950000000000159
 50
0.0
 51
42.84
  0
LINE
  5
359
  8
0
  6
CONTINUOUS
 62
     7
 10
-1463.9458792081
 20
-460.7944632626
 30
0.0
 11
-1463.9458792081
 21
-424.8466635799
 31
0.0
  0
ARC
  5
35A
  8
0
  6
CONTINUOUS
 62
     7
 10
-1466.8958818784
 20
-460.794453249
 30
0.0
 40
2.950000000000045
 50
270.0
 51
0.0
  0
LINE
  5
35B
  8
0
  6
CONTINUOUS
 62
     7
 10
-1472.3958806863
 20
-463.7444461441
 30
0.0
 11
-1466.895891892
 21
-463.7444461441
 31
0.0
  0
ARC
  5
35C
  8
0
  6
CONTINUOUS
 62
     7
 10
-1499.6458818784
 20
-395.044453249
 30
0.0
 40
7.0
 50
42.84
 51
180.0
  0
LINE
  5
35D
  8
0
  6
CONTINUOUS
 62
     7
 10
-1506.6458718648
 20
-418.5754800892
 30
0.0
 11
-1506.6458718648
 21
-395.0444604015
 31
0.0
  0
ARC
  5
35E
  8
0
  6
CONTINUOUS
 62
     7
 10
-1499.6458818784
 20
-418.5754783173
 30
0.0
 40
7.0
 50
180.0
 51
222.84
  0
LINE
  5
35F
  8
0
  6
CONTINUOUS
 62
     7
 10
-1494.5131080022
 20
-390.2847761965
 30
0.0
 11
-1464.5128087869
 21
-422.6368213749
 31
0.0
  0
LINE
  5
360
  8
0
  6
CONTINUOUS
 62
     7
 10
-1463.6458890309
 20
-424.8466635799
 30
0.0
 11
-1463.6458890309
 21
-460.7944632626
 31
0.0
  0
LINE
  5
361
  8
0
  6
CONTINUOUS
 62
     7
 10
-1476.5128033033
 20
-453.8167859173
 30
0.0
 11
-1504.7786669603
 21
-423.3351493931
 31
0.0
  0
ARC
  5
362
  8
0
  6
CONTINUOUS
 62
     7
 10
-1466.8958818784
 20
-460.794453249
 30
0.0
 40
3.250000000000227
 50
270.0
 51
0.0
  0
ARC
  5
363
  8
0
  6
CONTINUOUS
 62
     7
 10
-1478.8958818784
 20
-456.0266466341
 30
0.0
 40
3.25
 50
360.0
 51
42.84
  0
ARC
  5
364
  8
0
  6
CONTINUOUS
 62
     7
 10
-1466.8958818784
 20
-424.8466620811
 30
0.0
 40
3.25000000000027
 50
0.0
 51
42.84
  0
LINE
  5
365
  8
0
  6
CONTINUOUS
 62
     7
 10
-1475.6458835473
 20
-460.7944632626
 30
0.0
 11
-1475.6458835473
 21
-456.0266579247
 31
0.0
  0
ARC
  5
366
  8
0
  6
CONTINUOUS
 62
     7
 10
-1472.3958818784
 20
-460.794453249
 30
0.0
 40
3.25
 50
180.0
 51
270.0
  0
LINE
  5
367
  8
0
  6
CONTINUOUS
 62
     7
 10
-1466.895891892
 20
-464.0444661236
 30
0.0
 11
-1472.3958806863
 21
-464.0444661236
 31
0.0
  0
LINE
  5
368
  8
0
  6
CONTINUOUS
 62
     7
 10
-2072.558684813
 20
-390.4887581921
 30
0.0
 11
-2102.5589840284
 21
-422.8407884693
 31
0.0
  0
LINE
  5
369
  8
0
  6
CONTINUOUS
 62
     7
 10
-2102.7789549699
 20
-422.6368213749
 30
0.0
 11
-2072.7786557546
 21
-390.2847761965
 31
0.0
  0
CIRCLE
  5
36A
  8
0
  6
CONTINUOUS
 62
     7
 10
-2067.6458818784
 20
-395.044453249
 30
0.0
 40
3.199999999999989
  0
CIRCLE
  5
36B
  8
0
  6
CONTINUOUS
 62
     7
 10
-2067.6458818784
 20
-420.044453249
 30
0.0
 40
3.199999999999989
  0
CIRCLE
  5
36C
  8
0
  6
CONTINUOUS
 62
     7
 10
-2097.6458818784
 20
-458.344453249
 30
0.0
 40
2.250000000000057
  0
CIRCLE
  5
36D
  8
0
  6
CONTINUOUS
 62
     7
 10
-2097.6458818784
 20
-427.744453249
 30
0.0
 40
2.250000000000057
  0
ARC
  5
36E
  8
0
  6
CONTINUOUS
 62
     7
 10
-2100.3958818784
 20
-460.794453249
 30
0.0
 40
2.949999999999989
 50
180.0
 51
270.0
  0
LINE
  5
36F
  8
0
  6
CONTINUOUS
 62
     7
 10
-2103.3458845487
 20
-424.8466635799
 30
0.0
 11
-2103.3458845487
 21
-460.7944632626
 31
0.0
  0
ARC
  5
370
  8
0
  6
CONTINUOUS
 62
     7
 10
-2100.3958818784
 20
-424.8466620811
 30
0.0
 40
2.950000000000248
 50
137.16
 51
180.0
  0
ARC
  5
371
  8
0
  6
CONTINUOUS
 62
     7
 10
-2067.6458818784
 20
-395.044453249
 30
0.0
 40
6.699999999999818
 50
0.0
 51
137.16
  0
LINE
  5
372
  8
0
  6
CONTINUOUS
 62
     7
 10
-2060.9458820691
 20
-418.5754800892
 30
0.0
 11
-2060.9458820691
 21
-395.0444604015
 31
0.0
  0
ARC
  5
373
  8
0
  6
CONTINUOUS
 62
     7
 10
-2067.6458818784
 20
-418.5754783173
 30
0.0
 40
6.700000000000002
 50
317.16
 51
360.0
  0
LINE
  5
374
  8
0
  6
CONTINUOUS
 62
     7
 10
-2090.9989313951
 20
-453.6128188229
 30
0.0
 11
-2062.7330677381
 21
-423.1311524963
 31
0.0
  0
ARC
  5
375
  8
0
  6
CONTINUOUS
 62
     7
 10
-2088.3958818784
 20
-456.0266466341
 30
0.0
 40
3.549999999999727
 50
137.16
 51
180.0
  0
LINE
  5
376
  8
0
  6
CONTINUOUS
 62
     7
 10
-2091.9458703866
 20
-460.7944632626
 30
0.0
 11
-2091.9458703866
 21
-456.0266579247
 31
0.0
  0
ARC
  5
377
  8
0
  6
CONTINUOUS
 62
     7
 10
-2094.8958818784
 20
-460.794453249
 30
0.0
 40
2.950000000000045
 50
270.0
 51
360.0
  0
LINE
  5
378
  8
0
  6
CONTINUOUS
 62
     7
 10
-2100.3958718648
 20
-463.7444461441
 30
0.0
 11
-2094.8958830705
 21
-463.7444461441
 31
0.0
  0
ARC
  5
379
  8
0
  6
CONTINUOUS
 62
     7
 10
-2067.6458818784
 20
-395.044453249
 30
0.0
 40
7.0
 50
0.0
 51
137.16
  0
ARC
  5
37A
  8
0
  6
CONTINUOUS
 62
     7
 10
-2100.3958818784
 20
-424.8466620811
 30
0.0
 40
3.250000000000116
 50
137.16
 51
180.0
  0
LINE
  5
37B
  8
0
  6
CONTINUOUS
 62
     7
 10
-2103.6458747258
 20
-460.7944632626
 30
0.0
 11
-2103.6458747258
 21
-424.8466635799
 31
0.0
  0
LINE
  5
37C
  8
0
  6
CONTINUOUS
 62
     7
 10
-2062.5130967965
 20
-423.3351493931
 30
0.0
 11
-2090.7789604535
 21
-453.8167859173
 31
0.0
  0
LINE
  5
37D
  8
0
  6
CONTINUOUS
 62
     7
 10
-2060.645891892
 20
-395.0444604015
 30
0.0
 11
-2060.645891892
 21
-418.5754800892
 31
0.0
  0
ARC
  5
37E
  8
0
  6
CONTINUOUS
 62
     7
 10
-2067.6458818784
 20
-418.5754783173
 30
0.0
 40
6.999999999999869
 50
317.16
 51
360.0
  0
LINE
  5
37F
  8
0
  6
CONTINUOUS
 62
     7
 10
-2091.6458802095
 20
-456.0266579247
 30
0.0
 11
-2091.6458802095
 21
-460.7944632626
 31
0.0
  0
ARC
  5
380
  8
0
  6
CONTINUOUS
 62
     7
 10
-2088.3958818784
 20
-456.0266466341
 30
0.0
 40
3.249999999999923
 50
137.16
 51
180.0
  0
ARC
  5
381
  8
0
  6
CONTINUOUS
 62
     7
 10
-2094.8958818784
 20
-460.794453249
 30
0.0
 40
3.25
 50
270.0
 51
360.0
  0
LINE
  5
382
  8
0
  6
CONTINUOUS
 62
     7
 10
-2094.8958830705
 20
-464.0444661236
 30
0.0
 11
-2100.3958718648
 21
-464.0444661236
 31
0.0
  0
ARC
  5
383
  8
0
  6
CONTINUOUS
 62
     7
 10
-2100.3958818784
 20
-460.794453249
 30
0.0
 40
3.25
 50
180.0
 51
270.0
  0
LINE
  5
384
  8
0
  6
CONTINUOUS
 62
     7
 10
-2085.2458910813
 20
-403.7293041801
 30
0.0
 11
-2085.2458910813
 21
-399.0444536066
 31
0.0
  0
LINE
  5
385
  8
0
  6
CONTINUOUS
 62
     7
 10
-2085.2458910813
 20
-399.0444536066
 30
0.0
 11
-2085.2458910813
 21
-383.044450984
 31
0.0
  0
LINE
  5
386
  8
0
  6
CONTINUOUS
 62
     7
 10
-2089.6458761563
 20
-399.0444536066
 30
0.0
 11
-2089.6458761563
 21
-408.4742213345
 31
0.0
  0
LINE
  5
387
  8
0
  6
CONTINUOUS
 62
     7
 10
-2089.6458761563
 20
-387.0444590902
 30
0.0
 11
-2089.6458761563
 21
-399.0444536066
 31
0.0
  0
LINE
  5
388
  8
0
  6
CONTINUOUS
 62
     7
 10
-2082.1451680532
 20
-389.3292094326
 30
0.0
 11
-2082.1458833089
 21
-389.3292094326
 31
0.0
  0
LINE
  5
389
  8
0
  6
CONTINUOUS
 62
     7
 10
-2082.1458833089
 20
-383.6293513632
 30
0.0
 11
-2082.1451680532
 21
-383.6293513632
 31
0.0
  0
LINE
  5
38A
  8
0
  6
CONTINUOUS
 62
     7
 10
-1488.0958931317
 20
-450.7444645023
 30
0.0
 11
-1488.0958931317
 21
-452.193930254
 31
0.0
  0
ARC
  5
38B
  8
0
  6
CONTINUOUS
 62
     7
 10
-1488.595882098
 20
-449.7444528233
 30
0.0
 40
2.500000000000025
 50
281.5369590328
 51
0.0000000001
  0
LINE
  5
38C
  8
0
  6
CONTINUOUS
 62
     7
 10
-1505.3958730569
 20
-437.1011401272
 30
0.0
 11
-1505.1649348607
 21
-438.7444401836
 31
0.0
  0
ARC
  5
38D
  8
0
  6
CONTINUOUS
 62
     7
 10
-1501.4348095467
 20
-436.5444532488
 30
0.0
 40
4.000000000000114
 50
89.9999999999
 51
187.9999988096
  0
LINE
  5
38E
  8
0
  6
CONTINUOUS
 62
     7
 10
-1501.434816586
 20
-434.5444584942
 30
0.0
 11
-1494.3841831555
 21
-434.5444584942
 31
0.0
  0
ARC
  5
38F
  8
0
  6
CONTINUOUS
 62
     7
 10
-1501.4348095467
 20
-436.5444532488
 30
0.0
 40
2.000000082123677
 50
89.9999999998
 51
187.9999988096
  0
LINE
  5
390
  8
0
  6
CONTINUOUS
 62
     7
 10
-1503.1452612748
 20
-438.7444401836
 30
0.0
 11
-1503.4153597226
 21
-436.8227864361
 31
0.0
  0
LINE
  5
391
  8
0
  6
CONTINUOUS
 62
     7
 10
-1497.8533522954
 20
-434.7644592381
 30
0.0
 11
-1494.8958890309
 21
-434.7644592381
 31
0.0
  0
LINE
  5
392
  8
0
  6
CONTINUOUS
 62
     7
 10
-1499.8958842626
 20
-434.7644592381
 30
0.0
 11
-1497.8533522954
 21
-434.7644592381
 31
0.0
  0
LINE
  5
393
  8
0
  6
CONTINUOUS
 62
     7
 10
-1497.7801577916
 20
-435.1644660091
 30
0.0
 11
-1499.4958774915
 21
-435.1644660091
 31
0.0
  0
LINE
  5
394
  8
0
  6
CONTINUOUS
 62
     7
 10
-1495.295895802
 20
-435.1644660091
 30
0.0
 11
-1497.7801577916
 21
-435.1644660091
 31
0.0
  0
LINE
  5
395
  8
0
  6
CONTINUOUS
 62
     7
 10
-2499.1204143512
 20
291.4997099893
 30
0.0
 11
-2499.1204143512
 21
-34.0071468596
 31
0.0
  0
LINE
  5
396
  8
0
  6
CONTINUOUS
 62
     7
 10
-2465.6290533848
 20
-21.7610368611
 30
0.0
 11
-2465.6290533848
 21
303.7457834856
 31
0.0
  0
LINE
  5
397
  8
0
  6
CONTINUOUS
 62
     7
 10
-2943.1834666986
 20
547.8518535006
 30
0.0
 11
-2943.1834666986
 21
222.3449966517
 31
0.0
  0
LINE
  5
398
  8
0
  6
CONTINUOUS
 62
     7
 10
-2909.6921057322
 20
547.7030389103
 30
0.0
 11
-2909.6921057322
 21
548.4820084264
 31
0.0
  0
LINE
  5
399
  8
0
  6
CONTINUOUS
 62
     7
 10
-2504.4618530504
 20
-24.6150992923
 30
0.0
 11
-2502.3405178711
 21
-23.3904785601
 31
0.0
  0
LINE
  5
39A
  8
0
  6
CONTINUOUS
 62
     7
 10
-2922.2404658659
 20
540.5897757068
 30
0.0
 11
-2924.3618010452
 21
539.3651549746
 31
0.0
  0
LINE
  5
39B
  8
0
  6
CONTINUOUS
 62
     7
 10
-2288.1023464401
 20
97.9980065556
 30
0.0
 11
-2288.1023464401
 21
421.4464059483
 31
0.0
  0
LINE
  5
39C
  8
0
  6
CONTINUOUS
 62
     7
 10
-2288.8527665092
 20
422.7460970337
 30
0.0
 11
-2710.373598004
 21
666.0848934437
 31
0.0
  0
LINE
  5
39D
  8
0
  6
CONTINUOUS
 62
     7
 10
-2907.8710247017
 20
548.5216727364
 30
0.0
 11
-2907.8710247017
 21
546.6517735751
 31
0.0
  0
LINE
  5
39E
  8
0
  6
CONTINUOUS
 62
     7
 10
-2500.1204115524
 20
-34.2521132479
 30
0.0
 11
-2500.1204115524
 21
-37.0283625015
 31
0.0
  0
LINE
  5
39F
  8
0
  6
CONTINUOUS
 62
     7
 10
-2944.1834849733
 20
222.1000424289
 30
0.0
 11
-2944.1834849733
 21
219.3237931753
 31
0.0
  0
LINE
  5
3A0
  8
0
  6
CONTINUOUS
 62
     7
 10
-2500.1204115524
 20
295.6303740726
 30
0.0
 11
-2500.1204115524
 21
292.854124819
 31
0.0
  0
LINE
  5
3A1
  8
0
  6
CONTINUOUS
 62
     7
 10
-2464.6962487968
 20
336.4503210271
 30
0.0
 11
-2464.9084265689
 21
336.572836291
 31
0.0
  0
LINE
  5
3A2
  8
0
  6
CONTINUOUS
 62
     7
 10
-2462.6468056044
 20
330.8170998776
 30
0.0
 11
-2462.6468056044
 21
333.5933491312
 31
0.0
  0
LINE
  5
3A3
  8
0
  6
CONTINUOUS
 62
     7
 10
-2944.1834849733
 20
551.9825297494
 30
0.0
 11
-2944.1834849733
 21
549.2062804958
 31
0.0
  0
LINE
  5
3A4
  8
0
  6
CONTINUOUS
 62
     7
 10
-2866.3329136606
 20
568.3102323759
 30
0.0
 11
-2866.5450703593
 21
568.4327354744
 31
0.0
  0
LINE
  5
3A5
  8
0
  6
CONTINUOUS
 62
     7
 10
-2864.2834704682
 20
562.6770112265
 30
0.0
 11
-2864.2834704682
 21
565.4532604801
 31
0.0
  0
LINE
  5
3A6
  8
0
  6
CONTINUOUS
 62
     7
 10
-2601.2366912509
 20
509.6827712436
 30
0.0
 11
-2597.9477830008
 21
507.7841249246
 31
0.0
  0
LINE
  5
3A7
  8
0
  6
CONTINUOUS
 62
     7
 10
-2562.317552449
 20
487.2152306483
 30
0.0
 11
-2561.0211437062
 21
486.4668298113
 31
0.0
  0
ARC
  5
3A8
  8
0
  6
CONTINUOUS
 62
     7
 10
-2492.9813242675
 20
-34.1000924218
 30
0.0
 40
3.458338508990584
 50
242.6097788106
 51
297.3897830802
  0
LINE
  5
3A9
  8
0
  6
CONTINUOUS
 62
     7
 10
-2498.4614062279
 20
-34.9256124088
 30
0.0
 11
-2494.572326855
 21
-37.1707301421
 31
0.0
  0
LINE
  5
3AA
  8
0
  6
CONTINUOUS
 62
     7
 10
-2491.3903451595
 20
-37.1707423075
 30
0.0
 11
-2466.2880404347
 21
-22.6794902448
 31
0.0
  0
ARC
  5
3AB
  8
0
  6
CONTINUOUS
 62
     7
 10
-2497.9944080617
 20
-33.8948814012
 30
0.0
 40
1.131589014294637
 50
185.6937066612
 51
245.625921356
  0
ARC
  5
3AC
  8
0
  6
CONTINUOUS
 62
     7
 10
-2466.755069146
 20
-21.6487616695
 30
0.0
 40
1.131599404883639
 50
294.3755381984
 51
354.305850535
  0
ARC
  5
3AD
  8
0
  6
CONTINUOUS
 62
     7
 10
-2937.0443766149
 20
222.2520510896
 30
0.0
 40
3.458338508990705
 50
242.6097788106
 51
297.3897830802
  0
LINE
  5
3AE
  8
0
  6
CONTINUOUS
 62
     7
 10
-2938.6353792024
 20
219.1814133693
 30
0.0
 11
-2942.5244585753
 21
221.4265311026
 31
0.0
  0
LINE
  5
3AF
  8
0
  6
CONTINUOUS
 62
     7
 10
-2924.7760834926
 20
225.3452833824
 30
0.0
 11
-2935.453397507
 21
219.1814012038
 31
0.0
  0
ARC
  5
3B0
  8
0
  6
CONTINUOUS
 62
     7
 10
-2942.0574604091
 20
222.4572621102
 30
0.0
 40
1.13158901429599
 50
185.6937066612
 51
245.625921356
  0
ARC
  5
3B1
  8
0
  6
CONTINUOUS
 62
     7
 10
-2507.1179718091
 20
295.428358218
 30
0.0
 40
3.073577623498523
 50
2.6050839931
 51
57.3944231967
  0
ARC
  5
3B2
  8
0
  6
CONTINUOUS
 62
     7
 10
-2504.9966366298
 20
296.6529789502
 30
0.0
 40
3.073577623498982
 50
2.6050839931
 51
57.3944231967
  0
ARC
  5
3B3
  8
0
  6
CONTINUOUS
 62
     7
 10
-2923.9139433696
 20
538.5893062319
 30
0.0
 40
0.8734277703738941
 50
50.7980287136
 51
189.2127230412
  0
LINE
  5
3B4
  8
0
  6
CONTINUOUS
 62
     7
 10
-2505.4617659579
 20
298.0175398621
 30
0.0
 11
-2923.3618881377
 21
539.2661452755
 31
0.0
  0
LINE
  5
3B5
  8
0
  6
CONTINUOUS
 62
     7
 10
-2504.047570603
 20
-23.6994022609
 30
0.0
 11
-2504.047570603
 21
295.5680573279
 31
0.0
  0
ARC
  5
3B6
  8
0
  6
CONTINUOUS
 62
     7
 10
-2504.9097107481
 20
-23.8392706747
 30
0.0
 40
0.873412161080634
 50
230.7971953967
 51
9.2150350653
  0
LINE
  5
3B7
  8
0
  6
CONTINUOUS
 62
     7
 10
-2923.3618881377
 20
216.7325158201
 30
0.0
 11
-2505.4617659579
 21
-24.5160895933
 31
0.0
  0
ARC
  5
3B8
  8
0
  6
CONTINUOUS
 62
     7
 10
-2921.705593985
 20
219.3217741667
 30
0.0
 40
3.073689819270368
 50
182.606193097
 51
237.3938070486
  0
LINE
  5
3B9
  8
0
  6
CONTINUOUS
 62
     7
 10
-2924.776104566
 20
538.4494701086
 30
0.0
 11
-2924.776104566
 21
219.1820105198
 31
0.0
  0
LINE
  5
3BA
  8
0
  6
CONTINUOUS
 62
     7
 10
-2501.9262354237
 20
-22.4747815287
 30
0.0
 11
-2501.9262354237
 21
296.7926780601
 31
0.0
  0
LINE
  5
3BB
  8
0
  6
CONTINUOUS
 62
     7
 10
-2503.3404307786
 20
299.2421605943
 30
0.0
 11
-2921.2405529584
 21
540.4907660077
 31
0.0
  0
ARC
  5
3BC
  8
0
  6
CONTINUOUS
 62
     7
 10
-2502.877594207
 20
-22.5959288633
 30
0.0
 40
0.9590412980124484
 50
304.0567502514
 51
7.2570650515
  0
ARC
  5
3BD
  8
0
  6
CONTINUOUS
 62
     7
 10
-2921.8263880417
 20
539.6729704715
 30
0.0
 40
1.005978272080538
 50
54.3837457842
 51
114.3064568724
  0
ARC
  5
3BE
  8
0
  6
CONTINUOUS
 62
     7
 10
-2500.4939806341
 20
299.5108003435
 30
0.0
 40
2.835599454341703
 50
238.6289684786
 51
317.8797944882
  0
LINE
  5
3BF
  8
0
  6
CONTINUOUS
 62
     7
 10
-2502.1990519741
 20
297.8597023027
 30
0.0
 11
-2501.5726655116
 21
298.2213075105
 31
0.0
  0
ARC
  5
3C0
  8
0
  6
CONTINUOUS
 62
     7
 10
-2500.5120189954
 20
298.7569400957
 30
0.0
 40
1.188222747900558
 50
206.7940379516
 51
333.2059620484
  0
LINE
  5
3C1
  8
0
  6
CONTINUOUS
 62
     7
 10
-2498.3907048895
 20
297.6089971444
 30
0.0
 11
-2499.4513724792
 21
298.2213075105
 31
0.0
  0
ARC
  5
3C2
  8
0
  6
CONTINUOUS
 62
     7
 10
-2500.5100800704
 20
-2.6376301726
 30
0.0
 40
18.30170647324114
 50
265.7786602572
 51
274.3547135963
  0
ARC
  5
3C3
  8
0
  6
CONTINUOUS
 62
     7
 10
-2500.2379953787
 20
299.0976578019
 30
0.0
 40
2.867486226129938
 50
102.6424014087
 51
180.9300295189
  0
LINE
  5
3C4
  8
0
  6
CONTINUOUS
 62
     7
 10
-2500.8655889075
 20
300.6708022102
 30
0.0
 11
-2500.8655889075
 21
301.8956219938
 31
0.0
  0
ARC
  5
3C5
  8
0
  6
CONTINUOUS
 62
     7
 10
-2500.9320279937
 20
299.4844274232
 30
0.0
 40
1.188233683777058
 50
86.7946830564
 51
213.205645436
  0
LINE
  5
3C6
  8
0
  6
CONTINUOUS
 62
     7
 10
-2501.9262354237
 20
298.8336963932
 30
0.0
 11
-2502.5531908687
 21
298.4717627188
 31
0.0
  0
ARC
  5
3C7
  8
0
  6
CONTINUOUS
 62
     7
 10
-2896.424451345
 20
527.8448783851
 30
0.0
 40
26.26370211999605
 50
145.4597187078
 51
153.3627394684
  0
ARC
  5
3C8
  8
0
  6
CONTINUOUS
 62
     7
 10
-2501.4295293845
 20
299.8047898861
 30
0.0
 40
3.749127908697005
 50
324.1488904251
 51
357.6382442765
  0
LINE
  5
3C9
  8
0
  6
CONTINUOUS
 62
     7
 10
-2494.770964952
 20
301.3317134646
 30
0.0
 11
-2497.6835861386
 21
299.6502930436
 31
0.0
  0
ARC
  5
3CA
  8
0
  6
CONTINUOUS
 62
     7
 10
-2502.4901969741
 20
300.4171002522
 30
0.0
 40
3.749127908691542
 50
324.1488904251
 51
357.6382442765
  0
LINE
  5
3CB
  8
0
  6
CONTINUOUS
 62
     7
 10
-2497.6835861386
 20
299.6502930436
 30
0.0
 11
-2498.7442537283
 21
300.2626034097
 31
0.0
  0
ARC
  5
3CC
  8
0
  6
CONTINUOUS
 62
     7
 10
-2919.2049844309
 20
542.8905349618
 30
0.0
 40
1.156758750756931
 50
352.3235494633
 51
67.6798555227
  0
LINE
  5
3CD
  8
0
  6
CONTINUOUS
 62
     7
 10
-2918.7656689404
 20
543.9606250082
 30
0.0
 11
-2910.9874891212
 21
548.4508726402
 31
0.0
  0
LINE
  5
3CE
  8
0
  6
CONTINUOUS
 62
     7
 10
-2910.9874891212
 20
548.4508726402
 30
0.0
 11
-2494.34016094
 21
307.9254898079
 31
0.0
  0
LINE
  5
3CF
  8
0
  6
CONTINUOUS
 62
     7
 10
-2498.7442537283
 20
301.4874231934
 30
0.0
 11
-2494.6046745612
 21
303.8771513797
 31
0.0
  0
ARC
  5
3D0
  8
0
  6
CONTINUOUS
 62
     7
 10
-2500.4833666736
 20
298.1657650493
 30
0.0
 40
3.749390172140825
 50
62.3648976657
 51
95.851039674
  0
LINE
  5
3D1
  8
0
  6
CONTINUOUS
 62
     7
 10
-2498.7442537283
 20
300.2626034097
 30
0.0
 11
-2498.7442537283
 21
301.4874231934
 31
0.0
  0
ARC
  5
3D2
  8
0
  6
CONTINUOUS
 62
     7
 10
-2500.4833666736
 20
296.9409452656
 30
0.0
 40
3.749390172140768
 50
62.3648976657
 51
95.8510396741
  0
LINE
  5
3D3
  8
0
  6
CONTINUOUS
 62
     7
 10
-2498.7442537283
 20
300.2626034097
 30
0.0
 11
-2494.6878302933
 21
302.6043268137
 31
0.0
  0
ARC
  5
3D4
  8
0
  6
CONTINUOUS
 62
     7
 10
-2498.0262579854
 20
300.6771308496
 30
0.0
 40
4.313707757200134
 50
205.2990821722
 51
214.7019038483
  0
ARC
  5
3D5
  8
0
  6
CONTINUOUS
 62
     7
 10
-2501.7984037231
 20
-18.808475068
 30
0.0
 40
3.586065006747448
 50
267.4624884492
 51
285.0773081635
  0
ARC
  5
3D6
  8
0
  6
CONTINUOUS
 62
     7
 10
-2501.1338608448
 20
-18.5724214474
 30
0.0
 40
2.488354760266962
 50
250.3889472122
 51
276.1891428296
  0
LINE
  5
3D7
  8
0
  6
CONTINUOUS
 62
     7
 10
-2500.8655889075
 20
-21.0462726112
 30
0.0
 11
-2500.8655889075
 21
-22.2710923949
 31
0.0
  0
ARC
  5
3D8
  8
0
  6
CONTINUOUS
 62
     7
 10
-2500.4944888343
 20
-26.1951490022
 30
0.0
 40
3.941565110728793
 50
69.5975951128
 51
95.4024242078
  0
LINE
  5
3D9
  8
0
  6
CONTINUOUS
 62
     7
 10
-2918.7656689404
 20
543.9606250082
 30
0.0
 11
-2918.7656689404
 21
542.7358052245
 31
0.0
  0
ARC
  5
3DA
  8
0
  6
CONTINUOUS
 62
     7
 10
-2919.6354567347
 20
541.1718130208
 30
0.0
 40
1.78958163271694
 50
40.8091004752
 51
60.9201167627
  0
ARC
  5
3DB
  8
0
  6
CONTINUOUS
 62
     7
 10
-2918.0040836445
 20
538.7699892511
 30
0.0
 40
3.582349725846328
 50
134.9156453556
 51
152.553581098
  0
LINE
  5
3DC
  8
0
  6
CONTINUOUS
 62
     7
 10
-2920.5334552809
 20
541.3068196914
 30
0.0
 11
-2919.4727876913
 21
540.6945093253
 31
0.0
  0
ARC
  5
3DD
  8
0
  6
CONTINUOUS
 62
     7
 10
-2917.4645346272
 20
539.225142458
 30
0.0
 40
2.488396945933947
 50
143.8084017901
 51
169.6096432254
  0
LINE
  5
3DE
  8
0
  6
CONTINUOUS
 62
     7
 10
-2918.7656689404
 20
542.7358052245
 30
0.0
 11
-2919.8263365301
 21
543.3481155906
 31
0.0
  0
ARC
  5
3DF
  8
0
  6
CONTINUOUS
 62
     7
 10
-2922.5116121863
 20
542.890302067
 30
0.0
 40
3.749127908691542
 50
324.1488904251
 51
357.6382442765
  0
ARC
  5
3E0
  8
0
  6
CONTINUOUS
 62
     7
 10
-2923.5722797759
 20
543.5026124331
 30
0.0
 40
3.749127908687358
 50
324.1488904251
 51
357.6382442765
  0
LINE
  5
3E1
  8
0
  6
CONTINUOUS
 62
     7
 10
-2918.7656900139
 20
543.9604137912
 30
0.0
 11
-2919.8263365301
 21
543.3481155906
 31
0.0
  0
LINE
  5
3E2
  8
0
  6
CONTINUOUS
 62
     7
 10
-2288.9810175994
 20
420.5803623377
 30
0.0
 11
-2463.3539770389
 21
319.9169955333
 31
0.0
  0
LINE
  5
3E3
  8
0
  6
CONTINUOUS
 62
     7
 10
-2465.6290323113
 20
-5.5619122375
 30
0.0
 11
-2288.9810175994
 21
96.41481602
 31
0.0
  0
LINE
  5
3E4
  8
0
  6
CONTINUOUS
 62
     7
 10
-2712.1839298182
 20
666.1155949323
 30
0.0
 11
-2879.745168285
 21
569.3845509436
 31
0.0
  0
LINE
  5
3E5
  8
0
  6
CONTINUOUS
 62
     7
 10
-2463.1876128911
 20
322.4636318362
 30
0.0
 11
-2290.0421909512
 21
422.4183563259
 31
0.0
  0
POLYLINE
  5
3E6
  8
0
  6
CONTINUOUS
 62
     7
 66
     1
 10
0.0
 20
0.0
 30
0.0
  0
VERTEX
  5
67D
  8
0
  6
CONTINUOUS
 62
     7
 10
-2615.8411366569
 20
498.6501725072
 30
0.0
  0
VERTEX
  5
67E
  8
0
  6
CONTINUOUS
 62
     7
 10
-2617.8275215785
 20
497.3587658515
 30
0.0
  0
VERTEX
  5
67F
  8
0
  6
CONTINUOUS
 62
     7
 10
-2619.5353790517
 20
495.9408022392
 30
0.0
  0
VERTEX
  5
680
  8
0
  6
CONTINUOUS
 62
     7
 10
-2620.9407433248
 20
494.4161812707
 30
0.0
  0
VERTEX
  5
681
  8
0
  6
CONTINUOUS
 62
     7
 10
-2622.0238896727
 20
492.8063019352
 30
0.0
  0
VERTEX
  5
682
  8
0
  6
CONTINUOUS
 62
     7
 10
-2622.7695951804
 20
491.133775203
 30
0.0
  0
VERTEX
  5
683
  8
0
  6
CONTINUOUS
 62
     7
 10
-2623.1674074297
 20
489.4220681865
 30
0.0
  0
VERTEX
  5
684
  8
0
  6
CONTINUOUS
 62
     7
 10
-2623.2117459144
 20
487.6952098887
 30
0.0
  0
VERTEX
  5
685
  8
0
  6
CONTINUOUS
 62
     7
 10
-2622.9019685535
 20
485.9774524722
 30
0.0
  0
VERTEX
  5
686
  8
0
  6
CONTINUOUS
 62
     7
 10
-2622.2424414971
 20
484.2928979325
 30
0.0
  0
VERTEX
  5
687
  8
0
  6
CONTINUOUS
 62
     7
 10
-2621.2424080759
 20
482.665203467
 30
0.0
  0
VERTEX
  5
688
  8
0
  6
CONTINUOUS
 62
     7
 10
-2619.9159285445
 20
481.1172060566
 30
0.0
  0
VERTEX
  5
689
  8
0
  6
CONTINUOUS
 62
     7
 10
-2618.2815977303
 20
479.6706499798
 30
0.0
  0
VERTEX
  5
68A
  8
0
  6
CONTINUOUS
 62
     7
 10
-2616.3623853363
 20
478.3458269819
 30
0.0
  0
VERTEX
  5
68B
  8
0
  6
CONTINUOUS
 62
     7
 10
-2614.1852036072
 20
477.1613510245
 30
0.0
  0
VERTEX
  5
68C
  8
0
  6
CONTINUOUS
 62
     7
 10
-2611.7806417706
 20
476.133834666
 30
0.0
  0
VERTEX
  5
68D
  8
0
  6
CONTINUOUS
 62
     7
 10
-2609.1824324519
 20
475.2777148489
 30
0.0
  0
VERTEX
  5
68E
  8
0
  6
CONTINUOUS
 62
     7
 10
-2606.4270703767
 20
474.6049962853
 30
0.0
  0
VERTEX
  5
68F
  8
0
  6
CONTINUOUS
 62
     7
 10
-2603.5532130954
 20
474.1251366459
 30
0.0
  0
VERTEX
  5
690
  8
0
  6
CONTINUOUS
 62
     7
 10
-2600.6012260937
 20
473.8448569499
 30
0.0
  0
VERTEX
  5
691
  8
0
  6
CONTINUOUS
 62
     7
 10
-2597.6125285285
 20
473.7681044988
 30
0.0
  0
VERTEX
  5
692
  8
0
  6
CONTINUOUS
 62
     7
 10
-2594.6290835142
 20
473.8959532719
 30
0.0
  0
VERTEX
  5
693
  8
0
  6
CONTINUOUS
 62
     7
 10
-2591.6927705304
 20
474.2266065873
 30
0.0
  0
VERTEX
  5
694
  8
0
  6
CONTINUOUS
 62
     7
 10
-2588.8448157802
 20
474.755421053
 30
0.0
  0
VERTEX
  5
695
  8
0
  6
CONTINUOUS
 62
     7
 10
-2586.1251929155
 20
475.4749742367
 30
0.0
  0
VERTEX
  5
696
  8
0
  6
CONTINUOUS
 62
     7
 10
-2583.5720724929
 20
476.3751726341
 30
0.0
  0
VERTEX
  5
697
  8
0
  6
CONTINUOUS
 62
     7
 10
-2581.2213069925
 20
477.4433680008
 30
0.0
  0
VERTEX
  5
698
  8
0
  6
CONTINUOUS
 62
     7
 10
-2579.1058934454
 20
478.6645702474
 30
0.0
  0
VERTEX
  5
699
  8
0
  6
CONTINUOUS
 62
     7
 10
-2577.2555243065
 20
480.0216382848
 30
0.0
  0
VERTEX
  5
69A
  8
0
  6
CONTINUOUS
 62
     7
 10
-2575.6961659857
 20
481.4955233323
 30
0.0
  0
VERTEX
  5
69B
  8
0
  6
CONTINUOUS
 62
     7
 10
-2574.4497282587
 20
483.0655281936
 30
0.0
  0
VERTEX
  5
69C
  8
0
  6
CONTINUOUS
 62
     7
 10
-2573.5336954823
 20
484.7096174754
 30
0.0
  0
VERTEX
  5
69D
  8
0
  6
CONTINUOUS
 62
     7
 10
-2572.9609250794
 20
486.4047148798
 30
0.0
  0
VERTEX
  5
69E
  8
0
  6
CONTINUOUS
 62
     7
 10
-2572.7394605126
 20
488.1270210262
 30
0.0
  0
VERTEX
  5
69F
  8
0
  6
CONTINUOUS
 62
     7
 10
-2572.8724140634
 20
489.8523594058
 30
0.0
  0
VERTEX
  5
6A0
  8
0
  6
CONTINUOUS
 62
     7
 10
-2573.357920075
 20
491.5565082695
 30
0.0
  0
VERTEX
  5
6A1
  8
0
  6
CONTINUOUS
 62
     7
 10
-2574.1891566849
 20
493.2155477229
 30
0.0
  0
VERTEX
  5
6A2
  8
0
  6
CONTINUOUS
 62
     7
 10
-2575.3544604114
 20
494.8061874326
 30
0.0
  0
VERTEX
  5
6A3
  8
0
  6
CONTINUOUS
 62
     7
 10
-2576.8374693869
 20
496.3060987043
 30
0.0
  0
VERTEX
  5
6A4
  8
0
  6
CONTINUOUS
 62
     7
 10
-2578.6173675134
 20
497.6942257469
 30
0.0
  0
VERTEX
  5
6A5
  8
0
  6
CONTINUOUS
 62
     7
 10
-2580.6691729049
 20
498.9510799234
 30
0.0
  0
VERTEX
  5
6A6
  8
0
  6
CONTINUOUS
 62
     7
 10
-2582.9640717698
 20
500.0590237381
 30
0.0
  0
VERTEX
  5
6A7
  8
0
  6
CONTINUOUS
 62
     7
 10
-2585.4698571656
 20
501.0024997933
 30
0.0
  0
VERTEX
  5
6A8
  8
0
  6
CONTINUOUS
 62
     7
 10
-2588.1513526083
 20
501.7682631684
 30
0.0
  0
VERTEX
  5
6A9
  8
0
  6
CONTINUOUS
 62
     7
 10
-2590.9709128948
 20
502.3455671327
 30
0.0
  0
VERTEX
  5
6AA
  8
0
  6
CONTINUOUS
 62
     7
 10
-2593.8889631224
 20
502.7263039982
 30
0.0
  0
VERTEX
  5
6AB
  8
0
  6
CONTINUOUS
 62
     7
 10
-2596.86453392
 20
502.9051316208
 30
0.0
  0
VERTEX
  5
6AC
  8
0
  6
CONTINUOUS
 62
     7
 10
-2599.8558538095
 20
502.8795416411
 30
0.0
  0
VERTEX
  5
6AD
  8
0
  6
CONTINUOUS
 62
     7
 10
-2602.8209438712
 20
502.6498864765
 30
0.0
  0
VERTEX
  5
6AE
  8
0
  6
CONTINUOUS
 62
     7
 10
-2605.7181590676
 20
502.2193998501
 30
0.0
  0
VERTEX
  5
6AF
  8
0
  6
CONTINUOUS
 62
     7
 10
-2608.5068540316
 20
501.5941127731
 30
0.0
  0
VERTEX
  5
6B0
  8
0
  6
CONTINUOUS
 62
     7
 10
-2611.1478611701
 20
500.7828132472
 30
0.0
  0
VERTEX
  5
6B1
  8
0
  6
CONTINUOUS
 62
     7
 10
-2613.6041123298
 20
499.7968881139
 30
0.0
  0
VERTEX
  5
6B2
  8
0
  6
CONTINUOUS
 62
     7
 10
-2615.8411366569
 20
498.6501725072
 30
0.0
  0
SEQEND
  5
6B3
  8
0
  6
CONTINUOUS
 62
     7
  0
LINE
  5
3E7
  8
0
  6
CONTINUOUS
 62
     7
 10
-2561.060282982
 20
486.466834601
 30
0.0
 11
-2555.5602812532
 21
486.466836882
 31
0.0
  0
POLYLINE
  5
3E8
  8
0
  6
CONTINUOUS
 62
     7
 66
     1
 10
0.0
 20
0.0
 30
0.0
  0
VERTEX
  5
6B4
  8
0
  6
CONTINUOUS
 62
     7
 10
-2555.5602812532
 20
486.466836882
 30
0.0
  0
VERTEX
  5
6B5
  8
0
  6
CONTINUOUS
 62
     7
 10
-2554.4487160757
 20
486.5799844946
 30
0.0
  0
VERTEX
  5
6B6
  8
0
  6
CONTINUOUS
 62
     7
 10
-2553.4712226574
 20
486.9057792419
 30
0.0
  0
VERTEX
  5
6B7
  8
0
  6
CONTINUOUS
 62
     7
 10
-2552.7456989046
 20
487.4049283093
 30
0.0
  0
VERTEX
  5
6B8
  8
0
  6
CONTINUOUS
 62
     7
 10
-2552.359660114
 20
488.0172234686
 30
0.0
  0
VERTEX
  5
6B9
  8
0
  6
CONTINUOUS
 62
     7
 10
-2552.359660114
 20
488.6688160045
 30
0.0
  0
VERTEX
  5
6BA
  8
0
  6
CONTINUOUS
 62
     7
 10
-2552.7457002217
 20
489.2811119242
 30
0.0
  0
VERTEX
  5
6BB
  8
0
  6
CONTINUOUS
 62
     7
 10
-2553.4712213403
 20
489.7802625123
 30
0.0
  0
VERTEX
  5
6BC
  8
0
  6
CONTINUOUS
 62
     7
 10
-2554.4487187099
 20
490.1060564992
 30
0.0
  0
VERTEX
  5
6BD
  8
0
  6
CONTINUOUS
 62
     7
 10
-2555.5602838874
 20
490.2192041118
 30
0.0
  0
SEQEND
  5
6BE
  8
0
  6
CONTINUOUS
 62
     7
  0
LINE
  5
3E9
  8
0
  6
CONTINUOUS
 62
     7
 10
-2555.5602838874
 20
490.2192041118
 30
0.0
 11
-2561.0602816649
 21
490.2192056325
 31
0.0
  0
POLYLINE
  5
3EA
  8
0
  6
CONTINUOUS
 62
     7
 66
     1
 10
0.0
 20
0.0
 30
0.0
  0
VERTEX
  5
6BF
  8
0
  6
CONTINUOUS
 62
     7
 10
-2561.0602816649
 20
490.2192056325
 30
0.0
  0
VERTEX
  5
6C0
  8
0
  6
CONTINUOUS
 62
     7
 10
-2562.1718468424
 20
490.1060580199
 30
0.0
  0
VERTEX
  5
6C1
  8
0
  6
CONTINUOUS
 62
     7
 10
-2563.149344212
 20
489.7802594709
 30
0.0
  0
VERTEX
  5
6C2
  8
0
  6
CONTINUOUS
 62
     7
 10
-2563.8748626964
 20
489.2811134449
 30
0.0
  0
VERTEX
  5
6C3
  8
0
  6
CONTINUOUS
 62
     7
 10
-2564.2609080724
 20
488.6688160045
 30
0.0
  0
VERTEX
  5
6C4
  8
0
  6
CONTINUOUS
 62
     7
 10
-2564.2609080724
 20
488.0172234686
 30
0.0
  0
VERTEX
  5
6C5
  8
0
  6
CONTINUOUS
 62
     7
 10
-2563.8748666477
 20
487.4049267886
 30
0.0
  0
VERTEX
  5
6C6
  8
0
  6
CONTINUOUS
 62
     7
 10
-2563.1493402607
 20
486.9057792419
 30
0.0
  0
VERTEX
  5
6C7
  8
0
  6
CONTINUOUS
 62
     7
 10
-2562.1718481595
 20
486.5799822136
 30
0.0
  0
VERTEX
  5
6C8
  8
0
  6
CONTINUOUS
 62
     7
 10
-2561.060282982
 20
486.466834601
 30
0.0
  0
SEQEND
  5
6C9
  8
0
  6
CONTINUOUS
 62
     7
  0
LINE
  5
3EB
  8
0
  6
CONTINUOUS
 62
     7
 10
-2601.2366859825
 20
512.8352640645
 30
0.0
 11
-2601.2366899338
 21
509.6601806501
 31
0.0
  0
POLYLINE
  5
3EC
  8
0
  6
CONTINUOUS
 62
     7
 66
     1
 10
0.0
 20
0.0
 30
0.0
  0
VERTEX
  5
6CA
  8
0
  6
CONTINUOUS
 62
     7
 10
-2601.2366899338
 20
509.6601806501
 30
0.0
  0
VERTEX
  5
6CB
  8
0
  6
CONTINUOUS
 62
     7
 10
-2601.0406912832
 20
509.0184877319
 30
0.0
  0
VERTEX
  5
6CC
  8
0
  6
CONTINUOUS
 62
     7
 10
-2600.4763331278
 20
508.4541935532
 30
0.0
  0
VERTEX
  5
6CD
  8
0
  6
CONTINUOUS
 62
     7
 10
-2599.6116905306
 20
508.0353560852
 30
0.0
  0
VERTEX
  5
6CE
  8
0
  6
CONTINUOUS
 62
     7
 10
-2598.5510466486
 20
507.8124991143
 30
0.0
  0
VERTEX
  5
6CF
  8
0
  6
CONTINUOUS
 62
     7
 10
-2597.422332972
 20
507.8124991143
 30
0.0
  0
VERTEX
  5
6D0
  8
0
  6
CONTINUOUS
 62
     7
 10
-2596.3616877729
 20
508.0353583662
 30
0.0
  0
VERTEX
  5
6D1
  8
0
  6
CONTINUOUS
 62
     7
 10
-2595.4970478099
 20
508.4541912722
 30
0.0
  0
VERTEX
  5
6D2
  8
0
  6
CONTINUOUS
 62
     7
 10
-2594.9326870204
 20
509.0184884922
 30
0.0
  0
VERTEX
  5
6D3
  8
0
  6
CONTINUOUS
 62
     7
 10
-2594.7366883697
 20
509.6601814104
 30
0.0
  0
SEQEND
  5
6D4
  8
0
  6
CONTINUOUS
 62
     7
  0
LINE
  5
3ED
  8
0
  6
CONTINUOUS
 62
     7
 10
-2594.7366883697
 20
509.6601814104
 30
0.0
 11
-2594.7366910039
 21
512.8352625438
 31
0.0
  0
POLYLINE
  5
3EE
  8
0
  6
CONTINUOUS
 62
     7
 66
     1
 10
0.0
 20
0.0
 30
0.0
  0
VERTEX
  5
6D5
  8
0
  6
CONTINUOUS
 62
     7
 10
-2594.7366910039
 20
512.8352625438
 30
0.0
  0
VERTEX
  5
6D6
  8
0
  6
CONTINUOUS
 62
     7
 10
-2594.9326896545
 20
513.476955462
 30
0.0
  0
VERTEX
  5
6D7
  8
0
  6
CONTINUOUS
 62
     7
 10
-2595.4970425415
 20
514.041252682
 30
0.0
  0
VERTEX
  5
6D8
  8
0
  6
CONTINUOUS
 62
     7
 10
-2596.3616904071
 20
514.4600871087
 30
0.0
  0
VERTEX
  5
6D9
  8
0
  6
CONTINUOUS
 62
     7
 10
-2597.422332972
 20
514.6829433192
 30
0.0
  0
VERTEX
  5
6DA
  8
0
  6
CONTINUOUS
 62
     7
 10
-2598.5510466486
 20
514.6829433192
 30
0.0
  0
VERTEX
  5
6DB
  8
0
  6
CONTINUOUS
 62
     7
 10
-2599.6116878964
 20
514.460087869
 30
0.0
  0
VERTEX
  5
6DC
  8
0
  6
CONTINUOUS
 62
     7
 10
-2600.4763331278
 20
514.0412519217
 30
0.0
  0
VERTEX
  5
6DD
  8
0
  6
CONTINUOUS
 62
     7
 10
-2601.0406873319
 20
513.4769569827
 30
0.0
  0
VERTEX
  5
6DE
  8
0
  6
CONTINUOUS
 62
     7
 10
-2601.2366859825
 20
512.8352640645
 30
0.0
  0
SEQEND
  5
6DF
  8
0
  6
CONTINUOUS
 62
     7
  0
LINE
  5
3EF
  8
0
  6
CONTINUOUS
 62
     7
 10
-2594.7366883697
 20
463.85077845
 30
0.0
 11
-2594.7366896868
 21
467.0258588231
 31
0.0
  0
POLYLINE
  5
3F0
  8
0
  6
CONTINUOUS
 62
     7
 66
     1
 10
0.0
 20
0.0
 30
0.0
  0
VERTEX
  5
6E0
  8
0
  6
CONTINUOUS
 62
     7
 10
-2594.7366896868
 20
467.0258588231
 30
0.0
  0
VERTEX
  5
6E1
  8
0
  6
CONTINUOUS
 62
     7
 10
-2594.9326830691
 20
467.6675547827
 30
0.0
  0
VERTEX
  5
6E2
  8
0
  6
CONTINUOUS
 62
     7
 10
-2595.4970464928
 20
468.23184592
 30
0.0
  0
VERTEX
  5
6E3
  8
0
  6
CONTINUOUS
 62
     7
 10
-2596.3616943584
 20
468.6506803466
 30
0.0
  0
VERTEX
  5
6E4
  8
0
  6
CONTINUOUS
 62
     7
 10
-2597.4223277037
 20
468.8735434002
 30
0.0
  0
VERTEX
  5
6E5
  8
0
  6
CONTINUOUS
 62
     7
 10
-2598.5510413802
 20
468.8735434002
 30
0.0
  0
VERTEX
  5
6E6
  8
0
  6
CONTINUOUS
 62
     7
 10
-2599.6116865793
 20
468.6506841483
 30
0.0
  0
VERTEX
  5
6E7
  8
0
  6
CONTINUOUS
 62
     7
 10
-2600.4763370791
 20
468.2318451596
 30
0.0
  0
VERTEX
  5
6E8
  8
0
  6
CONTINUOUS
 62
     7
 10
-2601.0406873319
 20
467.6675540223
 30
0.0
  0
VERTEX
  5
6E9
  8
0
  6
CONTINUOUS
 62
     7
 10
-2601.2366859825
 20
467.0258611041
 30
0.0
  0
SEQEND
  5
6EA
  8
0
  6
CONTINUOUS
 62
     7
  0
LINE
  5
3F1
  8
0
  6
CONTINUOUS
 62
     7
 10
-2601.2366859825
 20
467.0258611041
 30
0.0
 11
-2601.2366938851
 21
463.850773888
 31
0.0
  0
POLYLINE
  5
3F2
  8
0
  6
CONTINUOUS
 62
     7
 66
     1
 10
0.0
 20
0.0
 30
0.0
  0
VERTEX
  5
6EB
  8
0
  6
CONTINUOUS
 62
     7
 10
-2601.2366938851
 20
463.850773888
 30
0.0
  0
VERTEX
  5
6EC
  8
0
  6
CONTINUOUS
 62
     7
 10
-2601.0406899661
 20
463.2090840112
 30
0.0
  0
VERTEX
  5
6ED
  8
0
  6
CONTINUOUS
 62
     7
 10
-2600.4763370791
 20
462.6447867911
 30
0.0
  0
VERTEX
  5
6EE
  8
0
  6
CONTINUOUS
 62
     7
 10
-2599.6116892135
 20
462.2259523645
 30
0.0
  0
VERTEX
  5
6EF
  8
0
  6
CONTINUOUS
 62
     7
 10
-2598.5510466486
 20
462.003096154
 30
0.0
  0
VERTEX
  5
6F0
  8
0
  6
CONTINUOUS
 62
     7
 10
-2597.422332972
 20
462.003096154
 30
0.0
  0
VERTEX
  5
6F1
  8
0
  6
CONTINUOUS
 62
     7
 10
-2596.3616864558
 20
462.2259546455
 30
0.0
  0
VERTEX
  5
6F2
  8
0
  6
CONTINUOUS
 62
     7
 10
-2595.4970464928
 20
462.6447875515
 30
0.0
  0
VERTEX
  5
6F3
  8
0
  6
CONTINUOUS
 62
     7
 10
-2594.9326870204
 20
463.2090855318
 30
0.0
  0
VERTEX
  5
6F4
  8
0
  6
CONTINUOUS
 62
     7
 10
-2594.7366883697
 20
463.85077845
 30
0.0
  0
SEQEND
  5
6F5
  8
0
  6
CONTINUOUS
 62
     7
  0
LINE
  5
3F3
  8
0
  6
CONTINUOUS
 62
     7
 10
-2634.9130966386
 20
490.2192048722
 30
0.0
 11
-2640.413093099
 21
490.2192056325
 31
0.0
  0
POLYLINE
  5
3F4
  8
0
  6
CONTINUOUS
 62
     7
 66
     1
 10
0.0
 20
0.0
 30
0.0
  0
VERTEX
  5
6F6
  8
0
  6
CONTINUOUS
 62
     7
 10
-2640.413093099
 20
490.2192056325
 30
0.0
  0
VERTEX
  5
6F7
  8
0
  6
CONTINUOUS
 62
     7
 10
-2641.5246582766
 20
490.1060580199
 30
0.0
  0
VERTEX
  5
6F8
  8
0
  6
CONTINUOUS
 62
     7
 10
-2642.5021569632
 20
489.7802602312
 30
0.0
  0
VERTEX
  5
6F9
  8
0
  6
CONTINUOUS
 62
     7
 10
-2643.2276754476
 20
489.2811142052
 30
0.0
  0
VERTEX
  5
6FA
  8
0
  6
CONTINUOUS
 62
     7
 10
-2643.6137195066
 20
488.6688160045
 30
0.0
  0
VERTEX
  5
6FB
  8
0
  6
CONTINUOUS
 62
     7
 10
-2643.6137195066
 20
488.0172234686
 30
0.0
  0
VERTEX
  5
6FC
  8
0
  6
CONTINUOUS
 62
     7
 10
-2643.2276793989
 20
487.404927549
 30
0.0
  0
VERTEX
  5
6FD
  8
0
  6
CONTINUOUS
 62
     7
 10
-2642.5021582803
 20
486.9057769609
 30
0.0
  0
VERTEX
  5
6FE
  8
0
  6
CONTINUOUS
 62
     7
 10
-2641.5246609107
 20
486.5799829739
 30
0.0
  0
VERTEX
  5
6FF
  8
0
  6
CONTINUOUS
 62
     7
 10
-2640.4131010015
 20
486.46683232
 30
0.0
  0
SEQEND
  5
700
  8
0
  6
CONTINUOUS
 62
     7
  0
LINE
  5
3F5
  8
0
  6
CONTINUOUS
 62
     7
 10
-2640.4131010015
 20
486.46683232
 30
0.0
 11
-2634.9130926874
 21
486.466836882
 31
0.0
  0
POLYLINE
  5
3F6
  8
0
  6
CONTINUOUS
 62
     7
 66
     1
 10
0.0
 20
0.0
 30
0.0
  0
VERTEX
  5
701
  8
0
  6
CONTINUOUS
 62
     7
 10
-2634.9130926874
 20
486.466836882
 30
0.0
  0
VERTEX
  5
702
  8
0
  6
CONTINUOUS
 62
     7
 10
-2633.8015275098
 20
486.5799844946
 30
0.0
  0
VERTEX
  5
703
  8
0
  6
CONTINUOUS
 62
     7
 10
-2632.824040677
 20
486.9057769609
 30
0.0
  0
VERTEX
  5
704
  8
0
  6
CONTINUOUS
 62
     7
 10
-2632.0985116558
 20
487.4049290696
 30
0.0
  0
VERTEX
  5
705
  8
0
  6
CONTINUOUS
 62
     7
 10
-2631.7124662798
 20
488.01722651
 30
0.0
  0
VERTEX
  5
706
  8
0
  6
CONTINUOUS
 62
     7
 10
-2631.7124662798
 20
488.6688190459
 30
0.0
  0
VERTEX
  5
707
  8
0
  6
CONTINUOUS
 62
     7
 10
-2632.0985182413
 20
489.2811096432
 30
0.0
  0
VERTEX
  5
708
  8
0
  6
CONTINUOUS
 62
     7
 10
-2632.8240393599
 20
489.7802602312
 30
0.0
  0
VERTEX
  5
709
  8
0
  6
CONTINUOUS
 62
     7
 10
-2633.8015261927
 20
490.1060603009
 30
0.0
  0
VERTEX
  5
70A
  8
0
  6
CONTINUOUS
 62
     7
 10
-2634.9130966386
 20
490.2192048722
 30
0.0
  0
SEQEND
  5
70B
  8
0
  6
CONTINUOUS
 62
     7
  0
LINE
  5
3F7
  8
0
  6
CONTINUOUS
 62
     7
 10
-2290.041685189
 20
421.1926727038
 30
0.0
 11
-2463.2708423802
 21
321.1896088824
 31
0.0
  0
LINE
  5
3F8
  8
0
  6
CONTINUOUS
 62
     7
 10
-2463.2707686232
 20
321.1908194375
 30
0.0
 11
-2290.0421909512
 21
421.1935487096
 31
0.0
  0
LINE
  5
3F9
  8
0
  6
CONTINUOUS
 62
     7
 10
-2499.6980579835
 20
300.1639872876
 30
0.0
 11
-2499.1820751906
 21
300.4641447793
 31
0.0
  0
LINE
  5
3FA
  8
0
  6
CONTINUOUS
 62
     7
 10
-2906.2025784831
 20
548.5579857517
 30
0.0
 11
-2903.7086651631
 21
544.2488773211
 31
0.0
  0
LINE
  5
3FB
  8
0
  6
CONTINUOUS
 62
     7
 10
-2499.6972782668
 20
300.1581591732
 30
0.0
 11
-2499.1730768384
 21
300.4608725913
 31
0.0
  0
LINE
  5
3FC
  8
0
  6
CONTINUOUS
 62
     7
 10
-2501.8194985299
 20
298.775361068
 30
0.0
 11
-2501.8805693134
 21
298.7399980428
 31
0.0
  0
POLYLINE
  5
3FD
  8
0
  6
CONTINUOUS
 62
     7
 66
     1
 10
0.0
 20
0.0
 30
0.0
  0
VERTEX
  5
70C
  8
0
  6
CONTINUOUS
 62
     7
 10
-2501.3180985465
 20
297.9563880533
 30
0.0
  0
VERTEX
  5
70D
  8
0
  6
CONTINUOUS
 62
     7
 10
-2501.1802783519
 20
297.9691949932
 30
0.0
  0
VERTEX
  5
70E
  8
0
  6
CONTINUOUS
 62
     7
 10
-2500.8658417886
 20
297.9589325565
 30
0.0
  0
SEQEND
  5
70F
  8
0
  6
CONTINUOUS
 62
     7
  0
LINE
  5
3FE
  8
0
  6
CONTINUOUS
 62
     7
 10
-2499.9583358465
 20
299.9618101381
 30
0.0
 11
-2499.6980579835
 21
300.1639872876
 31
0.0
  0
LINE
  5
3FF
  8
0
  6
CONTINUOUS
 62
     7
 10
-2499.6972782668
 20
300.1581591732
 30
0.0
 11
-2499.9996186846
 21
300.0340806022
 31
0.0
  0
POLYLINE
  5
400
  8
0
  6
CONTINUOUS
 62
     7
 66
     1
 10
0.0
 20
0.0
 30
0.0
  0
VERTEX
  5
710
  8
0
  6
CONTINUOUS
 62
     7
 10
-2500.3233907748
 20
299.9011792637
 30
0.0
  0
VERTEX
  5
711
  8
0
  6
CONTINUOUS
 62
     7
 10
-2500.3245076663
 20
299.9007168291
 30
0.0
  0
VERTEX
  5
712
  8
0
  6
CONTINUOUS
 62
     7
 10
-2501.126140725
 20
299.6345911544
 30
0.0
  0
SEQEND
  5
713
  8
0
  6
CONTINUOUS
 62
     7
  0
ARC
  5
401
  8
0
  6
CONTINUOUS
 62
     7
 10
-2502.9549139111
 20
300.4009556925
 30
0.0
 40
1.982858031048733
 50
304.9328195261
 51
337.2634224381
  0
LINE
  5
402
  8
0
  6
CONTINUOUS
 62
     7
 10
-2500.8658417886
 20
297.9589325565
 30
0.0
 11
-2500.9192207722
 21
298.3893089337
 31
0.0
  0
LINE
  5
403
  8
0
  6
CONTINUOUS
 62
     7
 10
-2290.0416925976
 20
421.1930534109
 30
0.0
 11
-2288.9810324166
 21
421.8053595001
 31
0.0
  0
POLYLINE
  5
404
  8
0
  6
CONTINUOUS
 62
     7
 66
     1
 10
0.0
 20
0.0
 30
0.0
  0
VERTEX
  5
714
  8
0
  6
CONTINUOUS
 62
     7
 10
-2288.9810324166
 20
421.8053595001
 30
0.0
  0
VERTEX
  5
715
  8
0
  6
CONTINUOUS
 62
     7
 10
-2288.607932014
 20
421.7817460801
 30
0.0
  0
VERTEX
  5
716
  8
0
  6
CONTINUOUS
 62
     7
 10
-2288.3307178628
 20
421.7119986095
 30
0.0
  0
VERTEX
  5
717
  8
0
  6
CONTINUOUS
 62
     7
 10
-2288.1599870299
 20
421.598757205
 30
0.0
  0
VERTEX
  5
718
  8
0
  6
CONTINUOUS
 62
     7
 10
-2288.1023464401
 20
421.4464059483
 30
0.0
  0
VERTEX
  5
719
  8
0
  6
CONTINUOUS
 62
     7
 10
-2288.1599857951
 20
421.2607842033
 30
0.0
  0
VERTEX
  5
71A
  8
0
  6
CONTINUOUS
 62
     7
 10
-2288.330709096
 20
421.0490346442
 30
0.0
  0
VERTEX
  5
71B
  8
0
  6
CONTINUOUS
 62
     7
 10
-2288.6079455502
 20
420.8192928609
 30
0.0
  0
VERTEX
  5
71C
  8
0
  6
CONTINUOUS
 62
     7
 10
-2288.9810175994
 20
420.5803623377
 30
0.0
  0
SEQEND
  5
71D
  8
0
  6
CONTINUOUS
 62
     7
  0
POLYLINE
  5
405
  8
0
  6
CONTINUOUS
 62
     7
 66
     1
 10
0.0
 20
0.0
 30
0.0
  0
VERTEX
  5
71E
  8
0
  6
CONTINUOUS
 62
     7
 10
-2290.0416925976
 20
421.1930534109
 30
0.0
  0
VERTEX
  5
71F
  8
0
  6
CONTINUOUS
 62
     7
 10
-2289.8736246306
 20
421.2900142086
 30
0.0
  0
VERTEX
  5
720
  8
0
  6
CONTINUOUS
 62
     7
 10
-2289.7428792619
 20
421.3654159133
 30
0.0
  0
VERTEX
  5
721
  8
0
  6
CONTINUOUS
 62
     7
 10
-2289.6534602776
 20
421.4169826667
 30
0.0
  0
VERTEX
  5
722
  8
0
  6
CONTINUOUS
 62
     7
 10
-2289.6080514112
 20
421.4431398984
 30
0.0
  0
VERTEX
  5
723
  8
0
  6
CONTINUOUS
 62
     7
 10
-2289.6080454843
 20
421.4430826835
 30
0.0
  0
VERTEX
  5
724
  8
0
  6
CONTINUOUS
 62
     7
 10
-2289.6534531159
 20
421.4168406465
 30
0.0
  0
VERTEX
  5
725
  8
0
  6
CONTINUOUS
 62
     7
 10
-2289.7428758869
 20
421.3651839743
 30
0.0
  0
VERTEX
  5
726
  8
0
  6
CONTINUOUS
 62
     7
 10
-2289.8736246306
 20
421.2897011411
 30
0.0
  0
VERTEX
  5
727
  8
0
  6
CONTINUOUS
 62
     7
 10
-2290.041685189
 20
421.1926727038
 30
0.0
  0
SEQEND
  5
728
  8
0
  6
CONTINUOUS
 62
     7
  0
ARC
  5
406
  8
0
  6
CONTINUOUS
 62
     7
 10
-2289.8892282072
 20
97.9542997726
 30
0.0
 40
1.787416216897151
 50
300.5382635161
 51
1.4011643181
  0
POLYLINE
  5
407
  8
0
  6
CONTINUOUS
 62
     7
 66
     1
 10
0.0
 20
0.0
 30
0.0
  0
VERTEX
  5
729
  8
0
  6
CONTINUOUS
 62
     7
 10
-2290.0421909512
 20
422.4183563259
 30
0.0
  0
VERTEX
  5
72A
  8
0
  6
CONTINUOUS
 62
     7
 10
-2289.6899275913
 20
422.6030823145
 30
0.0
  0
VERTEX
  5
72B
  8
0
  6
CONTINUOUS
 62
     7
 10
-2289.3805934309
 20
422.7263716204
 30
0.0
  0
VERTEX
  5
72C
  8
0
  6
CONTINUOUS
 62
     7
 10
-2289.1235656497
 20
422.7844659567
 30
0.0
  0
VERTEX
  5
72D
  8
0
  6
CONTINUOUS
 62
     7
 10
-2288.9266666864
 20
422.7755998026
 30
0.0
  0
VERTEX
  5
72E
  8
0
  6
CONTINUOUS
 62
     7
 10
-2288.7958547224
 20
422.7000330737
 30
0.0
  0
VERTEX
  5
72F
  8
0
  6
CONTINUOUS
 62
     7
 10
-2288.7351545348
 20
422.5601031679
 30
0.0
  0
VERTEX
  5
730
  8
0
  6
CONTINUOUS
 62
     7
 10
-2288.7463532797
 20
422.3599990731
 30
0.0
  0
VERTEX
  5
731
  8
0
  6
CONTINUOUS
 62
     7
 10
-2288.8291626045
 20
422.105850226
 30
0.0
  0
VERTEX
  5
732
  8
0
  6
CONTINUOUS
 62
     7
 10
-2288.9810324166
 20
421.8053595001
 30
0.0
  0
SEQEND
  5
733
  8
0
  6
CONTINUOUS
 62
     7
  0
POLYLINE
  5
408
  8
0
  6
CONTINUOUS
 62
     7
 66
     1
 10
0.0
 20
0.0
 30
0.0
  0
VERTEX
  5
734
  8
0
  6
CONTINUOUS
 62
     7
 10
-2290.0421909512
 20
421.1935487096
 30
0.0
  0
VERTEX
  5
735
  8
0
  6
CONTINUOUS
 62
     7
 10
-2289.8741093193
 20
421.2905528141
 30
0.0
  0
VERTEX
  5
736
  8
0
  6
CONTINUOUS
 62
     7
 10
-2289.7433605756
 20
421.3660113125
 30
0.0
  0
VERTEX
  5
737
  8
0
  6
CONTINUOUS
 62
     7
 10
-2289.6538956579
 20
421.4175949841
 30
0.0
  0
VERTEX
  5
738
  8
0
  6
CONTINUOUS
 62
     7
 10
-2289.6084458794
 20
421.4437640207
 30
0.0
  0
VERTEX
  5
739
  8
0
  6
CONTINUOUS
 62
     7
 10
-2289.6083675126
 20
421.443687402
 30
0.0
  0
VERTEX
  5
73A
  8
0
  6
CONTINUOUS
 62
     7
 10
-2289.6537131587
 20
421.4174206696
 30
0.0
  0
VERTEX
  5
73B
  8
0
  6
CONTINUOUS
 62
     7
 10
-2289.7430478493
 20
421.3657079153
 30
0.0
  0
VERTEX
  5
73C
  8
0
  6
CONTINUOUS
 62
     7
 10
-2289.8737089243
 20
421.2901602095
 30
0.0
  0
VERTEX
  5
73D
  8
0
  6
CONTINUOUS
 62
     7
 10
-2290.0416925976
 20
421.1930534109
 30
0.0
  0
SEQEND
  5
73E
  8
0
  6
CONTINUOUS
 62
     7
  0
ARC
  5
409
  8
0
  6
CONTINUOUS
 62
     7
 10
-2711.3047071209
 20
664.5704871598
 30
0.0
 40
1.777748739329978
 50
58.4153681137
 51
119.6414553966
  0
POLYLINE
  5
40A
  8
0
  6
CONTINUOUS
 62
     7
 66
     1
 10
0.0
 20
0.0
 30
0.0
  0
VERTEX
  5
73F
  8
0
  6
CONTINUOUS
 62
     7
 10
-2594.7366896868
 20
465.8010512068
 30
0.0
  0
VERTEX
  5
740
  8
0
  6
CONTINUOUS
 62
     7
 10
-2594.9326830691
 20
466.4427471664
 30
0.0
  0
VERTEX
  5
741
  8
0
  6
CONTINUOUS
 62
     7
 10
-2595.4970464928
 20
467.0070383037
 30
0.0
  0
VERTEX
  5
742
  8
0
  6
CONTINUOUS
 62
     7
 10
-2596.3616943584
 20
467.4258727303
 30
0.0
  0
VERTEX
  5
743
  8
0
  6
CONTINUOUS
 62
     7
 10
-2597.4223277037
 20
467.6487357839
 30
0.0
  0
VERTEX
  5
744
  8
0
  6
CONTINUOUS
 62
     7
 10
-2598.5510413802
 20
467.6487357839
 30
0.0
  0
VERTEX
  5
745
  8
0
  6
CONTINUOUS
 62
     7
 10
-2599.6116865793
 20
467.425876532
 30
0.0
  0
VERTEX
  5
746
  8
0
  6
CONTINUOUS
 62
     7
 10
-2600.4763370791
 20
467.0070375433
 30
0.0
  0
VERTEX
  5
747
  8
0
  6
CONTINUOUS
 62
     7
 10
-2601.0406873319
 20
466.442746406
 30
0.0
  0
VERTEX
  5
748
  8
0
  6
CONTINUOUS
 62
     7
 10
-2601.2366859825
 20
465.8010534878
 30
0.0
  0
SEQEND
  5
749
  8
0
  6
CONTINUOUS
 62
     7
  0
POLYLINE
  5
40B
  8
0
  6
CONTINUOUS
 62
     7
 66
     1
 10
0.0
 20
0.0
 30
0.0
  0
VERTEX
  5
74A
  8
0
  6
CONTINUOUS
 62
     7
 10
-2615.8411366569
 20
497.4253648909
 30
0.0
  0
VERTEX
  5
74B
  8
0
  6
CONTINUOUS
 62
     7
 10
-2617.8275215785
 20
496.1339582352
 30
0.0
  0
VERTEX
  5
74C
  8
0
  6
CONTINUOUS
 62
     7
 10
-2619.5353790517
 20
494.715994623
 30
0.0
  0
VERTEX
  5
74D
  8
0
  6
CONTINUOUS
 62
     7
 10
-2620.9407433248
 20
493.1913736544
 30
0.0
  0
VERTEX
  5
74E
  8
0
  6
CONTINUOUS
 62
     7
 10
-2622.0238896727
 20
491.5814943189
 30
0.0
  0
VERTEX
  5
74F
  8
0
  6
CONTINUOUS
 62
     7
 10
-2622.7695951804
 20
489.9089675868
 30
0.0
  0
VERTEX
  5
750
  8
0
  6
CONTINUOUS
 62
     7
 10
-2623.1674074297
 20
488.1972605703
 30
0.0
  0
VERTEX
  5
751
  8
0
  6
CONTINUOUS
 62
     7
 10
-2623.2143972146
 20
487.7306167685
 30
0.0
  0
SEQEND
  5
752
  8
0
  6
CONTINUOUS
 62
     7
  0
POLYLINE
  5
40C
  8
0
  6
CONTINUOUS
 62
     7
 66
     1
 10
0.0
 20
0.0
 30
0.0
  0
VERTEX
  5
753
  8
0
  6
CONTINUOUS
 62
     7
 10
-2572.7589837231
 20
487.7306175288
 30
0.0
  0
VERTEX
  5
754
  8
0
  6
CONTINUOUS
 62
     7
 10
-2572.8724140634
 20
488.6275517895
 30
0.0
  0
VERTEX
  5
755
  8
0
  6
CONTINUOUS
 62
     7
 10
-2573.357920075
 20
490.3317006532
 30
0.0
  0
VERTEX
  5
756
  8
0
  6
CONTINUOUS
 62
     7
 10
-2574.1891566849
 20
491.9907401066
 30
0.0
  0
VERTEX
  5
757
  8
0
  6
CONTINUOUS
 62
     7
 10
-2575.3544604114
 20
493.5813798163
 30
0.0
  0
VERTEX
  5
758
  8
0
  6
CONTINUOUS
 62
     7
 10
-2576.8374693869
 20
495.0812910881
 30
0.0
  0
VERTEX
  5
759
  8
0
  6
CONTINUOUS
 62
     7
 10
-2578.6173675134
 20
496.4694181307
 30
0.0
  0
VERTEX
  5
75A
  8
0
  6
CONTINUOUS
 62
     7
 10
-2580.6691729049
 20
497.7262723072
 30
0.0
  0
VERTEX
  5
75B
  8
0
  6
CONTINUOUS
 62
     7
 10
-2582.9640717698
 20
498.8342161218
 30
0.0
  0
VERTEX
  5
75C
  8
0
  6
CONTINUOUS
 62
     7
 10
-2585.4698571656
 20
499.777692177
 30
0.0
  0
VERTEX
  5
75D
  8
0
  6
CONTINUOUS
 62
     7
 10
-2588.1513526083
 20
500.5434555521
 30
0.0
  0
VERTEX
  5
75E
  8
0
  6
CONTINUOUS
 62
     7
 10
-2590.9709128948
 20
501.1207595165
 30
0.0
  0
VERTEX
  5
75F
  8
0
  6
CONTINUOUS
 62
     7
 10
-2593.8889631224
 20
501.5014963819
 30
0.0
  0
VERTEX
  5
760
  8
0
  6
CONTINUOUS
 62
     7
 10
-2596.86453392
 20
501.6803240045
 30
0.0
  0
VERTEX
  5
761
  8
0
  6
CONTINUOUS
 62
     7
 10
-2599.8558538095
 20
501.6547340249
 30
0.0
  0
VERTEX
  5
762
  8
0
  6
CONTINUOUS
 62
     7
 10
-2602.8209438712
 20
501.4250788603
 30
0.0
  0
VERTEX
  5
763
  8
0
  6
CONTINUOUS
 62
     7
 10
-2605.7181590676
 20
500.9945922338
 30
0.0
  0
VERTEX
  5
764
  8
0
  6
CONTINUOUS
 62
     7
 10
-2608.5068540316
 20
500.3693051568
 30
0.0
  0
VERTEX
  5
765
  8
0
  6
CONTINUOUS
 62
     7
 10
-2611.1478611701
 20
499.5580056309
 30
0.0
  0
VERTEX
  5
766
  8
0
  6
CONTINUOUS
 62
     7
 10
-2613.6041123298
 20
498.5720804977
 30
0.0
  0
VERTEX
  5
767
  8
0
  6
CONTINUOUS
 62
     7
 10
-2615.8411366569
 20
497.4253648909
 30
0.0
  0
SEQEND
  5
768
  8
0
  6
CONTINUOUS
 62
     7
  0
LINE
  5
40D
  8
0
  6
CONTINUOUS
 62
     7
 10
-2290.0421909512
 20
95.8020267047
 30
0.0
 11
-2465.6290533848
 21
-5.5621113819
 31
0.0
  0
ARC
  5
40E
  8
0
  6
CONTINUOUS
 62
     7
 10
-2555.1995908619
 20
485.5055762061
 30
0.0
 40
3.507415924982546
 50
39.3741753213
 51
95.9025758092
  0
ARC
  5
40F
  8
0
  6
CONTINUOUS
 62
     7
 10
-2561.4209723178
 20
485.5055802882
 30
0.0
 40
3.507413133094872
 50
84.0974584394
 51
140.625873516
  0
ARC
  5
410
  8
0
  6
CONTINUOUS
 62
     7
 10
-2634.5524141693
 20
485.5055513065
 30
0.0
 40
3.507440363340073
 50
39.3743899534
 51
95.9023611772
  0
ARC
  5
411
  8
0
  6
CONTINUOUS
 62
     7
 10
-2640.7737774009
 20
485.5055505733
 30
0.0
 40
3.507442037341854
 50
84.097611555
 51
140.6256651982
  0
LINE
  5
412
  8
0
  6
CONTINUOUS
 62
     7
 10
-2555.5602838874
 20
488.9943964955
 30
0.0
 11
-2561.0602816649
 21
488.9943980162
 31
0.0
  0
LINE
  5
413
  8
0
  6
CONTINUOUS
 62
     7
 10
-2634.9130966386
 20
488.9943972559
 30
0.0
 11
-2640.413093099
 21
488.9943980162
 31
0.0
  0
POLYLINE
  5
414
  8
0
  6
CONTINUOUS
 62
     7
 66
     1
 10
0.0
 20
0.0
 30
0.0
  0
VERTEX
  5
769
  8
0
  6
CONTINUOUS
 62
     7
 10
-2594.7366910039
 20
511.6104549275
 30
0.0
  0
VERTEX
  5
76A
  8
0
  6
CONTINUOUS
 62
     7
 10
-2594.9326896545
 20
512.2521478457
 30
0.0
  0
VERTEX
  5
76B
  8
0
  6
CONTINUOUS
 62
     7
 10
-2595.4970425415
 20
512.8164450658
 30
0.0
  0
VERTEX
  5
76C
  8
0
  6
CONTINUOUS
 62
     7
 10
-2596.3616904071
 20
513.2352794924
 30
0.0
  0
VERTEX
  5
76D
  8
0
  6
CONTINUOUS
 62
     7
 10
-2597.422332972
 20
513.4581357029
 30
0.0
  0
VERTEX
  5
76E
  8
0
  6
CONTINUOUS
 62
     7
 10
-2598.5510466486
 20
513.4581357029
 30
0.0
  0
VERTEX
  5
76F
  8
0
  6
CONTINUOUS
 62
     7
 10
-2599.6116878964
 20
513.2352802527
 30
0.0
  0
VERTEX
  5
770
  8
0
  6
CONTINUOUS
 62
     7
 10
-2600.4763331278
 20
512.8164443054
 30
0.0
  0
VERTEX
  5
771
  8
0
  6
CONTINUOUS
 62
     7
 10
-2601.0406873319
 20
512.2521493664
 30
0.0
  0
VERTEX
  5
772
  8
0
  6
CONTINUOUS
 62
     7
 10
-2601.2366859825
 20
511.6104564482
 30
0.0
  0
SEQEND
  5
773
  8
0
  6
CONTINUOUS
 62
     7
  0
LINE
  5
415
  8
0
  6
CONTINUOUS
 62
     7
 10
-2906.1704204377
 20
548.5586944787
 30
0.0
 11
-2903.6688785381
 21
544.2259089914
 31
0.0
  0
POLYLINE
  5
416
  8
0
  6
CONTINUOUS
 62
     7
 66
     1
 10
0.0
 20
0.0
 30
0.0
  0
VERTEX
  5
774
  8
0
  6
CONTINUOUS
 62
     7
 10
-2468.6333123568
 20
331.754043004
 30
0.0
  0
VERTEX
  5
775
  8
0
  6
CONTINUOUS
 62
     7
 10
-2467.5672288971
 20
332.0368527291
 30
0.0
  0
VERTEX
  5
776
  8
0
  6
CONTINUOUS
 62
     7
 10
-2466.704704179
 20
332.4959942629
 30
0.0
  0
VERTEX
  5
777
  8
0
  6
CONTINUOUS
 62
     7
 10
-2466.1301794136
 20
333.0865406768
 30
0.0
  0
VERTEX
  5
778
  8
0
  6
CONTINUOUS
 62
     7
 10
-2465.8998890333
 20
333.7506757699
 30
0.0
  0
VERTEX
  5
779
  8
0
  6
CONTINUOUS
 62
     7
 10
-2466.0363499921
 20
334.4233814076
 30
0.0
  0
VERTEX
  5
77A
  8
0
  6
CONTINUOUS
 62
     7
 10
-2466.5262438857
 20
335.0388182889
 30
0.0
  0
VERTEX
  5
77B
  8
0
  6
CONTINUOUS
 62
     7
 10
-2467.3216076007
 20
335.53674321
 30
0.0
  0
VERTEX
  5
77C
  8
0
  6
CONTINUOUS
 62
     7
 10
-2468.3445642976
 20
335.8684153801
 30
0.0
  0
VERTEX
  5
77D
  8
0
  6
CONTINUOUS
 62
     7
 10
-2469.4950046746
 20
336.0013591869
 30
0.0
  0
VERTEX
  5
77E
  8
0
  6
CONTINUOUS
 62
     7
 10
-2470.6602912789
 20
335.9225697868
 30
0.0
  0
VERTEX
  5
77F
  8
0
  6
CONTINUOUS
 62
     7
 10
-2471.726395812
 20
335.6397722272
 30
0.0
  0
VERTEX
  5
780
  8
0
  6
CONTINUOUS
 62
     7
 10
-2472.5888994566
 20
335.1806185279
 30
0.0
  0
VERTEX
  5
781
  8
0
  6
CONTINUOUS
 62
     7
 10
-2473.1634242221
 20
334.590072114
 30
0.0
  0
VERTEX
  5
782
  8
0
  6
CONTINUOUS
 62
     7
 10
-2473.3937356758
 20
333.9259491864
 30
0.0
  0
VERTEX
  5
783
  8
0
  6
CONTINUOUS
 62
     7
 10
-2473.2572536436
 20
333.2532313832
 30
0.0
  0
VERTEX
  5
784
  8
0
  6
CONTINUOUS
 62
     7
 10
-2472.7673597499
 20
332.6377945019
 30
0.0
  0
VERTEX
  5
785
  8
0
  6
CONTINUOUS
 62
     7
 10
-2471.971996035
 20
332.1398695808
 30
0.0
  0
VERTEX
  5
786
  8
0
  6
CONTINUOUS
 62
     7
 10
-2470.9490393381
 20
331.8081974107
 30
0.0
  0
VERTEX
  5
787
  8
0
  6
CONTINUOUS
 62
     7
 10
-2469.7985989611
 20
331.6752536039
 30
0.0
  0
VERTEX
  5
788
  8
0
  6
CONTINUOUS
 62
     7
 10
-2468.6333123568
 20
331.754043004
 30
0.0
  0
SEQEND
  5
789
  8
0
  6
CONTINUOUS
 62
     7
  0
POLYLINE
  5
417
  8
0
  6
CONTINUOUS
 62
     7
 66
     1
 10
0.0
 20
0.0
 30
0.0
  0
VERTEX
  5
78A
  8
0
  6
CONTINUOUS
 62
     7
 10
-2892.4691543364
 20
556.2581703631
 30
0.0
  0
VERTEX
  5
78B
  8
0
  6
CONTINUOUS
 62
     7
 10
-2892.7069890026
 20
555.5949111809
 30
0.0
  0
VERTEX
  5
78C
  8
0
  6
CONTINUOUS
 62
     7
 10
-2892.5781460867
 20
554.9217006778
 30
0.0
  0
VERTEX
  5
78D
  8
0
  6
CONTINUOUS
 62
     7
 10
-2892.0952274964
 20
554.3044268167
 30
0.0
  0
VERTEX
  5
78E
  8
0
  6
CONTINUOUS
 62
     7
 10
-2891.3055641427
 20
553.8035031174
 30
0.0
  0
VERTEX
  5
78F
  8
0
  6
CONTINUOUS
 62
     7
 10
-2890.286369052
 20
553.4679805891
 30
0.0
  0
VERTEX
  5
790
  8
0
  6
CONTINUOUS
 62
     7
 10
-2889.1374670351
 20
553.3306693934
 30
0.0
  0
VERTEX
  5
791
  8
0
  6
CONTINUOUS
 62
     7
 10
-2887.9713058836
 20
553.4050488255
 30
0.0
  0
VERTEX
  5
792
  8
0
  6
CONTINUOUS
 62
     7
 10
-2886.9020403369
 20
553.6838317936
 30
0.0
  0
VERTEX
  5
793
  8
0
  6
CONTINUOUS
 62
     7
 10
-2886.0343420932
 20
554.1397069098
 30
0.0
  0
VERTEX
  5
794
  8
0
  6
CONTINUOUS
 62
     7
 10
-2885.4531159788
 20
554.7280635464
 30
0.0
  0
VERTEX
  5
795
  8
0
  6
CONTINUOUS
 62
     7
 10
-2885.2152813126
 20
555.3913227287
 30
0.0
  0
VERTEX
  5
796
  8
0
  6
CONTINUOUS
 62
     7
 10
-2885.3441242285
 20
556.0645332317
 30
0.0
  0
VERTEX
  5
797
  8
0
  6
CONTINUOUS
 62
     7
 10
-2885.8270217453
 20
556.6817949273
 30
0.0
  0
VERTEX
  5
798
  8
0
  6
CONTINUOUS
 62
     7
 10
-2886.6167061725
 20
557.1827307921
 30
0.0
  0
VERTEX
  5
799
  8
0
  6
CONTINUOUS
 62
     7
 10
-2887.6359012632
 20
557.5182533205
 30
0.0
  0
VERTEX
  5
79A
  8
0
  6
CONTINUOUS
 62
     7
 10
-2888.7847822067
 20
557.6555523507
 30
0.0
  0
VERTEX
  5
79B
  8
0
  6
CONTINUOUS
 62
     7
 10
-2889.9509433582
 20
557.5811729186
 30
0.0
  0
VERTEX
  5
79C
  8
0
  6
CONTINUOUS
 62
     7
 10
-2891.0202299783
 20
557.3024021159
 30
0.0
  0
VERTEX
  5
79D
  8
0
  6
CONTINUOUS
 62
     7
 10
-2891.8879492955
 20
556.8465148343
 30
0.0
  0
VERTEX
  5
79E
  8
0
  6
CONTINUOUS
 62
     7
 10
-2892.4691543364
 20
556.2581703631
 30
0.0
  0
SEQEND
  5
79F
  8
0
  6
CONTINUOUS
 62
     7
  0
POLYLINE
  5
418
  8
0
  6
CONTINUOUS
 62
     7
 66
     1
 10
0.0
 20
0.0
 30
0.0
  0
VERTEX
  5
7A0
  8
0
  6
CONTINUOUS
 62
     7
 10
-2874.1066469873
 20
567.1230966425
 30
0.0
  0
VERTEX
  5
7A1
  8
0
  6
CONTINUOUS
 62
     7
 10
-2874.731200062
 20
566.5497278143
 30
0.0
  0
VERTEX
  5
7A2
  8
0
  6
CONTINUOUS
 62
     7
 10
-2875.0182411738
 20
565.8930014673
 30
0.0
  0
VERTEX
  5
7A3
  8
0
  6
CONTINUOUS
 62
     7
 10
-2874.939721595
 20
565.2172118934
 30
0.0
  0
VERTEX
  5
7A4
  8
0
  6
CONTINUOUS
 62
     7
 10
-2874.5032909787
 20
564.5885025292
 30
0.0
  0
VERTEX
  5
7A5
  8
0
  6
CONTINUOUS
 62
     7
 10
-2873.7516862292
 20
564.0684304448
 30
0.0
  0
VERTEX
  5
7A6
  8
0
  6
CONTINUOUS
 62
     7
 10
-2872.7584746706
 20
563.7078836292
 30
0.0
  0
VERTEX
  5
7A7
  8
0
  6
CONTINUOUS
 62
     7
 10
-2871.6208890824
 20
563.5421661571
 30
0.0
  0
VERTEX
  5
7A8
  8
0
  6
CONTINUOUS
 62
     7
 10
-2870.4502498283
 20
563.5875006278
 30
0.0
  0
VERTEX
  5
7A9
  8
0
  6
CONTINUOUS
 62
     7
 10
-2869.3611857995
 20
563.8394405771
 30
0.0
  0
VERTEX
  5
7AA
  8
0
  6
CONTINUOUS
 62
     7
 10
-2868.4602863759
 20
564.273338846
 30
0.0
  0
VERTEX
  5
7AB
  8
0
  6
CONTINUOUS
 62
     7
 10
-2867.8357333012
 20
564.8467076743
 30
0.0
  0
VERTEX
  5
7AC
  8
0
  6
CONTINUOUS
 62
     7
 10
-2867.548671116
 20
565.5034218558
 30
0.0
  0
VERTEX
  5
7AD
  8
0
  6
CONTINUOUS
 62
     7
 10
-2867.6271906948
 20
566.1792114297
 30
0.0
  0
VERTEX
  5
7AE
  8
0
  6
CONTINUOUS
 62
     7
 10
-2868.0636213111
 20
566.807920794
 30
0.0
  0
VERTEX
  5
7AF
  8
0
  6
CONTINUOUS
 62
     7
 10
-2868.8152260606
 20
567.3279928783
 30
0.0
  0
VERTEX
  5
7B0
  8
0
  6
CONTINUOUS
 62
     7
 10
-2869.8084376192
 20
567.6885396939
 30
0.0
  0
VERTEX
  5
7B1
  8
0
  6
CONTINUOUS
 62
     7
 10
-2870.9460442808
 20
567.8542693314
 30
0.0
  0
VERTEX
  5
7B2
  8
0
  6
CONTINUOUS
 62
     7
 10
-2872.1166624615
 20
567.8089226953
 30
0.0
  0
VERTEX
  5
7B3
  8
0
  6
CONTINUOUS
 62
     7
 10
-2873.2057264903
 20
567.556982746
 30
0.0
  0
VERTEX
  5
7B4
  8
0
  6
CONTINUOUS
 62
     7
 10
-2874.1066469873
 20
567.1230966425
 30
0.0
  0
SEQEND
  5
7B5
  8
0
  6
CONTINUOUS
 62
     7
  0
POLYLINE
  5
419
  8
0
  6
CONTINUOUS
 62
     7
 66
     1
 10
0.0
 20
0.0
 30
0.0
  0
VERTEX
  5
7B6
  8
0
  6
CONTINUOUS
 62
     7
 10
-2485.1124877801
 20
321.8851003865
 30
0.0
  0
VERTEX
  5
7B7
  8
0
  6
CONTINUOUS
 62
     7
 10
-2484.2850187033
 20
322.3652455333
 30
0.0
  0
VERTEX
  5
7B8
  8
0
  6
CONTINUOUS
 62
     7
 10
-2483.7550642301
 20
322.9695267164
 30
0.0
  0
VERTEX
  5
7B9
  8
0
  6
CONTINUOUS
 62
     7
 10
-2483.5744860577
 20
323.6387591242
 30
0.0
  0
VERTEX
  5
7BA
  8
0
  6
CONTINUOUS
 62
     7
 10
-2483.7610069358
 20
324.3074562531
 30
0.0
  0
VERTEX
  5
7BB
  8
0
  6
CONTINUOUS
 62
     7
 10
-2484.2963140587
 20
324.9101559304
 30
0.0
  0
VERTEX
  5
7BC
  8
0
  6
CONTINUOUS
 62
     7
 10
-2485.1280821141
 20
325.3878436606
 30
0.0
  0
VERTEX
  5
7BD
  8
0
  6
CONTINUOUS
 62
     7
 10
-2486.1748201703
 20
325.6937920313
 30
0.0
  0
VERTEX
  5
7BE
  8
0
  6
CONTINUOUS
 62
     7
 10
-2487.3341113854
 20
325.7980254259
 30
0.0
  0
VERTEX
  5
7BF
  8
0
  6
CONTINUOUS
 62
     7
 10
-2488.492433223
 20
325.6903613804
 30
0.0
  0
VERTEX
  5
7C0
  8
0
  6
CONTINUOUS
 62
     7
 10
-2489.5364528075
 20
325.3813108253
 30
0.0
  0
VERTEX
  5
7C1
  8
0
  6
CONTINUOUS
 62
     7
 10
-2490.3639429577
 20
324.901153513
 30
0.0
  0
VERTEX
  5
7C2
  8
0
  6
CONTINUOUS
 62
     7
 10
-2490.8938974309
 20
324.2968966608
 30
0.0
  0
VERTEX
  5
7C3
  8
0
  6
CONTINUOUS
 62
     7
 10
-2491.0744545299
 20
323.6276520876
 30
0.0
  0
VERTEX
  5
7C4
  8
0
  6
CONTINUOUS
 62
     7
 10
-2490.8879547253
 20
322.9589671241
 30
0.0
  0
VERTEX
  5
7C5
  8
0
  6
CONTINUOUS
 62
     7
 10
-2490.3526265289
 20
322.3562552814
 30
0.0
  0
VERTEX
  5
7C6
  8
0
  6
CONTINUOUS
 62
     7
 10
-2489.520879547
 20
321.8785553858
 30
0.0
  0
VERTEX
  5
7C7
  8
0
  6
CONTINUOUS
 62
     7
 10
-2488.4741204174
 20
321.5726191805
 30
0.0
  0
VERTEX
  5
7C8
  8
0
  6
CONTINUOUS
 62
     7
 10
-2487.3148502757
 20
321.4683979513
 30
0.0
  0
VERTEX
  5
7C9
  8
0
  6
CONTINUOUS
 62
     7
 10
-2486.1565073646
 20
321.5760498314
 30
0.0
  0
VERTEX
  5
7CA
  8
0
  6
CONTINUOUS
 62
     7
 10
-2485.1124877801
 20
321.8851003865
 30
0.0
  0
SEQEND
  5
7CB
  8
0
  6
CONTINUOUS
 62
     7
  0
POLYLINE
  5
41A
  8
0
  6
CONTINUOUS
 62
     7
 66
     1
 10
0.0
 20
0.0
 30
0.0
  0
VERTEX
  5
7CC
  8
0
  6
CONTINUOUS
 62
     7
 10
-2918.6210209563
 20
564.2536551821
 30
0.0
  0
VERTEX
  5
7CD
  8
0
  6
CONTINUOUS
 62
     7
 10
-2918.2371263867
 20
563.6815758893
 30
0.0
  0
VERTEX
  5
7CE
  8
0
  6
CONTINUOUS
 62
     7
 10
-2917.5374254811
 20
563.2198127055
 30
0.0
  0
VERTEX
  5
7CF
  8
0
  6
CONTINUOUS
 62
     7
 10
-2916.6063383772
 20
562.9240346333
 30
0.0
  0
VERTEX
  5
7D0
  8
0
  6
CONTINUOUS
 62
     7
 10
-2915.5561864263
 20
562.829935041
 30
0.0
  0
VERTEX
  5
7D1
  8
0
  6
CONTINUOUS
 62
     7
 10
-2914.5136209081
 20
562.9488521082
 30
0.0
  0
VERTEX
  5
7D2
  8
0
  6
CONTINUOUS
 62
     7
 10
-2913.6044080186
 20
563.2664549598
 30
0.0
  0
VERTEX
  5
7D3
  8
0
  6
CONTINUOUS
 62
     7
 10
-2912.9381506374
 20
563.7444103294
 30
0.0
  0
VERTEX
  5
7D4
  8
0
  6
CONTINUOUS
 62
     7
 10
-2912.5952649513
 20
564.3251027459
 30
0.0
  0
VERTEX
  5
7D5
  8
0
  6
CONTINUOUS
 62
     7
 10
-2912.6170970188
 20
564.9384836697
 30
0.0
  0
VERTEX
  5
7D6
  8
0
  6
CONTINUOUS
 62
     7
 10
-2913.0010126619
 20
565.5105507971
 30
0.0
  0
VERTEX
  5
7D7
  8
0
  6
CONTINUOUS
 62
     7
 10
-2913.7006714206
 20
565.9723139809
 30
0.0
  0
VERTEX
  5
7D8
  8
0
  6
CONTINUOUS
 62
     7
 10
-2914.6317585245
 20
566.2680920531
 30
0.0
  0
VERTEX
  5
7D9
  8
0
  6
CONTINUOUS
 62
     7
 10
-2915.6819104754
 20
566.3621916454
 30
0.0
  0
VERTEX
  5
7DA
  8
0
  6
CONTINUOUS
 62
     7
 10
-2916.7244759936
 20
566.2432745782
 30
0.0
  0
VERTEX
  5
7DB
  8
0
  6
CONTINUOUS
 62
     7
 10
-2917.63373103
 20
565.9256717266
 30
0.0
  0
VERTEX
  5
7DC
  8
0
  6
CONTINUOUS
 62
     7
 10
-2918.2999673378
 20
565.4477041915
 30
0.0
  0
VERTEX
  5
7DD
  8
0
  6
CONTINUOUS
 62
     7
 10
-2918.6428530239
 20
564.8670117751
 30
0.0
  0
VERTEX
  5
7DE
  8
0
  6
CONTINUOUS
 62
     7
 10
-2918.6210209563
 20
564.2536551821
 30
0.0
  0
SEQEND
  5
7DF
  8
0
  6
CONTINUOUS
 62
     7
  0
POLYLINE
  5
41B
  8
0
  6
CONTINUOUS
 62
     7
 66
     1
 10
0.0
 20
0.0
 30
0.0
  0
VERTEX
  5
7E0
  8
0
  6
CONTINUOUS
 62
     7
 10
-2939.9738155971
 20
551.2927167484
 30
0.0
  0
VERTEX
  5
7E1
  8
0
  6
CONTINUOUS
 62
     7
 10
-2939.3286948604
 20
550.8051871862
 30
0.0
  0
VERTEX
  5
7E2
  8
0
  6
CONTINUOUS
 62
     7
 10
-2938.4336011652
 20
550.4744456714
 30
0.0
  0
VERTEX
  5
7E3
  8
0
  6
CONTINUOUS
 62
     7
 10
-2937.3965568841
 20
550.3403704798
 30
0.0
  0
VERTEX
  5
7E4
  8
0
  6
CONTINUOUS
 62
     7
 10
-2936.3426538637
 20
550.4191416318
 30
0.0
  0
VERTEX
  5
7E5
  8
0
  6
CONTINUOUS
 62
     7
 10
-2935.3989437787
 20
550.7012579273
 30
0.0
  0
VERTEX
  5
7E6
  8
0
  6
CONTINUOUS
 62
     7
 10
-2934.6792863404
 20
551.1526683312
 30
0.0
  0
VERTEX
  5
7E7
  8
0
  6
CONTINUOUS
 62
     7
 10
-2934.2705040566
 20
551.7189690453
 30
0.0
  0
VERTEX
  5
7E8
  8
0
  6
CONTINUOUS
 62
     7
 10
-2934.22184552
 20
552.3318268556
 30
0.0
  0
VERTEX
  5
7E9
  8
0
  6
CONTINUOUS
 62
     7
 10
-2934.5392534362
 20
552.9173246165
 30
0.0
  0
VERTEX
  5
7EA
  8
0
  6
CONTINUOUS
 62
     7
 10
-2935.1843741729
 20
553.4048541786
 30
0.0
  0
VERTEX
  5
7EB
  8
0
  6
CONTINUOUS
 62
     7
 10
-2936.0794257213
 20
553.7355956934
 30
0.0
  0
VERTEX
  5
7EC
  8
0
  6
CONTINUOUS
 62
     7
 10
-2937.1164700023
 20
553.8696708851
 30
0.0
  0
VERTEX
  5
7ED
  8
0
  6
CONTINUOUS
 62
     7
 10
-2938.1704151696
 20
553.7908997331
 30
0.0
  0
VERTEX
  5
7EE
  8
0
  6
CONTINUOUS
 62
     7
 10
-2939.1141041812
 20
553.5087956029
 30
0.0
  0
VERTEX
  5
7EF
  8
0
  6
CONTINUOUS
 62
     7
 10
-2939.8337616195
 20
553.0573608683
 30
0.0
  0
VERTEX
  5
7F0
  8
0
  6
CONTINUOUS
 62
     7
 10
-2940.2425649767
 20
552.4910723196
 30
0.0
  0
VERTEX
  5
7F1
  8
0
  6
CONTINUOUS
 62
     7
 10
-2940.2911813664
 20
551.8782145092
 30
0.0
  0
VERTEX
  5
7F2
  8
0
  6
CONTINUOUS
 62
     7
 10
-2939.9738155971
 20
551.2927167484
 30
0.0
  0
SEQEND
  5
7F3
  8
0
  6
CONTINUOUS
 62
     7
  0
POLYLINE
  5
41C
  8
0
  6
CONTINUOUS
 62
     7
 66
     1
 10
0.0
 20
0.0
 30
0.0
  0
VERTEX
  5
7F4
  8
0
  6
CONTINUOUS
 62
     7
 10
-2468.718438454
 20
307.5827287725
 30
0.0
  0
VERTEX
  5
7F5
  8
0
  6
CONTINUOUS
 62
     7
 10
-2468.4978207755
 20
308.1828615443
 30
0.0
  0
VERTEX
  5
7F6
  8
0
  6
CONTINUOUS
 62
     7
 10
-2468.6460933886
 20
308.7903544006
 30
0.0
  0
VERTEX
  5
7F7
  8
0
  6
CONTINUOUS
 62
     7
 10
-2469.1453228092
 20
309.3319592941
 30
0.0
  0
VERTEX
  5
7F8
  8
0
  6
CONTINUOUS
 62
     7
 10
-2469.9353022642
 20
309.7423113754
 30
0.0
  0
VERTEX
  5
7F9
  8
0
  6
CONTINUOUS
 62
     7
 10
-2470.9208009496
 20
309.9719338454
 30
0.0
  0
VERTEX
  5
7FA
  8
0
  6
CONTINUOUS
 62
     7
 10
-2471.9828804586
 20
309.9931381879
 30
0.0
  0
VERTEX
  5
7FB
  8
0
  6
CONTINUOUS
 62
     7
 10
-2472.9934986656
 20
309.8033696629
 30
0.0
  0
VERTEX
  5
7FC
  8
0
  6
CONTINUOUS
 62
     7
 10
-2473.8307036644
 20
309.4254871112
 30
0.0
  0
VERTEX
  5
7FD
  8
0
  6
CONTINUOUS
 62
     7
 10
-2474.3935537529
 20
308.9051108911
 30
0.0
  0
VERTEX
  5
7FE
  8
0
  6
CONTINUOUS
 62
     7
 10
-2474.6141714314
 20
308.3049781194
 30
0.0
  0
VERTEX
  5
7FF
  8
0
  6
CONTINUOUS
 62
     7
 10
-2474.4659198918
 20
307.6974730977
 30
0.0
  0
VERTEX
  5
800
  8
0
  6
CONTINUOUS
 62
     7
 10
-2473.9666693977
 20
307.1558803696
 30
0.0
  0
VERTEX
  5
801
  8
0
  6
CONTINUOUS
 62
     7
 10
-2473.1766688692
 20
306.7455161228
 30
0.0
  0
VERTEX
  5
802
  8
0
  6
CONTINUOUS
 62
     7
 10
-2472.1912123308
 20
306.5158936528
 30
0.0
  0
VERTEX
  5
803
  8
0
  6
CONTINUOUS
 62
     7
 10
-2471.1290906749
 20
306.4946893103
 30
0.0
  0
VERTEX
  5
804
  8
0
  6
CONTINUOUS
 62
     7
 10
-2470.1184935413
 20
306.6844700007
 30
0.0
  0
VERTEX
  5
805
  8
0
  6
CONTINUOUS
 62
     7
 10
-2469.2812885425
 20
307.0623282216
 30
0.0
  0
VERTEX
  5
806
  8
0
  6
CONTINUOUS
 62
     7
 10
-2468.718438454
 20
307.5827287725
 30
0.0
  0
SEQEND
  5
807
  8
0
  6
CONTINUOUS
 62
     7
  0
POLYLINE
  5
41D
  8
0
  6
CONTINUOUS
 62
     7
 66
     1
 10
0.0
 20
0.0
 30
0.0
  0
VERTEX
  5
808
  8
0
  6
CONTINUOUS
 62
     7
 10
-2490.1490151038
 20
295.5749395256
 30
0.0
  0
VERTEX
  5
809
  8
0
  6
CONTINUOUS
 62
     7
 10
-2490.2272185812
 20
296.18677544
 30
0.0
  0
VERTEX
  5
80A
  8
0
  6
CONTINUOUS
 62
     7
 10
-2490.6631645088
 20
296.7462756794
 30
0.0
  0
VERTEX
  5
80B
  8
0
  6
CONTINUOUS
 62
     7
 10
-2491.4043168398
 20
297.1859586097
 30
0.0
  0
VERTEX
  5
80C
  8
0
  6
CONTINUOUS
 62
     7
 10
-2492.3612610353
 20
297.4527951267
 30
0.0
  0
VERTEX
  5
80D
  8
0
  6
CONTINUOUS
 62
     7
 10
-2493.4185779504
 20
297.5145833399
 30
0.0
  0
VERTEX
  5
80E
  8
0
  6
CONTINUOUS
 62
     7
 10
-2494.4487522952
 20
297.3638901725
 30
0.0
  0
VERTEX
  5
80F
  8
0
  6
CONTINUOUS
 62
     7
 10
-2495.3275140866
 20
297.0188786096
 30
0.0
  0
VERTEX
  5
810
  8
0
  6
CONTINUOUS
 62
     7
 10
-2495.9488850742
 20
296.5211665835
 30
0.0
  0
VERTEX
  5
811
  8
0
  6
CONTINUOUS
 62
     7
 10
-2496.2378860144
 20
295.9308026511
 30
0.0
  0
VERTEX
  5
812
  8
0
  6
CONTINUOUS
 62
     7
 10
-2496.1597246839
 20
295.3189667367
 30
0.0
  0
VERTEX
  5
813
  8
0
  6
CONTINUOUS
 62
     7
 10
-2495.7237576829
 20
294.7594543319
 30
0.0
  0
VERTEX
  5
814
  8
0
  6
CONTINUOUS
 62
     7
 10
-2494.9826053518
 20
294.3197714015
 30
0.0
  0
VERTEX
  5
815
  8
0
  6
CONTINUOUS
 62
     7
 10
-2494.0256611564
 20
294.0529592155
 30
0.0
  0
VERTEX
  5
816
  8
0
  6
CONTINUOUS
 62
     7
 10
-2492.9683231678
 20
293.9911588368
 30
0.0
  0
VERTEX
  5
817
  8
0
  6
CONTINUOUS
 62
     7
 10
-2491.9381698965
 20
294.1418641697
 30
0.0
  0
VERTEX
  5
818
  8
0
  6
CONTINUOUS
 62
     7
 10
-2491.059408105
 20
294.4868514017
 30
0.0
  0
VERTEX
  5
819
  8
0
  6
CONTINUOUS
 62
     7
 10
-2490.4380371174
 20
294.9845634278
 30
0.0
  0
VERTEX
  5
81A
  8
0
  6
CONTINUOUS
 62
     7
 10
-2490.1490151038
 20
295.5749395256
 30
0.0
  0
SEQEND
  5
81B
  8
0
  6
CONTINUOUS
 62
     7
  0
ARC
  5
41E
  8
0
  6
CONTINUOUS
 62
     7
 10
-2492.9813242676
 20
-33.4305663376
 30
0.0
 40
4.534226142234828
 50
242.6096028593
 51
297.3900629892
  0
ARC
  5
41F
  8
0
  6
CONTINUOUS
 62
     7
 10
-2492.981346544
 20
-33.388535922
 30
0.0
 40
4.995365090095317
 50
242.6099069336
 51
297.3900930664
  0
ARC
  5
420
  8
0
  6
CONTINUOUS
 62
     7
 10
-2492.981346544
 20
-36.1647851756
 30
0.0
 40
4.995365090095115
 50
242.6099069336
 51
297.3900930664
  0
POLYLINE
  5
421
  8
0
  6
CONTINUOUS
 62
     7
 66
     1
 10
0.0
 20
0.0
 30
0.0
  0
VERTEX
  5
81C
  8
0
  6
CONTINUOUS
 62
     7
 10
-2499.1204143512
 20
-32.9057619219
 30
0.0
  0
VERTEX
  5
81D
  8
0
  6
CONTINUOUS
 62
     7
 10
-2499.3232671331
 20
-33.0610171252
 30
0.0
  0
VERTEX
  5
81E
  8
0
  6
CONTINUOUS
 62
     7
 10
-2499.5958729493
 20
-33.3554448348
 30
0.0
  0
VERTEX
  5
81F
  8
0
  6
CONTINUOUS
 62
     7
 10
-2499.7637438469
 20
-33.6749089971
 30
0.0
  0
VERTEX
  5
820
  8
0
  6
CONTINUOUS
 62
     7
 10
-2499.8204102847
 20
-34.0071590251
 30
0.0
  0
VERTEX
  5
821
  8
0
  6
CONTINUOUS
 62
     7
 10
-2499.7637227735
 20
-34.3393968876
 30
0.0
  0
VERTEX
  5
822
  8
0
  6
CONTINUOUS
 62
     7
 10
-2499.5958518758
 20
-34.6588610499
 30
0.0
  0
VERTEX
  5
823
  8
0
  6
CONTINUOUS
 62
     7
 10
-2499.3232460597
 20
-34.9532887595
 30
0.0
  0
VERTEX
  5
824
  8
0
  6
CONTINUOUS
 62
     7
 10
-2498.9563788168
 20
-35.2113540022
 30
0.0
  0
SEQEND
  5
825
  8
0
  6
CONTINUOUS
 62
     7
  0
LINE
  5
422
  8
0
  6
CONTINUOUS
 62
     7
 10
-2464.6144944474
 20
-21.6424239296
 30
0.0
 11
-2463.482956932
 21
-4.3231962708
 31
0.0
  0
ARC
  5
423
  8
0
  6
CONTINUOUS
 62
     7
 10
-2466.117551873
 20
-21.4018559236
 30
0.0
 40
1.522187435934561
 50
294.9089971354
 51
350.9067936005
  0
LINE
  5
424
  8
0
  6
CONTINUOUS
 62
     7
 10
-2490.8953725706
 20
-37.4564839009
 30
0.0
 11
-2465.4764396463
 21
-22.7824462694
 31
0.0
  0
LINE
  5
425
  8
0
  6
CONTINUOUS
 62
     7
 10
-2498.9563788168
 20
-35.2113540022
 30
0.0
 11
-2495.0672994439
 21
-37.4564717355
 31
0.0
  0
LINE
  5
426
  8
0
  6
CONTINUOUS
 62
     7
 10
-2465.2643145578
 20
-23.1498576993
 30
0.0
 11
-2490.6832474821
 21
-37.8238953308
 31
0.0
  0
LINE
  5
427
  8
0
  6
CONTINUOUS
 62
     7
 10
-2495.2794456059
 20
-37.8238953308
 30
0.0
 11
-2499.1685249788
 21
-35.5787775975
 31
0.0
  0
LINE
  5
428
  8
0
  6
CONTINUOUS
 62
     7
 10
-2490.6832474821
 20
-40.6001445844
 30
0.0
 11
-2465.2643145578
 21
-25.9261069528
 31
0.0
  0
LINE
  5
429
  8
0
  6
CONTINUOUS
 62
     7
 10
-2499.1685249788
 20
-38.3550268511
 30
0.0
 11
-2495.2794456059
 21
-40.6001445844
 31
0.0
  0
ARC
  5
42A
  8
0
  6
CONTINUOUS
 62
     7
 10
-2492.9813242676
 20
-36.6967240368
 30
0.0
 40
4.534226142236007
 50
242.6096028594
 51
297.3900629892
  0
LINE
  5
42B
  8
0
  6
CONTINUOUS
 62
     7
 10
-2465.4764396463
 20
-26.0486039686
 30
0.0
 11
-2465.2643145578
 21
-25.9261069528
 31
0.0
  0
LINE
  5
42C
  8
0
  6
CONTINUOUS
 62
     7
 10
-2465.4764396463
 20
-26.0486039686
 30
0.0
 11
-2490.8953725706
 21
-40.7226416001
 31
0.0
  0
LINE
  5
42D
  8
0
  6
CONTINUOUS
 62
     7
 10
-2498.9563788168
 20
-38.4775117014
 30
0.0
 11
-2499.1685249788
 21
-38.3550268511
 31
0.0
  0
LINE
  5
42E
  8
0
  6
CONTINUOUS
 62
     7
 10
-2495.0672994439
 20
-40.7226294347
 30
0.0
 11
-2498.9563788168
 21
-38.4775117014
 31
0.0
  0
ARC
  5
42F
  8
0
  6
CONTINUOUS
 62
     7
 10
-2498.6649832892
 20
-34.2521132479
 30
0.0
 40
1.419011109774403
 50
110.7844932454
 51
249.2155067546
  0
LINE
  5
430
  8
0
  6
CONTINUOUS
 62
     7
 10
-2499.1204354246
 20
-32.8976783648
 30
0.0
 11
-2499.1685249788
 21
-32.9254488983
 31
0.0
  0
ARC
  5
431
  8
0
  6
CONTINUOUS
 62
     7
 10
-2498.4938779034
 20
-36.8661418393
 30
0.0
 40
1.63460308777118
 50
185.6955013988
 51
245.6236573539
  0
ARC
  5
432
  8
0
  6
CONTINUOUS
 62
     7
 10
-2465.9706012381
 20
-21.6288984937
 30
0.0
 40
1.67694894962701
 50
294.908705998
 51
350.9072840606
  0
ARC
  5
433
  8
0
  6
CONTINUOUS
 62
     7
 10
-2465.9706012381
 20
-24.4051477473
 30
0.0
 40
1.676948949626755
 50
294.908705998
 51
350.9072840606
  0
LINE
  5
434
  8
0
  6
CONTINUOUS
 62
     7
 10
-2463.1543484909
 20
-4.1334858026
 30
0.0
 11
-2464.3147249874
 21
-21.8939109877
 31
0.0
  0
LINE
  5
435
  8
0
  6
CONTINUOUS
 62
     7
 10
-2464.3147249874
 20
-24.6701602413
 30
0.0
 11
-2462.9658361742
 21
-4.0246853505
 31
0.0
  0
POLYLINE
  5
436
  8
0
  6
CONTINUOUS
 62
     7
 66
     1
 10
0.0
 20
0.0
 30
0.0
  0
VERTEX
  5
826
  8
0
  6
CONTINUOUS
 62
     7
 10
-2943.1834877721
 20
223.4463937549
 30
0.0
  0
VERTEX
  5
827
  8
0
  6
CONTINUOUS
 62
     7
 10
-2943.3863194805
 20
223.2911263861
 30
0.0
  0
VERTEX
  5
828
  8
0
  6
CONTINUOUS
 62
     7
 10
-2943.6589252967
 20
222.9966986765
 30
0.0
  0
VERTEX
  5
829
  8
0
  6
CONTINUOUS
 62
     7
 10
-2943.8267961943
 20
222.6772345143
 30
0.0
  0
VERTEX
  5
82A
  8
0
  6
CONTINUOUS
 62
     7
 10
-2943.8834837056
 20
222.3449966517
 30
0.0
  0
VERTEX
  5
82B
  8
0
  6
CONTINUOUS
 62
     7
 10
-2943.8267961943
 20
222.0127587892
 30
0.0
  0
VERTEX
  5
82C
  8
0
  6
CONTINUOUS
 62
     7
 10
-2943.6589042233
 20
221.6932824615
 30
0.0
  0
VERTEX
  5
82D
  8
0
  6
CONTINUOUS
 62
     7
 10
-2943.3862984071
 20
221.3988547519
 30
0.0
  0
VERTEX
  5
82E
  8
0
  6
CONTINUOUS
 62
     7
 10
-2943.0194311642
 20
221.1407895092
 30
0.0
  0
SEQEND
  5
82F
  8
0
  6
CONTINUOUS
 62
     7
  0
LINE
  5
437
  8
0
  6
CONTINUOUS
 62
     7
 10
-2929.2106484524
 20
221.4406916618
 30
0.0
 11
-2924.7760834926
 21
221.5372608362
 31
0.0
  0
ARC
  5
438
  8
0
  6
CONTINUOUS
 62
     7
 10
-2929.1994656842
 20
216.3812605944
 30
0.0
 40
5.059443425866099
 50
90.1266396096
 51
118.1584762493
  0
LINE
  5
439
  8
0
  6
CONTINUOUS
 62
     7
 10
-2934.958424918
 20
218.8956596104
 30
0.0
 11
-2931.5870774322
 21
220.8418970872
 31
0.0
  0
ARC
  5
43A
  8
0
  6
CONTINUOUS
 62
     7
 10
-2937.0443766149
 20
222.9216146618
 30
0.0
 40
4.534259427613869
 50
242.6098207867
 51
297.3898450618
  0
LINE
  5
43B
  8
0
  6
CONTINUOUS
 62
     7
 10
-2943.0194311642
 20
221.1407895092
 30
0.0
 11
-2939.1303517913
 21
218.8956717759
 31
0.0
  0
LINE
  5
43C
  8
0
  6
CONTINUOUS
 62
     7
 10
-2924.7760834926
 20
221.1189979136
 30
0.0
 11
-2929.1993320235
 21
221.0226842132
 31
0.0
  0
LINE
  5
43D
  8
0
  6
CONTINUOUS
 62
     7
 10
-2929.1993320235
 20
218.2464349597
 30
0.0
 11
-2924.6200137126
 21
218.3461306493
 31
0.0
  0
LINE
  5
43E
  8
0
  6
CONTINUOUS
 62
     7
 10
-2924.5939037399
 20
218.2750569014
 30
0.0
 11
-2929.2106484524
 21
218.1745339626
 31
0.0
  0
ARC
  5
43F
  8
0
  6
CONTINUOUS
 62
     7
 10
-2937.0443988914
 20
222.963671403
 30
0.0
 40
4.995421750004792
 50
242.610243651
 51
297.389756349
  0
ARC
  5
440
  8
0
  6
CONTINUOUS
 62
     7
 10
-2937.0443988914
 20
220.1874221494
 30
0.0
 40
4.995421750004792
 50
242.610243651
 51
297.389756349
  0
LINE
  5
441
  8
0
  6
CONTINUOUS
 62
     7
 10
-2931.3749523437
 20
220.4744856573
 30
0.0
 11
-2934.7462998295
 21
218.5282481806
 31
0.0
  0
LINE
  5
442
  8
0
  6
CONTINUOUS
 62
     7
 10
-2939.3424979533
 20
218.5282481806
 30
0.0
 11
-2943.2315773262
 21
220.7733659139
 31
0.0
  0
LINE
  5
443
  8
0
  6
CONTINUOUS
 62
     7
 10
-2934.7462998295
 20
215.751998927
 30
0.0
 11
-2931.3749523437
 21
217.6982364037
 31
0.0
  0
LINE
  5
444
  8
0
  6
CONTINUOUS
 62
     7
 10
-2943.2315773262
 20
217.9971166603
 30
0.0
 11
-2939.3424979533
 21
215.751998927
 31
0.0
  0
ARC
  5
445
  8
0
  6
CONTINUOUS
 62
     7
 10
-2937.0443766149
 20
219.6554569625
 30
0.0
 40
4.534259427613895
 50
242.6098207867
 51
297.3898450618
  0
LINE
  5
446
  8
0
  6
CONTINUOUS
 62
     7
 10
-2943.0194311642
 20
217.87463181
 30
0.0
 11
-2943.2315773262
 21
217.9971166603
 31
0.0
  0
LINE
  5
447
  8
0
  6
CONTINUOUS
 62
     7
 10
-2939.1303517913
 20
215.6295140767
 30
0.0
 11
-2943.0194311642
 21
217.87463181
 31
0.0
  0
LINE
  5
448
  8
0
  6
CONTINUOUS
 62
     7
 10
-2931.5870774322
 20
217.575739388
 30
0.0
 11
-2934.958424918
 21
215.6295019112
 31
0.0
  0
ARC
  5
449
  8
0
  6
CONTINUOUS
 62
     7
 10
-2929.1890032882
 20
216.390431727
 30
0.0
 40
4.632264001395519
 50
90.1277546866
 51
118.1574714383
  0
ARC
  5
44A
  8
0
  6
CONTINUOUS
 62
     7
 10
-2929.1890032882
 20
213.6141824735
 30
0.0
 40
4.632264001395544
 50
90.1277546866
 51
118.1574714383
  0
ARC
  5
44B
  8
0
  6
CONTINUOUS
 62
     7
 10
-2942.7280541579
 20
222.1000302635
 30
0.0
 40
1.419004537535232
 50
110.7837940722
 51
249.2162059278
  0
LINE
  5
44C
  8
0
  6
CONTINUOUS
 62
     7
 10
-2943.1834877721
 20
223.4544651466
 30
0.0
 11
-2943.2315773262
 21
223.4266946131
 31
0.0
  0
ARC
  5
44D
  8
0
  6
CONTINUOUS
 62
     7
 10
-2942.5568854562
 20
219.486058162
 30
0.0
 40
1.634673029978499
 50
185.6968181971
 51
245.6230444492
  0
ARC
  5
44E
  8
0
  6
CONTINUOUS
 62
     7
 10
-2929.1994656842
 20
213.1151028952
 30
0.0
 40
5.059443425866074
 50
90.1266396096
 51
118.1584762493
  0
ARC
  5
44F
  8
0
  6
CONTINUOUS
 62
     7
 10
-2492.9813242676
 20
296.4519209829
 30
0.0
 40
4.534226142236021
 50
242.6096028594
 51
297.3900629892
  0
ARC
  5
450
  8
0
  6
CONTINUOUS
 62
     7
 10
-2492.981346544
 20
296.4939513985
 30
0.0
 40
4.995365090095236
 50
242.6099069336
 51
297.3900930664
  0
ARC
  5
451
  8
0
  6
CONTINUOUS
 62
     7
 10
-2492.981346544
 20
293.7177021449
 30
0.0
 40
4.995365090095026
 50
242.6099069336
 51
297.3900930664
  0
POLYLINE
  5
452
  8
0
  6
CONTINUOUS
 62
     7
 66
     1
 10
0.0
 20
0.0
 30
0.0
  0
VERTEX
  5
830
  8
0
  6
CONTINUOUS
 62
     7
 10
-2467.3840586935
 20
335.1445601967
 30
0.0
  0
VERTEX
  5
831
  8
0
  6
CONTINUOUS
 62
     7
 10
-2466.7466192199
 20
334.619019752
 30
0.0
  0
VERTEX
  5
832
  8
0
  6
CONTINUOUS
 62
     7
 10
-2466.4589985889
 20
333.9993188879
 30
0.0
  0
VERTEX
  5
833
  8
0
  6
CONTINUOUS
 62
     7
 10
-2466.5558520468
 20
333.3601959166
 30
0.0
  0
VERTEX
  5
834
  8
0
  6
CONTINUOUS
 62
     7
 10
-2467.0255154532
 20
332.7787249127
 30
0.0
  0
VERTEX
  5
835
  8
0
  6
CONTINUOUS
 62
     7
 10
-2467.8113539804
 20
332.3250699872
 30
0.0
  0
VERTEX
  5
836
  8
0
  6
CONTINUOUS
 62
     7
 10
-2468.8186004395
 20
332.0539390739
 30
0.0
  0
VERTEX
  5
837
  8
0
  6
CONTINUOUS
 62
     7
 10
-2469.9257138562
 20
331.9980267628
 30
0.0
  0
VERTEX
  5
838
  8
0
  6
CONTINUOUS
 62
     7
 10
-2470.9991835511
 20
332.1640666188
 30
0.0
  0
VERTEX
  5
839
  8
0
  6
CONTINUOUS
 62
     7
 10
-2471.9095449422
 20
332.5320525941
 30
0.0
  0
VERTEX
  5
83A
  8
0
  6
CONTINUOUS
 62
     7
 10
-2472.5469844158
 20
333.0575930388
 30
0.0
  0
VERTEX
  5
83B
  8
0
  6
CONTINUOUS
 62
     7
 10
-2472.8346261202
 20
333.6773060683
 30
0.0
  0
VERTEX
  5
83C
  8
0
  6
CONTINUOUS
 62
     7
 10
-2472.7377726623
 20
334.3164290397
 30
0.0
  0
VERTEX
  5
83D
  8
0
  6
CONTINUOUS
 62
     7
 10
-2472.2680881825
 20
334.8978878781
 30
0.0
  0
VERTEX
  5
83E
  8
0
  6
CONTINUOUS
 62
     7
 10
-2471.4822496553
 20
335.3515428036
 30
0.0
  0
VERTEX
  5
83F
  8
0
  6
CONTINUOUS
 62
     7
 10
-2470.4750242696
 20
335.6226858823
 30
0.0
  0
VERTEX
  5
840
  8
0
  6
CONTINUOUS
 62
     7
 10
-2469.3679108529
 20
335.6785981934
 30
0.0
  0
VERTEX
  5
841
  8
0
  6
CONTINUOUS
 62
     7
 10
-2468.2944200846
 20
335.512546172
 30
0.0
  0
VERTEX
  5
842
  8
0
  6
CONTINUOUS
 62
     7
 10
-2467.3840586935
 20
335.1445601967
 30
0.0
  0
SEQEND
  5
843
  8
0
  6
CONTINUOUS
 62
     7
  0
POLYLINE
  5
453
  8
0
  6
CONTINUOUS
 62
     7
 66
     1
 10
0.0
 20
0.0
 30
0.0
  0
VERTEX
  5
844
  8
0
  6
CONTINUOUS
 62
     7
 10
-2485.0617219011
 20
324.9394624485
 30
0.0
  0
VERTEX
  5
845
  8
0
  6
CONTINUOUS
 62
     7
 10
-2484.4242929642
 20
324.4139159212
 30
0.0
  0
VERTEX
  5
846
  8
0
  6
CONTINUOUS
 62
     7
 10
-2484.1366617966
 20
323.7942211398
 30
0.0
  0
VERTEX
  5
847
  8
0
  6
CONTINUOUS
 62
     7
 10
-2484.2335152544
 20
323.1550981684
 30
0.0
  0
VERTEX
  5
848
  8
0
  6
CONTINUOUS
 62
     7
 10
-2484.7031786608
 20
322.5736271645
 30
0.0
  0
VERTEX
  5
849
  8
0
  6
CONTINUOUS
 62
     7
 10
-2485.4890277247
 20
322.1199661564
 30
0.0
  0
VERTEX
  5
84A
  8
0
  6
CONTINUOUS
 62
     7
 10
-2486.4962741839
 20
321.848835243
 30
0.0
  0
VERTEX
  5
84B
  8
0
  6
CONTINUOUS
 62
     7
 10
-2487.6033876006
 20
321.7929229319
 30
0.0
  0
VERTEX
  5
84C
  8
0
  6
CONTINUOUS
 62
     7
 10
-2488.6768467587
 20
321.9589688706
 30
0.0
  0
VERTEX
  5
84D
  8
0
  6
CONTINUOUS
 62
     7
 10
-2489.5872186865
 20
322.3269487632
 30
0.0
  0
VERTEX
  5
84E
  8
0
  6
CONTINUOUS
 62
     7
 10
-2490.2246476234
 20
322.8524952906
 30
0.0
  0
VERTEX
  5
84F
  8
0
  6
CONTINUOUS
 62
     7
 10
-2490.5122998645
 20
323.4722022374
 30
0.0
  0
VERTEX
  5
850
  8
0
  6
CONTINUOUS
 62
     7
 10
-2490.4154464066
 20
324.1113252088
 30
0.0
  0
VERTEX
  5
851
  8
0
  6
CONTINUOUS
 62
     7
 10
-2489.9457619268
 20
324.6927840473
 30
0.0
  0
VERTEX
  5
852
  8
0
  6
CONTINUOUS
 62
     7
 10
-2489.1599128629
 20
325.1464450554
 30
0.0
  0
VERTEX
  5
853
  8
0
  6
CONTINUOUS
 62
     7
 10
-2488.1526874772
 20
325.4175881342
 30
0.0
  0
VERTEX
  5
854
  8
0
  6
CONTINUOUS
 62
     7
 10
-2487.0455740605
 20
325.4735004453
 30
0.0
  0
VERTEX
  5
855
  8
0
  6
CONTINUOUS
 62
     7
 10
-2485.9720938289
 20
325.3074423411
 30
0.0
  0
VERTEX
  5
856
  8
0
  6
CONTINUOUS
 62
     7
 10
-2485.0617219011
 20
324.9394624485
 30
0.0
  0
SEQEND
  5
857
  8
0
  6
CONTINUOUS
 62
     7
  0
POLYLINE
  5
454
  8
0
  6
CONTINUOUS
 62
     7
 66
     1
 10
0.0
 20
0.0
 30
0.0
  0
VERTEX
  5
858
  8
0
  6
CONTINUOUS
 62
     7
 10
-2491.6024702481
 20
296.6713244721
 30
0.0
  0
VERTEX
  5
859
  8
0
  6
CONTINUOUS
 62
     7
 10
-2491.1147469171
 20
296.2499383467
 30
0.0
  0
VERTEX
  5
85A
  8
0
  6
CONTINUOUS
 62
     7
 10
-2490.9434831982
 20
295.7528710884
 30
0.0
  0
VERTEX
  5
85B
  8
0
  6
CONTINUOUS
 62
     7
 10
-2491.1147469171
 20
295.25580383
 30
0.0
  0
VERTEX
  5
85C
  8
0
  6
CONTINUOUS
 62
     7
 10
-2491.6024702481
 20
294.8344177046
 30
0.0
  0
VERTEX
  5
85D
  8
0
  6
CONTINUOUS
 62
     7
 10
-2492.3324325909
 20
294.5528488533
 30
0.0
  0
VERTEX
  5
85E
  8
0
  6
CONTINUOUS
 62
     7
 10
-2493.1934716325
 20
294.4539804129
 30
0.0
  0
VERTEX
  5
85F
  8
0
  6
CONTINUOUS
 62
     7
 10
-2494.0545106742
 20
294.5528488533
 30
0.0
  0
VERTEX
  5
860
  8
0
  6
CONTINUOUS
 62
     7
 10
-2494.7844519435
 20
294.8344055392
 30
0.0
  0
VERTEX
  5
861
  8
0
  6
CONTINUOUS
 62
     7
 10
-2495.2721963479
 20
295.25580383
 30
0.0
  0
VERTEX
  5
862
  8
0
  6
CONTINUOUS
 62
     7
 10
-2495.4434600669
 20
295.7528710884
 30
0.0
  0
VERTEX
  5
863
  8
0
  6
CONTINUOUS
 62
     7
 10
-2495.2721963479
 20
296.2499383467
 30
0.0
  0
VERTEX
  5
864
  8
0
  6
CONTINUOUS
 62
     7
 10
-2494.7844519435
 20
296.6713366375
 30
0.0
  0
VERTEX
  5
865
  8
0
  6
CONTINUOUS
 62
     7
 10
-2494.0545106742
 20
296.9528933234
 30
0.0
  0
VERTEX
  5
866
  8
0
  6
CONTINUOUS
 62
     7
 10
-2493.1934716325
 20
297.0517617638
 30
0.0
  0
VERTEX
  5
867
  8
0
  6
CONTINUOUS
 62
     7
 10
-2492.3324325909
 20
296.9528933234
 30
0.0
  0
VERTEX
  5
868
  8
0
  6
CONTINUOUS
 62
     7
 10
-2491.6024702481
 20
296.6713244721
 30
0.0
  0
SEQEND
  5
869
  8
0
  6
CONTINUOUS
 62
     7
  0
POLYLINE
  5
455
  8
0
  6
CONTINUOUS
 62
     7
 66
     1
 10
0.0
 20
0.0
 30
0.0
  0
VERTEX
  5
86A
  8
0
  6
CONTINUOUS
 62
     7
 10
-2469.964994719
 20
309.1623732156
 30
0.0
  0
VERTEX
  5
86B
  8
0
  6
CONTINUOUS
 62
     7
 10
-2469.4772713881
 20
308.7409870902
 30
0.0
  0
VERTEX
  5
86C
  8
0
  6
CONTINUOUS
 62
     7
 10
-2469.3060076691
 20
308.2439198318
 30
0.0
  0
VERTEX
  5
86D
  8
0
  6
CONTINUOUS
 62
     7
 10
-2469.4772713881
 20
307.7468525735
 30
0.0
  0
VERTEX
  5
86E
  8
0
  6
CONTINUOUS
 62
     7
 10
-2469.9650157924
 20
307.3254542827
 30
0.0
  0
VERTEX
  5
86F
  8
0
  6
CONTINUOUS
 62
     7
 10
-2470.6949570618
 20
307.0438975968
 30
0.0
  0
VERTEX
  5
870
  8
0
  6
CONTINUOUS
 62
     7
 10
-2471.5559961035
 20
306.9450291564
 30
0.0
  0
VERTEX
  5
871
  8
0
  6
CONTINUOUS
 62
     7
 10
-2472.4170351451
 20
307.0438975968
 30
0.0
  0
VERTEX
  5
872
  8
0
  6
CONTINUOUS
 62
     7
 10
-2473.1469764145
 20
307.3254542827
 30
0.0
  0
VERTEX
  5
873
  8
0
  6
CONTINUOUS
 62
     7
 10
-2473.6347208189
 20
307.7468525735
 30
0.0
  0
VERTEX
  5
874
  8
0
  6
CONTINUOUS
 62
     7
 10
-2473.8059845378
 20
308.2439198318
 30
0.0
  0
VERTEX
  5
875
  8
0
  6
CONTINUOUS
 62
     7
 10
-2473.6347208189
 20
308.7409870902
 30
0.0
  0
VERTEX
  5
876
  8
0
  6
CONTINUOUS
 62
     7
 10
-2473.1469974879
 20
309.1623732156
 30
0.0
  0
VERTEX
  5
877
  8
0
  6
CONTINUOUS
 62
     7
 10
-2472.4170351451
 20
309.4439420668
 30
0.0
  0
VERTEX
  5
878
  8
0
  6
CONTINUOUS
 62
     7
 10
-2471.5559961035
 20
309.5428105073
 30
0.0
  0
VERTEX
  5
879
  8
0
  6
CONTINUOUS
 62
     7
 10
-2470.6949570618
 20
309.4439420668
 30
0.0
  0
VERTEX
  5
87A
  8
0
  6
CONTINUOUS
 62
     7
 10
-2469.964994719
 20
309.1623732156
 30
0.0
  0
SEQEND
  5
87B
  8
0
  6
CONTINUOUS
 62
     7
  0
ARC
  5
456
  8
0
  6
CONTINUOUS
 62
     7
 10
-2498.4993407344
 20
295.8753383773
 30
0.0
 40
1.288019267292555
 50
110.7845140987
 51
249.216488573
  0
LINE
  5
457
  8
0
  6
CONTINUOUS
 62
     7
 10
-2495.5850524044
 20
299.0257729147
 30
0.0
 11
-2498.9563998902
 21
297.0795354379
 31
0.0
  0
ARC
  5
458
  8
0
  6
CONTINUOUS
 62
     7
 10
-2496.356528371
 20
300.6871374112
 30
0.0
 40
1.831749752941849
 50
294.9084049095
 51
350.9071196397
  0
LINE
  5
459
  8
0
  6
CONTINUOUS
 62
     7
 10
-2492.9809882958
 20
324.3786361774
 30
0.0
 11
-2494.5477973892
 21
300.3976561634
 31
0.0
  0
ARC
  5
45A
  8
0
  6
CONTINUOUS
 62
     7
 10
-2489.5672466496
 20
323.8322327109
 30
0.0
 40
3.45719377170188
 50
114.9095655727
 51
170.9063715227
  0
LINE
  5
45B
  8
0
  6
CONTINUOUS
 62
     7
 10
-2474.3844289602
 20
336.5732742464
 30
0.0
 11
-2491.0233725496
 21
326.9678165702
 31
0.0
  0
POLYLINE
  5
45C
  8
0
  6
CONTINUOUS
 62
     7
 66
     1
 10
0.0
 20
0.0
 30
0.0
  0
VERTEX
  5
87C
  8
0
  6
CONTINUOUS
 62
     7
 10
-2462.951569466
 20
333.6925371853
 30
0.0
  0
VERTEX
  5
87D
  8
0
  6
CONTINUOUS
 62
     7
 10
-2463.0826250914
 20
334.6131316845
 30
0.0
  0
VERTEX
  5
87E
  8
0
  6
CONTINUOUS
 62
     7
 10
-2463.5880606355
 20
335.4895474287
 30
0.0
  0
VERTEX
  5
87F
  8
0
  6
CONTINUOUS
 62
     7
 10
-2464.4390476538
 20
336.2717845053
 30
0.0
  0
VERTEX
  5
880
  8
0
  6
CONTINUOUS
 62
     7
 10
-2465.5870645869
 20
336.9152262039
 30
0.0
  0
VERTEX
  5
881
  8
0
  6
CONTINUOUS
 62
     7
 10
-2466.9666152324
 20
337.383181591
 30
0.0
  0
VERTEX
  5
882
  8
0
  6
CONTINUOUS
 62
     7
 10
-2468.4990219607
 20
337.6489536329
 30
0.0
  0
VERTEX
  5
883
  8
0
  6
CONTINUOUS
 62
     7
 10
-2470.0969248916
 20
337.6974024534
 30
0.0
  0
VERTEX
  5
884
  8
0
  6
CONTINUOUS
 62
     7
 10
-2471.6691077082
 20
337.5257360865
 30
0.0
  0
VERTEX
  5
885
  8
0
  6
CONTINUOUS
 62
     7
 10
-2473.1259872839
 20
337.1437720335
 30
0.0
  0
VERTEX
  5
886
  8
0
  6
CONTINUOUS
 62
     7
 10
-2474.3844289602
 20
336.5732742464
 30
0.0
  0
SEQEND
  5
887
  8
0
  6
CONTINUOUS
 62
     7
  0
LINE
  5
45D
  8
0
  6
CONTINUOUS
 62
     7
 10
-2464.6144944474
 20
308.2400633909
 30
0.0
 11
-2462.951569466
 21
333.6925371853
 31
0.0
  0
ARC
  5
45E
  8
0
  6
CONTINUOUS
 62
     7
 10
-2466.117551873
 20
308.4806313969
 30
0.0
 40
1.522187435935037
 50
294.9089971355
 51
350.9067936005
  0
LINE
  5
45F
  8
0
  6
CONTINUOUS
 62
     7
 10
-2490.8953725706
 20
292.4260034195
 30
0.0
 11
-2465.4764396463
 21
307.1000410511
 31
0.0
  0
LINE
  5
460
  8
0
  6
CONTINUOUS
 62
     7
 10
-2498.9563788168
 20
294.6711333183
 30
0.0
 11
-2495.0672994439
 21
292.426015585
 31
0.0
  0
LINE
  5
461
  8
0
  6
CONTINUOUS
 62
     7
 10
-2465.2643145578
 20
306.7326296212
 30
0.0
 11
-2490.6832474821
 21
292.0585919897
 31
0.0
  0
LINE
  5
462
  8
0
  6
CONTINUOUS
 62
     7
 10
-2495.2794456059
 20
292.0585919897
 30
0.0
 11
-2499.1685249788
 21
294.303709723
 31
0.0
  0
LINE
  5
463
  8
0
  6
CONTINUOUS
 62
     7
 10
-2490.6832474821
 20
289.2823427361
 30
0.0
 11
-2465.2643145578
 21
303.9563803676
 31
0.0
  0
LINE
  5
464
  8
0
  6
CONTINUOUS
 62
     7
 10
-2499.1685249788
 20
291.5274604694
 30
0.0
 11
-2495.2794456059
 21
289.2823427361
 31
0.0
  0
ARC
  5
465
  8
0
  6
CONTINUOUS
 62
     7
 10
-2492.9813242676
 20
293.1857632837
 30
0.0
 40
4.534226142236021
 50
242.6096028594
 51
297.3900629892
  0
LINE
  5
466
  8
0
  6
CONTINUOUS
 62
     7
 10
-2465.4764396463
 20
303.8338833519
 30
0.0
 11
-2465.2643145578
 21
303.9563803676
 31
0.0
  0
LINE
  5
467
  8
0
  6
CONTINUOUS
 62
     7
 10
-2465.4764396463
 20
303.8338833519
 30
0.0
 11
-2490.8953725706
 21
289.1598457203
 31
0.0
  0
LINE
  5
468
  8
0
  6
CONTINUOUS
 62
     7
 10
-2498.9563788168
 20
291.4049756191
 30
0.0
 11
-2499.1685249788
 21
291.5274604694
 31
0.0
  0
LINE
  5
469
  8
0
  6
CONTINUOUS
 62
     7
 10
-2495.0672994439
 20
289.1598578858
 30
0.0
 11
-2498.9563788168
 21
291.4049756191
 31
0.0
  0
ARC
  5
46A
  8
0
  6
CONTINUOUS
 62
     7
 10
-2498.6649832892
 20
295.6303740726
 30
0.0
 40
1.419011109774443
 50
110.7844932454
 51
249.2155067546
  0
LINE
  5
46B
  8
0
  6
CONTINUOUS
 62
     7
 10
-2498.9563998902
 20
297.0795354379
 30
0.0
 11
-2499.1685249788
 21
296.9570384222
 31
0.0
  0
ARC
  5
46C
  8
0
  6
CONTINUOUS
 62
     7
 10
-2498.4938779034
 20
293.0163454812
 30
0.0
 40
1.634603087771128
 50
185.6955013988
 51
245.6236573539
  0
ARC
  5
46D
  8
0
  6
CONTINUOUS
 62
     7
 10
-2496.5035697932
 20
300.4243401787
 30
0.0
 40
1.677088735014303
 50
294.910466821
 51
350.9048338399
  0
LINE
  5
46E
  8
0
  6
CONTINUOUS
 62
     7
 10
-2494.8475668492
 20
300.1592347759
 30
0.0
 11
-2493.2807788292
 21
324.1402026245
 31
0.0
  0
ARC
  5
46F
  8
0
  6
CONTINUOUS
 62
     7
 10
-2465.9706012381
 20
308.2535888267
 30
0.0
 40
1.676948949627013
 50
294.908705998
 51
350.9072840606
  0
ARC
  5
470
  8
0
  6
CONTINUOUS
 62
     7
 10
-2465.9706012381
 20
305.4773395731
 30
0.0
 40
1.676948949626807
 50
294.908705998
 51
350.9072840606
  0
LINE
  5
471
  8
0
  6
CONTINUOUS
 62
     7
 10
-2462.6517894692
 20
333.4410562099
 30
0.0
 11
-2464.3147249874
 21
307.9885763328
 31
0.0
  0
LINE
  5
472
  8
0
  6
CONTINUOUS
 62
     7
 10
-2464.3147249874
 20
305.2123270792
 30
0.0
 11
-2462.6517894692
 21
330.6648069563
 31
0.0
  0
ARC
  5
473
  8
0
  6
CONTINUOUS
 62
     7
 10
-2489.7142357517
 20
323.5693707026
 30
0.0
 40
3.611935576233734
 50
114.9088784479
 51
170.906824837
  0
LINE
  5
474
  8
0
  6
CONTINUOUS
 62
     7
 10
-2491.2354976381
 20
326.8453195544
 30
0.0
 11
-2491.0233725496
 21
326.9678165702
 31
0.0
  0
ARC
  5
475
  8
0
  6
CONTINUOUS
 62
     7
 10
-2466.1937176203
 20
333.2338349306
 30
0.0
 40
3.547984735897423
 50
3.3482853242
 51
65.035173874
  0
LINE
  5
476
  8
0
  6
CONTINUOUS
 62
     7
 10
-2462.6517894692
 20
330.6648069563
 30
0.0
 11
-2462.6468056044
 21
330.8170998776
 31
0.0
  0
POLYLINE
  5
477
  8
0
  6
CONTINUOUS
 62
     7
 66
     1
 10
0.0
 20
0.0
 30
0.0
  0
VERTEX
  5
888
  8
0
  6
CONTINUOUS
 62
     7
 10
-2869.0207235572
 20
567.0044715456
 30
0.0
  0
VERTEX
  5
889
  8
0
  6
CONTINUOUS
 62
     7
 10
-2869.9310849484
 20
567.3724575209
 30
0.0
  0
VERTEX
  5
88A
  8
0
  6
CONTINUOUS
 62
     7
 10
-2871.0045546432
 20
567.5384973769
 30
0.0
  0
VERTEX
  5
88B
  8
0
  6
CONTINUOUS
 62
     7
 10
-2872.1116680599
 20
567.4825850658
 30
0.0
  0
VERTEX
  5
88C
  8
0
  6
CONTINUOUS
 62
     7
 10
-2873.1189145191
 20
567.2114541524
 30
0.0
  0
VERTEX
  5
88D
  8
0
  6
CONTINUOUS
 62
     7
 10
-2873.9047530463
 20
566.757799227
 30
0.0
  0
VERTEX
  5
88E
  8
0
  6
CONTINUOUS
 62
     7
 10
-2874.3744164526
 20
566.1763282231
 30
0.0
  0
VERTEX
  5
88F
  8
0
  6
CONTINUOUS
 62
     7
 10
-2874.4712699105
 20
565.5372052518
 30
0.0
  0
VERTEX
  5
890
  8
0
  6
CONTINUOUS
 62
     7
 10
-2874.1836492796
 20
564.9175043876
 30
0.0
  0
VERTEX
  5
891
  8
0
  6
CONTINUOUS
 62
     7
 10
-2873.546209806
 20
564.391963943
 30
0.0
  0
VERTEX
  5
892
  8
0
  6
CONTINUOUS
 62
     7
 10
-2872.6358484148
 20
564.0239779677
 30
0.0
  0
VERTEX
  5
893
  8
0
  6
CONTINUOUS
 62
     7
 10
-2871.5623576466
 20
563.8579259463
 30
0.0
  0
VERTEX
  5
894
  8
0
  6
CONTINUOUS
 62
     7
 10
-2870.4552442299
 20
563.9138382574
 30
0.0
  0
VERTEX
  5
895
  8
0
  6
CONTINUOUS
 62
     7
 10
-2869.4480188442
 20
564.1849813361
 30
0.0
  0
VERTEX
  5
896
  8
0
  6
CONTINUOUS
 62
     7
 10
-2868.662180317
 20
564.6386362615
 30
0.0
  0
VERTEX
  5
897
  8
0
  6
CONTINUOUS
 62
     7
 10
-2868.1924958372
 20
565.2200951
 30
0.0
  0
VERTEX
  5
898
  8
0
  6
CONTINUOUS
 62
     7
 10
-2868.0956423793
 20
565.8592180714
 30
0.0
  0
VERTEX
  5
899
  8
0
  6
CONTINUOUS
 62
     7
 10
-2868.3832840837
 20
566.4789311009
 30
0.0
  0
VERTEX
  5
89A
  8
0
  6
CONTINUOUS
 62
     7
 10
-2869.0207235572
 20
567.0044715456
 30
0.0
  0
SEQEND
  5
89B
  8
0
  6
CONTINUOUS
 62
     7
  0
POLYLINE
  5
478
  8
0
  6
CONTINUOUS
 62
     7
 66
     1
 10
0.0
 20
0.0
 30
0.0
  0
VERTEX
  5
89C
  8
0
  6
CONTINUOUS
 62
     7
 10
-2886.6983867649
 20
556.7993737974
 30
0.0
  0
VERTEX
  5
89D
  8
0
  6
CONTINUOUS
 62
     7
 10
-2887.6087586927
 20
557.16735369
 30
0.0
  0
VERTEX
  5
89E
  8
0
  6
CONTINUOUS
 62
     7
 10
-2888.6822178509
 20
557.3333996287
 30
0.0
  0
VERTEX
  5
89F
  8
0
  6
CONTINUOUS
 62
     7
 10
-2889.7893312676
 20
557.2774873176
 30
0.0
  0
VERTEX
  5
8A0
  8
0
  6
CONTINUOUS
 62
     7
 10
-2890.7965777267
 20
557.0063564043
 30
0.0
  0
VERTEX
  5
8A1
  8
0
  6
CONTINUOUS
 62
     7
 10
-2891.5824267906
 20
556.5526953961
 30
0.0
  0
VERTEX
  5
8A2
  8
0
  6
CONTINUOUS
 62
     7
 10
-2892.052090197
 20
555.9712243922
 30
0.0
  0
VERTEX
  5
8A3
  8
0
  6
CONTINUOUS
 62
     7
 10
-2892.1489436549
 20
555.3321014209
 30
0.0
  0
VERTEX
  5
8A4
  8
0
  6
CONTINUOUS
 62
     7
 10
-2891.8613124872
 20
554.7124066395
 30
0.0
  0
VERTEX
  5
8A5
  8
0
  6
CONTINUOUS
 62
     7
 10
-2891.2238835503
 20
554.1868601121
 30
0.0
  0
VERTEX
  5
8A6
  8
0
  6
CONTINUOUS
 62
     7
 10
-2890.3135116225
 20
553.8188802195
 30
0.0
  0
VERTEX
  5
8A7
  8
0
  6
CONTINUOUS
 62
     7
 10
-2889.2400313909
 20
553.6528221154
 30
0.0
  0
VERTEX
  5
8A8
  8
0
  6
CONTINUOUS
 62
     7
 10
-2888.1329179742
 20
553.7087344265
 30
0.0
  0
VERTEX
  5
8A9
  8
0
  6
CONTINUOUS
 62
     7
 10
-2887.1256925885
 20
553.9798775052
 30
0.0
  0
VERTEX
  5
8AA
  8
0
  6
CONTINUOUS
 62
     7
 10
-2886.3398435246
 20
554.4335385134
 30
0.0
  0
VERTEX
  5
8AB
  8
0
  6
CONTINUOUS
 62
     7
 10
-2885.8701590448
 20
555.0149973519
 30
0.0
  0
VERTEX
  5
8AC
  8
0
  6
CONTINUOUS
 62
     7
 10
-2885.7733055869
 20
555.6541203232
 30
0.0
  0
VERTEX
  5
8AD
  8
0
  6
CONTINUOUS
 62
     7
 10
-2886.060957828
 20
556.2738272701
 30
0.0
  0
VERTEX
  5
8AE
  8
0
  6
CONTINUOUS
 62
     7
 10
-2886.6983867649
 20
556.7993737974
 30
0.0
  0
SEQEND
  5
8AF
  8
0
  6
CONTINUOUS
 62
     7
  0
POLYLINE
  5
479
  8
0
  6
CONTINUOUS
 62
     7
 66
     1
 10
0.0
 20
0.0
 30
0.0
  0
VERTEX
  5
8B0
  8
0
  6
CONTINUOUS
 62
     7
 10
-2935.6655436689
 20
553.0234801489
 30
0.0
  0
VERTEX
  5
8B1
  8
0
  6
CONTINUOUS
 62
     7
 10
-2936.3954849383
 20
553.3050368347
 30
0.0
  0
VERTEX
  5
8B2
  8
0
  6
CONTINUOUS
 62
     7
 10
-2937.2565239799
 20
553.4039052752
 30
0.0
  0
VERTEX
  5
8B3
  8
0
  6
CONTINUOUS
 62
     7
 10
-2938.1175630216
 20
553.3050368347
 30
0.0
  0
VERTEX
  5
8B4
  8
0
  6
CONTINUOUS
 62
     7
 10
-2938.847504291
 20
553.0234801489
 30
0.0
  0
VERTEX
  5
8B5
  8
0
  6
CONTINUOUS
 62
     7
 10
-2939.3352486954
 20
552.6020818581
 30
0.0
  0
VERTEX
  5
8B6
  8
0
  6
CONTINUOUS
 62
     7
 10
-2939.5065124143
 20
552.1050145997
 30
0.0
  0
VERTEX
  5
8B7
  8
0
  6
CONTINUOUS
 62
     7
 10
-2939.3352486954
 20
551.6079473413
 30
0.0
  0
VERTEX
  5
8B8
  8
0
  6
CONTINUOUS
 62
     7
 10
-2938.8475253644
 20
551.186561216
 30
0.0
  0
VERTEX
  5
8B9
  8
0
  6
CONTINUOUS
 62
     7
 10
-2938.1175630216
 20
550.9049923647
 30
0.0
  0
VERTEX
  5
8BA
  8
0
  6
CONTINUOUS
 62
     7
 10
-2937.2565239799
 20
550.8061239242
 30
0.0
  0
VERTEX
  5
8BB
  8
0
  6
CONTINUOUS
 62
     7
 10
-2936.3954849383
 20
550.9049923647
 30
0.0
  0
VERTEX
  5
8BC
  8
0
  6
CONTINUOUS
 62
     7
 10
-2935.6655225955
 20
551.186561216
 30
0.0
  0
VERTEX
  5
8BD
  8
0
  6
CONTINUOUS
 62
     7
 10
-2935.1777992645
 20
551.6079473413
 30
0.0
  0
VERTEX
  5
8BE
  8
0
  6
CONTINUOUS
 62
     7
 10
-2935.0065355456
 20
552.1050145997
 30
0.0
  0
VERTEX
  5
8BF
  8
0
  6
CONTINUOUS
 62
     7
 10
-2935.1777992645
 20
552.6020818581
 30
0.0
  0
VERTEX
  5
8C0
  8
0
  6
CONTINUOUS
 62
     7
 10
-2935.6655436689
 20
553.0234801489
 30
0.0
  0
SEQEND
  5
8C1
  8
0
  6
CONTINUOUS
 62
     7
  0
POLYLINE
  5
47A
  8
0
  6
CONTINUOUS
 62
     7
 66
     1
 10
0.0
 20
0.0
 30
0.0
  0
VERTEX
  5
8C2
  8
0
  6
CONTINUOUS
 62
     7
 10
-2914.0280681399
 20
565.5145288923
 30
0.0
  0
VERTEX
  5
8C3
  8
0
  6
CONTINUOUS
 62
     7
 10
-2914.7580094092
 20
565.7960855782
 30
0.0
  0
VERTEX
  5
8C4
  8
0
  6
CONTINUOUS
 62
     7
 10
-2915.6190484509
 20
565.8949540187
 30
0.0
  0
VERTEX
  5
8C5
  8
0
  6
CONTINUOUS
 62
     7
 10
-2916.4800874925
 20
565.7960855782
 30
0.0
  0
VERTEX
  5
8C6
  8
0
  6
CONTINUOUS
 62
     7
 10
-2917.2100498353
 20
565.5145167269
 30
0.0
  0
VERTEX
  5
8C7
  8
0
  6
CONTINUOUS
 62
     7
 10
-2917.6977731663
 20
565.0931306016
 30
0.0
  0
VERTEX
  5
8C8
  8
0
  6
CONTINUOUS
 62
     7
 10
-2917.8690368852
 20
564.5960633432
 30
0.0
  0
VERTEX
  5
8C9
  8
0
  6
CONTINUOUS
 62
     7
 10
-2917.6977731663
 20
564.0989960848
 30
0.0
  0
VERTEX
  5
8CA
  8
0
  6
CONTINUOUS
 62
     7
 10
-2917.2100498353
 20
563.6776099595
 30
0.0
  0
VERTEX
  5
8CB
  8
0
  6
CONTINUOUS
 62
     7
 10
-2916.4800874925
 20
563.3960411082
 30
0.0
  0
VERTEX
  5
8CC
  8
0
  6
CONTINUOUS
 62
     7
 10
-2915.6190484509
 20
563.2971726677
 30
0.0
  0
VERTEX
  5
8CD
  8
0
  6
CONTINUOUS
 62
     7
 10
-2914.7580094092
 20
563.3960411082
 30
0.0
  0
VERTEX
  5
8CE
  8
0
  6
CONTINUOUS
 62
     7
 10
-2914.0280681399
 20
563.6775977941
 30
0.0
  0
VERTEX
  5
8CF
  8
0
  6
CONTINUOUS
 62
     7
 10
-2913.5403237355
 20
564.0989960848
 30
0.0
  0
VERTEX
  5
8D0
  8
0
  6
CONTINUOUS
 62
     7
 10
-2913.3690600165
 20
564.5960633432
 30
0.0
  0
VERTEX
  5
8D1
  8
0
  6
CONTINUOUS
 62
     7
 10
-2913.5403237355
 20
565.0931306016
 30
0.0
  0
VERTEX
  5
8D2
  8
0
  6
CONTINUOUS
 62
     7
 10
-2914.0280681399
 20
565.5145288923
 30
0.0
  0
SEQEND
  5
8D3
  8
0
  6
CONTINUOUS
 62
     7
  0
ARC
  5
47B
  8
0
  6
CONTINUOUS
 62
     7
 10
-2942.5624034162
 20
552.2274818885
 30
0.0
 40
1.288015600209206
 50
110.7840843019
 51
249.2169183698
  0
LINE
  5
47C
  8
0
  6
CONTINUOUS
 62
     7
 10
-2917.6005193133
 20
568.1057165808
 30
0.0
 11
-2943.0194522377
 21
553.4316789493
 31
0.0
  0
ARC
  5
47D
  8
0
  6
CONTINUOUS
 62
     7
 10
-2915.6164235052
 20
564.3988990661
 30
0.0
 40
4.20441818373076
 50
90.1268071621
 51
118.1581775991
  0
LINE
  5
47E
  8
0
  6
CONTINUOUS
 62
     7
 10
-2871.5359737194
 20
569.5632931106
 30
0.0
 11
-2915.6257287264
 21
568.6033069527
 31
0.0
  0
POLYLINE
  5
47F
  8
0
  6
CONTINUOUS
 62
     7
 66
     1
 10
0.0
 20
0.0
 30
0.0
  0
VERTEX
  5
8D4
  8
0
  6
CONTINUOUS
 62
     7
 10
-2866.545850076
 20
562.9632438106
 30
0.0
  0
VERTEX
  5
8D5
  8
0
  6
CONTINUOUS
 62
     7
 10
-2865.5576118455
 20
563.6897267266
 30
0.0
  0
VERTEX
  5
8D6
  8
0
  6
CONTINUOUS
 62
     7
 10
-2864.8959590075
 20
564.5307654037
 30
0.0
  0
VERTEX
  5
8D7
  8
0
  6
CONTINUOUS
 62
     7
 10
-2864.5985919178
 20
565.4383672249
 30
0.0
  0
VERTEX
  5
8D8
  8
0
  6
CONTINUOUS
 62
     7
 10
-2864.6825168299
 20
566.360816952
 30
0.0
  0
VERTEX
  5
8D9
  8
0
  6
CONTINUOUS
 62
     7
 10
-2865.1428973929
 20
567.2454565261
 30
0.0
  0
VERTEX
  5
8DA
  8
0
  6
CONTINUOUS
 62
     7
 10
-2865.9535077303
 20
568.041854162
 30
0.0
  0
VERTEX
  5
8DB
  8
0
  6
CONTINUOUS
 62
     7
 10
-2867.0681022126
 20
568.7045902307
 30
0.0
  0
VERTEX
  5
8DC
  8
0
  6
CONTINUOUS
 62
     7
 10
-2868.4231233922
 20
569.1958545795
 30
0.0
  0
VERTEX
  5
8DD
  8
0
  6
CONTINUOUS
 62
     7
 10
-2869.9412844857
 20
569.4876363084
 30
0.0
  0
VERTEX
  5
8DE
  8
0
  6
CONTINUOUS
 62
     7
 10
-2871.5359737194
 20
569.5632931106
 30
0.0
  0
SEQEND
  5
8DF
  8
0
  6
CONTINUOUS
 62
     7
  0
LINE
  5
480
  8
0
  6
CONTINUOUS
 62
     7
 10
-2883.1847936653
 20
553.3577861343
 30
0.0
 11
-2866.545850076
 21
562.9632438106
 31
0.0
  0
ARC
  5
481
  8
0
  6
CONTINUOUS
 62
     7
 10
-2887.6910528663
 20
561.7767994085
 30
0.0
 40
9.549144280898599
 50
270.1270895905
 51
298.1578230885
  0
LINE
  5
482
  8
0
  6
CONTINUOUS
 62
     7
 10
-2929.2106484524
 20
551.3231789823
 30
0.0
 11
-2887.6698716231
 21
552.2276786191
 31
0.0
  0
ARC
  5
483
  8
0
  6
CONTINUOUS
 62
     7
 10
-2929.1994656842
 20
546.2637479149
 30
0.0
 40
5.05944342586447
 50
90.1266396096
 51
118.1584762493
  0
LINE
  5
484
  8
0
  6
CONTINUOUS
 62
     7
 10
-2934.958424918
 20
548.7781469309
 30
0.0
 11
-2931.5870774322
 21
550.7243844076
 31
0.0
  0
ARC
  5
485
  8
0
  6
CONTINUOUS
 62
     7
 10
-2937.0443766149
 20
552.8041019822
 30
0.0
 40
4.534259427615081
 50
242.6098207867
 51
297.3898450618
  0
LINE
  5
486
  8
0
  6
CONTINUOUS
 62
     7
 10
-2943.0194311642
 20
551.0232768296
 30
0.0
 11
-2939.1303517913
 21
548.7781590963
 31
0.0
  0
LINE
  5
487
  8
0
  6
CONTINUOUS
 62
     7
 10
-2887.6585762677
 20
551.8096590051
 30
0.0
 11
-2929.1993320235
 21
550.9051715337
 31
0.0
  0
LINE
  5
488
  8
0
  6
CONTINUOUS
 62
     7
 10
-2929.1993320235
 20
548.1289222801
 30
0.0
 11
-2887.6585762677
 21
549.0334097515
 31
0.0
  0
LINE
  5
489
  8
0
  6
CONTINUOUS
 62
     7
 10
-2887.6698716231
 20
548.9615209198
 30
0.0
 11
-2929.2106484524
 21
548.0570212831
 31
0.0
  0
ARC
  5
48A
  8
0
  6
CONTINUOUS
 62
     7
 10
-2937.0443988914
 20
552.8461587235
 30
0.0
 40
4.995421750005582
 50
242.610243651
 51
297.3897563489
  0
ARC
  5
48B
  8
0
  6
CONTINUOUS
 62
     7
 10
-2937.0443988914
 20
550.0699094699
 30
0.0
 40
4.995421750004767
 50
242.610243651
 51
297.389756349
  0
LINE
  5
48C
  8
0
  6
CONTINUOUS
 62
     7
 10
-2939.3424979533
 20
548.410735501
 30
0.0
 11
-2943.2315773262
 21
550.6558532344
 31
0.0
  0
LINE
  5
48D
  8
0
  6
CONTINUOUS
 62
     7
 10
-2931.3749523437
 20
550.3569729778
 30
0.0
 11
-2934.7462998295
 21
548.410735501
 31
0.0
  0
LINE
  5
48E
  8
0
  6
CONTINUOUS
 62
     7
 10
-2934.7462998295
 20
545.6344862475
 30
0.0
 11
-2931.3749523437
 21
547.5807237242
 31
0.0
  0
LINE
  5
48F
  8
0
  6
CONTINUOUS
 62
     7
 10
-2943.2315773262
 20
547.8796039808
 30
0.0
 11
-2939.3424979533
 21
545.6344862475
 31
0.0
  0
ARC
  5
490
  8
0
  6
CONTINUOUS
 62
     7
 10
-2937.0443766149
 20
549.537944283
 30
0.0
 40
4.534259427615182
 50
242.6098207867
 51
297.3898450618
  0
LINE
  5
491
  8
0
  6
CONTINUOUS
 62
     7
 10
-2931.5870774322
 20
547.4582267084
 30
0.0
 11
-2934.958424918
 21
545.5119892317
 31
0.0
  0
LINE
  5
492
  8
0
  6
CONTINUOUS
 62
     7
 10
-2943.0194311642
 20
547.7571191304
 30
0.0
 11
-2943.2315773262
 21
547.8796039808
 31
0.0
  0
LINE
  5
493
  8
0
  6
CONTINUOUS
 62
     7
 10
-2939.1303517913
 20
545.5120013971
 30
0.0
 11
-2943.0194311642
 21
547.7571191304
 31
0.0
  0
ARC
  5
494
  8
0
  6
CONTINUOUS
 62
     7
 10
-2929.1890032882
 20
546.2729190475
 30
0.0
 40
4.632264001397411
 50
90.1277546866
 51
118.1574714382
  0
ARC
  5
495
  8
0
  6
CONTINUOUS
 62
     7
 10
-2929.1890032882
 20
543.4966697939
 30
0.0
 40
4.632264001395544
 50
90.1277546866
 51
118.1574714383
  0
ARC
  5
496
  8
0
  6
CONTINUOUS
 62
     7
 10
-2942.7280541579
 20
551.982517584
 30
0.0
 40
1.419004537535258
 50
110.7837940722
 51
249.2162059278
  0
LINE
  5
497
  8
0
  6
CONTINUOUS
 62
     7
 10
-2943.0194522377
 20
553.4316789493
 30
0.0
 11
-2943.2315773262
 21
553.3091819335
 31
0.0
  0
ARC
  5
498
  8
0
  6
CONTINUOUS
 62
     7
 10
-2942.5568854562
 20
549.3685454825
 30
0.0
 40
1.634673029978078
 50
185.6968181971
 51
245.6230444492
  0
ARC
  5
499
  8
0
  6
CONTINUOUS
 62
     7
 10
-2887.6806562618
 20
561.7861292471
 30
0.0
 40
9.97649467582183
 50
270.1268072152
 51
298.1582206159
  0
ARC
  5
49A
  8
0
  6
CONTINUOUS
 62
     7
 10
-2887.6806562618
 20
559.0098799935
 30
0.0
 40
9.976494675816575
 50
270.1268072152
 51
298.1582206159
  0
ARC
  5
49B
  8
0
  6
CONTINUOUS
 62
     7
 10
-2929.1994656842
 20
542.9975902157
 30
0.0
 40
5.059443425866074
 50
90.1266396096
 51
118.1584762493
  0
ARC
  5
49C
  8
0
  6
CONTINUOUS
 62
     7
 10
-2887.6910528663
 20
558.5106417093
 30
0.0
 40
9.549144280894366
 50
270.1270895905
 51
298.1578230885
  0
LINE
  5
49D
  8
0
  6
CONTINUOUS
 62
     7
 10
-2866.3337249874
 20
562.5958323807
 30
0.0
 11
-2882.9726685768
 21
552.9903747045
 31
0.0
  0
LINE
  5
49E
  8
0
  6
CONTINUOUS
 62
     7
 10
-2882.9726685768
 20
550.2141254509
 30
0.0
 11
-2866.3337249874
 21
559.8195831271
 31
0.0
  0
LINE
  5
49F
  8
0
  6
CONTINUOUS
 62
     7
 10
-2866.3337249874
 20
559.8195831271
 30
0.0
 11
-2866.545850076
 21
559.6970861114
 31
0.0
  0
LINE
  5
4A0
  8
0
  6
CONTINUOUS
 62
     7
 10
-2866.545850076
 20
559.6970861114
 30
0.0
 11
-2883.1847936653
 21
550.0916284351
 31
0.0
  0
POLYLINE
  5
4A1
  8
0
  6
CONTINUOUS
 62
     7
 66
     1
 10
0.0
 20
0.0
 30
0.0
  0
VERTEX
  5
8E0
  8
0
  6
CONTINUOUS
 62
     7
 10
-2866.3329136606
 20
568.3102323759
 30
0.0
  0
VERTEX
  5
8E1
  8
0
  6
CONTINUOUS
 62
     7
 10
-2865.7148617373
 20
567.9018450113
 30
0.0
  0
VERTEX
  5
8E2
  8
0
  6
CONTINUOUS
 62
     7
 10
-2864.8679524266
 20
567.0697844208
 30
0.0
  0
VERTEX
  5
8E3
  8
0
  6
CONTINUOUS
 62
     7
 10
-2864.3869409813
 20
566.1455220448
 30
0.0
  0
VERTEX
  5
8E4
  8
0
  6
CONTINUOUS
 62
     7
 10
-2864.2992649997
 20
565.1817828521
 30
0.0
  0
VERTEX
  5
8E5
  8
0
  6
CONTINUOUS
 62
     7
 10
-2864.6099399567
 20
564.2335302503
 30
0.0
  0
VERTEX
  5
8E6
  8
0
  6
CONTINUOUS
 62
     7
 10
-2865.3012431027
 20
563.3548395709
 30
0.0
  0
VERTEX
  5
8E7
  8
0
  6
CONTINUOUS
 62
     7
 10
-2866.3337249874
 20
562.5958323807
 30
0.0
  0
SEQEND
  5
8E8
  8
0
  6
CONTINUOUS
 62
     7
  0
ARC
  5
4A2
  8
0
  6
CONTINUOUS
 62
     7
 10
-2867.6729420147
 20
562.944755457
 30
0.0
 40
3.400030049480994
 50
293.1963826672
 51
355.4834182117
  0
POLYLINE
  5
4A3
  8
0
  6
CONTINUOUS
 62
     7
 66
     1
 10
0.0
 20
0.0
 30
0.0
  0
VERTEX
  5
8E9
  8
0
  6
CONTINUOUS
 62
     7
 10
-2572.7589837231
 20
487.7306175288
 30
0.0
  0
VERTEX
  5
8EA
  8
0
  6
CONTINUOUS
 62
     7
 10
-2572.9609224452
 20
489.0565169771
 30
0.0
  0
VERTEX
  5
8EB
  8
0
  6
CONTINUOUS
 62
     7
 10
-2573.533690214
 20
490.7516128608
 30
0.0
  0
VERTEX
  5
8EC
  8
0
  6
CONTINUOUS
 62
     7
 10
-2574.4497276002
 20
492.3957017624
 30
0.0
  0
VERTEX
  5
8ED
  8
0
  6
CONTINUOUS
 62
     7
 10
-2575.696166315
 20
493.9657102354
 30
0.0
  0
VERTEX
  5
8EE
  8
0
  6
CONTINUOUS
 62
     7
 10
-2577.2555203553
 20
495.4395912911
 30
0.0
  0
VERTEX
  5
8EF
  8
0
  6
CONTINUOUS
 62
     7
 10
-2579.1058903174
 20
496.7966613243
 30
0.0
  0
VERTEX
  5
8F0
  8
0
  6
CONTINUOUS
 62
     7
 10
-2581.2213074864
 20
498.0178656619
 30
0.0
  0
VERTEX
  5
8F1
  8
0
  6
CONTINUOUS
 62
     7
 10
-2583.5720764441
 20
499.0860615039
 30
0.0
  0
VERTEX
  5
8F2
  8
0
  6
CONTINUOUS
 62
     7
 10
-2586.125189952
 20
499.9862574301
 30
0.0
  0
VERTEX
  5
8F3
  8
0
  6
CONTINUOUS
 62
     7
 10
-2588.844819073
 20
500.705811184
 30
0.0
  0
VERTEX
  5
8F4
  8
0
  6
CONTINUOUS
 62
     7
 10
-2591.6927731645
 20
501.2346283109
 30
0.0
  0
VERTEX
  5
8F5
  8
0
  6
CONTINUOUS
 62
     7
 10
-2594.6290835142
 20
501.5652801057
 30
0.0
  0
VERTEX
  5
8F6
  8
0
  6
CONTINUOUS
 62
     7
 10
-2597.6125298456
 20
501.693125077
 30
0.0
  0
VERTEX
  5
8F7
  8
0
  6
CONTINUOUS
 62
     7
 10
-2600.6012247766
 20
501.6163726259
 30
0.0
  0
VERTEX
  5
8F8
  8
0
  6
CONTINUOUS
 62
     7
 10
-2603.5532177052
 20
501.3360971118
 30
0.0
  0
VERTEX
  5
8F9
  8
0
  6
CONTINUOUS
 62
     7
 10
-2606.4270690596
 20
500.8562348112
 30
0.0
  0
VERTEX
  5
8FA
  8
0
  6
CONTINUOUS
 62
     7
 10
-2609.182435086
 20
500.1835200494
 30
0.0
  0
VERTEX
  5
8FB
  8
0
  6
CONTINUOUS
 62
     7
 10
-2611.7806355144
 20
499.3273992819
 30
0.0
  0
VERTEX
  5
8FC
  8
0
  6
CONTINUOUS
 62
     7
 10
-2614.1852014669
 20
498.2998851093
 30
0.0
  0
VERTEX
  5
8FD
  8
0
  6
CONTINUOUS
 62
     7
 10
-2616.3623851717
 20
497.115400408
 30
0.0
  0
VERTEX
  5
8FE
  8
0
  6
CONTINUOUS
 62
     7
 10
-2618.2816025047
 20
495.7905836829
 30
0.0
  0
VERTEX
  5
8FF
  8
0
  6
CONTINUOUS
 62
     7
 10
-2619.9159255811
 20
494.3440259904
 30
0.0
  0
VERTEX
  5
900
  8
0
  6
CONTINUOUS
 62
     7
 10
-2621.242409393
 20
492.7960337123
 30
0.0
  0
VERTEX
  5
901
  8
0
  6
CONTINUOUS
 62
     7
 10
-2622.2424421556
 20
491.1683320235
 30
0.0
  0
VERTEX
  5
902
  8
0
  6
CONTINUOUS
 62
     7
 10
-2622.9019678949
 20
489.4837797649
 30
0.0
  0
VERTEX
  5
903
  8
0
  6
CONTINUOUS
 62
     7
 10
-2623.2117432802
 20
487.7660189268
 30
0.0
  0
VERTEX
  5
904
  8
0
  6
CONTINUOUS
 62
     7
 10
-2623.2143972146
 20
487.7306167685
 30
0.0
  0
SEQEND
  5
905
  8
0
  6
CONTINUOUS
 62
     7
  0
POLYLINE
  5
4A4
  8
0
  6
CONTINUOUS
 62
     7
 66
     1
 10
0.0
 20
0.0
 30
0.0
  0
VERTEX
  5
906
  8
0
  6
CONTINUOUS
 62
     7
 10
-2594.7366896868
 20
465.8010512068
 30
0.0
  0
VERTEX
  5
907
  8
0
  6
CONTINUOUS
 62
     7
 10
-2594.9326830691
 20
466.4427471664
 30
0.0
  0
VERTEX
  5
908
  8
0
  6
CONTINUOUS
 62
     7
 10
-2595.4970464928
 20
467.0070383037
 30
0.0
  0
VERTEX
  5
909
  8
0
  6
CONTINUOUS
 62
     7
 10
-2596.3616943584
 20
467.4258727303
 30
0.0
  0
VERTEX
  5
90A
  8
0
  6
CONTINUOUS
 62
     7
 10
-2597.4223277037
 20
467.6487357839
 30
0.0
  0
VERTEX
  5
90B
  8
0
  6
CONTINUOUS
 62
     7
 10
-2598.5510413802
 20
467.6487357839
 30
0.0
  0
VERTEX
  5
90C
  8
0
  6
CONTINUOUS
 62
     7
 10
-2599.6116865793
 20
467.425876532
 30
0.0
  0
VERTEX
  5
90D
  8
0
  6
CONTINUOUS
 62
     7
 10
-2600.4763370791
 20
467.0070375433
 30
0.0
  0
VERTEX
  5
90E
  8
0
  6
CONTINUOUS
 62
     7
 10
-2601.0406873319
 20
466.442746406
 30
0.0
  0
VERTEX
  5
90F
  8
0
  6
CONTINUOUS
 62
     7
 10
-2601.2366859825
 20
465.8010534878
 30
0.0
  0
SEQEND
  5
910
  8
0
  6
CONTINUOUS
 62
     7
  0
POLYLINE
  5
4A5
  8
0
  6
CONTINUOUS
 62
     7
 66
     1
 10
0.0
 20
0.0
 30
0.0
  0
VERTEX
  5
911
  8
0
  6
CONTINUOUS
 62
     7
 10
-2594.7366910039
 20
511.6104549275
 30
0.0
  0
VERTEX
  5
912
  8
0
  6
CONTINUOUS
 62
     7
 10
-2594.9326896545
 20
512.2521478457
 30
0.0
  0
VERTEX
  5
913
  8
0
  6
CONTINUOUS
 62
     7
 10
-2595.4970425415
 20
512.8164450658
 30
0.0
  0
VERTEX
  5
914
  8
0
  6
CONTINUOUS
 62
     7
 10
-2596.3616904071
 20
513.2352794924
 30
0.0
  0
VERTEX
  5
915
  8
0
  6
CONTINUOUS
 62
     7
 10
-2597.422332972
 20
513.4581357029
 30
0.0
  0
VERTEX
  5
916
  8
0
  6
CONTINUOUS
 62
     7
 10
-2598.5510466486
 20
513.4581357029
 30
0.0
  0
VERTEX
  5
917
  8
0
  6
CONTINUOUS
 62
     7
 10
-2599.6116878964
 20
513.2352802527
 30
0.0
  0
VERTEX
  5
918
  8
0
  6
CONTINUOUS
 62
     7
 10
-2600.4763331278
 20
512.8164443054
 30
0.0
  0
VERTEX
  5
919
  8
0
  6
CONTINUOUS
 62
     7
 10
-2601.0406873319
 20
512.2521493664
 30
0.0
  0
VERTEX
  5
91A
  8
0
  6
CONTINUOUS
 62
     7
 10
-2601.2366859825
 20
511.6104564482
 30
0.0
  0
SEQEND
  5
91B
  8
0
  6
CONTINUOUS
 62
     7
  0
POLYLINE
  5
4A6
  8
0
  6
CONTINUOUS
 62
     7
 66
     1
 10
0.0
 20
0.0
 30
0.0
  0
VERTEX
  5
91C
  8
0
  6
CONTINUOUS
 62
     7
 10
-2601.2366859825
 20
464.1679685545
 30
0.0
  0
VERTEX
  5
91D
  8
0
  6
CONTINUOUS
 62
     7
 10
-2601.0406873319
 20
464.8096614727
 30
0.0
  0
VERTEX
  5
91E
  8
0
  6
CONTINUOUS
 62
     7
 10
-2600.4763370791
 20
465.37395261
 30
0.0
  0
VERTEX
  5
91F
  8
0
  6
CONTINUOUS
 62
     7
 10
-2599.6116865793
 20
465.7927915987
 30
0.0
  0
VERTEX
  5
920
  8
0
  6
CONTINUOUS
 62
     7
 10
-2598.5510413802
 20
466.0156508506
 30
0.0
  0
VERTEX
  5
921
  8
0
  6
CONTINUOUS
 62
     7
 10
-2597.4223277037
 20
466.0156508506
 30
0.0
  0
VERTEX
  5
922
  8
0
  6
CONTINUOUS
 62
     7
 10
-2596.3616943584
 20
465.792787797
 30
0.0
  0
VERTEX
  5
923
  8
0
  6
CONTINUOUS
 62
     7
 10
-2595.4970464928
 20
465.3739533704
 30
0.0
  0
VERTEX
  5
924
  8
0
  6
CONTINUOUS
 62
     7
 10
-2594.9326830691
 20
464.8096622331
 30
0.0
  0
VERTEX
  5
925
  8
0
  6
CONTINUOUS
 62
     7
 10
-2594.7366896868
 20
464.1679662735
 30
0.0
  0
SEQEND
  5
926
  8
0
  6
CONTINUOUS
 62
     7
  0
ARC
  5
4A7
  8
0
  6
CONTINUOUS
 62
     7
 10
-2586.0156870075
 20
483.5530854569
 30
0.0
 40
13.57986855436588
 50
14.3294978472
 51
64.3261621994
  0
POLYLINE
  5
4A8
  8
0
  6
CONTINUOUS
 62
     7
 66
     1
 10
0.0
 20
0.0
 30
0.0
  0
VERTEX
  5
927
  8
0
  6
CONTINUOUS
 62
     7
 10
-2623.1150728977
 20
486.9140723799
 30
0.0
  0
VERTEX
  5
928
  8
0
  6
CONTINUOUS
 62
     7
 10
-2623.100961606
 20
486.9944660959
 30
0.0
  0
VERTEX
  5
929
  8
0
  6
CONTINUOUS
 62
     7
 10
-2622.61545757
 20
488.6986153397
 30
0.0
  0
VERTEX
  5
92A
  8
0
  6
CONTINUOUS
 62
     7
 10
-2621.7842216186
 20
490.3576544129
 30
0.0
  0
VERTEX
  5
92B
  8
0
  6
CONTINUOUS
 62
     7
 10
-2620.6189192092
 20
491.9482933623
 30
0.0
  0
VERTEX
  5
92C
  8
0
  6
CONTINUOUS
 62
     7
 10
-2619.135903319
 20
493.4482086259
 30
0.0
  0
VERTEX
  5
92D
  8
0
  6
CONTINUOUS
 62
     7
 10
-2617.3560037108
 20
494.8363350032
 30
0.0
  0
VERTEX
  5
92E
  8
0
  6
CONTINUOUS
 62
     7
 10
-2615.3042042461
 20
496.0931903202
 30
0.0
  0
VERTEX
  5
92F
  8
0
  6
CONTINUOUS
 62
     7
 10
-2613.0093057105
 20
497.2011309034
 30
0.0
  0
VERTEX
  5
930
  8
0
  6
CONTINUOUS
 62
     7
 10
-2610.5035227843
 20
498.1446055329
 30
0.0
  0
VERTEX
  5
931
  8
0
  6
CONTINUOUS
 62
     7
 10
-2607.8220309636
 20
498.9103683378
 30
0.0
  0
VERTEX
  5
932
  8
0
  6
CONTINUOUS
 62
     7
 10
-2605.002463433
 20
499.4876749633
 30
0.0
  0
VERTEX
  5
933
  8
0
  6
CONTINUOUS
 62
     7
 10
-2602.0844171568
 20
499.8684110684
 30
0.0
  0
VERTEX
  5
934
  8
0
  6
CONTINUOUS
 62
     7
 10
-2599.1088457006
 20
500.0472405919
 30
0.0
  0
VERTEX
  5
935
  8
0
  6
CONTINUOUS
 62
     7
 10
-2596.1175218599
 20
500.0216483312
 30
0.0
  0
VERTEX
  5
936
  8
0
  6
CONTINUOUS
 62
     7
 10
-2593.1524390421
 20
499.7919958278
 30
0.0
  0
VERTEX
  5
937
  8
0
  6
CONTINUOUS
 62
     7
 10
-2590.2552159432
 20
499.36150616
 30
0.0
  0
VERTEX
  5
938
  8
0
  6
CONTINUOUS
 62
     7
 10
-2587.4665282232
 20
498.7362217442
 30
0.0
  0
VERTEX
  5
939
  8
0
  6
CONTINUOUS
 62
     7
 10
-2584.8255210847
 20
497.9249206976
 30
0.0
  0
VERTEX
  5
93A
  8
0
  6
CONTINUOUS
 62
     7
 10
-2582.3692620225
 20
496.9389955643
 30
0.0
  0
VERTEX
  5
93B
  8
0
  6
CONTINUOUS
 62
     7
 10
-2580.1322416466
 20
495.792280718
 30
0.0
  0
SEQEND
  5
93C
  8
0
  6
CONTINUOUS
 62
     7
  0
ARC
  5
4A9
  8
0
  6
CONTINUOUS
 62
     7
 10
-2561.1754837212
 20
482.7214177027
 30
0.0
 40
4.641325312178862
 50
88.5777188385
 51
115.4004824122
  0
ARC
  5
4AA
  8
0
  6
CONTINUOUS
 62
     7
 10
-2555.4449220098
 20
482.7221428075
 30
0.0
 40
4.640602880801905
 50
64.5974305585
 51
91.4244764841
  0
ARC
  5
4AB
  8
0
  6
CONTINUOUS
 62
     7
 10
-2634.7977200942
 20
482.7222645905
 30
0.0
 40
4.640482260255085
 50
64.5969957905
 51
91.4246946653
  0
ARC
  5
4AC
  8
0
  6
CONTINUOUS
 62
     7
 10
-2640.5282115371
 20
482.721003019
 30
0.0
 40
4.64173779355544
 50
88.5788777224
 51
115.3993153292
  0
LINE
  5
4AD
  8
0
  6
CONTINUOUS
 62
     7
 10
-2561.0602816649
 20
487.3613130829
 30
0.0
 11
-2555.5602838874
 21
487.3613115622
 31
0.0
  0
LINE
  5
4AE
  8
0
  6
CONTINUOUS
 62
     7
 10
-2640.413093099
 20
487.3613130829
 30
0.0
 11
-2634.9130966386
 21
487.3613123226
 31
0.0
  0
POLYLINE
  5
4AF
  8
0
  6
CONTINUOUS
 62
     7
 66
     1
 10
0.0
 20
0.0
 30
0.0
  0
VERTEX
  5
93D
  8
0
  6
CONTINUOUS
 62
     7
 10
-2601.2366859825
 20
509.9773715149
 30
0.0
  0
VERTEX
  5
93E
  8
0
  6
CONTINUOUS
 62
     7
 10
-2601.0406873319
 20
510.6190644331
 30
0.0
  0
VERTEX
  5
93F
  8
0
  6
CONTINUOUS
 62
     7
 10
-2600.4763331278
 20
511.1833593721
 30
0.0
  0
VERTEX
  5
940
  8
0
  6
CONTINUOUS
 62
     7
 10
-2599.6116878964
 20
511.6021953194
 30
0.0
  0
VERTEX
  5
941
  8
0
  6
CONTINUOUS
 62
     7
 10
-2598.5510466486
 20
511.8250507696
 30
0.0
  0
VERTEX
  5
942
  8
0
  6
CONTINUOUS
 62
     7
 10
-2597.422332972
 20
511.8250507696
 30
0.0
  0
VERTEX
  5
943
  8
0
  6
CONTINUOUS
 62
     7
 10
-2596.3616904071
 20
511.6021945591
 30
0.0
  0
VERTEX
  5
944
  8
0
  6
CONTINUOUS
 62
     7
 10
-2595.4970425415
 20
511.1833601325
 30
0.0
  0
VERTEX
  5
945
  8
0
  6
CONTINUOUS
 62
     7
 10
-2594.9326896545
 20
510.6190629124
 30
0.0
  0
VERTEX
  5
946
  8
0
  6
CONTINUOUS
 62
     7
 10
-2594.7366910039
 20
509.9773699942
 30
0.0
  0
SEQEND
  5
947
  8
0
  6
CONTINUOUS
 62
     7
  0
ENDSEC
  0
EOF
