  0
SECTION
  2
HEADER
  9
$ACADVER
  1
AC1009
  9
$DWGCODEPAGE
  3
ansi_1252
  9
$INSBASE
 10
0.0
 20
0.0
 30
0.0
  9
$EXTMIN
 10
0.0
 20
0.0
 30
0.0
  9
$EXTMAX
 10
297.0
 20
420.0
 30
0.0
  9
$LIMMIN
 10
0.0
 20
0.0
  9
$LIMMAX
 10
297.0
 20
420.0
  9
$ORTHOMODE
 70
     0
  9
$REGENMODE
 70
     1
  9
$FILLMODE
 70
     1
  9
$QTEXTMODE
 70
     0
  9
$MIRRTEXT
 70
     1
  9
$DRAGMODE
 70
     2
  9
$LTSCALE
 40
1.0
  9
$OSMODE
 70
    37
  9
$ATTMODE
 70
     1
  9
$TEXTSIZE
 40
4.2333333333
  9
$TRACEWID
 40
1.0
  9
$TEXTSTYLE
  7
STANDARD
  9
$CLAYER
  8
0
  9
$CELTYPE
  6
BYLAYER
  9
$CECOLOR
 62
   256
  9
$DIMSCALE
 40
1.0
  9
$DIMASZ
 40
3.5
  9
$DIMEXO
 40
1.0
  9
$DIMDLI
 40
3.75
  9
$DIMRND
 40
0.0
  9
$DIMDLE
 40
0.0
  9
$DIMEXE
 40
1.0
  9
$DIMTP
 40
0.0
  9
$DIMTM
 40
0.0
  9
$DIMTXT
 40
3.5277777778
  9
$DIMCEN
 40
2.5
  9
$DIMTSZ
 40
0.0
  9
$DIMTOL
 70
     0
  9
$DIMLIM
 70
     0
  9
$DIMTIH
 70
     1
  9
$DIMTOH
 70
     1
  9
$DIMSE1
 70
     0
  9
$DIMSE2
 70
     0
  9
$DIMTAD
 70
     1
  9
$DIMZIN
 70
     0
  9
$DIMBLK
  1

  9
$DIMASO
 70
     1
  9
$DIMSHO
 70
     1
  9
$DIMPOST
  1

  9
$DIMAPOST
  1

  9
$DIMALT
 70
     0
  9
$DIMALTD
 70
     3
  9
$DIMALTF
 40
0.0393700787
  9
$DIMLFAC
 40
1.0
  9
$DIMTOFL
 70
     1
  9
$DIMTVP
 40
0.0
  9
$DIMTIX
 70
     0
  9
$DIMSOXD
 70
     0
  9
$DIMSAH
 70
     0
  9
$DIMBLK1
  1

  9
$DIMBLK2
  1

  9
$DIMSTYLE
  2
ISO-25
  9
$DIMCLRD
 70
     0
  9
$DIMCLRE
 70
     0
  9
$DIMCLRT
 70
     0
  9
$DIMTFAC
 40
1.0
  9
$DIMGAP
 40
1.524
  9
$LUNITS
 70
     2
  9
$LUPREC
 70
     2
  9
$SKETCHINC
 40
1.0
  9
$FILLETRAD
 40
10.0
  9
$AUNITS
 70
     0
  9
$AUPREC
 70
     2
  9
$MENU
  1
.
  9
$ELEVATION
 40
0.0
  9
$PELEVATION
 40
0.0
  9
$THICKNESS
 40
0.0
  9
$LIMCHECK
 70
     0
  9
$CHAMFERA
 40
10.0
  9
$CHAMFERB
 40
10.0
  9
$SKPOLY
 70
     0
  9
$TDCREATE
 40
2455889.629799062
  9
$TDUPDATE
 40
2455889.629799074
  9
$TDINDWG
 40
0.0000000116
  9
$TDUSRTIMER
 40
0.0000000116
  9
$USRTIMER
 70
     1
  9
$ANGBASE
 50
0.0
  9
$ANGDIR
 70
     0
  9
$PDMODE
 70
     0
  9
$PDSIZE
 40
-1.0
  9
$PLINEWID
 40
0.0
  9
$COORDS
 70
     1
  9
$SPLFRAME
 70
     0
  9
$SPLINETYPE
 70
     6
  9
$SPLINESEGS
 70
     8
  9
$ATTDIA
 70
     0
  9
$ATTREQ
 70
     1
  9
$HANDLING
 70
     1
  9
$HANDSEED
  5
963
  9
$SURFTAB1
 70
     6
  9
$SURFTAB2
 70
     6
  9
$SURFTYPE
 70
     6
  9
$SURFU
 70
     6
  9
$SURFV
 70
     6
  9
$UCSNAME
  2

  9
$UCSORG
 10
0.0
 20
0.0
 30
0.0
  9
$UCSXDIR
 10
1.0
 20
0.0
 30
0.0
  9
$UCSYDIR
 10
0.0
 20
1.0
 30
0.0
  9
$PUCSNAME
  2

  9
$PUCSORG
 10
0.0
 20
0.0
 30
0.0
  9
$PUCSXDIR
 10
1.0
 20
0.0
 30
0.0
  9
$PUCSYDIR
 10
0.0
 20
1.0
 30
0.0
  9
$USERI1
 70
     0
  9
$USERI2
 70
     0
  9
$USERI3
 70
     0
  9
$USERI4
 70
     0
  9
$USERI5
 70
     0
  9
$USERR1
 40
0.0
  9
$USERR2
 40
0.0
  9
$USERR3
 40
0.0
  9
$USERR4
 40
0.0
  9
$USERR5
 40
0.0
  9
$WORLDVIEW
 70
     1
  9
$SHADEDGE
 70
     3
  9
$SHADEDIF
 70
    70
  9
$TILEMODE
 70
     1
  9
$MAXACTVP
 70
    64
  9
$PLIMCHECK
 70
     0
  9
$PEXTMIN
 10
1.0000000000E+20
 20
1.0000000000E+20
 30
1.0000000000E+20
  9
$PEXTMAX
 10
-1.0000000000E+20
 20
-1.0000000000E+20
 30
-1.0000000000E+20
  9
$PLIMMIN
 10
0.0
 20
0.0
  9
$PLIMMAX
 10
420.0
 20
297.0
  9
$UNITMODE
 70
     0
  9
$VISRETAIN
 70
     1
  9
$PLINEGEN
 70
     0
  9
$PSLTSCALE
 70
     1
  0
ENDSEC
  0
SECTION
  2
TABLES
  0
TABLE
  2
VPORT
 70
     1
  0
VPORT
  2
*ACTIVE
 70
     0
 10
0.0
 20
0.0
 11
1.0
 21
1.0
 12
148.5
 22
210.0
 13
0.0
 23
0.0
 14
10.0
 24
10.0
 15
10.0
 25
10.0
 16
0.0
 26
0.0
 36
1.0
 17
0.0
 27
0.0
 37
0.0
 40
420.0
 41
0.7071428571
 42
50.0
 43
0.0
 44
0.0
 50
0.0
 51
0.0
 71
     0
 72
  2000
 73
     1
 74
     3
 75
     0
 76
     0
 77
     0
 78
     0
  0
ENDTAB
  0
TABLE
  2
LTYPE
 70
     6
  0
LTYPE
  2
CONTINUOUS
 70
     0
  3
Solid line
 72
    65
 73
     0
 40
0.0
  0
LTYPE
  2
HIDDEN
 70
     0
  3
Hidden __ __ __ __ __ __ __ __ __ __ __ __ __ __
 72
    65
 73
     2
 40
1.905
 49
1.27
 49
-0.635
  0
LTYPE
  2
PHANTOM
 70
     0
  3
Phantom ______  __  __  ______  __  __  ______
 72
    65
 73
     6
 40
12.7
 49
6.35
 49
-1.27
 49
1.27
 49
-1.27
 49
1.27
 49
-1.27
  0
LTYPE
  2
CENTER
 70
     0
  3
Center ____ _ ____ _ ____ _ ____ _ ____ _ ____
 72
    65
 73
     4
 40
10.16
 49
6.35
 49
-1.27
 49
1.27
 49
-1.27
  0
LTYPE
  2
CENTERX2
 70
     0
  3
Center (2x) ________  __  ________  __  _____
 72
    65
 73
     4
 40
20.32
 49
12.7
 49
-2.54
 49
2.54
 49
-2.54
  0
LTYPE
  2
DOT2
 70
     0
  3
Dot (.5x) ........................................
 72
    65
 73
     2
 40
0.635
 49
0.0
 49
-0.635
  0
ENDTAB
  0
TABLE
  2
LAYER
 70
     8
  0
LAYER
  2
0
 70
     0
 62
     7
  6
CONTINUOUS
  0
LAYER
  2
SLD-0
 70
     0
 62
     7
  6
CONTINUOUS
  0
LAYER
  2
AM_BOR
 70
     0
 62
     7
  6
CONTINUOUS
  0
LAYER
  2
BIEGLINIE__ZU_
 70
     0
 62
     8
  6
CONTINUOUS
  0
LAYER
  2
BIEGELINIE__WEG_
 70
     0
 62
     8
  6
HIDDEN
  0
LAYER
  2
BIEGELINIE__ZU_
 70
     0
 62
     8
  6
CONTINUOUS
  0
LAYER
  2
LAYER0
 70
     0
 62
     7
  6
CONTINUOUS
  0
LAYER
  2
CK_LEVEL_1
 70
     0
 62
     7
  6
CONTINUOUS
  0
ENDTAB
  0
TABLE
  2
STYLE
 70
     1
  0
STYLE
  2
STANDARD
 70
     0
 40
0.0
 41
1.0
 50
0.0
 71
     0
 42
2.5
  3
txt
  4

  0
ENDTAB
  0
TABLE
  2
VIEW
 70
     0
  0
ENDTAB
  0
TABLE
  2
UCS
 70
     0
  0
ENDTAB
  0
TABLE
  2
APPID
 70
     1
  0
APPID
  2
ACAD
 70
     0
  0
ENDTAB
  0
TABLE
  2
DIMSTYLE
 70
     1
  0
DIMSTYLE
  2
ISO-25
 70
     0
  3

  4

  5

  6

  7

 40
1.0
 41
2.5
 42
0.625
 43
3.75
 44
1.25
 45
0.0
 46
0.0
 47
0.0
 48
0.0
140
2.5
141
2.5
142
0.0
143
0.0393700787
144
1.0
145
0.0
146
1.0
147
0.625
 71
     0
 72
     0
 73
     0
 74
     0
 75
     0
 76
     0
 77
     1
 78
     8
170
     0
171
     3
172
     1
173
     0
174
     0
175
     0
176
     0
177
     0
178
     0
  0
ENDTAB
  0
ENDSEC
  0
SECTION
  2
BLOCKS
  0
BLOCK
  8
0
  2
$MODEL_SPACE
 70
     0
 10
0.0
 20
0.0
 30
0.0
  3
$MODEL_SPACE
  1

  0
ENDBLK
  5
21
  8
0
  0
BLOCK
 67
     1
  8
0
  2
$PAPER_SPACE
 70
     0
 10
0.0
 20
0.0
 30
0.0
  3
$PAPER_SPACE
  1

  0
ENDBLK
  5
1D
 67
     1
  8
0
  0
BLOCK
  8
0
  2
ERDUNG2
 70
     0
 10
0.0
 20
0.0
 30
0.0
  3
ERDUNG2
  1

  0
CIRCLE
  5
4E
  8
CK_LEVEL_1
  6
CONTINUOUS
 62
     7
 10
7.882894401
 20
8.75
 30
0.0
 40
9.354800019675764
  0
LINE
  5
4F
  8
CK_LEVEL_1
  6
CONTINUOUS
 62
     7
 10
8.7487451733
 20
3.8098753807
 30
0.0
 11
9.700327903
 21
3.8098753807
 31
0.0
  0
LINE
  5
50
  8
CK_LEVEL_1
  6
CONTINUOUS
 62
     7
 10
8.7487451733
 20
3.8098753807
 30
0.0
 11
6.6709551936
 21
3.8098753807
 31
0.0
  0
LINE
  5
51
  8
CK_LEVEL_1
  6
CONTINUOUS
 62
     7
 10
7.882894401
 20
8.75
 30
0.0
 11
12.815547
 21
8.75
 31
0.0
  0
LINE
  5
52
  8
CK_LEVEL_1
  6
CONTINUOUS
 62
     7
 10
11.24812514
 20
6.3492067038
 30
0.0
 11
4.4479159892
 21
6.3492067038
 31
0.0
  0
LINE
  5
53
  8
CK_LEVEL_1
  6
CONTINUOUS
 62
     7
 10
7.882894401
 20
8.75
 30
0.0
 11
2.6893228315
 21
8.75
 31
0.0
  0
LINE
  5
54
  8
CK_LEVEL_1
  6
CONTINUOUS
 62
     7
 10
7.882894401
 20
8.75
 30
0.0
 11
7.882894401
 21
15.2853511284
 31
0.0
  0
ENDBLK
  5
4D
  8
0
  0
ENDSEC
  0
SECTION
  2
ENTITIES
  0
LINE
  5
55
  8
0
  6
CONTINUOUS
 62
     7
 10
-1561.6283959382
 20
541.4695158041
 30
0.0
 11
-1561.6283959382
 21
-58.5305080378
 31
0.0
  0
LINE
  5
56
  8
0
  6
CONTINUOUS
 62
     7
 10
-1571.6284162038
 20
-58.5305080378
 30
0.0
 11
-1571.6284162038
 21
541.4695158041
 31
0.0
  0
LINE
  5
57
  8
0
  6
CONTINUOUS
 62
     7
 10
-2199.6284073823
 20
-58.5305080378
 30
0.0
 11
-2199.6284073823
 21
541.4695158041
 31
0.0
  0
LINE
  5
58
  8
0
  6
CONTINUOUS
 62
     7
 10
-2189.6283871167
 20
541.4695158041
 30
0.0
 11
-2189.6283871167
 21
-58.5305080378
 31
0.0
  0
LINE
  5
59
  8
0
  6
CONTINUOUS
 62
     7
 10
-2178.1277007096
 20
-56.3042149508
 30
0.0
 11
-2177.6294952862
 21
-55.5304870569
 31
0.0
  0
LINE
  5
5A
  8
0
  6
CONTINUOUS
 62
     7
 10
-2178.1277007096
 20
-56.3042149508
 30
0.0
 11
-2178.1277007096
 21
-55.9173510038
 31
0.0
  0
ARC
  5
5B
  8
0
  6
CONTINUOUS
 62
     7
 10
-2205.4364421578
 20
-45.669851023
 30
0.0
 40
29.30626307859701
 50
333.970333161
 51
338.72344197
  0
POLYLINE
  5
5C
  8
0
  6
CONTINUOUS
 62
     7
 66
     1
 10
0.0
 20
0.0
 30
0.0
  0
VERTEX
  5
4D0
  8
0
  6
CONTINUOUS
 62
     7
 10
-1583.0784088605
 20
-56.4364180529
 30
0.0
  0
VERTEX
  5
4D1
  8
0
  6
CONTINUOUS
 62
     7
 10
-1583.0201453202
 20
-56.546805855
 30
0.0
  0
VERTEX
  5
4D2
  8
0
  6
CONTINUOUS
 62
     7
 10
-1582.6242810719
 20
-57.4514255488
 30
0.0
  0
VERTEX
  5
4D3
  8
0
  6
CONTINUOUS
 62
     7
 10
-1582.3822266095
 20
-58.1299350226
 30
0.0
  0
VERTEX
  5
4D4
  8
0
  6
CONTINUOUS
 62
     7
 10
-1582.2663849824
 20
-58.4115669691
 30
0.0
  0
VERTEX
  5
4D5
  8
0
  6
CONTINUOUS
 62
     7
 10
-1582.1540004246
 20
-58.5305080378
 30
0.0
  0
SEQEND
  5
4D6
  8
0
  6
CONTINUOUS
 62
     7
  0
LINE
  5
5D
  8
0
  6
CONTINUOUS
 62
     7
 10
-1601.5419608586
 20
-58.5305080378
 30
0.0
 11
-2159.7148424618
 21
-58.5305080378
 31
0.0
  0
POLYLINE
  5
5E
  8
0
  6
CONTINUOUS
 62
     7
 66
     1
 10
0.0
 20
0.0
 30
0.0
  0
VERTEX
  5
4D7
  8
0
  6
CONTINUOUS
 62
     7
 10
-2178.227300071
 20
538.9688029325
 30
0.0
  0
VERTEX
  5
4D8
  8
0
  6
CONTINUOUS
 62
     7
 10
-2178.2366580002
 20
538.9776542223
 30
0.0
  0
VERTEX
  5
4D9
  8
0
  6
CONTINUOUS
 62
     7
 10
-2178.6325222485
 20
539.4299640692
 30
0.0
  0
VERTEX
  5
4DA
  8
0
  6
CONTINUOUS
 62
     7
 10
-2178.874576711
 20
539.7692337072
 30
0.0
  0
VERTEX
  5
4DB
  8
0
  6
CONTINUOUS
 62
     7
 10
-2178.9904183381
 20
539.9100496805
 30
0.0
  0
VERTEX
  5
4DC
  8
0
  6
CONTINUOUS
 62
     7
 10
-2179.1028028958
 20
539.9695053137
 30
0.0
  0
SEQEND
  5
4DD
  8
0
  6
CONTINUOUS
 62
     7
  0
LINE
  5
5F
  8
0
  6
CONTINUOUS
 62
     7
 10
-2179.1028028958
 20
541.4695158041
 30
0.0
 11
-2179.1028028958
 21
539.9695053137
 31
0.0
  0
POLYLINE
  5
60
  8
0
  6
CONTINUOUS
 62
     7
 66
     1
 10
0.0
 20
0.0
 30
0.0
  0
VERTEX
  5
4DE
  8
0
  6
CONTINUOUS
 62
     7
 10
-2177.7001863949
 20
538.4694948233
 30
0.0
  0
VERTEX
  5
4DF
  8
0
  6
CONTINUOUS
 62
     7
 10
-2178.2366580002
 20
539.4858136213
 30
0.0
  0
VERTEX
  5
4E0
  8
0
  6
CONTINUOUS
 62
     7
 10
-2178.6325222485
 20
540.3904333151
 30
0.0
  0
VERTEX
  5
4E1
  8
0
  6
CONTINUOUS
 62
     7
 10
-2178.874576711
 20
541.0689427889
 30
0.0
  0
VERTEX
  5
4E2
  8
0
  6
CONTINUOUS
 62
     7
 10
-2178.9904183381
 20
541.3505747354
 30
0.0
  0
VERTEX
  5
4E3
  8
0
  6
CONTINUOUS
 62
     7
 10
-2179.1028028958
 20
541.4695158041
 30
0.0
  0
SEQEND
  5
4E4
  8
0
  6
CONTINUOUS
 62
     7
  0
ARC
  5
61
  8
0
  6
CONTINUOUS
 62
     7
 10
-1555.8203611627
 20
528.6088587893
 30
0.0
 40
29.30626307859698
 50
153.970333161
 51
158.72344197
  0
LINE
  5
62
  8
0
  6
CONTINUOUS
 62
     7
 10
-1601.5419608586
 20
541.4695158041
 30
0.0
 11
-2159.7148424618
 21
541.4695158041
 31
0.0
  0
POLYLINE
  5
63
  8
0
  6
CONTINUOUS
 62
     7
 66
     1
 10
0.0
 20
0.0
 30
0.0
  0
VERTEX
  5
4E5
  8
0
  6
CONTINUOUS
 62
     7
 10
-1583.0784088605
 20
-55.9834525549
 30
0.0
  0
VERTEX
  5
4E6
  8
0
  6
CONTINUOUS
 62
     7
 10
-1583.0201453202
 20
-56.038646456
 30
0.0
  0
VERTEX
  5
4E7
  8
0
  6
CONTINUOUS
 62
     7
 10
-1582.6242810719
 20
-56.4909563028
 30
0.0
  0
VERTEX
  5
4E8
  8
0
  6
CONTINUOUS
 62
     7
 10
-1582.3822266095
 20
-56.8302259409
 30
0.0
  0
VERTEX
  5
4E9
  8
0
  6
CONTINUOUS
 62
     7
 10
-1582.2663849824
 20
-56.9710419142
 30
0.0
  0
VERTEX
  5
4EA
  8
0
  6
CONTINUOUS
 62
     7
 10
-1582.1540004246
 20
-57.0304975474
 30
0.0
  0
SEQEND
  5
4EB
  8
0
  6
CONTINUOUS
 62
     7
  0
LINE
  5
64
  8
0
  6
CONTINUOUS
 62
     7
 10
-1582.1540004246
 20
-58.5305080378
 30
0.0
 11
-1582.1540004246
 21
-57.0304975474
 31
0.0
  0
LINE
  5
65
  8
0
  6
CONTINUOUS
 62
     7
 10
-1580.6283897393
 20
-57.0048973524
 30
0.0
 11
-1580.6283897393
 21
539.9439051187
 31
0.0
  0
ARC
  5
66
  8
0
  6
CONTINUOUS
 62
     7
 10
-1593.4890467541
 20
-83.3385366144
 30
0.0
 40
29.3062630785973
 50
63.970333161
 51
68.72344197
  0
LINE
  5
67
  8
0
  6
CONTINUOUS
 62
     7
 10
-1582.8546828263
 20
-56.0297951662
 30
0.0
 11
-1583.0784088605
 21
-55.8857307398
 31
0.0
  0
POLYLINE
  5
68
  8
0
  6
CONTINUOUS
 62
     7
 66
     1
 10
0.0
 20
0.0
 30
0.0
  0
VERTEX
  5
4EC
  8
0
  6
CONTINUOUS
 62
     7
 10
-1583.0784088605
 20
538.8316228426
 30
0.0
  0
VERTEX
  5
4ED
  8
0
  6
CONTINUOUS
 62
     7
 10
-1582.6120919221
 20
539.0777602232
 30
0.0
  0
VERTEX
  5
4EE
  8
0
  6
CONTINUOUS
 62
     7
 10
-1581.7074722283
 20
539.4736244715
 30
0.0
  0
VERTEX
  5
4EF
  8
0
  6
CONTINUOUS
 62
     7
 10
-1581.0289627545
 20
539.7156789339
 30
0.0
  0
VERTEX
  5
4F0
  8
0
  6
CONTINUOUS
 62
     7
 10
-1580.7473308079
 20
539.831520561
 30
0.0
  0
VERTEX
  5
4F1
  8
0
  6
CONTINUOUS
 62
     7
 10
-1580.6283897393
 20
539.9439051187
 30
0.0
  0
SEQEND
  5
4F2
  8
0
  6
CONTINUOUS
 62
     7
  0
LINE
  5
69
  8
0
  6
CONTINUOUS
 62
     7
 10
-1582.8546828263
 20
-56.0297951662
 30
0.0
 11
-1583.2415467732
 21
-56.0297951662
 31
0.0
  0
LINE
  5
6A
  8
0
  6
CONTINUOUS
 62
     7
 10
-2178.4021204941
 20
538.9688029325
 30
0.0
 11
-2177.6283926003
 21
538.4705975092
 31
0.0
  0
LINE
  5
6B
  8
0
  6
CONTINUOUS
 62
     7
 10
-2178.4021204941
 20
538.9688029325
 30
0.0
 11
-2178.0152565472
 21
538.9688029325
 31
0.0
  0
POLYLINE
  5
6C
  8
0
  6
CONTINUOUS
 62
     7
 66
     1
 10
0.0
 20
0.0
 30
0.0
  0
VERTEX
  5
4F3
  8
0
  6
CONTINUOUS
 62
     7
 10
-2178.1277007096
 20
-56.1293945276
 30
0.0
  0
VERTEX
  5
4F4
  8
0
  6
CONTINUOUS
 62
     7
 10
-2178.1365519993
 20
-56.1387524569
 30
0.0
  0
VERTEX
  5
4F5
  8
0
  6
CONTINUOUS
 62
     7
 10
-2178.5888618462
 20
-56.5346167051
 30
0.0
  0
VERTEX
  5
4F6
  8
0
  6
CONTINUOUS
 62
     7
 10
-2178.9281314843
 20
-56.7766711676
 30
0.0
  0
VERTEX
  5
4F7
  8
0
  6
CONTINUOUS
 62
     7
 10
-2179.0689474576
 20
-56.8925127947
 30
0.0
  0
VERTEX
  5
4F8
  8
0
  6
CONTINUOUS
 62
     7
 10
-2179.1284030907
 20
-57.0048973524
 30
0.0
  0
SEQEND
  5
4F9
  8
0
  6
CONTINUOUS
 62
     7
  0
LINE
  5
6D
  8
0
  6
CONTINUOUS
 62
     7
 10
-2180.6284135811
 20
-57.0048973524
 30
0.0
 11
-2179.1284030907
 21
-57.0048973524
 31
0.0
  0
POLYLINE
  5
6E
  8
0
  6
CONTINUOUS
 62
     7
 66
     1
 10
0.0
 20
0.0
 30
0.0
  0
VERTEX
  5
4FA
  8
0
  6
CONTINUOUS
 62
     7
 10
-2177.6283926003
 20
-55.6022808516
 30
0.0
  0
VERTEX
  5
4FB
  8
0
  6
CONTINUOUS
 62
     7
 10
-2178.6447113984
 20
-56.1387524569
 30
0.0
  0
VERTEX
  5
4FC
  8
0
  6
CONTINUOUS
 62
     7
 10
-2179.5493310921
 20
-56.5346167051
 30
0.0
  0
VERTEX
  5
4FD
  8
0
  6
CONTINUOUS
 62
     7
 10
-2180.2278405659
 20
-56.7766711676
 30
0.0
  0
VERTEX
  5
4FE
  8
0
  6
CONTINUOUS
 62
     7
 10
-2180.5094725125
 20
-56.8925127947
 30
0.0
  0
VERTEX
  5
4FF
  8
0
  6
CONTINUOUS
 62
     7
 10
-2180.6284135811
 20
-57.0048973524
 30
0.0
  0
SEQEND
  5
500
  8
0
  6
CONTINUOUS
 62
     7
  0
ARC
  5
6F
  8
0
  6
CONTINUOUS
 62
     7
 10
-2167.7677565663
 20
566.2775443807
 30
0.0
 40
29.30626307859713
 50
243.970333161
 51
248.72344197
  0
LINE
  5
70
  8
0
  6
CONTINUOUS
 62
     7
 10
-2180.6284135811
 20
-57.0048973524
 30
0.0
 11
-2180.6284135811
 21
539.9439051187
 31
0.0
  0
ARC
  5
71
  8
0
  6
CONTINUOUS
 62
     7
 10
-2181.1265899183
 20
-52.02978901
 30
0.0
 40
4.999999999972969
 50
314.3979399628
 51
315.1044244628
  0
LINE
  5
72
  8
0
  6
CONTINUOUS
 62
     7
 10
-2177.5563305848
 20
-55.5304870569
 30
0.0
 11
-2177.5846129887
 21
-55.5588588678
 31
0.0
  0
LINE
  5
73
  8
0
  6
CONTINUOUS
 62
     7
 10
-2177.6283926003
 20
538.4705975092
 30
0.0
 11
-2177.6272899144
 21
538.4694948233
 31
0.0
  0
ARC
  5
74
  8
0
  6
CONTINUOUS
 62
     7
 10
-1515.2486658134
 20
462.3908618498
 30
0.0
 40
102.4078776065567
 50
130.7736324856
 51
131.4792587194
  0
LINE
  5
75
  8
0
  6
CONTINUOUS
 62
     7
 10
-1580.6283897393
 20
539.9439051187
 30
0.0
 11
-1582.1284002297
 21
539.9439051187
 31
0.0
  0
LINE
  5
76
  8
0
  6
CONTINUOUS
 62
     7
 10
-2179.1028028958
 20
-57.0304975474
 30
0.0
 11
-2179.1028028958
 21
-58.5305080378
 31
0.0
  0
ARC
  5
77
  8
0
  6
CONTINUOUS
 62
     7
 10
-2188.6671995176
 20
-47.6685461791
 30
0.0
 40
13.38371458750427
 50
315.6128396387
 51
321.9512670579
  0
LINE
  5
78
  8
0
  6
CONTINUOUS
 62
     7
 10
-1582.1540004246
 20
539.9695053137
 30
0.0
 11
-1582.1540004246
 21
541.4695158041
 31
0.0
  0
ARC
  5
79
  8
0
  6
CONTINUOUS
 62
     7
 10
-1572.5896038029
 20
530.6075539454
 30
0.0
 40
13.38371458750398
 50
135.6128396387
 51
141.9512670579
  0
LINE
  5
7A
  8
0
  6
CONTINUOUS
 62
     7
 10
-2179.1284030907
 20
539.9439051187
 30
0.0
 11
-2180.6284135811
 21
539.9439051187
 31
0.0
  0
ARC
  5
7B
  8
0
  6
CONTINUOUS
 62
     7
 10
-2169.7664517225
 20
549.5083017405
 30
0.0
 40
13.38371458750406
 50
225.6128396387
 51
231.9512670579
  0
ARC
  5
7C
  8
0
  6
CONTINUOUS
 62
     7
 10
-1590.4325804927
 20
-65.4567824649
 30
0.0
 40
11.84878777742339
 50
45.5050496708
 51
51.6350175077
  0
LINE
  5
7D
  8
0
  6
CONTINUOUS
 62
     7
 10
-1582.1284002297
 20
-57.0048973524
 30
0.0
 11
-1580.6283897393
 21
-57.0048973524
 31
0.0
  0
LINE
  5
7E
  8
0
  6
CONTINUOUS
 62
     7
 10
-1582.1291154854
 20
-57.0304975474
 30
0.0
 11
-1582.1540004246
 21
-57.0304975474
 31
0.0
  0
LINE
  5
7F
  8
0
  6
CONTINUOUS
 62
     7
 10
-1582.1291154854
 20
-58.5305080378
 30
0.0
 11
-1582.1291154854
 21
-57.0304975474
 31
0.0
  0
LINE
  5
80
  8
0
  6
CONTINUOUS
 62
     7
 10
-1582.1284002297
 20
539.9687900579
 30
0.0
 11
-1582.1284002297
 21
539.9439051187
 31
0.0
  0
LINE
  5
81
  8
0
  6
CONTINUOUS
 62
     7
 10
-1580.6283897393
 20
539.9687900579
 30
0.0
 11
-1582.1284002297
 21
539.9687900579
 31
0.0
  0
LINE
  5
82
  8
0
  6
CONTINUOUS
 62
     7
 10
-1580.6283897393
 20
539.9439051187
 30
0.0
 11
-1580.6283897393
 21
539.9687900579
 31
0.0
  0
LINE
  5
83
  8
0
  6
CONTINUOUS
 62
     7
 10
-2179.1284030907
 20
-57.0297822916
 30
0.0
 11
-2179.1284030907
 21
-57.0048973524
 31
0.0
  0
LINE
  5
84
  8
0
  6
CONTINUOUS
 62
     7
 10
-2180.6284135811
 20
-57.0297822916
 30
0.0
 11
-2179.1284030907
 21
-57.0297822916
 31
0.0
  0
LINE
  5
85
  8
0
  6
CONTINUOUS
 62
     7
 10
-2180.6284135811
 20
-57.0297822916
 30
0.0
 11
-2180.6284135811
 21
-57.0048973524
 31
0.0
  0
LINE
  5
86
  8
0
  6
CONTINUOUS
 62
     7
 10
-2180.6284135811
 20
539.9439051187
 30
0.0
 11
-2180.6284135811
 21
539.9687900579
 31
0.0
  0
LINE
  5
87
  8
0
  6
CONTINUOUS
 62
     7
 10
-2180.6284135811
 20
539.9687900579
 30
0.0
 11
-2179.1284030907
 21
539.9687900579
 31
0.0
  0
LINE
  5
88
  8
0
  6
CONTINUOUS
 62
     7
 10
-2179.1284030907
 20
539.9439051187
 30
0.0
 11
-2179.1284030907
 21
539.9687900579
 31
0.0
  0
LINE
  5
89
  8
0
  6
CONTINUOUS
 62
     7
 10
-1582.1291154854
 20
541.4695158041
 30
0.0
 11
-1582.1291154854
 21
539.9695053137
 31
0.0
  0
LINE
  5
8A
  8
0
  6
CONTINUOUS
 62
     7
 10
-1582.1540004246
 20
539.9695053137
 30
0.0
 11
-1582.1291154854
 21
539.9695053137
 31
0.0
  0
LINE
  5
8B
  8
0
  6
CONTINUOUS
 62
     7
 10
-1580.6283897393
 20
-57.0297822916
 30
0.0
 11
-1582.1284002297
 21
-57.0297822916
 31
0.0
  0
LINE
  5
8C
  8
0
  6
CONTINUOUS
 62
     7
 10
-1580.6283897393
 20
-57.0297822916
 30
0.0
 11
-1580.6283897393
 21
-57.0048973524
 31
0.0
  0
LINE
  5
8D
  8
0
  6
CONTINUOUS
 62
     7
 10
-1582.1284002297
 20
-57.0048973524
 30
0.0
 11
-1582.1284002297
 21
-57.0297822916
 31
0.0
  0
LINE
  5
8E
  8
0
  6
CONTINUOUS
 62
     7
 10
-2179.127687835
 20
-58.5305080378
 30
0.0
 11
-2179.127687835
 21
-57.0304975474
 31
0.0
  0
LINE
  5
8F
  8
0
  6
CONTINUOUS
 62
     7
 10
-2179.1028028958
 20
-57.0304975474
 30
0.0
 11
-2179.127687835
 21
-57.0304975474
 31
0.0
  0
LINE
  5
90
  8
0
  6
CONTINUOUS
 62
     7
 10
-2179.127687835
 20
541.4695158041
 30
0.0
 11
-2179.127687835
 21
539.9695053137
 31
0.0
  0
LINE
  5
91
  8
0
  6
CONTINUOUS
 62
     7
 10
-2179.127687835
 20
539.9695053137
 30
0.0
 11
-2179.1028028958
 21
539.9695053137
 31
0.0
  0
LINE
  5
92
  8
0
  6
CONTINUOUS
 62
     7
 10
-2197.3783916466
 20
541.4695158041
 30
0.0
 11
-2200.3284043305
 21
541.4695158041
 31
0.0
  0
LINE
  5
93
  8
0
  6
CONTINUOUS
 62
     7
 10
-2200.3284043305
 20
541.4695158041
 30
0.0
 11
-2200.6283945077
 21
541.7695059812
 31
0.0
  0
LINE
  5
94
  8
0
  6
CONTINUOUS
 62
     7
 10
-2200.6283945077
 20
541.7695059812
 30
0.0
 11
-2197.3783916466
 21
541.7695059812
 31
0.0
  0
LINE
  5
95
  8
0
  6
CONTINUOUS
 62
     7
 10
-2200.6283945077
 20
541.7695059812
 30
0.0
 11
-2200.6283945077
 21
545.1695039308
 31
0.0
  0
LINE
  5
96
  8
0
  6
CONTINUOUS
 62
     7
 10
-2197.3783916466
 20
545.1695039308
 30
0.0
 11
-2200.6283945077
 21
545.1695039308
 31
0.0
  0
LINE
  5
97
  8
0
  6
CONTINUOUS
 62
     7
 10
-2191.8784028523
 20
541.4695158041
 30
0.0
 11
-2197.3783916466
 21
541.4695158041
 31
0.0
  0
LINE
  5
98
  8
0
  6
CONTINUOUS
 62
     7
 10
-2197.3783916466
 20
541.7695059812
 30
0.0
 11
-2191.8784028523
 21
541.7695059812
 31
0.0
  0
LINE
  5
99
  8
0
  6
CONTINUOUS
 62
     7
 10
-2191.8784028523
 20
545.1695039308
 30
0.0
 11
-2197.3783916466
 21
545.1695039308
 31
0.0
  0
LINE
  5
9A
  8
0
  6
CONTINUOUS
 62
     7
 10
-2197.3783916466
 20
545.469494108
 30
0.0
 11
-2191.8784028523
 21
545.469494108
 31
0.0
  0
LINE
  5
9B
  8
0
  6
CONTINUOUS
 62
     7
 10
-2200.3284043305
 20
545.469494108
 30
0.0
 11
-2197.3783916466
 21
545.469494108
 31
0.0
  0
LINE
  5
9C
  8
0
  6
CONTINUOUS
 62
     7
 10
-2200.3284043305
 20
545.469494108
 30
0.0
 11
-2200.6283945077
 21
545.1695039308
 31
0.0
  0
LINE
  5
9D
  8
0
  6
CONTINUOUS
 62
     7
 10
-2191.8784028523
 20
545.469494108
 30
0.0
 11
-2188.9283901684
 21
545.469494108
 31
0.0
  0
LINE
  5
9E
  8
0
  6
CONTINUOUS
 62
     7
 10
-2188.6283999913
 20
545.1695039308
 30
0.0
 11
-2188.9283901684
 21
545.469494108
 31
0.0
  0
LINE
  5
9F
  8
0
  6
CONTINUOUS
 62
     7
 10
-2188.6283999913
 20
545.1695039308
 30
0.0
 11
-2191.8784028523
 21
545.1695039308
 31
0.0
  0
LINE
  5
A0
  8
0
  6
CONTINUOUS
 62
     7
 10
-2191.8784028523
 20
541.7695059812
 30
0.0
 11
-2188.6283999913
 21
541.7695059812
 31
0.0
  0
LINE
  5
A1
  8
0
  6
CONTINUOUS
 62
     7
 10
-2188.6283999913
 20
545.1695039308
 30
0.0
 11
-2188.6283999913
 21
541.7695059812
 31
0.0
  0
LINE
  5
A2
  8
0
  6
CONTINUOUS
 62
     7
 10
-2188.9283901684
 20
541.4695158041
 30
0.0
 11
-2191.8784028523
 21
541.4695158041
 31
0.0
  0
LINE
  5
A3
  8
0
  6
CONTINUOUS
 62
     7
 10
-2188.9283901684
 20
541.4695158041
 30
0.0
 11
-2188.6283999913
 21
541.7695059812
 31
0.0
  0
LINE
  5
A4
  8
0
  6
CONTINUOUS
 62
     7
 10
-2187.7614802354
 20
545.1695039308
 30
0.0
 11
-2188.6283999913
 21
545.1695039308
 31
0.0
  0
LINE
  5
A5
  8
0
  6
CONTINUOUS
 62
     7
 10
-2188.9283901684
 20
545.469494108
 30
0.0
 11
-2187.9814511769
 21
545.469494108
 31
0.0
  0
LINE
  5
A6
  8
0
  6
CONTINUOUS
 62
     7
 10
-2188.6283999913
 20
541.7695059812
 30
0.0
 11
-2187.7614802354
 21
541.7695059812
 31
0.0
  0
LINE
  5
A7
  8
0
  6
CONTINUOUS
 62
     7
 10
-2187.9814511769
 20
541.4695158041
 30
0.0
 11
-2188.9283901684
 21
541.4695158041
 31
0.0
  0
LINE
  5
A8
  8
0
  6
CONTINUOUS
 62
     7
 10
-2187.7614802354
 20
541.7695059812
 30
0.0
 11
-2159.4956165784
 21
541.7695059812
 31
0.0
  0
LINE
  5
A9
  8
0
  6
CONTINUOUS
 62
     7
 10
-2159.4956165784
 20
545.1695039308
 30
0.0
 11
-2187.7614802354
 21
545.1695039308
 31
0.0
  0
LINE
  5
AA
  8
0
  6
CONTINUOUS
 62
     7
 10
-2187.9814511769
 20
545.469494108
 30
0.0
 11
-2159.7155875199
 21
545.469494108
 31
0.0
  0
LINE
  5
AB
  8
0
  6
CONTINUOUS
 62
     7
 10
-2159.7155875199
 20
541.4695158041
 30
0.0
 11
-2187.9814511769
 21
541.4695158041
 31
0.0
  0
LINE
  5
AC
  8
0
  6
CONTINUOUS
 62
     7
 10
-2159.4956165784
 20
541.7695059812
 30
0.0
 11
-2157.6284116738
 21
541.7695059812
 31
0.0
  0
LINE
  5
AD
  8
0
  6
CONTINUOUS
 62
     7
 10
-2157.6284116738
 20
541.7695059812
 30
0.0
 11
-2157.928401851
 21
541.4695158041
 31
0.0
  0
LINE
  5
AE
  8
0
  6
CONTINUOUS
 62
     7
 10
-2157.6284116738
 20
545.1695039308
 30
0.0
 11
-2159.4956165784
 21
545.1695039308
 31
0.0
  0
LINE
  5
AF
  8
0
  6
CONTINUOUS
 62
     7
 10
-2157.6284116738
 20
545.1695039308
 30
0.0
 11
-2157.928401851
 21
545.469494108
 31
0.0
  0
LINE
  5
B0
  8
0
  6
CONTINUOUS
 62
     7
 10
-2159.7155875199
 20
545.469494108
 30
0.0
 11
-2157.928401851
 21
545.469494108
 31
0.0
  0
LINE
  5
B1
  8
0
  6
CONTINUOUS
 62
     7
 10
-2157.6284116738
 20
545.1695039308
 30
0.0
 11
-2157.6284116738
 21
541.7695059812
 31
0.0
  0
LINE
  5
B2
  8
0
  6
CONTINUOUS
 62
     7
 10
-1569.3784004681
 20
545.469494108
 30
0.0
 11
-1563.8784116738
 21
545.469494108
 31
0.0
  0
LINE
  5
B3
  8
0
  6
CONTINUOUS
 62
     7
 10
-1563.8784116738
 20
545.1695039308
 30
0.0
 11
-1569.3784004681
 21
545.1695039308
 31
0.0
  0
LINE
  5
B4
  8
0
  6
CONTINUOUS
 62
     7
 10
-1569.3784004681
 20
541.7695059812
 30
0.0
 11
-1563.8784116738
 21
541.7695059812
 31
0.0
  0
LINE
  5
B5
  8
0
  6
CONTINUOUS
 62
     7
 10
-1563.8784116738
 20
545.469494108
 30
0.0
 11
-1560.9283989899
 21
545.469494108
 31
0.0
  0
LINE
  5
B6
  8
0
  6
CONTINUOUS
 62
     7
 10
-1560.9283989899
 20
545.469494108
 30
0.0
 11
-1560.6284088128
 21
545.1695039308
 31
0.0
  0
LINE
  5
B7
  8
0
  6
CONTINUOUS
 62
     7
 10
-1560.6284088128
 20
545.1695039308
 30
0.0
 11
-1563.8784116738
 21
545.1695039308
 31
0.0
  0
LINE
  5
B8
  8
0
  6
CONTINUOUS
 62
     7
 10
-1560.6284088128
 20
545.1695039308
 30
0.0
 11
-1560.6284088128
 21
541.7695059812
 31
0.0
  0
LINE
  5
B9
  8
0
  6
CONTINUOUS
 62
     7
 10
-1563.8784116738
 20
541.7695059812
 30
0.0
 11
-1560.6284088128
 21
541.7695059812
 31
0.0
  0
LINE
  5
BA
  8
0
  6
CONTINUOUS
 62
     7
 10
-1563.8784116738
 20
541.4695158041
 30
0.0
 11
-1569.3784004681
 21
541.4695158041
 31
0.0
  0
LINE
  5
BB
  8
0
  6
CONTINUOUS
 62
     7
 10
-1560.9283989899
 20
541.4695158041
 30
0.0
 11
-1563.8784116738
 21
541.4695158041
 31
0.0
  0
LINE
  5
BC
  8
0
  6
CONTINUOUS
 62
     7
 10
-1560.9283989899
 20
541.4695158041
 30
0.0
 11
-1560.6284088128
 21
541.7695059812
 31
0.0
  0
LINE
  5
BD
  8
0
  6
CONTINUOUS
 62
     7
 10
-1569.3784004681
 20
541.4695158041
 30
0.0
 11
-1572.328413152
 21
541.4695158041
 31
0.0
  0
LINE
  5
BE
  8
0
  6
CONTINUOUS
 62
     7
 10
-1572.6284033292
 20
541.7695059812
 30
0.0
 11
-1572.328413152
 21
541.4695158041
 31
0.0
  0
LINE
  5
BF
  8
0
  6
CONTINUOUS
 62
     7
 10
-1572.6284033292
 20
541.7695059812
 30
0.0
 11
-1569.3784004681
 21
541.7695059812
 31
0.0
  0
LINE
  5
C0
  8
0
  6
CONTINUOUS
 62
     7
 10
-1569.3784004681
 20
545.1695039308
 30
0.0
 11
-1572.6284033292
 21
545.1695039308
 31
0.0
  0
LINE
  5
C1
  8
0
  6
CONTINUOUS
 62
     7
 10
-1572.6284033292
 20
541.7695059812
 30
0.0
 11
-1572.6284033292
 21
545.1695039308
 31
0.0
  0
LINE
  5
C2
  8
0
  6
CONTINUOUS
 62
     7
 10
-1572.328413152
 20
545.469494108
 30
0.0
 11
-1569.3784004681
 21
545.469494108
 31
0.0
  0
LINE
  5
C3
  8
0
  6
CONTINUOUS
 62
     7
 10
-1572.328413152
 20
545.469494108
 30
0.0
 11
-1572.6284033292
 21
545.1695039308
 31
0.0
  0
LINE
  5
C4
  8
0
  6
CONTINUOUS
 62
     7
 10
-1572.6284033292
 20
545.1695039308
 30
0.0
 11
-1573.4953230851
 21
545.1695039308
 31
0.0
  0
LINE
  5
C5
  8
0
  6
CONTINUOUS
 62
     7
 10
-1573.2753521435
 20
545.469494108
 30
0.0
 11
-1572.328413152
 21
545.469494108
 31
0.0
  0
LINE
  5
C6
  8
0
  6
CONTINUOUS
 62
     7
 10
-1573.4953230851
 20
541.7695059812
 30
0.0
 11
-1572.6284033292
 21
541.7695059812
 31
0.0
  0
LINE
  5
C7
  8
0
  6
CONTINUOUS
 62
     7
 10
-1572.328413152
 20
541.4695158041
 30
0.0
 11
-1573.2753521435
 21
541.4695158041
 31
0.0
  0
LINE
  5
C8
  8
0
  6
CONTINUOUS
 62
     7
 10
-1573.4953230851
 20
545.1695039308
 30
0.0
 11
-1601.7611867421
 21
545.1695039308
 31
0.0
  0
LINE
  5
C9
  8
0
  6
CONTINUOUS
 62
     7
 10
-1601.5412158005
 20
545.469494108
 30
0.0
 11
-1573.2753521435
 21
545.469494108
 31
0.0
  0
LINE
  5
CA
  8
0
  6
CONTINUOUS
 62
     7
 10
-1601.7611867421
 20
541.7695059812
 30
0.0
 11
-1573.4953230851
 21
541.7695059812
 31
0.0
  0
LINE
  5
CB
  8
0
  6
CONTINUOUS
 62
     7
 10
-1573.2753521435
 20
541.4695158041
 30
0.0
 11
-1601.5412158005
 21
541.4695158041
 31
0.0
  0
LINE
  5
CC
  8
0
  6
CONTINUOUS
 62
     7
 10
-1601.7611867421
 20
545.1695039308
 30
0.0
 11
-1603.6283916466
 21
545.1695039308
 31
0.0
  0
LINE
  5
CD
  8
0
  6
CONTINUOUS
 62
     7
 10
-1603.6283916466
 20
541.7695059812
 30
0.0
 11
-1601.7611867421
 21
541.7695059812
 31
0.0
  0
LINE
  5
CE
  8
0
  6
CONTINUOUS
 62
     7
 10
-1603.6283916466
 20
541.7695059812
 30
0.0
 11
-1603.6283916466
 21
545.1695039308
 31
0.0
  0
LINE
  5
CF
  8
0
  6
CONTINUOUS
 62
     7
 10
-1603.6283916466
 20
541.7695059812
 30
0.0
 11
-1603.3284014695
 21
541.4695158041
 31
0.0
  0
LINE
  5
D0
  8
0
  6
CONTINUOUS
 62
     7
 10
-1603.6283916466
 20
545.1695039308
 30
0.0
 11
-1603.3284014695
 21
545.469494108
 31
0.0
  0
LINE
  5
D1
  8
0
  6
CONTINUOUS
 62
     7
 10
-1603.3284014695
 20
545.469494108
 30
0.0
 11
-1601.5412158005
 21
545.469494108
 31
0.0
  0
LINE
  5
D2
  8
0
  6
CONTINUOUS
 62
     7
 10
-1560.6284088128
 20
-58.8304982149
 30
0.0
 11
-1563.8784116738
 21
-58.8304982149
 31
0.0
  0
LINE
  5
D3
  8
0
  6
CONTINUOUS
 62
     7
 10
-1560.6284088128
 20
-58.8304982149
 30
0.0
 11
-1560.6284088128
 21
-62.2304961645
 31
0.0
  0
LINE
  5
D4
  8
0
  6
CONTINUOUS
 62
     7
 10
-1563.8784116738
 20
-62.2304961645
 30
0.0
 11
-1560.6284088128
 21
-62.2304961645
 31
0.0
  0
LINE
  5
D5
  8
0
  6
CONTINUOUS
 62
     7
 10
-1569.3784004681
 20
-58.5305080378
 30
0.0
 11
-1563.8784116738
 21
-58.5305080378
 31
0.0
  0
LINE
  5
D6
  8
0
  6
CONTINUOUS
 62
     7
 10
-1563.8784116738
 20
-58.8304982149
 30
0.0
 11
-1569.3784004681
 21
-58.8304982149
 31
0.0
  0
LINE
  5
D7
  8
0
  6
CONTINUOUS
 62
     7
 10
-1569.3784004681
 20
-62.2304961645
 30
0.0
 11
-1563.8784116738
 21
-62.2304961645
 31
0.0
  0
LINE
  5
D8
  8
0
  6
CONTINUOUS
 62
     7
 10
-1563.8784116738
 20
-58.5305080378
 30
0.0
 11
-1560.9283989899
 21
-58.5305080378
 31
0.0
  0
LINE
  5
D9
  8
0
  6
CONTINUOUS
 62
     7
 10
-1560.9283989899
 20
-58.5305080378
 30
0.0
 11
-1560.6284088128
 21
-58.8304982149
 31
0.0
  0
LINE
  5
DA
  8
0
  6
CONTINUOUS
 62
     7
 10
-1560.9283989899
 20
-62.5304863417
 30
0.0
 11
-1563.8784116738
 21
-62.5304863417
 31
0.0
  0
LINE
  5
DB
  8
0
  6
CONTINUOUS
 62
     7
 10
-1560.9283989899
 20
-62.5304863417
 30
0.0
 11
-1560.6284088128
 21
-62.2304961645
 31
0.0
  0
LINE
  5
DC
  8
0
  6
CONTINUOUS
 62
     7
 10
-1563.8784116738
 20
-62.5304863417
 30
0.0
 11
-1569.3784004681
 21
-62.5304863417
 31
0.0
  0
LINE
  5
DD
  8
0
  6
CONTINUOUS
 62
     7
 10
-1569.3784004681
 20
-58.8304982149
 30
0.0
 11
-1572.6284033292
 21
-58.8304982149
 31
0.0
  0
LINE
  5
DE
  8
0
  6
CONTINUOUS
 62
     7
 10
-1572.6284033292
 20
-62.2304961645
 30
0.0
 11
-1569.3784004681
 21
-62.2304961645
 31
0.0
  0
LINE
  5
DF
  8
0
  6
CONTINUOUS
 62
     7
 10
-1572.6284033292
 20
-62.2304961645
 30
0.0
 11
-1572.6284033292
 21
-58.8304982149
 31
0.0
  0
LINE
  5
E0
  8
0
  6
CONTINUOUS
 62
     7
 10
-1569.3784004681
 20
-62.5304863417
 30
0.0
 11
-1572.328413152
 21
-62.5304863417
 31
0.0
  0
LINE
  5
E1
  8
0
  6
CONTINUOUS
 62
     7
 10
-1572.6284033292
 20
-62.2304961645
 30
0.0
 11
-1572.328413152
 21
-62.5304863417
 31
0.0
  0
LINE
  5
E2
  8
0
  6
CONTINUOUS
 62
     7
 10
-1572.328413152
 20
-58.5305080378
 30
0.0
 11
-1569.3784004681
 21
-58.5305080378
 31
0.0
  0
LINE
  5
E3
  8
0
  6
CONTINUOUS
 62
     7
 10
-1572.328413152
 20
-58.5305080378
 30
0.0
 11
-1572.6284033292
 21
-58.8304982149
 31
0.0
  0
LINE
  5
E4
  8
0
  6
CONTINUOUS
 62
     7
 10
-1573.4953230851
 20
-62.2304961645
 30
0.0
 11
-1572.6284033292
 21
-62.2304961645
 31
0.0
  0
LINE
  5
E5
  8
0
  6
CONTINUOUS
 62
     7
 10
-1572.328413152
 20
-62.5304863417
 30
0.0
 11
-1573.2753521435
 21
-62.5304863417
 31
0.0
  0
LINE
  5
E6
  8
0
  6
CONTINUOUS
 62
     7
 10
-1572.6284033292
 20
-58.8304982149
 30
0.0
 11
-1573.4953230851
 21
-58.8304982149
 31
0.0
  0
LINE
  5
E7
  8
0
  6
CONTINUOUS
 62
     7
 10
-1573.2753521435
 20
-58.5305080378
 30
0.0
 11
-1572.328413152
 21
-58.5305080378
 31
0.0
  0
LINE
  5
E8
  8
0
  6
CONTINUOUS
 62
     7
 10
-1601.7611867421
 20
-62.2304961645
 30
0.0
 11
-1573.4953230851
 21
-62.2304961645
 31
0.0
  0
LINE
  5
E9
  8
0
  6
CONTINUOUS
 62
     7
 10
-1573.2753521435
 20
-62.5304863417
 30
0.0
 11
-1601.5412158005
 21
-62.5304863417
 31
0.0
  0
LINE
  5
EA
  8
0
  6
CONTINUOUS
 62
     7
 10
-1573.4953230851
 20
-58.8304982149
 30
0.0
 11
-1601.7611867421
 21
-58.8304982149
 31
0.0
  0
LINE
  5
EB
  8
0
  6
CONTINUOUS
 62
     7
 10
-1601.5412158005
 20
-58.5305080378
 30
0.0
 11
-1573.2753521435
 21
-58.5305080378
 31
0.0
  0
LINE
  5
EC
  8
0
  6
CONTINUOUS
 62
     7
 10
-1601.7611867421
 20
-58.8304982149
 30
0.0
 11
-1603.6283916466
 21
-58.8304982149
 31
0.0
  0
LINE
  5
ED
  8
0
  6
CONTINUOUS
 62
     7
 10
-1603.6283916466
 20
-58.8304982149
 30
0.0
 11
-1603.3284014695
 21
-58.5305080378
 31
0.0
  0
LINE
  5
EE
  8
0
  6
CONTINUOUS
 62
     7
 10
-1603.6283916466
 20
-62.2304961645
 30
0.0
 11
-1601.7611867421
 21
-62.2304961645
 31
0.0
  0
LINE
  5
EF
  8
0
  6
CONTINUOUS
 62
     7
 10
-1603.6283916466
 20
-62.2304961645
 30
0.0
 11
-1603.6283916466
 21
-58.8304982149
 31
0.0
  0
LINE
  5
F0
  8
0
  6
CONTINUOUS
 62
     7
 10
-1603.6283916466
 20
-62.2304961645
 30
0.0
 11
-1603.3284014695
 21
-62.5304863417
 31
0.0
  0
LINE
  5
F1
  8
0
  6
CONTINUOUS
 62
     7
 10
-1601.5412158005
 20
-62.5304863417
 30
0.0
 11
-1603.3284014695
 21
-62.5304863417
 31
0.0
  0
LINE
  5
F2
  8
0
  6
CONTINUOUS
 62
     7
 10
-2200.6283945077
 20
-62.2304961645
 30
0.0
 11
-2197.3783916466
 21
-62.2304961645
 31
0.0
  0
LINE
  5
F3
  8
0
  6
CONTINUOUS
 62
     7
 10
-2200.6283945077
 20
-62.2304961645
 30
0.0
 11
-2200.6283945077
 21
-58.8304982149
 31
0.0
  0
LINE
  5
F4
  8
0
  6
CONTINUOUS
 62
     7
 10
-2197.3783916466
 20
-58.8304982149
 30
0.0
 11
-2200.6283945077
 21
-58.8304982149
 31
0.0
  0
LINE
  5
F5
  8
0
  6
CONTINUOUS
 62
     7
 10
-2197.3783916466
 20
-62.5304863417
 30
0.0
 11
-2200.3284043305
 21
-62.5304863417
 31
0.0
  0
LINE
  5
F6
  8
0
  6
CONTINUOUS
 62
     7
 10
-2200.3284043305
 20
-62.5304863417
 30
0.0
 11
-2200.6283945077
 21
-62.2304961645
 31
0.0
  0
LINE
  5
F7
  8
0
  6
CONTINUOUS
 62
     7
 10
-2191.8784028523
 20
-62.5304863417
 30
0.0
 11
-2197.3783916466
 21
-62.5304863417
 31
0.0
  0
LINE
  5
F8
  8
0
  6
CONTINUOUS
 62
     7
 10
-2197.3783916466
 20
-62.2304961645
 30
0.0
 11
-2191.8784028523
 21
-62.2304961645
 31
0.0
  0
LINE
  5
F9
  8
0
  6
CONTINUOUS
 62
     7
 10
-2191.8784028523
 20
-58.8304982149
 30
0.0
 11
-2197.3783916466
 21
-58.8304982149
 31
0.0
  0
LINE
  5
FA
  8
0
  6
CONTINUOUS
 62
     7
 10
-2200.3284043305
 20
-58.5305080378
 30
0.0
 11
-2197.3783916466
 21
-58.5305080378
 31
0.0
  0
LINE
  5
FB
  8
0
  6
CONTINUOUS
 62
     7
 10
-2200.3284043305
 20
-58.5305080378
 30
0.0
 11
-2200.6283945077
 21
-58.8304982149
 31
0.0
  0
LINE
  5
FC
  8
0
  6
CONTINUOUS
 62
     7
 10
-2197.3783916466
 20
-58.5305080378
 30
0.0
 11
-2191.8784028523
 21
-58.5305080378
 31
0.0
  0
LINE
  5
FD
  8
0
  6
CONTINUOUS
 62
     7
 10
-2191.8784028523
 20
-58.5305080378
 30
0.0
 11
-2188.9283901684
 21
-58.5305080378
 31
0.0
  0
LINE
  5
FE
  8
0
  6
CONTINUOUS
 62
     7
 10
-2188.6283999913
 20
-58.8304982149
 30
0.0
 11
-2188.9283901684
 21
-58.5305080378
 31
0.0
  0
LINE
  5
FF
  8
0
  6
CONTINUOUS
 62
     7
 10
-2188.6283999913
 20
-58.8304982149
 30
0.0
 11
-2191.8784028523
 21
-58.8304982149
 31
0.0
  0
LINE
  5
100
  8
0
  6
CONTINUOUS
 62
     7
 10
-2191.8784028523
 20
-62.2304961645
 30
0.0
 11
-2188.6283999913
 21
-62.2304961645
 31
0.0
  0
LINE
  5
101
  8
0
  6
CONTINUOUS
 62
     7
 10
-2188.6283999913
 20
-58.8304982149
 30
0.0
 11
-2188.6283999913
 21
-62.2304961645
 31
0.0
  0
LINE
  5
102
  8
0
  6
CONTINUOUS
 62
     7
 10
-2188.9283901684
 20
-62.5304863417
 30
0.0
 11
-2191.8784028523
 21
-62.5304863417
 31
0.0
  0
LINE
  5
103
  8
0
  6
CONTINUOUS
 62
     7
 10
-2188.9283901684
 20
-62.5304863417
 30
0.0
 11
-2188.6283999913
 21
-62.2304961645
 31
0.0
  0
LINE
  5
104
  8
0
  6
CONTINUOUS
 62
     7
 10
-2188.6283999913
 20
-62.2304961645
 30
0.0
 11
-2187.7614802354
 21
-62.2304961645
 31
0.0
  0
LINE
  5
105
  8
0
  6
CONTINUOUS
 62
     7
 10
-2187.7614802354
 20
-58.8304982149
 30
0.0
 11
-2188.6283999913
 21
-58.8304982149
 31
0.0
  0
LINE
  5
106
  8
0
  6
CONTINUOUS
 62
     7
 10
-2188.9283901684
 20
-58.5305080378
 30
0.0
 11
-2187.9814511769
 21
-58.5305080378
 31
0.0
  0
LINE
  5
107
  8
0
  6
CONTINUOUS
 62
     7
 10
-2187.9814511769
 20
-62.5304863417
 30
0.0
 11
-2188.9283901684
 21
-62.5304863417
 31
0.0
  0
LINE
  5
108
  8
0
  6
CONTINUOUS
 62
     7
 10
-2187.7614802354
 20
-62.2304961645
 30
0.0
 11
-2159.4956165784
 21
-62.2304961645
 31
0.0
  0
LINE
  5
109
  8
0
  6
CONTINUOUS
 62
     7
 10
-2159.7155875199
 20
-62.5304863417
 30
0.0
 11
-2187.9814511769
 21
-62.5304863417
 31
0.0
  0
LINE
  5
10A
  8
0
  6
CONTINUOUS
 62
     7
 10
-2159.4956165784
 20
-58.8304982149
 30
0.0
 11
-2187.7614802354
 21
-58.8304982149
 31
0.0
  0
LINE
  5
10B
  8
0
  6
CONTINUOUS
 62
     7
 10
-2187.9814511769
 20
-58.5305080378
 30
0.0
 11
-2159.7155875199
 21
-58.5305080378
 31
0.0
  0
LINE
  5
10C
  8
0
  6
CONTINUOUS
 62
     7
 10
-2159.4956165784
 20
-62.2304961645
 30
0.0
 11
-2157.6284116738
 21
-62.2304961645
 31
0.0
  0
LINE
  5
10D
  8
0
  6
CONTINUOUS
 62
     7
 10
-2157.6284116738
 20
-62.2304961645
 30
0.0
 11
-2157.928401851
 21
-62.5304863417
 31
0.0
  0
LINE
  5
10E
  8
0
  6
CONTINUOUS
 62
     7
 10
-2157.928401851
 20
-62.5304863417
 30
0.0
 11
-2159.7155875199
 21
-62.5304863417
 31
0.0
  0
LINE
  5
10F
  8
0
  6
CONTINUOUS
 62
     7
 10
-2157.6284116738
 20
-58.8304982149
 30
0.0
 11
-2159.4956165784
 21
-58.8304982149
 31
0.0
  0
LINE
  5
110
  8
0
  6
CONTINUOUS
 62
     7
 10
-2157.6284116738
 20
-58.8304982149
 30
0.0
 11
-2157.928401851
 21
-58.5305080378
 31
0.0
  0
LINE
  5
111
  8
0
  6
CONTINUOUS
 62
     7
 10
-2157.6284116738
 20
-58.8304982149
 30
0.0
 11
-2157.6284116738
 21
-62.2304961645
 31
0.0
  0
LINE
  5
112
  8
0
  6
CONTINUOUS
 62
     7
 10
-2182.2284108632
 20
444.4694980419
 30
0.0
 11
-2180.6284135811
 21
444.4694980419
 31
0.0
  0
LINE
  5
113
  8
0
  6
CONTINUOUS
 62
     7
 10
-2182.2284108632
 20
444.4694980419
 30
0.0
 11
-2182.2284108632
 21
476.4695032871
 31
0.0
  0
LINE
  5
114
  8
0
  6
CONTINUOUS
 62
     7
 10
-2180.6284135811
 20
476.4695032871
 30
0.0
 11
-2182.2284108632
 21
476.4695032871
 31
0.0
  0
LINE
  5
115
  8
0
  6
CONTINUOUS
 62
     7
 10
-2186.6283959382
 20
448.4695061481
 30
0.0
 11
-2182.2284108632
 21
444.4694980419
 31
0.0
  0
LINE
  5
116
  8
0
  6
CONTINUOUS
 62
     7
 10
-2186.6283959382
 20
472.469510082
 30
0.0
 11
-2186.6283959382
 21
448.4695061481
 31
0.0
  0
LINE
  5
117
  8
0
  6
CONTINUOUS
 62
     7
 10
-2182.2284108632
 20
476.4695032871
 30
0.0
 11
-2186.6283959382
 21
472.469510082
 31
0.0
  0
LINE
  5
118
  8
0
  6
CONTINUOUS
 62
     7
 10
-2182.2284108632
 20
6.4695044792
 30
0.0
 11
-2180.6284135811
 21
6.4695044792
 31
0.0
  0
LINE
  5
119
  8
0
  6
CONTINUOUS
 62
     7
 10
-2182.2284108632
 20
6.4695044792
 30
0.0
 11
-2182.2284108632
 21
38.4695097244
 31
0.0
  0
LINE
  5
11A
  8
0
  6
CONTINUOUS
 62
     7
 10
-2180.6284135811
 20
38.4695097244
 30
0.0
 11
-2182.2284108632
 21
38.4695097244
 31
0.0
  0
LINE
  5
11B
  8
0
  6
CONTINUOUS
 62
     7
 10
-2186.6283959382
 20
10.4694976843
 30
0.0
 11
-2182.2284108632
 21
6.4695044792
 31
0.0
  0
LINE
  5
11C
  8
0
  6
CONTINUOUS
 62
     7
 10
-2186.6283959382
 20
34.4695016182
 30
0.0
 11
-2186.6283959382
 21
10.4694976843
 31
0.0
  0
LINE
  5
11D
  8
0
  6
CONTINUOUS
 62
     7
 10
-2182.2284108632
 20
38.4695097244
 30
0.0
 11
-2186.6283959382
 21
34.4695016182
 31
0.0
  0
ARC
  5
11E
  8
0
  6
CONTINUOUS
 62
     7
 10
-2175.5784018798
 20
-54.0304961168
 30
0.0
 40
2.0
 50
180.0
 51
270.0
  0
ARC
  5
11F
  8
0
  6
CONTINUOUS
 62
     7
 10
-1584.5784018798
 20
536.9695038832
 30
0.0
 40
2.0
 50
0.0
 51
90.0
  0
LINE
  5
120
  8
0
  6
CONTINUOUS
 62
     7
 10
-1582.5784152978
 20
-54.0305063688
 30
0.0
 11
-1582.5784152978
 21
536.9695141352
 31
0.0
  0
LINE
  5
121
  8
0
  6
CONTINUOUS
 62
     7
 10
-2175.5784100526
 20
-56.030510422
 30
0.0
 11
-1584.5783895486
 21
-56.030510422
 31
0.0
  0
LINE
  5
122
  8
0
  6
CONTINUOUS
 62
     7
 10
-2177.5784141057
 20
536.9695141352
 30
0.0
 11
-2177.5784141057
 21
-54.0305063688
 31
0.0
  0
LINE
  5
123
  8
0
  6
CONTINUOUS
 62
     7
 10
-1584.5783895486
 20
538.9695181883
 30
0.0
 11
-2175.5784100526
 21
538.9695181883
 31
0.0
  0
ARC
  5
124
  8
0
  6
CONTINUOUS
 62
     7
 10
-2175.5784018798
 20
536.9695038832
 30
0.0
 40
2.0
 50
90.0
 51
180.0
  0
ARC
  5
125
  8
0
  6
CONTINUOUS
 62
     7
 10
-1584.5784018798
 20
-54.0304961168
 30
0.0
 40
2.0
 50
270.0
 51
0.0
  0
POLYLINE
  5
126
  8
0
  6
CONTINUOUS
 62
     7
 66
     1
 10
0.0
 20
0.0
 30
0.0
  0
VERTEX
  5
501
  8
0
  6
CONTINUOUS
 62
     7
 10
-2174.5783931248
 20
539.090873245
 30
0.0
  0
VERTEX
  5
502
  8
0
  6
CONTINUOUS
 62
     7
 10
-2174.6104008191
 20
539.4862308538
 30
0.0
  0
VERTEX
  5
503
  8
0
  6
CONTINUOUS
 62
     7
 10
-2174.7063642972
 20
539.7644653356
 30
0.0
  0
VERTEX
  5
504
  8
0
  6
CONTINUOUS
 62
     7
 10
-2174.8639887803
 20
539.9221792257
 30
0.0
  0
VERTEX
  5
505
  8
0
  6
CONTINUOUS
 62
     7
 10
-2175.0784164899
 20
539.9695053137
 30
0.0
  0
SEQEND
  5
506
  8
0
  6
CONTINUOUS
 62
     7
  0
LINE
  5
127
  8
0
  6
CONTINUOUS
 62
     7
 10
-2175.0784164899
 20
538.9695181883
 30
0.0
 11
-2175.0784164899
 21
539.9695053137
 31
0.0
  0
LINE
  5
128
  8
0
  6
CONTINUOUS
 62
     7
 10
-1585.0784129136
 20
539.9695053137
 30
0.0
 11
-2175.0784164899
 21
539.9695053137
 31
0.0
  0
POLYLINE
  5
129
  8
0
  6
CONTINUOUS
 62
     7
 66
     1
 10
0.0
 20
0.0
 30
0.0
  0
VERTEX
  5
507
  8
0
  6
CONTINUOUS
 62
     7
 10
-1585.5784064763
 20
539.090873245
 30
0.0
  0
VERTEX
  5
508
  8
0
  6
CONTINUOUS
 62
     7
 10
-1585.5464285844
 20
539.4862308538
 30
0.0
  0
VERTEX
  5
509
  8
0
  6
CONTINUOUS
 62
     7
 10
-1585.4504353039
 20
539.7644653356
 30
0.0
  0
VERTEX
  5
50A
  8
0
  6
CONTINUOUS
 62
     7
 10
-1585.2928108208
 20
539.9221792257
 30
0.0
  0
VERTEX
  5
50B
  8
0
  6
CONTINUOUS
 62
     7
 10
-1585.0784129136
 20
539.9695053137
 30
0.0
  0
SEQEND
  5
50C
  8
0
  6
CONTINUOUS
 62
     7
  0
LINE
  5
12A
  8
0
  6
CONTINUOUS
 62
     7
 10
-1585.0784129136
 20
538.9695181883
 30
0.0
 11
-1585.0784129136
 21
539.9695053137
 31
0.0
  0
POLYLINE
  5
12B
  8
0
  6
CONTINUOUS
 62
     7
 66
     1
 10
0.0
 20
0.0
 30
0.0
  0
VERTEX
  5
50D
  8
0
  6
CONTINUOUS
 62
     7
 10
-1581.57839837
 20
536.4694907701
 30
0.0
  0
VERTEX
  5
50E
  8
0
  6
CONTINUOUS
 62
     7
 10
-1581.625813865
 20
536.2549438513
 30
0.0
  0
VERTEX
  5
50F
  8
0
  6
CONTINUOUS
 62
     7
 10
-1581.7828721039
 20
536.09785581
 30
0.0
  0
VERTEX
  5
510
  8
0
  6
CONTINUOUS
 62
     7
 10
-1582.0621198647
 20
536.0016539133
 30
0.0
  0
VERTEX
  5
511
  8
0
  6
CONTINUOUS
 62
     7
 10
-1582.4570900433
 20
535.9694972074
 30
0.0
  0
VERTEX
  5
512
  8
0
  6
CONTINUOUS
 62
     7
 10
-1582.457149648
 20
535.9694972074
 30
0.0
  0
SEQEND
  5
513
  8
0
  6
CONTINUOUS
 62
     7
  0
LINE
  5
12C
  8
0
  6
CONTINUOUS
 62
     7
 10
-1581.57839837
 20
-53.5304830038
 30
0.0
 11
-1581.57839837
 21
536.4694907701
 31
0.0
  0
POLYLINE
  5
12D
  8
0
  6
CONTINUOUS
 62
     7
 66
     1
 10
0.0
 20
0.0
 30
0.0
  0
VERTEX
  5
514
  8
0
  6
CONTINUOUS
 62
     7
 10
-1581.57839837
 20
-53.5304830038
 30
0.0
  0
VERTEX
  5
515
  8
0
  6
CONTINUOUS
 62
     7
 10
-1581.625813865
 20
-53.3159360849
 30
0.0
  0
VERTEX
  5
516
  8
0
  6
CONTINUOUS
 62
     7
 10
-1581.7828721039
 20
-53.1588480436
 30
0.0
  0
VERTEX
  5
517
  8
0
  6
CONTINUOUS
 62
     7
 10
-1582.0621198647
 20
-53.062646147
 30
0.0
  0
VERTEX
  5
518
  8
0
  6
CONTINUOUS
 62
     7
 10
-1582.4570900433
 20
-53.0304894411
 30
0.0
  0
VERTEX
  5
519
  8
0
  6
CONTINUOUS
 62
     7
 10
-1582.457149648
 20
-53.0304894411
 30
0.0
  0
SEQEND
  5
51A
  8
0
  6
CONTINUOUS
 62
     7
  0
LINE
  5
12E
  8
0
  6
CONTINUOUS
 62
     7
 10
-1581.57839837
 20
536.4694907701
 30
0.0
 11
-1582.5784152978
 21
536.4694907701
 31
0.0
  0
POLYLINE
  5
12F
  8
0
  6
CONTINUOUS
 62
     7
 66
     1
 10
0.0
 20
0.0
 30
0.0
  0
VERTEX
  5
51B
  8
0
  6
CONTINUOUS
 62
     7
 10
-2178.5784012311
 20
-53.5304830038
 30
0.0
  0
VERTEX
  5
51C
  8
0
  6
CONTINUOUS
 62
     7
 10
-2178.5310155385
 20
-53.3159360849
 30
0.0
  0
VERTEX
  5
51D
  8
0
  6
CONTINUOUS
 62
     7
 10
-2178.3739274972
 20
-53.1588480436
 30
0.0
  0
VERTEX
  5
51E
  8
0
  6
CONTINUOUS
 62
     7
 10
-2178.0947095387
 20
-53.062646147
 30
0.0
  0
VERTEX
  5
51F
  8
0
  6
CONTINUOUS
 62
     7
 10
-2177.6997095578
 20
-53.0304894411
 30
0.0
  0
VERTEX
  5
520
  8
0
  6
CONTINUOUS
 62
     7
 10
-2177.6996499531
 20
-53.0304894411
 30
0.0
  0
SEQEND
  5
521
  8
0
  6
CONTINUOUS
 62
     7
  0
LINE
  5
130
  8
0
  6
CONTINUOUS
 62
     7
 10
-2178.5784012311
 20
536.4694907701
 30
0.0
 11
-2178.5784012311
 21
-53.5304830038
 31
0.0
  0
POLYLINE
  5
131
  8
0
  6
CONTINUOUS
 62
     7
 66
     1
 10
0.0
 20
0.0
 30
0.0
  0
VERTEX
  5
522
  8
0
  6
CONTINUOUS
 62
     7
 10
-2178.5784012311
 20
536.4694907701
 30
0.0
  0
VERTEX
  5
523
  8
0
  6
CONTINUOUS
 62
     7
 10
-2178.5310155385
 20
536.2549438513
 30
0.0
  0
VERTEX
  5
524
  8
0
  6
CONTINUOUS
 62
     7
 10
-2178.3739274972
 20
536.09785581
 30
0.0
  0
VERTEX
  5
525
  8
0
  6
CONTINUOUS
 62
     7
 10
-2178.0947095387
 20
536.0016539133
 30
0.0
  0
VERTEX
  5
526
  8
0
  6
CONTINUOUS
 62
     7
 10
-2177.6997095578
 20
535.9694972074
 30
0.0
  0
VERTEX
  5
527
  8
0
  6
CONTINUOUS
 62
     7
 10
-2177.6996499531
 20
535.9694972074
 30
0.0
  0
SEQEND
  5
528
  8
0
  6
CONTINUOUS
 62
     7
  0
LINE
  5
132
  8
0
  6
CONTINUOUS
 62
     7
 10
-2178.5784012311
 20
536.4694907701
 30
0.0
 11
-2177.5784141057
 21
536.4694907701
 31
0.0
  0
LINE
  5
133
  8
0
  6
CONTINUOUS
 62
     7
 10
-2178.5784012311
 20
-53.5304830038
 30
0.0
 11
-2177.5784141057
 21
-53.5304830038
 31
0.0
  0
LINE
  5
134
  8
0
  6
CONTINUOUS
 62
     7
 10
-1581.57839837
 20
-53.5304830038
 30
0.0
 11
-1582.5784152978
 21
-53.5304830038
 31
0.0
  0
POLYLINE
  5
135
  8
0
  6
CONTINUOUS
 62
     7
 66
     1
 10
0.0
 20
0.0
 30
0.0
  0
VERTEX
  5
529
  8
0
  6
CONTINUOUS
 62
     7
 10
-1585.5784064763
 20
-56.1518654787
 30
0.0
  0
VERTEX
  5
52A
  8
0
  6
CONTINUOUS
 62
     7
 10
-1585.5464285844
 20
-56.5472230875
 30
0.0
  0
VERTEX
  5
52B
  8
0
  6
CONTINUOUS
 62
     7
 10
-1585.4504353039
 20
-56.8254575693
 30
0.0
  0
VERTEX
  5
52C
  8
0
  6
CONTINUOUS
 62
     7
 10
-1585.2928108208
 20
-56.9831714594
 30
0.0
  0
VERTEX
  5
52D
  8
0
  6
CONTINUOUS
 62
     7
 10
-1585.0784129136
 20
-57.0304975474
 30
0.0
  0
SEQEND
  5
52E
  8
0
  6
CONTINUOUS
 62
     7
  0
LINE
  5
136
  8
0
  6
CONTINUOUS
 62
     7
 10
-2175.0784164899
 20
-57.0304975474
 30
0.0
 11
-1585.0784129136
 21
-57.0304975474
 31
0.0
  0
POLYLINE
  5
137
  8
0
  6
CONTINUOUS
 62
     7
 66
     1
 10
0.0
 20
0.0
 30
0.0
  0
VERTEX
  5
52F
  8
0
  6
CONTINUOUS
 62
     7
 10
-2174.5783931248
 20
-56.1518654787
 30
0.0
  0
VERTEX
  5
530
  8
0
  6
CONTINUOUS
 62
     7
 10
-2174.6104008191
 20
-56.5472230875
 30
0.0
  0
VERTEX
  5
531
  8
0
  6
CONTINUOUS
 62
     7
 10
-2174.7063642972
 20
-56.8254575693
 30
0.0
  0
VERTEX
  5
532
  8
0
  6
CONTINUOUS
 62
     7
 10
-2174.8639887803
 20
-56.9831714594
 30
0.0
  0
VERTEX
  5
533
  8
0
  6
CONTINUOUS
 62
     7
 10
-2175.0784164899
 20
-57.0304975474
 30
0.0
  0
SEQEND
  5
534
  8
0
  6
CONTINUOUS
 62
     7
  0
LINE
  5
138
  8
0
  6
CONTINUOUS
 62
     7
 10
-2175.0784164899
 20
-56.030510422
 30
0.0
 11
-2175.0784164899
 21
-57.0304975474
 31
0.0
  0
LINE
  5
139
  8
0
  6
CONTINUOUS
 62
     7
 10
-1585.0784129136
 20
-56.030510422
 30
0.0
 11
-1585.0784129136
 21
-57.0304975474
 31
0.0
  0
LINE
  5
13A
  8
0
  6
CONTINUOUS
 62
     7
 10
-1585.0784129136
 20
539.9695053137
 30
0.0
 11
-1583.0784088605
 21
539.9695053137
 31
0.0
  0
LINE
  5
13B
  8
0
  6
CONTINUOUS
 62
     7
 10
-1583.0784088605
 20
538.4694948233
 30
0.0
 11
-1583.0784088605
 21
539.9695053137
 31
0.0
  0
LINE
  5
13C
  8
0
  6
CONTINUOUS
 62
     7
 10
-1583.2555240624
 20
538.4694948233
 30
0.0
 11
-1583.0784088605
 21
538.4694948233
 31
0.0
  0
LINE
  5
13D
  8
0
  6
CONTINUOUS
 62
     7
 10
-2177.0783907406
 20
539.9695053137
 30
0.0
 11
-2177.0783907406
 21
538.4694948233
 31
0.0
  0
LINE
  5
13E
  8
0
  6
CONTINUOUS
 62
     7
 10
-2176.9012755387
 20
538.4694948233
 30
0.0
 11
-2177.0783907406
 21
538.4694948233
 31
0.0
  0
LINE
  5
13F
  8
0
  6
CONTINUOUS
 62
     7
 10
-2175.0784164899
 20
539.9695053137
 30
0.0
 11
-2177.0783907406
 21
539.9695053137
 31
0.0
  0
LINE
  5
140
  8
0
  6
CONTINUOUS
 62
     7
 10
-2177.0783907406
 20
538.4694948233
 30
0.0
 11
-2178.5784012311
 21
538.4694948233
 31
0.0
  0
LINE
  5
141
  8
0
  6
CONTINUOUS
 62
     7
 10
-2177.0783907406
 20
538.4694948233
 30
0.0
 11
-2177.0783907406
 21
538.2923796213
 31
0.0
  0
LINE
  5
142
  8
0
  6
CONTINUOUS
 62
     7
 10
-2178.5784012311
 20
538.4694948233
 30
0.0
 11
-2178.5784012311
 21
536.4694907701
 31
0.0
  0
LINE
  5
143
  8
0
  6
CONTINUOUS
 62
     7
 10
-1581.57839837
 20
538.4694948233
 30
0.0
 11
-1583.0784088605
 21
538.4694948233
 31
0.0
  0
LINE
  5
144
  8
0
  6
CONTINUOUS
 62
     7
 10
-1581.57839837
 20
538.4694948233
 30
0.0
 11
-1581.57839837
 21
536.4694907701
 31
0.0
  0
LINE
  5
145
  8
0
  6
CONTINUOUS
 62
     7
 10
-1583.0784088605
 20
538.4694948233
 30
0.0
 11
-1583.0784088605
 21
538.2923796213
 31
0.0
  0
LINE
  5
146
  8
0
  6
CONTINUOUS
 62
     7
 10
-2178.5784012311
 20
-55.5304870569
 30
0.0
 11
-2177.0783907406
 21
-55.5304870569
 31
0.0
  0
LINE
  5
147
  8
0
  6
CONTINUOUS
 62
     7
 10
-2177.0783907406
 20
-55.5304870569
 30
0.0
 11
-2177.0783907406
 21
-55.353371855
 31
0.0
  0
LINE
  5
148
  8
0
  6
CONTINUOUS
 62
     7
 10
-2178.5784012311
 20
-55.5304870569
 30
0.0
 11
-2178.5784012311
 21
-53.5304830038
 31
0.0
  0
LINE
  5
149
  8
0
  6
CONTINUOUS
 62
     7
 10
-1583.0784088605
 20
-55.5304870569
 30
0.0
 11
-1581.57839837
 21
-55.5304870569
 31
0.0
  0
LINE
  5
14A
  8
0
  6
CONTINUOUS
 62
     7
 10
-1581.57839837
 20
-55.5304870569
 30
0.0
 11
-1581.57839837
 21
-53.5304830038
 31
0.0
  0
LINE
  5
14B
  8
0
  6
CONTINUOUS
 62
     7
 10
-1583.0784088605
 20
-55.5304870569
 30
0.0
 11
-1583.0784088605
 21
-55.353371855
 31
0.0
  0
LINE
  5
14C
  8
0
  6
CONTINUOUS
 62
     7
 10
-2175.0784164899
 20
-57.0304975474
 30
0.0
 11
-2177.0783907406
 21
-57.0304975474
 31
0.0
  0
LINE
  5
14D
  8
0
  6
CONTINUOUS
 62
     7
 10
-2177.0783907406
 20
-55.5304870569
 30
0.0
 11
-2177.0783907406
 21
-57.0304975474
 31
0.0
  0
LINE
  5
14E
  8
0
  6
CONTINUOUS
 62
     7
 10
-2176.9012755387
 20
-55.5304870569
 30
0.0
 11
-2177.0783907406
 21
-55.5304870569
 31
0.0
  0
LINE
  5
14F
  8
0
  6
CONTINUOUS
 62
     7
 10
-1583.0784088605
 20
-57.0304975474
 30
0.0
 11
-1583.0784088605
 21
-55.5304870569
 31
0.0
  0
LINE
  5
150
  8
0
  6
CONTINUOUS
 62
     7
 10
-1585.0784129136
 20
-57.0304975474
 30
0.0
 11
-1583.0784088605
 21
-57.0304975474
 31
0.0
  0
LINE
  5
151
  8
0
  6
CONTINUOUS
 62
     7
 10
-1583.2555240624
 20
-55.5304870569
 30
0.0
 11
-1583.0784088605
 21
-55.5304870569
 31
0.0
  0
LINE
  5
152
  8
0
  6
CONTINUOUS
 62
     7
 10
-1118.4444602706
 20
545.469494108
 30
0.0
 11
-1118.7444653489
 21
545.1695039308
 31
0.0
  0
LINE
  5
153
  8
0
  6
CONTINUOUS
 62
     7
 10
-1118.7444653489
 20
545.1695039308
 30
0.0
 11
-1118.7444653489
 21
541.7695059812
 31
0.0
  0
LINE
  5
154
  8
0
  6
CONTINUOUS
 62
     7
 10
-1118.7444653489
 20
541.7695059812
 30
0.0
 11
-1118.4444602706
 21
541.4695158041
 31
0.0
  0
LINE
  5
155
  8
0
  6
CONTINUOUS
 62
     7
 10
-1118.7444653489
 20
-58.8304982149
 30
0.0
 11
-1118.7444653489
 21
-62.2304961645
 31
0.0
  0
LINE
  5
156
  8
0
  6
CONTINUOUS
 62
     7
 10
-1118.4444602706
 20
-58.5305080378
 30
0.0
 11
-1118.7444653489
 21
-58.8304982149
 31
0.0
  0
LINE
  5
157
  8
0
  6
CONTINUOUS
 62
     7
 10
-1118.7444653489
 20
-62.2304961645
 30
0.0
 11
-1118.4444602706
 21
-62.5304863417
 31
0.0
  0
LINE
  5
158
  8
0
  6
CONTINUOUS
 62
     7
 10
-1092.871027825
 20
-57.0297822916
 30
0.0
 11
-1092.8444441535
 21
-57.0304975474
 31
0.0
  0
LINE
  5
159
  8
0
  6
CONTINUOUS
 62
     7
 10
-1092.8444441535
 20
539.9695053137
 30
0.0
 11
-1092.871027825
 21
539.9687900579
 31
0.0
  0
LINE
  5
15A
  8
0
  6
CONTINUOUS
 62
     7
 10
-1105.644452212
 20
-57.0304975474
 30
0.0
 11
-1105.6178834416
 21
-57.0297822916
 31
0.0
  0
LINE
  5
15B
  8
0
  6
CONTINUOUS
 62
     7
 10
-1117.8710337855
 20
-57.0297822916
 30
0.0
 11
-1117.8444650151
 21
-57.0304975474
 31
0.0
  0
LINE
  5
15C
  8
0
  6
CONTINUOUS
 62
     7
 10
-1117.8444650151
 20
539.9695053137
 30
0.0
 11
-1117.8710337855
 21
539.9687900579
 31
0.0
  0
LINE
  5
15D
  8
0
  6
CONTINUOUS
 62
     7
 10
-1105.6178834416
 20
539.9687900579
 30
0.0
 11
-1105.644452212
 21
539.9695053137
 31
0.0
  0
LINE
  5
15E
  8
0
  6
CONTINUOUS
 62
     7
 10
-1105.4944571234
 20
-57.0304975474
 30
0.0
 11
-1105.4944571234
 21
-57.0297822916
 31
0.0
  0
LINE
  5
15F
  8
0
  6
CONTINUOUS
 62
     7
 10
-1083.744454024
 20
-58.5305080378
 30
0.0
 11
-1083.744454024
 21
541.4695158041
 31
0.0
  0
LINE
  5
160
  8
0
  6
CONTINUOUS
 62
     7
 10
-1043.7444623686
 20
541.4695158041
 30
0.0
 11
-1043.7444623686
 21
-58.5305080378
 31
0.0
  0
LINE
  5
161
  8
0
  6
CONTINUOUS
 62
     7
 10
-1351.2444582894
 20
-57.0297822916
 30
0.0
 11
-1083.744454024
 21
-57.0297822916
 31
0.0
  0
LINE
  5
162
  8
0
  6
CONTINUOUS
 62
     7
 10
-1083.744454024
 20
539.9687900579
 30
0.0
 11
-1351.2444582894
 21
539.9687900579
 31
0.0
  0
POLYLINE
  5
163
  8
0
  6
CONTINUOUS
 62
     7
 66
     1
 10
0.0
 20
0.0
 30
0.0
  0
VERTEX
  5
535
  8
0
  6
CONTINUOUS
 62
     7
 10
-1351.2444582894
 20
539.9687900579
 30
0.0
  0
VERTEX
  5
536
  8
0
  6
CONTINUOUS
 62
     7
 10
-1351.7654028848
 20
539.9460210836
 30
0.0
  0
VERTEX
  5
537
  8
0
  6
CONTINUOUS
 62
     7
 10
-1352.2705187216
 20
539.8783698118
 30
0.0
  0
VERTEX
  5
538
  8
0
  6
CONTINUOUS
 62
     7
 10
-1352.7444583025
 20
539.767922405
 30
0.0
  0
VERTEX
  5
539
  8
0
  6
CONTINUOUS
 62
     7
 10
-1353.1728211684
 20
539.6180167234
 30
0.0
  0
VERTEX
  5
53A
  8
0
  6
CONTINUOUS
 62
     7
 10
-1353.5425916208
 20
539.4332423246
 30
0.0
  0
VERTEX
  5
53B
  8
0
  6
CONTINUOUS
 62
     7
 10
-1353.8425345333
 20
539.2191424406
 30
0.0
  0
VERTEX
  5
53C
  8
0
  6
CONTINUOUS
 62
     7
 10
-1354.0635361725
 20
538.9823033846
 30
0.0
  0
VERTEX
  5
53D
  8
0
  6
CONTINUOUS
 62
     7
 10
-1354.1988815751
 20
538.7298479116
 30
0.0
  0
VERTEX
  5
53E
  8
0
  6
CONTINUOUS
 62
     7
 10
-1354.2444583155
 20
538.4694948233
 30
0.0
  0
SEQEND
  5
53F
  8
0
  6
CONTINUOUS
 62
     7
  0
POLYLINE
  5
164
  8
0
  6
CONTINUOUS
 62
     7
 66
     1
 10
0.0
 20
0.0
 30
0.0
  0
VERTEX
  5
540
  8
0
  6
CONTINUOUS
 62
     7
 10
-1354.2444583155
 20
-55.5304870569
 30
0.0
  0
VERTEX
  5
541
  8
0
  6
CONTINUOUS
 62
     7
 10
-1354.1868141557
 20
-55.8229968512
 30
0.0
  0
VERTEX
  5
542
  8
0
  6
CONTINUOUS
 62
     7
 10
-1354.0160969143
 20
-56.1042413675
 30
0.0
  0
VERTEX
  5
543
  8
0
  6
CONTINUOUS
 62
     7
 10
-1353.7388671549
 20
-56.3634619677
 30
0.0
  0
VERTEX
  5
544
  8
0
  6
CONTINUOUS
 62
     7
 10
-1353.365778633
 20
-56.5906450712
 30
0.0
  0
VERTEX
  5
545
  8
0
  6
CONTINUOUS
 62
     7
 10
-1352.9111690015
 20
-56.7771182024
 30
0.0
  0
VERTEX
  5
546
  8
0
  6
CONTINUOUS
 62
     7
 10
-1352.3925085912
 20
-56.9156691992
 30
0.0
  0
VERTEX
  5
547
  8
0
  6
CONTINUOUS
 62
     7
 10
-1351.829729335
 20
-57.0009932482
 30
0.0
  0
VERTEX
  5
548
  8
0
  6
CONTINUOUS
 62
     7
 10
-1351.2444582894
 20
-57.0297822916
 30
0.0
  0
SEQEND
  5
549
  8
0
  6
CONTINUOUS
 62
     7
  0
LINE
  5
165
  8
0
  6
CONTINUOUS
 62
     7
 10
-1354.2444583155
 20
538.4694948233
 30
0.0
 11
-1354.2444583155
 21
-55.5304870569
 31
0.0
  0
LINE
  5
166
  8
0
  6
CONTINUOUS
 62
     7
 10
-1105.962174771
 20
-58.5305080378
 30
0.0
 11
-1351.2444582894
 21
-58.5305080378
 31
0.0
  0
LINE
  5
167
  8
0
  6
CONTINUOUS
 62
     7
 10
-1083.744454024
 20
-57.0304975474
 30
0.0
 11
-1351.2444582894
 21
-57.0304975474
 31
0.0
  0
ARC
  5
168
  8
0
  6
CONTINUOUS
 62
     7
 10
-1351.2444378134
 20
538.469495302
 30
0.0
 40
3.000020502141335
 50
90.0003910613
 51
180.0000091436
  0
LINE
  5
169
  8
0
  6
CONTINUOUS
 62
     7
 10
-1351.2444582894
 20
541.4695158041
 30
0.0
 11
-1105.962174771
 21
541.4695158041
 31
0.0
  0
LINE
  5
16A
  8
0
  6
CONTINUOUS
 62
     7
 10
-1351.2444582894
 20
539.9695053137
 30
0.0
 11
-1083.744454024
 21
539.9695053137
 31
0.0
  0
ARC
  5
16B
  8
0
  6
CONTINUOUS
 62
     7
 10
-1351.2444266898
 20
-55.5304764122
 30
0.0
 40
3.000031625719443
 50
180.000203297
 51
269.999396498
  0
LINE
  5
16C
  8
0
  6
CONTINUOUS
 62
     7
 10
-1081.9422479846
 20
545.469494108
 30
0.0
 11
-1045.9944483019
 21
545.469494108
 31
0.0
  0
LINE
  5
16D
  8
0
  6
CONTINUOUS
 62
     7
 10
-1045.9944483019
 20
545.1695039308
 30
0.0
 11
-1081.9422479846
 21
545.1695039308
 31
0.0
  0
LINE
  5
16E
  8
0
  6
CONTINUOUS
 62
     7
 10
-1081.9422479846
 20
541.7695059812
 30
0.0
 11
-1045.9944483019
 21
541.7695059812
 31
0.0
  0
LINE
  5
16F
  8
0
  6
CONTINUOUS
 62
     7
 10
-1045.9944483019
 20
541.4695158041
 30
0.0
 11
-1081.9422479846
 21
541.4695158041
 31
0.0
  0
LINE
  5
170
  8
0
  6
CONTINUOUS
 62
     7
 10
-1045.9944483019
 20
541.7695059812
 30
0.0
 11
-1042.7444454409
 21
541.7695059812
 31
0.0
  0
LINE
  5
171
  8
0
  6
CONTINUOUS
 62
     7
 10
-1042.7444454409
 20
545.1695039308
 30
0.0
 11
-1045.9944483019
 21
545.1695039308
 31
0.0
  0
LINE
  5
172
  8
0
  6
CONTINUOUS
 62
     7
 10
-1042.7444454409
 20
545.1695039308
 30
0.0
 11
-1042.7444454409
 21
541.7695059812
 31
0.0
  0
LINE
  5
173
  8
0
  6
CONTINUOUS
 62
     7
 10
-1045.9944483019
 20
545.469494108
 30
0.0
 11
-1043.0444654204
 21
545.469494108
 31
0.0
  0
LINE
  5
174
  8
0
  6
CONTINUOUS
 62
     7
 10
-1043.0444654204
 20
545.469494108
 30
0.0
 11
-1042.7444454409
 21
545.1695039308
 31
0.0
  0
LINE
  5
175
  8
0
  6
CONTINUOUS
 62
     7
 10
-1043.0444654204
 20
541.4695158041
 30
0.0
 11
-1045.9944483019
 21
541.4695158041
 31
0.0
  0
LINE
  5
176
  8
0
  6
CONTINUOUS
 62
     7
 10
-1043.0444654204
 20
541.4695158041
 30
0.0
 11
-1042.7444454409
 21
541.7695059812
 31
0.0
  0
LINE
  5
177
  8
0
  6
CONTINUOUS
 62
     7
 10
-1084.1520901896
 20
541.7695059812
 30
0.0
 11
-1081.9422479846
 21
541.7695059812
 31
0.0
  0
LINE
  5
178
  8
0
  6
CONTINUOUS
 62
     7
 10
-1081.9422479846
 20
541.4695158041
 30
0.0
 11
-1083.9481230952
 21
541.4695158041
 31
0.0
  0
LINE
  5
179
  8
0
  6
CONTINUOUS
 62
     7
 10
-1081.9422479846
 20
545.1695039308
 30
0.0
 11
-1084.1520901896
 21
545.1695039308
 31
0.0
  0
LINE
  5
17A
  8
0
  6
CONTINUOUS
 62
     7
 10
-1083.9481230952
 20
545.469494108
 30
0.0
 11
-1081.9422479846
 21
545.469494108
 31
0.0
  0
LINE
  5
17B
  8
0
  6
CONTINUOUS
 62
     7
 10
-1084.1520901896
 20
545.1695039308
 30
0.0
 11
-1116.504135368
 21
545.1695039308
 31
0.0
  0
LINE
  5
17C
  8
0
  6
CONTINUOUS
 62
     7
 10
-1116.3001533724
 20
545.469494108
 30
0.0
 11
-1083.9481230952
 21
545.469494108
 31
0.0
  0
LINE
  5
17D
  8
0
  6
CONTINUOUS
 62
     7
 10
-1116.504135368
 20
541.7695059812
 30
0.0
 11
-1084.1520901896
 21
541.7695059812
 31
0.0
  0
LINE
  5
17E
  8
0
  6
CONTINUOUS
 62
     7
 10
-1083.9481230952
 20
541.4695158041
 30
0.0
 11
-1105.962174771
 21
541.4695158041
 31
0.0
  0
LINE
  5
17F
  8
0
  6
CONTINUOUS
 62
     7
 10
-1116.504135368
 20
545.1695039308
 30
0.0
 11
-1118.7444653489
 21
545.1695039308
 31
0.0
  0
LINE
  5
180
  8
0
  6
CONTINUOUS
 62
     7
 10
-1118.4444602706
 20
545.469494108
 30
0.0
 11
-1116.3001533724
 21
545.469494108
 31
0.0
  0
LINE
  5
181
  8
0
  6
CONTINUOUS
 62
     7
 10
-1118.7444653489
 20
541.7695059812
 30
0.0
 11
-1116.504135368
 21
541.7695059812
 31
0.0
  0
LINE
  5
182
  8
0
  6
CONTINUOUS
 62
     7
 10
-1045.9944483019
 20
-62.5304863417
 30
0.0
 11
-1081.9422479846
 21
-62.5304863417
 31
0.0
  0
LINE
  5
183
  8
0
  6
CONTINUOUS
 62
     7
 10
-1081.9422479846
 20
-62.2304961645
 30
0.0
 11
-1045.9944483019
 21
-62.2304961645
 31
0.0
  0
LINE
  5
184
  8
0
  6
CONTINUOUS
 62
     7
 10
-1081.9422479846
 20
-58.5305080378
 30
0.0
 11
-1045.9944483019
 21
-58.5305080378
 31
0.0
  0
LINE
  5
185
  8
0
  6
CONTINUOUS
 62
     7
 10
-1045.9944483019
 20
-58.8304982149
 30
0.0
 11
-1081.9422479846
 21
-58.8304982149
 31
0.0
  0
LINE
  5
186
  8
0
  6
CONTINUOUS
 62
     7
 10
-1043.0444654204
 20
-62.5304863417
 30
0.0
 11
-1045.9944483019
 21
-62.5304863417
 31
0.0
  0
LINE
  5
187
  8
0
  6
CONTINUOUS
 62
     7
 10
-1045.9944483019
 20
-62.2304961645
 30
0.0
 11
-1042.7444454409
 21
-62.2304961645
 31
0.0
  0
LINE
  5
188
  8
0
  6
CONTINUOUS
 62
     7
 10
-1043.0444654204
 20
-62.5304863417
 30
0.0
 11
-1042.7444454409
 21
-62.2304961645
 31
0.0
  0
LINE
  5
189
  8
0
  6
CONTINUOUS
 62
     7
 10
-1042.7444454409
 20
-58.8304982149
 30
0.0
 11
-1045.9944483019
 21
-58.8304982149
 31
0.0
  0
LINE
  5
18A
  8
0
  6
CONTINUOUS
 62
     7
 10
-1042.7444454409
 20
-58.8304982149
 30
0.0
 11
-1042.7444454409
 21
-62.2304961645
 31
0.0
  0
LINE
  5
18B
  8
0
  6
CONTINUOUS
 62
     7
 10
-1045.9944483019
 20
-58.5305080378
 30
0.0
 11
-1043.0444654204
 21
-58.5305080378
 31
0.0
  0
LINE
  5
18C
  8
0
  6
CONTINUOUS
 62
     7
 10
-1043.0444654204
 20
-58.5305080378
 30
0.0
 11
-1042.7444454409
 21
-58.8304982149
 31
0.0
  0
LINE
  5
18D
  8
0
  6
CONTINUOUS
 62
     7
 10
-1083.9481230952
 20
-58.5305080378
 30
0.0
 11
-1081.9422479846
 21
-58.5305080378
 31
0.0
  0
LINE
  5
18E
  8
0
  6
CONTINUOUS
 62
     7
 10
-1081.9422479846
 20
-58.8304982149
 30
0.0
 11
-1084.1520901896
 21
-58.8304982149
 31
0.0
  0
LINE
  5
18F
  8
0
  6
CONTINUOUS
 62
     7
 10
-1084.1520901896
 20
-62.2304961645
 30
0.0
 11
-1081.9422479846
 21
-62.2304961645
 31
0.0
  0
LINE
  5
190
  8
0
  6
CONTINUOUS
 62
     7
 10
-1081.9422479846
 20
-62.5304863417
 30
0.0
 11
-1083.9481230952
 21
-62.5304863417
 31
0.0
  0
LINE
  5
191
  8
0
  6
CONTINUOUS
 62
     7
 10
-1116.504135368
 20
-62.2304961645
 30
0.0
 11
-1084.1520901896
 21
-62.2304961645
 31
0.0
  0
LINE
  5
192
  8
0
  6
CONTINUOUS
 62
     7
 10
-1084.1520901896
 20
-58.8304982149
 30
0.0
 11
-1116.504135368
 21
-58.8304982149
 31
0.0
  0
LINE
  5
193
  8
0
  6
CONTINUOUS
 62
     7
 10
-1083.9481230952
 20
-62.5304863417
 30
0.0
 11
-1116.3001533724
 21
-62.5304863417
 31
0.0
  0
LINE
  5
194
  8
0
  6
CONTINUOUS
 62
     7
 10
-1105.962174771
 20
-58.5305080378
 30
0.0
 11
-1083.9481230952
 21
-58.5305080378
 31
0.0
  0
LINE
  5
195
  8
0
  6
CONTINUOUS
 62
     7
 10
-1118.7444653489
 20
-62.2304961645
 30
0.0
 11
-1116.504135368
 21
-62.2304961645
 31
0.0
  0
LINE
  5
196
  8
0
  6
CONTINUOUS
 62
     7
 10
-1116.504135368
 20
-58.8304982149
 30
0.0
 11
-1118.7444653489
 21
-58.8304982149
 31
0.0
  0
LINE
  5
197
  8
0
  6
CONTINUOUS
 62
     7
 10
-1116.3001533724
 20
-62.5304863417
 30
0.0
 11
-1118.4444602706
 21
-62.5304863417
 31
0.0
  0
ARC
  5
198
  8
0
  6
CONTINUOUS
 62
     7
 10
-1107.7444583157
 20
460.4695038832
 30
0.0
 40
15.99999999999966
 50
90.0
 51
270.0
  0
ARC
  5
199
  8
0
  6
CONTINUOUS
 62
     7
 10
-1107.7444583157
 20
460.4695038832
 30
0.0
 40
12.00000000000045
 50
90.0
 51
270.0
  0
ARC
  5
19A
  8
0
  6
CONTINUOUS
 62
     7
 10
-1107.7444583157
 20
460.4695038832
 30
0.0
 40
12.00000000000045
 50
270.0
 51
90.0
  0
ARC
  5
19B
  8
0
  6
CONTINUOUS
 62
     7
 10
-1107.7444583157
 20
460.4695038832
 30
0.0
 40
8.349999999999966
 50
90.0
 51
270.0
  0
ARC
  5
19C
  8
0
  6
CONTINUOUS
 62
     7
 10
-1107.7444583157
 20
460.4695038832
 30
0.0
 40
8.349999999999966
 50
270.0
 51
90.0
  0
ARC
  5
19D
  8
0
  6
CONTINUOUS
 62
     7
 10
-1107.7444583157
 20
460.4695038832
 30
0.0
 40
15.99999999999966
 50
270.0
 51
90.0
  0
ARC
  5
19E
  8
0
  6
CONTINUOUS
 62
     7
 10
-1107.7444583157
 20
460.4695038832
 30
0.0
 40
8.050000000000011
 50
90.0
 51
270.0
  0
ARC
  5
19F
  8
0
  6
CONTINUOUS
 62
     7
 10
-1107.7444583157
 20
460.4695038832
 30
0.0
 40
8.050000000000011
 50
270.0
 51
90.0
  0
ARC
  5
1A0
  8
0
  6
CONTINUOUS
 62
     7
 10
-1107.744458316
 20
22.4695038831
 30
0.0
 40
15.99999999999966
 50
90.0
 51
270.0
  0
ARC
  5
1A1
  8
0
  6
CONTINUOUS
 62
     7
 10
-1107.744458316
 20
22.4695038831
 30
0.0
 40
12.00000000000045
 50
90.0
 51
270.0
  0
ARC
  5
1A2
  8
0
  6
CONTINUOUS
 62
     7
 10
-1107.744458316
 20
22.4695038831
 30
0.0
 40
12.00000000000045
 50
270.0
 51
90.0
  0
ARC
  5
1A3
  8
0
  6
CONTINUOUS
 62
     7
 10
-1107.744458316
 20
22.4695038831
 30
0.0
 40
15.99999999999966
 50
270.0
 51
90.0
  0
ARC
  5
1A4
  8
0
  6
CONTINUOUS
 62
     7
 10
-1107.744458316
 20
22.4695038831
 30
0.0
 40
8.349999999999968
 50
90.0
 51
270.0
  0
ARC
  5
1A5
  8
0
  6
CONTINUOUS
 62
     7
 10
-1107.744458316
 20
22.4695038831
 30
0.0
 40
8.349999999999968
 50
270.0
 51
90.0
  0
ARC
  5
1A6
  8
0
  6
CONTINUOUS
 62
     7
 10
-1107.744458316
 20
22.4695038831
 30
0.0
 40
8.05
 50
90.0
 51
270.0
  0
ARC
  5
1A7
  8
0
  6
CONTINUOUS
 62
     7
 10
-1107.744458316
 20
22.4695038831
 30
0.0
 40
8.05
 50
270.0
 51
90.0
  0
ARC
  5
1A8
  8
0
  6
CONTINUOUS
 62
     7
 10
-1107.744458316
 20
22.4695038831
 30
0.0
 40
1.500000000000227
 50
180.0
 51
360.0
  0
ARC
  5
1A9
  8
0
  6
CONTINUOUS
 62
     7
 10
-1107.744458316
 20
22.4695038831
 30
0.0
 40
1.500000000000227
 50
360.0
 51
180.0
  0
ARC
  5
1AA
  8
0
  6
CONTINUOUS
 62
     7
 10
-1107.744458316
 20
22.4695038831
 30
0.0
 40
8.000000000001013
 50
190.8069228749
 51
349.1930771251
  0
LINE
  5
1AB
  8
0
  6
CONTINUOUS
 62
     7
 10
-1115.6025704123
 20
20.9694966114
 30
0.0
 11
-1112.5141557433
 21
20.9694966114
 31
0.0
  0
ARC
  5
1AC
  8
0
  6
CONTINUOUS
 62
     7
 10
-1107.744458316
 20
22.4695038831
 30
0.0
 40
5.000000000001323
 50
197.4576031237
 51
342.5423968763
  0
LINE
  5
1AD
  8
0
  6
CONTINUOUS
 62
     7
 10
-1099.8863455035
 20
20.9694966114
 30
0.0
 11
-1102.9747601725
 21
20.9694966114
 31
0.0
  0
LINE
  5
1AE
  8
0
  6
CONTINUOUS
 62
     7
 10
-1115.6025704123
 20
23.9695026911
 30
0.0
 11
-1112.5141557433
 21
23.9695026911
 31
0.0
  0
LINE
  5
1AF
  8
0
  6
CONTINUOUS
 62
     7
 10
-1099.8863455035
 20
23.9695026911
 30
0.0
 11
-1102.9747601725
 21
23.9695026911
 31
0.0
  0
ARC
  5
1B0
  8
0
  6
CONTINUOUS
 62
     7
 10
-1107.744458316
 20
22.4695038831
 30
0.0
 40
5.00000000000034
 50
17.4576031237
 51
162.5423968763
  0
ARC
  5
1B1
  8
0
  6
CONTINUOUS
 62
     7
 10
-1107.744458316
 20
22.4695038831
 30
0.0
 40
8.000000000000165
 50
10.8069228749
 51
169.1930771251
  0
ARC
  5
1B2
  8
0
  6
CONTINUOUS
 62
     7
 10
-1107.744458316
 20
22.4695038831
 30
0.0
 40
8.000000000000414
 50
169.1930771251
 51
190.8069228749
  0
ARC
  5
1B3
  8
0
  6
CONTINUOUS
 62
     7
 10
-1107.744458316
 20
22.4695038831
 30
0.0
 40
7.999999999999942
 50
349.1930771251
 51
10.8069228749
  0
ARC
  5
1B4
  8
0
  6
CONTINUOUS
 62
     7
 10
-1107.7444583157
 20
460.4695038832
 30
0.0
 40
1.500000000000227
 50
360.0
 51
180.0
  0
ARC
  5
1B5
  8
0
  6
CONTINUOUS
 62
     7
 10
-1107.7444583157
 20
460.4695038832
 30
0.0
 40
1.500000000000227
 50
180.0
 51
360.0
  0
LINE
  5
1B6
  8
0
  6
CONTINUOUS
 62
     7
 10
-1099.8863455035
 20
458.9695050753
 30
0.0
 11
-1102.9747601725
 21
458.9695050753
 31
0.0
  0
LINE
  5
1B7
  8
0
  6
CONTINUOUS
 62
     7
 10
-1115.6025704123
 20
458.9695050753
 30
0.0
 11
-1112.5141557433
 21
458.9695050753
 31
0.0
  0
ARC
  5
1B8
  8
0
  6
CONTINUOUS
 62
     7
 10
-1107.7444583157
 20
460.4695038832
 30
0.0
 40
5.000000000001356
 50
197.4576031237
 51
342.5423968763
  0
ARC
  5
1B9
  8
0
  6
CONTINUOUS
 62
     7
 10
-1107.7444583157
 20
460.4695038832
 30
0.0
 40
8.000000000001275
 50
190.8069228749
 51
349.1930771251
  0
LINE
  5
1BA
  8
0
  6
CONTINUOUS
 62
     7
 10
-1115.6025704123
 20
461.9695111549
 30
0.0
 11
-1112.5141557433
 21
461.9695111549
 31
0.0
  0
LINE
  5
1BB
  8
0
  6
CONTINUOUS
 62
     7
 10
-1099.8863455035
 20
461.9695111549
 30
0.0
 11
-1102.9747601725
 21
461.9695111549
 31
0.0
  0
ARC
  5
1BC
  8
0
  6
CONTINUOUS
 62
     7
 10
-1107.7444583157
 20
460.4695038832
 30
0.0
 40
5.000000000000522
 50
17.4576031237
 51
162.5423968763
  0
ARC
  5
1BD
  8
0
  6
CONTINUOUS
 62
     7
 10
-1107.7444583157
 20
460.4695038832
 30
0.0
 40
8.000000000000265
 50
10.8069228749
 51
169.1930771251
  0
ARC
  5
1BE
  8
0
  6
CONTINUOUS
 62
     7
 10
-1107.7444583157
 20
460.4695038832
 30
0.0
 40
8.00000000000068
 50
169.1930771251
 51
190.8069228749
  0
ARC
  5
1BF
  8
0
  6
CONTINUOUS
 62
     7
 10
-1107.7444583157
 20
460.4695038832
 30
0.0
 40
7.999999999999542
 50
349.1930771251
 51
10.8069228749
  0
LINE
  5
1C0
  8
0
  6
CONTINUOUS
 62
     7
 10
-1286.24445462
 20
539.9695053137
 30
0.0
 11
-1286.24445462
 21
539.9687900579
 31
0.0
  0
LINE
  5
1C1
  8
0
  6
CONTINUOUS
 62
     7
 10
-1296.2444599845
 20
539.9687900579
 30
0.0
 11
-1296.2444599845
 21
539.9695053137
 31
0.0
  0
LINE
  5
1C2
  8
0
  6
CONTINUOUS
 62
     7
 10
-1252.3095931985
 20
539.9687900579
 30
0.0
 11
-1252.2444602229
 21
539.9695053137
 31
0.0
  0
LINE
  5
1C3
  8
0
  6
CONTINUOUS
 62
     7
 10
-1176.2444552161
 20
539.9695053137
 30
0.0
 11
-1176.1793222405
 21
539.9687900579
 31
0.0
  0
LINE
  5
1C4
  8
0
  6
CONTINUOUS
 62
     7
 10
-1142.2444608189
 20
539.9687900579
 30
0.0
 11
-1142.2444608189
 21
539.9695053137
 31
0.0
  0
LINE
  5
1C5
  8
0
  6
CONTINUOUS
 62
     7
 10
-1132.2444554545
 20
539.9695053137
 30
0.0
 11
-1132.2444554545
 21
539.9687900579
 31
0.0
  0
LINE
  5
1C6
  8
0
  6
CONTINUOUS
 62
     7
 10
-844.1575330946
 20
-58.5305080378
 30
0.0
 11
-844.1575330946
 21
541.4695158041
 31
0.0
  0
LINE
  5
1C7
  8
0
  6
CONTINUOUS
 62
     7
 10
-834.157512829
 20
541.4695158041
 30
0.0
 11
-834.157512829
 21
-58.5305080378
 31
0.0
  0
LINE
  5
1C8
  8
0
  6
CONTINUOUS
 62
     7
 10
-216.1575419161
 20
-58.5305080378
 30
0.0
 11
-216.1575419161
 21
541.4695158041
 31
0.0
  0
LINE
  5
1C9
  8
0
  6
CONTINUOUS
 62
     7
 10
-206.1575216505
 20
541.4695158041
 30
0.0
 11
-206.1575216505
 21
-58.5305080378
 31
0.0
  0
POLYLINE
  5
1CA
  8
0
  6
CONTINUOUS
 62
     7
 66
     1
 10
0.0
 20
0.0
 30
0.0
  0
VERTEX
  5
54A
  8
0
  6
CONTINUOUS
 62
     7
 10
-822.1575183127
 20
538.4694948233
 30
0.0
  0
VERTEX
  5
54B
  8
0
  6
CONTINUOUS
 62
     7
 10
-822.742806122
 20
538.7620046175
 30
0.0
  0
VERTEX
  5
54C
  8
0
  6
CONTINUOUS
 62
     7
 10
-823.3055633757
 20
539.0432491339
 30
0.0
  0
VERTEX
  5
54D
  8
0
  6
CONTINUOUS
 62
     7
 10
-823.8242429945
 20
539.302469734
 30
0.0
  0
VERTEX
  5
54E
  8
0
  6
CONTINUOUS
 62
     7
 10
-824.2788476202
 20
539.5296528376
 30
0.0
  0
VERTEX
  5
54F
  8
0
  6
CONTINUOUS
 62
     7
 10
-824.6519428942
 20
539.7161259687
 30
0.0
  0
VERTEX
  5
550
  8
0
  6
CONTINUOUS
 62
     7
 10
-824.929164097
 20
539.8546769655
 30
0.0
  0
VERTEX
  5
551
  8
0
  6
CONTINUOUS
 62
     7
 10
-825.0998717997
 20
539.9400010145
 30
0.0
  0
VERTEX
  5
552
  8
0
  6
CONTINUOUS
 62
     7
 10
-825.1575392935
 20
539.9687900579
 30
0.0
  0
SEQEND
  5
553
  8
0
  6
CONTINUOUS
 62
     7
  0
LINE
  5
1CB
  8
0
  6
CONTINUOUS
 62
     7
 10
-823.6575288031
 20
539.9687900579
 30
0.0
 11
-825.1575392935
 21
539.9687900579
 31
0.0
  0
POLYLINE
  5
1CC
  8
0
  6
CONTINUOUS
 62
     7
 66
     1
 10
0.0
 20
0.0
 30
0.0
  0
VERTEX
  5
554
  8
0
  6
CONTINUOUS
 62
     7
 10
-822.1575183127
 20
538.4694948233
 30
0.0
  0
VERTEX
  5
555
  8
0
  6
CONTINUOUS
 62
     7
 10
-822.4179906103
 20
538.7298479116
 30
0.0
  0
VERTEX
  5
556
  8
0
  6
CONTINUOUS
 62
     7
 10
-822.6705652926
 20
538.9823033846
 30
0.0
  0
VERTEX
  5
557
  8
0
  6
CONTINUOUS
 62
     7
 10
-822.9075235579
 20
539.2191424406
 30
0.0
  0
VERTEX
  5
558
  8
0
  6
CONTINUOUS
 62
     7
 10
-823.1217128489
 20
539.4332423246
 30
0.0
  0
VERTEX
  5
559
  8
0
  6
CONTINUOUS
 62
     7
 10
-823.306606457
 20
539.6180167234
 30
0.0
  0
VERTEX
  5
55A
  8
0
  6
CONTINUOUS
 62
     7
 10
-823.4565717432
 20
539.767922405
 30
0.0
  0
VERTEX
  5
55B
  8
0
  6
CONTINUOUS
 62
     7
 10
-823.5670787546
 20
539.8783698118
 30
0.0
  0
VERTEX
  5
55C
  8
0
  6
CONTINUOUS
 62
     7
 10
-823.6347300265
 20
539.9460210836
 30
0.0
  0
VERTEX
  5
55D
  8
0
  6
CONTINUOUS
 62
     7
 10
-823.6575288031
 20
539.9687900579
 30
0.0
  0
SEQEND
  5
55E
  8
0
  6
CONTINUOUS
 62
     7
  0
POLYLINE
  5
1CD
  8
0
  6
CONTINUOUS
 62
     7
 66
     1
 10
0.0
 20
0.0
 30
0.0
  0
VERTEX
  5
55F
  8
0
  6
CONTINUOUS
 62
     7
 10
-825.1575392935
 20
-57.0297822916
 30
0.0
  0
VERTEX
  5
560
  8
0
  6
CONTINUOUS
 62
     7
 10
-825.0998717997
 20
-57.0009932482
 30
0.0
  0
VERTEX
  5
561
  8
0
  6
CONTINUOUS
 62
     7
 10
-824.929164097
 20
-56.9156691992
 30
0.0
  0
VERTEX
  5
562
  8
0
  6
CONTINUOUS
 62
     7
 10
-824.6519428942
 20
-56.7771182024
 30
0.0
  0
VERTEX
  5
563
  8
0
  6
CONTINUOUS
 62
     7
 10
-824.2788476202
 20
-56.5906450712
 30
0.0
  0
VERTEX
  5
564
  8
0
  6
CONTINUOUS
 62
     7
 10
-823.8242429945
 20
-56.3634619677
 30
0.0
  0
VERTEX
  5
565
  8
0
  6
CONTINUOUS
 62
     7
 10
-823.3055633757
 20
-56.1042413675
 30
0.0
  0
VERTEX
  5
566
  8
0
  6
CONTINUOUS
 62
     7
 10
-822.742806122
 20
-55.8229968512
 30
0.0
  0
VERTEX
  5
567
  8
0
  6
CONTINUOUS
 62
     7
 10
-822.1575183127
 20
-55.5304870569
 30
0.0
  0
SEQEND
  5
568
  8
0
  6
CONTINUOUS
 62
     7
  0
LINE
  5
1CE
  8
0
  6
CONTINUOUS
 62
     7
 10
-825.1575392935
 20
-57.0297822916
 30
0.0
 11
-825.1575392935
 21
539.9687900579
 31
0.0
  0
POLYLINE
  5
1CF
  8
0
  6
CONTINUOUS
 62
     7
 66
     1
 10
0.0
 20
0.0
 30
0.0
  0
VERTEX
  5
569
  8
0
  6
CONTINUOUS
 62
     7
 10
-823.6575288031
 20
-57.0297822916
 30
0.0
  0
VERTEX
  5
56A
  8
0
  6
CONTINUOUS
 62
     7
 10
-823.6287099573
 20
-57.0009932482
 30
0.0
  0
VERTEX
  5
56B
  8
0
  6
CONTINUOUS
 62
     7
 10
-823.543356106
 20
-56.9156691992
 30
0.0
  0
VERTEX
  5
56C
  8
0
  6
CONTINUOUS
 62
     7
 10
-823.4047455046
 20
-56.7771182024
 30
0.0
  0
VERTEX
  5
56D
  8
0
  6
CONTINUOUS
 62
     7
 10
-823.2181829664
 20
-56.5906450712
 30
0.0
  0
VERTEX
  5
56E
  8
0
  6
CONTINUOUS
 62
     7
 10
-822.9908806536
 20
-56.3634619677
 30
0.0
  0
VERTEX
  5
56F
  8
0
  6
CONTINUOUS
 62
     7
 10
-822.7315408442
 20
-56.1042413675
 30
0.0
  0
VERTEX
  5
570
  8
0
  6
CONTINUOUS
 62
     7
 10
-822.4501771185
 20
-55.8229968512
 30
0.0
  0
VERTEX
  5
571
  8
0
  6
CONTINUOUS
 62
     7
 10
-822.1575183127
 20
-55.5304870569
 30
0.0
  0
SEQEND
  5
572
  8
0
  6
CONTINUOUS
 62
     7
  0
LINE
  5
1D0
  8
0
  6
CONTINUOUS
 62
     7
 10
-823.6575288031
 20
-57.0297822916
 30
0.0
 11
-825.1575392935
 21
-57.0297822916
 31
0.0
  0
CIRCLE
  5
1D1
  8
0
  6
CONTINUOUS
 62
     7
 10
-805.1575273726
 20
521.4695038832
 30
0.0
 40
4.5
  0
CIRCLE
  5
1D2
  8
0
  6
CONTINUOUS
 62
     7
 10
-245.1575273726
 20
521.4695038832
 30
0.0
 40
4.5
  0
CIRCLE
  5
1D3
  8
0
  6
CONTINUOUS
 62
     7
 10
-245.1575273726
 20
-38.5304961168
 30
0.0
 40
4.5
  0
CIRCLE
  5
1D4
  8
0
  6
CONTINUOUS
 62
     7
 10
-805.1575273726
 20
-38.5304961168
 30
0.0
 40
4.500000000000114
  0
POLYLINE
  5
1D5
  8
0
  6
CONTINUOUS
 62
     7
 66
     1
 10
0.0
 20
0.0
 30
0.0
  0
VERTEX
  5
573
  8
0
  6
CONTINUOUS
 62
     7
 10
-823.6568135473
 20
541.4695158041
 30
0.0
  0
VERTEX
  5
574
  8
0
  6
CONTINUOUS
 62
     7
 10
-823.634044573
 20
541.4239182508
 30
0.0
  0
VERTEX
  5
575
  8
0
  6
CONTINUOUS
 62
     7
 10
-823.5663933012
 20
541.2885859049
 30
0.0
  0
VERTEX
  5
576
  8
0
  6
CONTINUOUS
 62
     7
 10
-823.4559458945
 20
541.067571882
 30
0.0
  0
VERTEX
  5
577
  8
0
  6
CONTINUOUS
 62
     7
 10
-823.3060402128
 20
540.7676413095
 30
0.0
  0
VERTEX
  5
578
  8
0
  6
CONTINUOUS
 62
     7
 10
-823.121265814
 20
540.3978540933
 30
0.0
  0
VERTEX
  5
579
  8
0
  6
CONTINUOUS
 62
     7
 10
-822.90716593
 20
539.9695053137
 30
0.0
  0
VERTEX
  5
57A
  8
0
  6
CONTINUOUS
 62
     7
 10
-822.670326874
 20
539.4955589807
 30
0.0
  0
VERTEX
  5
57B
  8
0
  6
CONTINUOUS
 62
     7
 10
-822.417871401
 20
538.9904394186
 30
0.0
  0
VERTEX
  5
57C
  8
0
  6
CONTINUOUS
 62
     7
 10
-822.1575183127
 20
538.4694948233
 30
0.0
  0
SEQEND
  5
57D
  8
0
  6
CONTINUOUS
 62
     7
  0
LINE
  5
1D6
  8
0
  6
CONTINUOUS
 62
     7
 10
-823.6568135473
 20
541.4695158041
 30
0.0
 11
-226.6582411978
 21
541.4695158041
 31
0.0
  0
POLYLINE
  5
1D7
  8
0
  6
CONTINUOUS
 62
     7
 66
     1
 10
0.0
 20
0.0
 30
0.0
  0
VERTEX
  5
57E
  8
0
  6
CONTINUOUS
 62
     7
 10
-228.1575364325
 20
538.4694948233
 30
0.0
  0
VERTEX
  5
57F
  8
0
  6
CONTINUOUS
 62
     7
 10
-227.8971833441
 20
538.9904394186
 30
0.0
  0
VERTEX
  5
580
  8
0
  6
CONTINUOUS
 62
     7
 10
-227.6447278712
 20
539.4955589807
 30
0.0
  0
VERTEX
  5
581
  8
0
  6
CONTINUOUS
 62
     7
 10
-227.4078888151
 20
539.9695053137
 30
0.0
  0
VERTEX
  5
582
  8
0
  6
CONTINUOUS
 62
     7
 10
-227.1937889311
 20
540.3978540933
 30
0.0
  0
VERTEX
  5
583
  8
0
  6
CONTINUOUS
 62
     7
 10
-227.0090145323
 20
540.7676413095
 30
0.0
  0
VERTEX
  5
584
  8
0
  6
CONTINUOUS
 62
     7
 10
-226.8591088507
 20
541.067571882
 30
0.0
  0
VERTEX
  5
585
  8
0
  6
CONTINUOUS
 62
     7
 10
-226.7486614439
 20
541.2885859049
 30
0.0
  0
VERTEX
  5
586
  8
0
  6
CONTINUOUS
 62
     7
 10
-226.6810101721
 20
541.4239182508
 30
0.0
  0
VERTEX
  5
587
  8
0
  6
CONTINUOUS
 62
     7
 10
-226.6582411978
 20
541.4695158041
 30
0.0
  0
SEQEND
  5
588
  8
0
  6
CONTINUOUS
 62
     7
  0
POLYLINE
  5
1D8
  8
0
  6
CONTINUOUS
 62
     7
 66
     1
 10
0.0
 20
0.0
 30
0.0
  0
VERTEX
  5
589
  8
0
  6
CONTINUOUS
 62
     7
 10
-226.6582411978
 20
-58.5305080378
 30
0.0
  0
VERTEX
  5
58A
  8
0
  6
CONTINUOUS
 62
     7
 10
-226.6870302412
 20
-58.4728405439
 30
0.0
  0
VERTEX
  5
58B
  8
0
  6
CONTINUOUS
 62
     7
 10
-226.7723542902
 20
-58.3021328413
 30
0.0
  0
VERTEX
  5
58C
  8
0
  6
CONTINUOUS
 62
     7
 10
-226.910905287
 20
-58.0249116385
 30
0.0
  0
VERTEX
  5
58D
  8
0
  6
CONTINUOUS
 62
     7
 10
-227.0973784182
 20
-57.6518163645
 30
0.0
  0
VERTEX
  5
58E
  8
0
  6
CONTINUOUS
 62
     7
 10
-227.3245615217
 20
-57.1972117388
 30
0.0
  0
VERTEX
  5
58F
  8
0
  6
CONTINUOUS
 62
     7
 10
-227.5837821219
 20
-56.67853212
 30
0.0
  0
VERTEX
  5
590
  8
0
  6
CONTINUOUS
 62
     7
 10
-227.8650266382
 20
-56.1157748663
 30
0.0
  0
VERTEX
  5
591
  8
0
  6
CONTINUOUS
 62
     7
 10
-228.1575364325
 20
-55.5304870569
 30
0.0
  0
SEQEND
  5
592
  8
0
  6
CONTINUOUS
 62
     7
  0
LINE
  5
1D9
  8
0
  6
CONTINUOUS
 62
     7
 10
-226.6582411978
 20
-58.5305080378
 30
0.0
 11
-823.6568135473
 21
-58.5305080378
 31
0.0
  0
POLYLINE
  5
1DA
  8
0
  6
CONTINUOUS
 62
     7
 66
     1
 10
0.0
 20
0.0
 30
0.0
  0
VERTEX
  5
593
  8
0
  6
CONTINUOUS
 62
     7
 10
-822.1575183127
 20
-55.5304870569
 30
0.0
  0
VERTEX
  5
594
  8
0
  6
CONTINUOUS
 62
     7
 10
-822.4500281069
 20
-56.1157748663
 30
0.0
  0
VERTEX
  5
595
  8
0
  6
CONTINUOUS
 62
     7
 10
-822.7312726233
 20
-56.67853212
 30
0.0
  0
VERTEX
  5
596
  8
0
  6
CONTINUOUS
 62
     7
 10
-822.9904932234
 20
-57.1972117388
 30
0.0
  0
VERTEX
  5
597
  8
0
  6
CONTINUOUS
 62
     7
 10
-823.217676327
 20
-57.6518163645
 30
0.0
  0
VERTEX
  5
598
  8
0
  6
CONTINUOUS
 62
     7
 10
-823.4041494581
 20
-58.0249116385
 30
0.0
  0
VERTEX
  5
599
  8
0
  6
CONTINUOUS
 62
     7
 10
-823.5427004549
 20
-58.3021328413
 30
0.0
  0
VERTEX
  5
59A
  8
0
  6
CONTINUOUS
 62
     7
 10
-823.6280245039
 20
-58.4728405439
 30
0.0
  0
VERTEX
  5
59B
  8
0
  6
CONTINUOUS
 62
     7
 10
-823.6568135473
 20
-58.5305080378
 30
0.0
  0
SEQEND
  5
59C
  8
0
  6
CONTINUOUS
 62
     7
  0
LINE
  5
1DB
  8
0
  6
CONTINUOUS
 62
     7
 10
-823.6568135473
 20
-57.0304975474
 30
0.0
 11
-823.6568135473
 21
-58.5305080378
 31
0.0
  0
POLYLINE
  5
1DC
  8
0
  6
CONTINUOUS
 62
     7
 66
     1
 10
0.0
 20
0.0
 30
0.0
  0
VERTEX
  5
59D
  8
0
  6
CONTINUOUS
 62
     7
 10
-822.1575183127
 20
-55.5304870569
 30
0.0
  0
VERTEX
  5
59E
  8
0
  6
CONTINUOUS
 62
     7
 10
-822.4500281069
 20
-55.8231458628
 30
0.0
  0
VERTEX
  5
59F
  8
0
  6
CONTINUOUS
 62
     7
 10
-822.7312726233
 20
-56.1045095884
 30
0.0
  0
VERTEX
  5
5A0
  8
0
  6
CONTINUOUS
 62
     7
 10
-822.9904932234
 20
-56.3638493979
 30
0.0
  0
VERTEX
  5
5A1
  8
0
  6
CONTINUOUS
 62
     7
 10
-823.217676327
 20
-56.5911517107
 30
0.0
  0
VERTEX
  5
5A2
  8
0
  6
CONTINUOUS
 62
     7
 10
-823.4041494581
 20
-56.7777142489
 30
0.0
  0
VERTEX
  5
5A3
  8
0
  6
CONTINUOUS
 62
     7
 10
-823.5427004549
 20
-56.9163248503
 30
0.0
  0
VERTEX
  5
5A4
  8
0
  6
CONTINUOUS
 62
     7
 10
-823.6280245039
 20
-57.0016787016
 30
0.0
  0
VERTEX
  5
5A5
  8
0
  6
CONTINUOUS
 62
     7
 10
-823.6568135473
 20
-57.0304975474
 30
0.0
  0
SEQEND
  5
5A6
  8
0
  6
CONTINUOUS
 62
     7
  0
POLYLINE
  5
1DD
  8
0
  6
CONTINUOUS
 62
     7
 66
     1
 10
0.0
 20
0.0
 30
0.0
  0
VERTEX
  5
5A7
  8
0
  6
CONTINUOUS
 62
     7
 10
-823.6568135473
 20
539.9695053137
 30
0.0
  0
VERTEX
  5
5A8
  8
0
  6
CONTINUOUS
 62
     7
 10
-823.634044573
 20
539.946706537
 30
0.0
  0
VERTEX
  5
5A9
  8
0
  6
CONTINUOUS
 62
     7
 10
-823.5663933012
 20
539.8790552652
 30
0.0
  0
VERTEX
  5
5AA
  8
0
  6
CONTINUOUS
 62
     7
 10
-823.4559458945
 20
539.7685482538
 30
0.0
  0
VERTEX
  5
5AB
  8
0
  6
CONTINUOUS
 62
     7
 10
-823.3060402128
 20
539.6185829676
 30
0.0
  0
VERTEX
  5
5AC
  8
0
  6
CONTINUOUS
 62
     7
 10
-823.121265814
 20
539.4336893595
 30
0.0
  0
VERTEX
  5
5AD
  8
0
  6
CONTINUOUS
 62
     7
 10
-822.90716593
 20
539.2195000685
 30
0.0
  0
VERTEX
  5
5AE
  8
0
  6
CONTINUOUS
 62
     7
 10
-822.670326874
 20
538.9825418032
 30
0.0
  0
VERTEX
  5
5AF
  8
0
  6
CONTINUOUS
 62
     7
 10
-822.417871401
 20
538.7299671209
 30
0.0
  0
VERTEX
  5
5B0
  8
0
  6
CONTINUOUS
 62
     7
 10
-822.1575183127
 20
538.4694948233
 30
0.0
  0
SEQEND
  5
5B1
  8
0
  6
CONTINUOUS
 62
     7
  0
LINE
  5
1DE
  8
0
  6
CONTINUOUS
 62
     7
 10
-823.6568135473
 20
539.9695053137
 30
0.0
 11
-823.6568135473
 21
541.4695158041
 31
0.0
  0
POLYLINE
  5
1DF
  8
0
  6
CONTINUOUS
 62
     7
 66
     1
 10
0.0
 20
0.0
 30
0.0
  0
VERTEX
  5
5B2
  8
0
  6
CONTINUOUS
 62
     7
 10
-225.1575154516
 20
539.9687900579
 30
0.0
  0
VERTEX
  5
5B3
  8
0
  6
CONTINUOUS
 62
     7
 10
-225.2031130049
 20
539.9460210836
 30
0.0
  0
VERTEX
  5
5B4
  8
0
  6
CONTINUOUS
 62
     7
 10
-225.3384453509
 20
539.8783698118
 30
0.0
  0
VERTEX
  5
5B5
  8
0
  6
CONTINUOUS
 62
     7
 10
-225.5594593737
 20
539.767922405
 30
0.0
  0
VERTEX
  5
5B6
  8
0
  6
CONTINUOUS
 62
     7
 10
-225.8593899462
 20
539.6180167234
 30
0.0
  0
VERTEX
  5
5B7
  8
0
  6
CONTINUOUS
 62
     7
 10
-226.2291771624
 20
539.4332423246
 30
0.0
  0
VERTEX
  5
5B8
  8
0
  6
CONTINUOUS
 62
     7
 10
-226.6575259421
 20
539.2191424406
 30
0.0
  0
VERTEX
  5
5B9
  8
0
  6
CONTINUOUS
 62
     7
 10
-227.131472275
 20
538.9823033846
 30
0.0
  0
VERTEX
  5
5BA
  8
0
  6
CONTINUOUS
 62
     7
 10
-227.6365918371
 20
538.7298479116
 30
0.0
  0
VERTEX
  5
5BB
  8
0
  6
CONTINUOUS
 62
     7
 10
-228.1575364325
 20
538.4694948233
 30
0.0
  0
SEQEND
  5
5BC
  8
0
  6
CONTINUOUS
 62
     7
  0
POLYLINE
  5
1E0
  8
0
  6
CONTINUOUS
 62
     7
 66
     1
 10
0.0
 20
0.0
 30
0.0
  0
VERTEX
  5
5BD
  8
0
  6
CONTINUOUS
 62
     7
 10
-226.6575259421
 20
539.9687900579
 30
0.0
  0
VERTEX
  5
5BE
  8
0
  6
CONTINUOUS
 62
     7
 10
-226.6863447878
 20
539.9400010145
 30
0.0
  0
VERTEX
  5
5BF
  8
0
  6
CONTINUOUS
 62
     7
 10
-226.7716986391
 20
539.8546769655
 30
0.0
  0
VERTEX
  5
5C0
  8
0
  6
CONTINUOUS
 62
     7
 10
-226.9103092406
 20
539.7161259687
 30
0.0
  0
VERTEX
  5
5C1
  8
0
  6
CONTINUOUS
 62
     7
 10
-227.0968717787
 20
539.5296528376
 30
0.0
  0
VERTEX
  5
5C2
  8
0
  6
CONTINUOUS
 62
     7
 10
-227.3241740915
 20
539.302469734
 30
0.0
  0
VERTEX
  5
5C3
  8
0
  6
CONTINUOUS
 62
     7
 10
-227.583513901
 20
539.0432491339
 30
0.0
  0
VERTEX
  5
5C4
  8
0
  6
CONTINUOUS
 62
     7
 10
-227.8648776266
 20
538.7620046175
 30
0.0
  0
VERTEX
  5
5C5
  8
0
  6
CONTINUOUS
 62
     7
 10
-228.1575364325
 20
538.4694948233
 30
0.0
  0
SEQEND
  5
5C6
  8
0
  6
CONTINUOUS
 62
     7
  0
LINE
  5
1E1
  8
0
  6
CONTINUOUS
 62
     7
 10
-226.6575259421
 20
539.9687900579
 30
0.0
 11
-225.1575154516
 21
539.9687900579
 31
0.0
  0
LINE
  5
1E2
  8
0
  6
CONTINUOUS
 62
     7
 10
-225.1575154516
 20
539.9687900579
 30
0.0
 11
-225.1575154516
 21
-57.0297822916
 31
0.0
  0
POLYLINE
  5
1E3
  8
0
  6
CONTINUOUS
 62
     7
 66
     1
 10
0.0
 20
0.0
 30
0.0
  0
VERTEX
  5
5C7
  8
0
  6
CONTINUOUS
 62
     7
 10
-228.1575364325
 20
-55.5304870569
 30
0.0
  0
VERTEX
  5
5C8
  8
0
  6
CONTINUOUS
 62
     7
 10
-227.5722486231
 20
-55.8229968512
 30
0.0
  0
VERTEX
  5
5C9
  8
0
  6
CONTINUOUS
 62
     7
 10
-227.0094913695
 20
-56.1042413675
 30
0.0
  0
VERTEX
  5
5CA
  8
0
  6
CONTINUOUS
 62
     7
 10
-226.4908117506
 20
-56.3634619677
 30
0.0
  0
VERTEX
  5
5CB
  8
0
  6
CONTINUOUS
 62
     7
 10
-226.0362071249
 20
-56.5906450712
 30
0.0
  0
VERTEX
  5
5CC
  8
0
  6
CONTINUOUS
 62
     7
 10
-225.6631118509
 20
-56.7771182024
 30
0.0
  0
VERTEX
  5
5CD
  8
0
  6
CONTINUOUS
 62
     7
 10
-225.3858906481
 20
-56.9156691992
 30
0.0
  0
VERTEX
  5
5CE
  8
0
  6
CONTINUOUS
 62
     7
 10
-225.2151829455
 20
-57.0009932482
 30
0.0
  0
VERTEX
  5
5CF
  8
0
  6
CONTINUOUS
 62
     7
 10
-225.1575154516
 20
-57.0297822916
 30
0.0
  0
SEQEND
  5
5D0
  8
0
  6
CONTINUOUS
 62
     7
  0
POLYLINE
  5
1E4
  8
0
  6
CONTINUOUS
 62
     7
 66
     1
 10
0.0
 20
0.0
 30
0.0
  0
VERTEX
  5
5D1
  8
0
  6
CONTINUOUS
 62
     7
 10
-226.6582411978
 20
-57.0304975474
 30
0.0
  0
VERTEX
  5
5D2
  8
0
  6
CONTINUOUS
 62
     7
 10
-226.6810101721
 20
-57.0076987707
 30
0.0
  0
VERTEX
  5
5D3
  8
0
  6
CONTINUOUS
 62
     7
 10
-226.7486614439
 20
-56.9400474989
 30
0.0
  0
VERTEX
  5
5D4
  8
0
  6
CONTINUOUS
 62
     7
 10
-226.8591088507
 20
-56.8295404875
 30
0.0
  0
VERTEX
  5
5D5
  8
0
  6
CONTINUOUS
 62
     7
 10
-227.0090145323
 20
-56.6795752012
 30
0.0
  0
VERTEX
  5
5D6
  8
0
  6
CONTINUOUS
 62
     7
 10
-227.1937889311
 20
-56.4946815931
 30
0.0
  0
VERTEX
  5
5D7
  8
0
  6
CONTINUOUS
 62
     7
 10
-227.4078888151
 20
-56.2804923021
 30
0.0
  0
VERTEX
  5
5D8
  8
0
  6
CONTINUOUS
 62
     7
 10
-227.6447278712
 20
-56.0435340368
 30
0.0
  0
VERTEX
  5
5D9
  8
0
  6
CONTINUOUS
 62
     7
 10
-227.8971833441
 20
-55.7909593546
 30
0.0
  0
VERTEX
  5
5DA
  8
0
  6
CONTINUOUS
 62
     7
 10
-228.1575364325
 20
-55.5304870569
 30
0.0
  0
SEQEND
  5
5DB
  8
0
  6
CONTINUOUS
 62
     7
  0
LINE
  5
1E5
  8
0
  6
CONTINUOUS
 62
     7
 10
-226.6582411978
 20
-57.0304975474
 30
0.0
 11
-226.6582411978
 21
-58.5305080378
 31
0.0
  0
LINE
  5
1E6
  8
0
  6
CONTINUOUS
 62
     7
 10
-226.6582411978
 20
539.9695053137
 30
0.0
 11
-226.6582411978
 21
541.4695158041
 31
0.0
  0
POLYLINE
  5
1E7
  8
0
  6
CONTINUOUS
 62
     7
 66
     1
 10
0.0
 20
0.0
 30
0.0
  0
VERTEX
  5
5DC
  8
0
  6
CONTINUOUS
 62
     7
 10
-228.1575364325
 20
538.4694948233
 30
0.0
  0
VERTEX
  5
5DD
  8
0
  6
CONTINUOUS
 62
     7
 10
-227.8971833441
 20
538.7299671209
 30
0.0
  0
VERTEX
  5
5DE
  8
0
  6
CONTINUOUS
 62
     7
 10
-227.6447278712
 20
538.9825418032
 30
0.0
  0
VERTEX
  5
5DF
  8
0
  6
CONTINUOUS
 62
     7
 10
-227.4078888151
 20
539.2195000685
 30
0.0
  0
VERTEX
  5
5E0
  8
0
  6
CONTINUOUS
 62
     7
 10
-227.1937889311
 20
539.4336893595
 30
0.0
  0
VERTEX
  5
5E1
  8
0
  6
CONTINUOUS
 62
     7
 10
-227.0090145323
 20
539.6185829676
 30
0.0
  0
VERTEX
  5
5E2
  8
0
  6
CONTINUOUS
 62
     7
 10
-226.8591088507
 20
539.7685482538
 30
0.0
  0
VERTEX
  5
5E3
  8
0
  6
CONTINUOUS
 62
     7
 10
-226.7486614439
 20
539.8790552652
 30
0.0
  0
VERTEX
  5
5E4
  8
0
  6
CONTINUOUS
 62
     7
 10
-226.6810101721
 20
539.946706537
 30
0.0
  0
VERTEX
  5
5E5
  8
0
  6
CONTINUOUS
 62
     7
 10
-226.6582411978
 20
539.9695053137
 30
0.0
  0
SEQEND
  5
5E6
  8
0
  6
CONTINUOUS
 62
     7
  0
LINE
  5
1E8
  8
0
  6
CONTINUOUS
 62
     7
 10
-226.6575259421
 20
-57.0297822916
 30
0.0
 11
-225.1575154516
 21
-57.0297822916
 31
0.0
  0
POLYLINE
  5
1E9
  8
0
  6
CONTINUOUS
 62
     7
 66
     1
 10
0.0
 20
0.0
 30
0.0
  0
VERTEX
  5
5E7
  8
0
  6
CONTINUOUS
 62
     7
 10
-228.1575364325
 20
-55.5304870569
 30
0.0
  0
VERTEX
  5
5E8
  8
0
  6
CONTINUOUS
 62
     7
 10
-227.8970641348
 20
-55.7908401453
 30
0.0
  0
VERTEX
  5
5E9
  8
0
  6
CONTINUOUS
 62
     7
 10
-227.6444894526
 20
-56.0432956183
 30
0.0
  0
VERTEX
  5
5EA
  8
0
  6
CONTINUOUS
 62
     7
 10
-227.4075311873
 20
-56.2801346743
 30
0.0
  0
VERTEX
  5
5EB
  8
0
  6
CONTINUOUS
 62
     7
 10
-227.1933418963
 20
-56.4942345583
 30
0.0
  0
VERTEX
  5
5EC
  8
0
  6
CONTINUOUS
 62
     7
 10
-227.0084482882
 20
-56.6790089571
 30
0.0
  0
VERTEX
  5
5ED
  8
0
  6
CONTINUOUS
 62
     7
 10
-226.8584830019
 20
-56.8289146387
 30
0.0
  0
VERTEX
  5
5EE
  8
0
  6
CONTINUOUS
 62
     7
 10
-226.7479759905
 20
-56.9393620455
 30
0.0
  0
VERTEX
  5
5EF
  8
0
  6
CONTINUOUS
 62
     7
 10
-226.6803247187
 20
-57.0070133173
 30
0.0
  0
VERTEX
  5
5F0
  8
0
  6
CONTINUOUS
 62
     7
 10
-226.6575259421
 20
-57.0297822916
 30
0.0
  0
SEQEND
  5
5F1
  8
0
  6
CONTINUOUS
 62
     7
  0
LINE
  5
1EA
  8
0
  6
CONTINUOUS
 62
     7
 10
-808.3285850737
 20
524.6623768843
 30
0.0
 11
-804.1586441252
 21
520.477206949
 31
0.0
  0
LINE
  5
1EB
  8
0
  6
CONTINUOUS
 62
     7
 10
-804.1586441252
 20
-37.5327155554
 30
0.0
 11
-808.3389562819
 21
-41.7130277121
 31
0.0
  0
ARC
  5
1EC
  8
0
  6
CONTINUOUS
 62
     7
 10
-811.3507366619
 20
-24.2203989216
 30
0.0
 40
15.13089452785555
 50
298.3805132628
 51
308.6953040704
  0
ARC
  5
1ED
  8
0
  6
CONTINUOUS
 62
     7
 10
-811.3694178804
 20
507.1797304381
 30
0.0
 40
15.12673592376917
 50
51.2013430289
 51
61.5305139739
  0
ARC
  5
1EE
  8
0
  6
CONTINUOUS
 62
     7
 10
-238.9643180833
 20
507.159406688
 30
0.0
 40
15.13089452785555
 50
118.3805132628
 51
128.6953040704
  0
ARC
  5
1EF
  8
0
  6
CONTINUOUS
 62
     7
 10
-238.9456368648
 20
-24.2407226718
 30
0.0
 40
15.12673592376915
 50
231.2013430289
 51
241.5305139739
  0
LINE
  5
1F0
  8
0
  6
CONTINUOUS
 62
     7
 10
-246.1564106199
 20
520.4717233217
 30
0.0
 11
-241.9760984633
 21
524.6520354784
 31
0.0
  0
LINE
  5
1F1
  8
0
  6
CONTINUOUS
 62
     7
 10
-241.9864696715
 20
-41.7233691179
 30
0.0
 11
-246.1564106199
 21
-37.5381991827
 31
0.0
  0
LINE
  5
1F2
  8
0
  6
CONTINUOUS
 62
     7
 10
-241.9646543715
 20
524.6405615843
 30
0.0
 11
-246.1498243067
 21
520.4706206358
 31
0.0
  0
LINE
  5
1F3
  8
0
  6
CONTINUOUS
 62
     7
 10
-804.1597468111
 20
520.4706206358
 30
0.0
 11
-808.3400589678
 21
524.6509327925
 31
0.0
  0
LINE
  5
1F4
  8
0
  6
CONTINUOUS
 62
     7
 10
-808.3504003737
 20
-41.701553818
 30
0.0
 11
-804.1652304384
 21
-37.5316128695
 31
0.0
  0
LINE
  5
1F5
  8
0
  6
CONTINUOUS
 62
     7
 10
-246.155307934
 20
-37.5316128695
 30
0.0
 11
-241.9749957773
 21
-41.7119250261
 31
0.0
  0
ARC
  5
1F6
  8
0
  6
CONTINUOUS
 62
     7
 10
-790.8474301774
 20
527.6627131725
 30
0.0
 40
15.13089452785561
 50
208.3805132628
 51
218.6953040704
  0
ARC
  5
1F7
  8
0
  6
CONTINUOUS
 62
     7
 10
-259.4473008176
 20
527.681394391
 30
0.0
 40
15.12673592376914
 50
321.2013430289
 51
331.5305139739
  0
ARC
  5
1F8
  8
0
  6
CONTINUOUS
 62
     7
 10
-790.8677539275
 20
-44.7423866246
 30
0.0
 40
15.12673592376914
 50
141.2013430289
 51
151.5305139739
  0
ARC
  5
1F9
  8
0
  6
CONTINUOUS
 62
     7
 10
-259.4676245678
 20
-44.7237054061
 30
0.0
 40
15.13089452785556
 50
28.3805132628
 51
38.6953040704
  0
LINE
  5
1FA
  8
0
  6
CONTINUOUS
 62
     7
 10
-248.157517359
 20
541.7695059812
 30
0.0
 11
-236.0247534964
 21
541.7695059812
 31
0.0
  0
LINE
  5
1FB
  8
0
  6
CONTINUOUS
 62
     7
 10
-248.157517359
 20
541.7695059812
 30
0.0
 11
-247.8575271818
 21
541.4695158041
 31
0.0
  0
LINE
  5
1FC
  8
0
  6
CONTINUOUS
 62
     7
 10
-248.157517359
 20
541.7695059812
 30
0.0
 11
-248.157517359
 21
545.1695039308
 31
0.0
  0
LINE
  5
1FD
  8
0
  6
CONTINUOUS
 62
     7
 10
-236.0247534964
 20
545.1695039308
 30
0.0
 11
-248.157517359
 21
545.1695039308
 31
0.0
  0
LINE
  5
1FE
  8
0
  6
CONTINUOUS
 62
     7
 10
-247.8575271818
 20
545.469494108
 30
0.0
 11
-236.2447244379
 21
545.469494108
 31
0.0
  0
LINE
  5
1FF
  8
0
  6
CONTINUOUS
 62
     7
 10
-248.157517359
 20
545.1695039308
 30
0.0
 11
-247.8575271818
 21
545.469494108
 31
0.0
  0
LINE
  5
200
  8
0
  6
CONTINUOUS
 62
     7
 10
-236.0247534964
 20
541.7695059812
 30
0.0
 11
-206.0244542811
 21
541.7695059812
 31
0.0
  0
LINE
  5
201
  8
0
  6
CONTINUOUS
 62
     7
 10
-206.2444252226
 20
541.4695158041
 30
0.0
 11
-226.6582411978
 21
541.4695158041
 31
0.0
  0
LINE
  5
202
  8
0
  6
CONTINUOUS
 62
     7
 10
-206.0244542811
 20
545.1695039308
 30
0.0
 11
-236.0247534964
 21
545.1695039308
 31
0.0
  0
LINE
  5
203
  8
0
  6
CONTINUOUS
 62
     7
 10
-236.2447244379
 20
545.469494108
 30
0.0
 11
-206.2444252226
 21
545.469494108
 31
0.0
  0
LINE
  5
204
  8
0
  6
CONTINUOUS
 62
     7
 10
-206.0244542811
 20
541.7695059812
 30
0.0
 11
-205.1575345251
 21
541.7695059812
 31
0.0
  0
LINE
  5
205
  8
0
  6
CONTINUOUS
 62
     7
 10
-205.1575345251
 20
541.7695059812
 30
0.0
 11
-205.4575247023
 21
541.4695158041
 31
0.0
  0
LINE
  5
206
  8
0
  6
CONTINUOUS
 62
     7
 10
-205.4575247023
 20
541.4695158041
 30
0.0
 11
-206.2444252226
 21
541.4695158041
 31
0.0
  0
LINE
  5
207
  8
0
  6
CONTINUOUS
 62
     7
 10
-205.1575345251
 20
545.1695039308
 30
0.0
 11
-206.0244542811
 21
545.1695039308
 31
0.0
  0
LINE
  5
208
  8
0
  6
CONTINUOUS
 62
     7
 10
-205.1575345251
 20
545.1695039308
 30
0.0
 11
-205.1575345251
 21
541.7695059812
 31
0.0
  0
LINE
  5
209
  8
0
  6
CONTINUOUS
 62
     7
 10
-205.4575247023
 20
545.469494108
 30
0.0
 11
-205.1575345251
 21
545.1695039308
 31
0.0
  0
LINE
  5
20A
  8
0
  6
CONTINUOUS
 62
     7
 10
-206.2444252226
 20
545.469494108
 30
0.0
 11
-205.4575247023
 21
545.469494108
 31
0.0
  0
LINE
  5
20B
  8
0
  6
CONTINUOUS
 62
     7
 10
-802.1575373862
 20
545.1695039308
 30
0.0
 11
-814.2903012488
 21
545.1695039308
 31
0.0
  0
LINE
  5
20C
  8
0
  6
CONTINUOUS
 62
     7
 10
-814.0703303072
 20
545.469494108
 30
0.0
 11
-802.4575275633
 21
545.469494108
 31
0.0
  0
LINE
  5
20D
  8
0
  6
CONTINUOUS
 62
     7
 10
-802.1575373862
 20
545.1695039308
 30
0.0
 11
-802.4575275633
 21
545.469494108
 31
0.0
  0
LINE
  5
20E
  8
0
  6
CONTINUOUS
 62
     7
 10
-802.1575373862
 20
545.1695039308
 30
0.0
 11
-802.1575373862
 21
541.7695059812
 31
0.0
  0
LINE
  5
20F
  8
0
  6
CONTINUOUS
 62
     7
 10
-814.2903012488
 20
541.7695059812
 30
0.0
 11
-802.1575373862
 21
541.7695059812
 31
0.0
  0
LINE
  5
210
  8
0
  6
CONTINUOUS
 62
     7
 10
-802.1575373862
 20
541.7695059812
 30
0.0
 11
-802.4575275633
 21
541.4695158041
 31
0.0
  0
LINE
  5
211
  8
0
  6
CONTINUOUS
 62
     7
 10
-814.2903012488
 20
545.1695039308
 30
0.0
 11
-844.2906004641
 21
545.1695039308
 31
0.0
  0
LINE
  5
212
  8
0
  6
CONTINUOUS
 62
     7
 10
-844.2906004641
 20
541.7695059812
 30
0.0
 11
-814.2903012488
 21
541.7695059812
 31
0.0
  0
LINE
  5
213
  8
0
  6
CONTINUOUS
 62
     7
 10
-844.0706295225
 20
545.469494108
 30
0.0
 11
-814.0703303072
 21
545.469494108
 31
0.0
  0
LINE
  5
214
  8
0
  6
CONTINUOUS
 62
     7
 10
-823.6568135473
 20
541.4695158041
 30
0.0
 11
-844.0706295225
 21
541.4695158041
 31
0.0
  0
LINE
  5
215
  8
0
  6
CONTINUOUS
 62
     7
 10
-844.2906004641
 20
545.1695039308
 30
0.0
 11
-845.15752022
 21
545.1695039308
 31
0.0
  0
LINE
  5
216
  8
0
  6
CONTINUOUS
 62
     7
 10
-845.15752022
 20
541.7695059812
 30
0.0
 11
-844.2906004641
 21
541.7695059812
 31
0.0
  0
LINE
  5
217
  8
0
  6
CONTINUOUS
 62
     7
 10
-845.15752022
 20
541.7695059812
 30
0.0
 11
-845.15752022
 21
545.1695039308
 31
0.0
  0
LINE
  5
218
  8
0
  6
CONTINUOUS
 62
     7
 10
-845.15752022
 20
545.1695039308
 30
0.0
 11
-844.8575300429
 21
545.469494108
 31
0.0
  0
LINE
  5
219
  8
0
  6
CONTINUOUS
 62
     7
 10
-844.8575300429
 20
545.469494108
 30
0.0
 11
-844.0706295225
 21
545.469494108
 31
0.0
  0
LINE
  5
21A
  8
0
  6
CONTINUOUS
 62
     7
 10
-844.8575300429
 20
541.4695158041
 30
0.0
 11
-845.15752022
 21
541.7695059812
 31
0.0
  0
LINE
  5
21B
  8
0
  6
CONTINUOUS
 62
     7
 10
-844.0706295225
 20
541.4695158041
 30
0.0
 11
-844.8575300429
 21
541.4695158041
 31
0.0
  0
LINE
  5
21C
  8
0
  6
CONTINUOUS
 62
     7
 10
-802.1575373862
 20
-58.8304982149
 30
0.0
 11
-814.2903012488
 21
-58.8304982149
 31
0.0
  0
LINE
  5
21D
  8
0
  6
CONTINUOUS
 62
     7
 10
-802.1575373862
 20
-58.8304982149
 30
0.0
 11
-802.4575275633
 21
-58.5305080378
 31
0.0
  0
LINE
  5
21E
  8
0
  6
CONTINUOUS
 62
     7
 10
-802.1575373862
 20
-58.8304982149
 30
0.0
 11
-802.1575373862
 21
-62.2304961645
 31
0.0
  0
LINE
  5
21F
  8
0
  6
CONTINUOUS
 62
     7
 10
-814.2903012488
 20
-62.2304961645
 30
0.0
 11
-802.1575373862
 21
-62.2304961645
 31
0.0
  0
LINE
  5
220
  8
0
  6
CONTINUOUS
 62
     7
 10
-802.4575275633
 20
-62.5304863417
 30
0.0
 11
-814.0703303072
 21
-62.5304863417
 31
0.0
  0
LINE
  5
221
  8
0
  6
CONTINUOUS
 62
     7
 10
-802.1575373862
 20
-62.2304961645
 30
0.0
 11
-802.4575275633
 21
-62.5304863417
 31
0.0
  0
LINE
  5
222
  8
0
  6
CONTINUOUS
 62
     7
 10
-814.2903012488
 20
-58.8304982149
 30
0.0
 11
-844.2906004641
 21
-58.8304982149
 31
0.0
  0
LINE
  5
223
  8
0
  6
CONTINUOUS
 62
     7
 10
-844.0706295225
 20
-58.5305080378
 30
0.0
 11
-823.6568135473
 21
-58.5305080378
 31
0.0
  0
LINE
  5
224
  8
0
  6
CONTINUOUS
 62
     7
 10
-844.2906004641
 20
-62.2304961645
 30
0.0
 11
-814.2903012488
 21
-62.2304961645
 31
0.0
  0
LINE
  5
225
  8
0
  6
CONTINUOUS
 62
     7
 10
-814.0703303072
 20
-62.5304863417
 30
0.0
 11
-844.0706295225
 21
-62.5304863417
 31
0.0
  0
LINE
  5
226
  8
0
  6
CONTINUOUS
 62
     7
 10
-844.2906004641
 20
-58.8304982149
 30
0.0
 11
-845.15752022
 21
-58.8304982149
 31
0.0
  0
LINE
  5
227
  8
0
  6
CONTINUOUS
 62
     7
 10
-845.15752022
 20
-58.8304982149
 30
0.0
 11
-844.8575300429
 21
-58.5305080378
 31
0.0
  0
LINE
  5
228
  8
0
  6
CONTINUOUS
 62
     7
 10
-844.8575300429
 20
-58.5305080378
 30
0.0
 11
-844.0706295225
 21
-58.5305080378
 31
0.0
  0
LINE
  5
229
  8
0
  6
CONTINUOUS
 62
     7
 10
-845.15752022
 20
-62.2304961645
 30
0.0
 11
-844.2906004641
 21
-62.2304961645
 31
0.0
  0
LINE
  5
22A
  8
0
  6
CONTINUOUS
 62
     7
 10
-845.15752022
 20
-62.2304961645
 30
0.0
 11
-845.15752022
 21
-58.8304982149
 31
0.0
  0
LINE
  5
22B
  8
0
  6
CONTINUOUS
 62
     7
 10
-844.8575300429
 20
-62.5304863417
 30
0.0
 11
-845.15752022
 21
-62.2304961645
 31
0.0
  0
LINE
  5
22C
  8
0
  6
CONTINUOUS
 62
     7
 10
-844.0706295225
 20
-62.5304863417
 30
0.0
 11
-844.8575300429
 21
-62.5304863417
 31
0.0
  0
LINE
  5
22D
  8
0
  6
CONTINUOUS
 62
     7
 10
-248.157517359
 20
-62.2304961645
 30
0.0
 11
-236.0247534964
 21
-62.2304961645
 31
0.0
  0
LINE
  5
22E
  8
0
  6
CONTINUOUS
 62
     7
 10
-248.157517359
 20
-62.2304961645
 30
0.0
 11
-248.157517359
 21
-58.8304982149
 31
0.0
  0
LINE
  5
22F
  8
0
  6
CONTINUOUS
 62
     7
 10
-236.0247534964
 20
-58.8304982149
 30
0.0
 11
-248.157517359
 21
-58.8304982149
 31
0.0
  0
LINE
  5
230
  8
0
  6
CONTINUOUS
 62
     7
 10
-236.2447244379
 20
-62.5304863417
 30
0.0
 11
-247.8575271818
 21
-62.5304863417
 31
0.0
  0
LINE
  5
231
  8
0
  6
CONTINUOUS
 62
     7
 10
-248.157517359
 20
-62.2304961645
 30
0.0
 11
-247.8575271818
 21
-62.5304863417
 31
0.0
  0
LINE
  5
232
  8
0
  6
CONTINUOUS
 62
     7
 10
-248.157517359
 20
-58.8304982149
 30
0.0
 11
-247.8575271818
 21
-58.5305080378
 31
0.0
  0
LINE
  5
233
  8
0
  6
CONTINUOUS
 62
     7
 10
-236.0247534964
 20
-62.2304961645
 30
0.0
 11
-206.0244542811
 21
-62.2304961645
 31
0.0
  0
LINE
  5
234
  8
0
  6
CONTINUOUS
 62
     7
 10
-206.2444252226
 20
-62.5304863417
 30
0.0
 11
-236.2447244379
 21
-62.5304863417
 31
0.0
  0
LINE
  5
235
  8
0
  6
CONTINUOUS
 62
     7
 10
-206.0244542811
 20
-58.8304982149
 30
0.0
 11
-236.0247534964
 21
-58.8304982149
 31
0.0
  0
LINE
  5
236
  8
0
  6
CONTINUOUS
 62
     7
 10
-226.6582411978
 20
-58.5305080378
 30
0.0
 11
-206.2444252226
 21
-58.5305080378
 31
0.0
  0
LINE
  5
237
  8
0
  6
CONTINUOUS
 62
     7
 10
-206.0244542811
 20
-62.2304961645
 30
0.0
 11
-205.1575345251
 21
-62.2304961645
 31
0.0
  0
LINE
  5
238
  8
0
  6
CONTINUOUS
 62
     7
 10
-205.1575345251
 20
-62.2304961645
 30
0.0
 11
-205.4575247023
 21
-62.5304863417
 31
0.0
  0
LINE
  5
239
  8
0
  6
CONTINUOUS
 62
     7
 10
-205.4575247023
 20
-62.5304863417
 30
0.0
 11
-206.2444252226
 21
-62.5304863417
 31
0.0
  0
LINE
  5
23A
  8
0
  6
CONTINUOUS
 62
     7
 10
-205.1575345251
 20
-58.8304982149
 30
0.0
 11
-206.0244542811
 21
-58.8304982149
 31
0.0
  0
LINE
  5
23B
  8
0
  6
CONTINUOUS
 62
     7
 10
-205.1575345251
 20
-58.8304982149
 30
0.0
 11
-205.1575345251
 21
-62.2304961645
 31
0.0
  0
LINE
  5
23C
  8
0
  6
CONTINUOUS
 62
     7
 10
-205.4575247023
 20
-58.5305080378
 30
0.0
 11
-205.1575345251
 21
-58.8304982149
 31
0.0
  0
LINE
  5
23D
  8
0
  6
CONTINUOUS
 62
     7
 10
-206.2444252226
 20
-58.5305080378
 30
0.0
 11
-205.4575247023
 21
-58.5305080378
 31
0.0
  0
LINE
  5
23E
  8
0
  6
CONTINUOUS
 62
     7
 10
-223.5575181696
 20
444.4694980419
 30
0.0
 11
-225.1575154516
 21
444.4694980419
 31
0.0
  0
LINE
  5
23F
  8
0
  6
CONTINUOUS
 62
     7
 10
-225.1575154516
 20
476.4695032871
 30
0.0
 11
-223.5575181696
 21
476.4695032871
 31
0.0
  0
LINE
  5
240
  8
0
  6
CONTINUOUS
 62
     7
 10
-223.5575181696
 20
476.4695032871
 30
0.0
 11
-223.5575181696
 21
444.4694980419
 31
0.0
  0
LINE
  5
241
  8
0
  6
CONTINUOUS
 62
     7
 10
-219.1575330946
 20
448.4695061481
 30
0.0
 11
-223.5575181696
 21
444.4694980419
 31
0.0
  0
LINE
  5
242
  8
0
  6
CONTINUOUS
 62
     7
 10
-223.5575181696
 20
476.4695032871
 30
0.0
 11
-219.1575330946
 21
472.469510082
 31
0.0
  0
LINE
  5
243
  8
0
  6
CONTINUOUS
 62
     7
 10
-219.1575330946
 20
448.4695061481
 30
0.0
 11
-219.1575330946
 21
472.469510082
 31
0.0
  0
LINE
  5
244
  8
0
  6
CONTINUOUS
 62
     7
 10
-223.5575181696
 20
6.4695044792
 30
0.0
 11
-225.1575154516
 21
6.4695044792
 31
0.0
  0
LINE
  5
245
  8
0
  6
CONTINUOUS
 62
     7
 10
-225.1575154516
 20
38.4695097244
 30
0.0
 11
-223.5575181696
 21
38.4695097244
 31
0.0
  0
LINE
  5
246
  8
0
  6
CONTINUOUS
 62
     7
 10
-223.5575181696
 20
38.4695097244
 30
0.0
 11
-223.5575181696
 21
6.4695044792
 31
0.0
  0
LINE
  5
247
  8
0
  6
CONTINUOUS
 62
     7
 10
-219.1575330946
 20
10.4694976843
 30
0.0
 11
-223.5575181696
 21
6.4695044792
 31
0.0
  0
LINE
  5
248
  8
0
  6
CONTINUOUS
 62
     7
 10
-223.5575181696
 20
38.4695097244
 30
0.0
 11
-219.1575330946
 21
34.4695016182
 31
0.0
  0
LINE
  5
249
  8
0
  6
CONTINUOUS
 62
     7
 10
-219.1575330946
 20
10.4694976843
 30
0.0
 11
-219.1575330946
 21
34.4695016182
 31
0.0
  0
LINE
  5
24A
  8
0
  6
CONTINUOUS
 62
     7
 10
-2182.2284108632
 20
968.7679606759
 30
0.0
 11
-2180.6284135811
 21
968.7679606759
 31
0.0
  0
LINE
  5
24B
  8
0
  6
CONTINUOUS
 62
     7
 10
-2186.6283959382
 20
972.7679687822
 30
0.0
 11
-2182.2284108632
 21
968.7679606759
 31
0.0
  0
ARC
  5
24C
  8
0
  6
CONTINUOUS
 62
     7
 10
-2175.7784018798
 20
1037.4679625152
 30
0.0
 40
0.5
 50
90.0000000001
 51
265.5948036764
  0
ARC
  5
24D
  8
0
  6
CONTINUOUS
 62
     7
 10
-2170.5784018798
 20
1104.9679625152
 30
0.0
 40
68.2000000000002
 50
265.5948036765
 51
266.405966506
  0
ARC
  5
24E
  8
0
  6
CONTINUOUS
 62
     7
 10
-1584.3784018798
 20
1037.4679625152
 30
0.0
 40
0.5000000000000798
 50
342.9285910755
 51
90.0
  0
LINE
  5
24F
  8
0
  6
CONTINUOUS
 62
     7
 10
-1599.8284167283
 20
1040.4679524982
 30
0.0
 11
-1599.8284167283
 21
1039.4679653728
 31
0.0
  0
LINE
  5
250
  8
0
  6
CONTINUOUS
 62
     7
 10
-1594.3283981316
 20
1039.4679653728
 30
0.0
 11
-1594.3283981316
 21
1040.4679524982
 31
0.0
  0
LINE
  5
251
  8
0
  6
CONTINUOUS
 62
     7
 10
-1882.8284018811
 20
1040.4679524982
 30
0.0
 11
-1882.8284018811
 21
1039.4679653728
 31
0.0
  0
LINE
  5
252
  8
0
  6
CONTINUOUS
 62
     7
 10
-1877.3284019109
 20
1039.4679653728
 30
0.0
 11
-1877.3284019109
 21
1040.4679524982
 31
0.0
  0
LINE
  5
253
  8
0
  6
CONTINUOUS
 62
     7
 10
-2165.8284014695
 20
1040.4679524982
 30
0.0
 11
-2165.8284014695
 21
1039.4679653728
 31
0.0
  0
LINE
  5
254
  8
0
  6
CONTINUOUS
 62
     7
 10
-2160.3284126752
 20
1039.4679653728
 30
0.0
 11
-2160.3284126752
 21
1040.4679524982
 31
0.0
  0
LINE
  5
255
  8
0
  6
CONTINUOUS
 62
     7
 10
-1592.3283940785
 20
1040.4679524982
 30
0.0
 11
-1592.3283940785
 21
1039.4679653728
 31
0.0
  0
LINE
  5
256
  8
0
  6
CONTINUOUS
 62
     7
 10
-1586.8284052842
 20
1039.4679653728
 30
0.0
 11
-1586.8284052842
 21
1040.4679524982
 31
0.0
  0
LINE
  5
257
  8
0
  6
CONTINUOUS
 62
     7
 10
-2173.3283943169
 20
1040.4679524982
 30
0.0
 11
-2173.3283943169
 21
1039.4679653728
 31
0.0
  0
LINE
  5
258
  8
0
  6
CONTINUOUS
 62
     7
 10
-2167.8284055226
 20
1039.4679653728
 30
0.0
 11
-2167.8284055226
 21
1040.4679524982
 31
0.0
  0
LINE
  5
259
  8
0
  6
CONTINUOUS
 62
     7
 10
-1591.8784088128
 20
1020.2679681861
 30
0.0
 11
-1591.8784088128
 21
1020.48796893
 31
0.0
  0
LINE
  5
25A
  8
0
  6
CONTINUOUS
 62
     7
 10
-1596.8784040444
 20
1020.48796893
 30
0.0
 11
-1596.8784040444
 21
1020.2679681861
 31
0.0
  0
LINE
  5
25B
  8
0
  6
CONTINUOUS
 62
     7
 10
-1591.8784088128
 20
1020.48796893
 30
0.0
 11
-1592.2784155839
 21
1020.8879757011
 31
0.0
  0
LINE
  5
25C
  8
0
  6
CONTINUOUS
 62
     7
 10
-1596.4783972733
 20
1020.8879757011
 30
0.0
 11
-1596.8784040444
 21
1020.48796893
 31
0.0
  0
LINE
  5
25D
  8
0
  6
CONTINUOUS
 62
     7
 10
-1582.1291154854
 20
741.267962967
 30
0.0
 11
-1582.1291154854
 21
986.1090380037
 31
0.0
  0
LINE
  5
25E
  8
0
  6
CONTINUOUS
 62
     7
 10
-2179.127687835
 20
986.1090380037
 30
0.0
 11
-2179.127687835
 21
741.267962967
 31
0.0
  0
LINE
  5
25F
  8
0
  6
CONTINUOUS
 62
     7
 10
-1593.2213312619
 20
1018.267964133
 30
0.0
 11
-2168.0354720586
 21
1018.267964133
 31
0.0
  0
POLYLINE
  5
260
  8
0
  6
CONTINUOUS
 62
     7
 66
     1
 10
0.0
 20
0.0
 30
0.0
  0
VERTEX
  5
5F2
  8
0
  6
CONTINUOUS
 62
     7
 10
-2179.127687835
 20
741.267962967
 30
0.0
  0
VERTEX
  5
5F3
  8
0
  6
CONTINUOUS
 62
     7
 10
-2179.0988987916
 20
740.6826919214
 30
0.0
  0
VERTEX
  5
5F4
  8
0
  6
CONTINUOUS
 62
     7
 10
-2179.0135747426
 20
740.1199126653
 30
0.0
  0
VERTEX
  5
5F5
  8
0
  6
CONTINUOUS
 62
     7
 10
-2178.8750237458
 20
739.601252255
 30
0.0
  0
VERTEX
  5
5F6
  8
0
  6
CONTINUOUS
 62
     7
 10
-2178.6885506146
 20
739.1466426234
 30
0.0
  0
VERTEX
  5
5F7
  8
0
  6
CONTINUOUS
 62
     7
 10
-2178.4613675111
 20
738.7735541015
 30
0.0
  0
VERTEX
  5
5F8
  8
0
  6
CONTINUOUS
 62
     7
 10
-2178.2021469109
 20
738.4963243422
 30
0.0
  0
VERTEX
  5
5F9
  8
0
  6
CONTINUOUS
 62
     7
 10
-2177.9209023946
 20
738.3256071007
 30
0.0
  0
VERTEX
  5
5FA
  8
0
  6
CONTINUOUS
 62
     7
 10
-2177.6283926003
 20
738.2679629409
 30
0.0
  0
SEQEND
  5
5FB
  8
0
  6
CONTINUOUS
 62
     7
  0
POLYLINE
  5
261
  8
0
  6
CONTINUOUS
 62
     7
 66
     1
 10
0.0
 20
0.0
 30
0.0
  0
VERTEX
  5
5FC
  8
0
  6
CONTINUOUS
 62
     7
 10
-1583.6284107201
 20
738.2679629409
 30
0.0
  0
VERTEX
  5
5FD
  8
0
  6
CONTINUOUS
 62
     7
 10
-1583.3359009259
 20
738.3256071007
 30
0.0
  0
VERTEX
  5
5FE
  8
0
  6
CONTINUOUS
 62
     7
 10
-1583.0546564095
 20
738.4963243422
 30
0.0
  0
VERTEX
  5
5FF
  8
0
  6
CONTINUOUS
 62
     7
 10
-1582.7954358094
 20
738.7735541015
 30
0.0
  0
VERTEX
  5
600
  8
0
  6
CONTINUOUS
 62
     7
 10
-1582.5682527058
 20
739.1466426234
 30
0.0
  0
VERTEX
  5
601
  8
0
  6
CONTINUOUS
 62
     7
 10
-1582.3817795746
 20
739.601252255
 30
0.0
  0
VERTEX
  5
602
  8
0
  6
CONTINUOUS
 62
     7
 10
-1582.2432285779
 20
740.1199126653
 30
0.0
  0
VERTEX
  5
603
  8
0
  6
CONTINUOUS
 62
     7
 10
-1582.1579045289
 20
740.6826919214
 30
0.0
  0
VERTEX
  5
604
  8
0
  6
CONTINUOUS
 62
     7
 10
-1582.1291154854
 20
741.267962967
 30
0.0
  0
SEQEND
  5
605
  8
0
  6
CONTINUOUS
 62
     7
  0
LINE
  5
262
  8
0
  6
CONTINUOUS
 62
     7
 10
-2177.6283926003
 20
738.2679629409
 30
0.0
 11
-1583.6284107201
 21
738.2679629409
 31
0.0
  0
ARC
  5
263
  8
0
  6
CONTINUOUS
 62
     7
 10
-1583.6284213648
 20
741.2679945666
 30
0.0
 40
3.000031625719414
 50
270.000203297
 51
359.999396498
  0
LINE
  5
264
  8
0
  6
CONTINUOUS
 62
     7
 10
-1582.1284002297
 20
986.1097979629
 30
0.0
 11
-1582.1284002297
 21
741.267962967
 31
0.0
  0
LINE
  5
265
  8
0
  6
CONTINUOUS
 62
     7
 10
-1580.6283897393
 20
987.7273935163
 30
0.0
 11
-1580.6283897393
 21
741.267962967
 31
0.0
  0
LINE
  5
266
  8
0
  6
CONTINUOUS
 62
     7
 10
-2179.1284030907
 20
741.267962967
 30
0.0
 11
-2179.1284030907
 21
986.1097979629
 31
0.0
  0
LINE
  5
267
  8
0
  6
CONTINUOUS
 62
     7
 10
-2180.6284135811
 20
741.267962967
 30
0.0
 11
-2180.6284135811
 21
987.7273935163
 31
0.0
  0
ARC
  5
268
  8
0
  6
CONTINUOUS
 62
     7
 10
-2177.6283819556
 20
741.2679945666
 30
0.0
 40
3.000031625719443
 50
180.000603502
 51
269.999796703
  0
LINE
  5
269
  8
0
  6
CONTINUOUS
 62
     7
 10
-1603.9962417119
 20
1024.4679498756
 30
0.0
 11
-1604.5980996125
 21
1020.1854753578
 31
0.0
  0
LINE
  5
26A
  8
0
  6
CONTINUOUS
 62
     7
 10
-1602.4815088742
 20
1024.4679498756
 30
0.0
 11
-1603.11269226
 21
1019.9767100894
 31
0.0
  0
LINE
  5
26B
  8
0
  6
CONTINUOUS
 62
     7
 10
-1603.11269226
 20
1019.9767100894
 30
0.0
 11
-1604.5980996125
 21
1020.1854753578
 31
0.0
  0
LINE
  5
26C
  8
0
  6
CONTINUOUS
 62
     7
 10
-2158.3380943768
 20
1019.9767100894
 30
0.0
 11
-2158.975506448
 21
1024.4679498756
 31
0.0
  0
POLYLINE
  5
26D
  8
0
  6
CONTINUOUS
 62
     7
 66
     1
 10
0.0
 20
0.0
 30
0.0
  0
VERTEX
  5
606
  8
0
  6
CONTINUOUS
 62
     7
 10
-2158.4958082669
 20
1018.7857496822
 30
0.0
  0
VERTEX
  5
607
  8
0
  6
CONTINUOUS
 62
     7
 10
-2159.0063220494
 20
1018.4035348975
 30
0.0
  0
VERTEX
  5
608
  8
0
  6
CONTINUOUS
 62
     7
 10
-2159.6295184128
 20
1018.267964133
 30
0.0
  0
SEQEND
  5
609
  8
0
  6
CONTINUOUS
 62
     7
  0
POLYLINE
  5
26E
  8
0
  6
CONTINUOUS
 62
     7
 66
     1
 10
0.0
 20
0.0
 30
0.0
  0
VERTEX
  5
60A
  8
0
  6
CONTINUOUS
 62
     7
 10
-1601.6272849076
 20
1018.267964133
 30
0.0
  0
VERTEX
  5
60B
  8
0
  6
CONTINUOUS
 62
     7
 10
-1602.250481271
 20
1018.4035348975
 30
0.0
  0
VERTEX
  5
60C
  8
0
  6
CONTINUOUS
 62
     7
 10
-1602.7609950535
 20
1018.7857496822
 30
0.0
  0
SEQEND
  5
60D
  8
0
  6
CONTINUOUS
 62
     7
  0
POLYLINE
  5
26F
  8
0
  6
CONTINUOUS
 62
     7
 66
     1
 10
0.0
 20
0.0
 30
0.0
  0
VERTEX
  5
60E
  8
0
  6
CONTINUOUS
 62
     7
 10
-1604.5177823537
 20
1018.9913857066
 30
0.0
  0
VERTEX
  5
60F
  8
0
  6
CONTINUOUS
 62
     7
 10
-1604.5239216321
 20
1018.9183104122
 30
0.0
  0
VERTEX
  5
610
  8
0
  6
CONTINUOUS
 62
     7
 10
-1604.5357233517
 20
1018.7857496822
 30
0.0
  0
SEQEND
  5
611
  8
0
  6
CONTINUOUS
 62
     7
  0
ARC
  5
270
  8
0
  6
CONTINUOUS
 62
     7
 10
-2012.5542377795
 20
1031.554614076
 30
0.0
 40
146.2252855874469
 50
184.6234479417
 51
185.062338643
  0
POLYLINE
  5
271
  8
0
  6
CONTINUOUS
 62
     7
 66
     1
 10
0.0
 20
0.0
 30
0.0
  0
VERTEX
  5
612
  8
0
  6
CONTINUOUS
 62
     7
 10
-2159.6306210988
 20
1018.267964133
 30
0.0
  0
VERTEX
  5
613
  8
0
  6
CONTINUOUS
 62
     7
 10
-2158.8791555398
 20
1018.4035348975
 30
0.0
  0
VERTEX
  5
614
  8
0
  6
CONTINUOUS
 62
     7
 10
-2158.1276899808
 20
1018.7857496822
 30
0.0
  0
SEQEND
  5
615
  8
0
  6
CONTINUOUS
 62
     7
  0
ARC
  5
272
  8
0
  6
CONTINUOUS
 62
     7
 10
-2129.9495839694
 20
1024.377980698
 30
0.0
 40
28.72766447381295
 50
188.81280539
 51
191.2250735897
  0
ARC
  5
273
  8
0
  6
CONTINUOUS
 62
     7
 10
-1632.8797026101
 20
1024.3900773687
 30
0.0
 40
28.80113494444421
 50
348.7793991852
 51
351.1855025695
  0
LINE
  5
274
  8
0
  6
CONTINUOUS
 62
     7
 10
-1604.6290940278
 20
1018.7857496822
 30
0.0
 11
-1603.1291133397
 21
1018.7857496822
 31
0.0
  0
POLYLINE
  5
275
  8
0
  6
CONTINUOUS
 62
     7
 66
     1
 10
0.0
 20
0.0
 30
0.0
  0
VERTEX
  5
616
  8
0
  6
CONTINUOUS
 62
     7
 10
-1603.1291133397
 20
1018.7857496822
 30
0.0
  0
VERTEX
  5
617
  8
0
  6
CONTINUOUS
 62
     7
 10
-1602.374905967
 20
1018.4035348975
 30
0.0
  0
VERTEX
  5
618
  8
0
  6
CONTINUOUS
 62
     7
 10
-1601.6206985943
 20
1018.267964133
 30
0.0
  0
SEQEND
  5
619
  8
0
  6
CONTINUOUS
 62
     7
  0
ARC
  5
276
  8
0
  6
CONTINUOUS
 62
     7
 10
-1602.1108278057
 20
1019.7419722175
 30
0.0
 40
2.526502736237414
 50
169.8898961263
 51
202.2393606941
  0
ARC
  5
277
  8
0
  6
CONTINUOUS
 62
     7
 10
-1601.6272832977
 20
1019.7679503151
 30
0.0
 40
1.500006809561834
 50
172.000031817
 51
220.90429328
  0
POLYLINE
  5
278
  8
0
  6
CONTINUOUS
 62
     7
 66
     1
 10
0.0
 20
0.0
 30
0.0
  0
VERTEX
  5
61A
  8
0
  6
CONTINUOUS
 62
     7
 10
-2158.2202857964
 20
1019.2724514091
 30
0.0
  0
VERTEX
  5
61B
  8
0
  6
CONTINUOUS
 62
     7
 10
-2158.3135074608
 20
1019.0481293285
 30
0.0
  0
VERTEX
  5
61C
  8
0
  6
CONTINUOUS
 62
     7
 10
-2158.4958082669
 20
1018.7857496822
 30
0.0
  0
SEQEND
  5
61D
  8
0
  6
CONTINUOUS
 62
     7
  0
POLYLINE
  5
279
  8
0
  6
CONTINUOUS
 62
     7
 66
     1
 10
0.0
 20
0.0
 30
0.0
  0
VERTEX
  5
61E
  8
0
  6
CONTINUOUS
 62
     7
 10
-1603.0013507836
 20
1019.1878426158
 30
0.0
  0
VERTEX
  5
61F
  8
0
  6
CONTINUOUS
 62
     7
 10
-1602.9713100426
 20
1019.5468711936
 30
0.0
  0
VERTEX
  5
620
  8
0
  6
CONTINUOUS
 62
     7
 10
-1602.9187089436
 20
1020.1854753578
 30
0.0
  0
SEQEND
  5
621
  8
0
  6
CONTINUOUS
 62
     7
  0
LINE
  5
27A
  8
0
  6
CONTINUOUS
 62
     7
 10
-1602.9187089436
 20
1019.9767100894
 30
0.0
 11
-1602.9187089436
 21
1020.1854753578
 31
0.0
  0
LINE
  5
27B
  8
0
  6
CONTINUOUS
 62
     7
 10
-1602.9535776608
 20
1019.7649943912
 30
0.0
 11
-1602.9187089436
 21
1019.9767100894
 31
0.0
  0
LINE
  5
27C
  8
0
  6
CONTINUOUS
 62
     7
 10
-1602.3109203808
 20
1024.4679498756
 30
0.0
 11
-1602.9187089436
 21
1020.1854753578
 31
0.0
  0
LINE
  5
27D
  8
0
  6
CONTINUOUS
 62
     7
 10
-1602.9187089436
 20
1019.9767100894
 30
0.0
 11
-1602.2812968724
 21
1024.4679498756
 31
0.0
  0
CIRCLE
  5
27E
  8
0
  6
CONTINUOUS
 62
     7
 10
-2164.6284016602
 20
1005.7679629409
 30
0.0
 40
3.750000000000079
  0
CIRCLE
  5
27F
  8
0
  6
CONTINUOUS
 62
     7
 10
-2164.6284016602
 20
980.7679629409
 30
0.0
 40
3.749999999999744
  0
CIRCLE
  5
280
  8
0
  6
CONTINUOUS
 62
     7
 10
-1596.6284016602
 20
980.7679629409
 30
0.0
 40
3.750000000000124
  0
CIRCLE
  5
281
  8
0
  6
CONTINUOUS
 62
     7
 10
-1596.6284016602
 20
1005.7679629409
 30
0.0
 40
3.750000000000038
  0
CIRCLE
  5
282
  8
0
  6
CONTINUOUS
 62
     7
 10
-1566.6284016602
 20
1044.0679629409
 30
0.0
 40
3.060000000000039
  0
CIRCLE
  5
283
  8
0
  6
CONTINUOUS
 62
     7
 10
-1566.6284016602
 20
1013.4679629409
 30
0.0
 40
3.060000000000075
  0
CIRCLE
  5
284
  8
0
  6
CONTINUOUS
 62
     7
 10
-2194.6284016602
 20
1013.4679629409
 30
0.0
 40
3.060000000000255
  0
CIRCLE
  5
285
  8
0
  6
CONTINUOUS
 62
     7
 10
-2194.6284016602
 20
1044.0679629409
 30
0.0
 40
3.060000000000141
  0
LINE
  5
286
  8
0
  6
CONTINUOUS
 62
     7
 10
-1603.6283916466
 20
980.7679700935
 30
0.0
 11
-1603.6283916466
 21
1004.2989897811
 31
0.0
  0
LINE
  5
287
  8
0
  6
CONTINUOUS
 62
     7
 10
-1603.3284014695
 20
1004.2989897811
 30
0.0
 11
-1603.3284014695
 21
980.7679700935
 31
0.0
  0
ARC
  5
288
  8
0
  6
CONTINUOUS
 62
     7
 10
-1596.6284016602
 20
980.7679629409
 30
0.0
 40
6.700000000000052
 50
180.0
 51
317.16
  0
ARC
  5
289
  8
0
  6
CONTINUOUS
 62
     7
 10
-1596.6284016602
 20
980.7679629409
 30
0.0
 40
7.0
 50
180.0
 51
317.16
  0
CIRCLE
  5
28A
  8
0
  6
CONTINUOUS
 62
     7
 10
-1596.6284016602
 20
1005.7679629409
 30
0.0
 40
3.199999999999818
  0
CIRCLE
  5
28B
  8
0
  6
CONTINUOUS
 62
     7
 10
-1566.6284016602
 20
1044.0679629409
 30
0.0
 40
2.25
  0
CIRCLE
  5
28C
  8
0
  6
CONTINUOUS
 62
     7
 10
-1566.6284016602
 20
1013.4679629409
 30
0.0
 40
2.250000000000114
  0
ARC
  5
28D
  8
0
  6
CONTINUOUS
 62
     7
 10
-1563.8784016602
 20
1046.5179629409
 30
0.0
 40
2.950000000000045
 50
360.0
 51
90.0
  0
LINE
  5
28E
  8
0
  6
CONTINUOUS
 62
     7
 10
-1560.9283989899
 20
1010.5701732719
 30
0.0
 11
-1560.9283989899
 21
1046.5179729545
 31
0.0
  0
ARC
  5
28F
  8
0
  6
CONTINUOUS
 62
     7
 10
-1563.8784016602
 20
1010.5701717731
 30
0.0
 40
2.950000000000121
 50
317.16
 51
360.0
  0
LINE
  5
290
  8
0
  6
CONTINUOUS
 62
     7
 10
-1591.7155987256
 20
976.212267884
 30
0.0
 11
-1561.7152995103
 21
1008.5642981613
 31
0.0
  0
ARC
  5
291
  8
0
  6
CONTINUOUS
 62
     7
 10
-1596.6284016602
 20
1004.2989880093
 30
0.0
 40
6.700000000000045
 50
137.16
 51
180.0
  0
LINE
  5
292
  8
0
  6
CONTINUOUS
 62
     7
 10
-1573.2753521435
 20
1039.3363285148
 30
0.0
 11
-1601.5412158005
 21
1008.8546621883
 31
0.0
  0
ARC
  5
293
  8
0
  6
CONTINUOUS
 62
     7
 10
-1575.8784016602
 20
1041.7501563261
 30
0.0
 40
3.549999999999957
 50
317.16
 51
0.0
  0
LINE
  5
294
  8
0
  6
CONTINUOUS
 62
     7
 10
-1572.328413152
 20
1046.5179729545
 30
0.0
 11
-1572.328413152
 21
1041.7501676166
 31
0.0
  0
ARC
  5
295
  8
0
  6
CONTINUOUS
 62
     7
 10
-1569.3784016602
 20
1046.5179629409
 30
0.0
 40
2.950000000000045
 50
90.0
 51
180.0
  0
LINE
  5
296
  8
0
  6
CONTINUOUS
 62
     7
 10
-1563.8784116738
 20
1049.467955836
 30
0.0
 11
-1569.3784004681
 21
1049.467955836
 31
0.0
  0
CIRCLE
  5
297
  8
0
  6
CONTINUOUS
 62
     7
 10
-1596.6284016602
 20
980.7679629409
 30
0.0
 40
3.199999999999932
  0
LINE
  5
298
  8
0
  6
CONTINUOUS
 62
     7
 10
-1561.4953285687
 20
1008.3603310668
 30
0.0
 11
-1591.495627784
 21
976.0082858884
 31
0.0
  0
LINE
  5
299
  8
0
  6
CONTINUOUS
 62
     7
 10
-1601.7611867421
 20
1009.058659085
 30
0.0
 11
-1573.4953230851
 21
1039.5402956092
 31
0.0
  0
ARC
  5
29A
  8
0
  6
CONTINUOUS
 62
     7
 10
-1563.8784016602
 20
1010.5701717731
 30
0.0
 40
3.250000000000155
 50
317.16
 51
360.0
  0
LINE
  5
29B
  8
0
  6
CONTINUOUS
 62
     7
 10
-1572.6284033292
 20
1041.7501676166
 30
0.0
 11
-1572.6284033292
 21
1046.5179729545
 31
0.0
  0
ARC
  5
29C
  8
0
  6
CONTINUOUS
 62
     7
 10
-1575.8784016602
 20
1041.7501563261
 30
0.0
 40
3.25
 50
317.16
 51
0.0
  0
ARC
  5
29D
  8
0
  6
CONTINUOUS
 62
     7
 10
-1596.6284016602
 20
1004.2989880093
 30
0.0
 40
7.0
 50
137.16
 51
180.0
  0
LINE
  5
29E
  8
0
  6
CONTINUOUS
 62
     7
 10
-1560.6284088128
 20
1046.5179729545
 30
0.0
 11
-1560.6284088128
 21
1010.5701732719
 31
0.0
  0
ARC
  5
29F
  8
0
  6
CONTINUOUS
 62
     7
 10
-1569.3784016602
 20
1046.5179629409
 30
0.0
 40
3.25
 50
90.0
 51
180.0
  0
ARC
  5
2A0
  8
0
  6
CONTINUOUS
 62
     7
 10
-1563.8784016602
 20
1046.5179629409
 30
0.0
 40
3.250000000000227
 50
360.0
 51
90.0
  0
LINE
  5
2A1
  8
0
  6
CONTINUOUS
 62
     7
 10
-1569.3784004681
 20
1049.7679758155
 30
0.0
 11
-1563.8784116738
 21
1049.7679758155
 31
0.0
  0
CIRCLE
  5
2A2
  8
0
  6
CONTINUOUS
 62
     7
 10
-2164.6284016602
 20
980.7679629409
 30
0.0
 40
3.199999999999932
  0
CIRCLE
  5
2A3
  8
0
  6
CONTINUOUS
 62
     7
 10
-2164.6284016602
 20
1005.7679629409
 30
0.0
 40
3.199999999999818
  0
CIRCLE
  5
2A4
  8
0
  6
CONTINUOUS
 62
     7
 10
-2194.6284016602
 20
1044.0679629409
 30
0.0
 40
2.249999999999773
  0
CIRCLE
  5
2A5
  8
0
  6
CONTINUOUS
 62
     7
 10
-2194.6284016602
 20
1013.4679629409
 30
0.0
 40
2.25
  0
ARC
  5
2A6
  8
0
  6
CONTINUOUS
 62
     7
 10
-2191.8784016602
 20
1046.5179629409
 30
0.0
 40
2.949999999999818
 50
0.0
 51
90.0
  0
LINE
  5
2A7
  8
0
  6
CONTINUOUS
 62
     7
 10
-2188.9283901684
 20
1041.7501676166
 30
0.0
 11
-2188.9283901684
 21
1046.5179729545
 31
0.0
  0
ARC
  5
2A8
  8
0
  6
CONTINUOUS
 62
     7
 10
-2185.3784016602
 20
1041.7501563261
 30
0.0
 40
3.550000000000182
 50
180.0
 51
222.84
  0
LINE
  5
2A9
  8
0
  6
CONTINUOUS
 62
     7
 10
-2159.7155875199
 20
1008.8546621883
 30
0.0
 11
-2187.9814511769
 21
1039.3363285148
 31
0.0
  0
ARC
  5
2AA
  8
0
  6
CONTINUOUS
 62
     7
 10
-2164.6284016602
 20
1004.2989880093
 30
0.0
 40
6.700000000000273
 50
0.0
 51
42.84
  0
LINE
  5
2AB
  8
0
  6
CONTINUOUS
 62
     7
 10
-2157.928401851
 20
980.7679700935
 30
0.0
 11
-2157.928401851
 21
1004.2989897811
 31
0.0
  0
ARC
  5
2AC
  8
0
  6
CONTINUOUS
 62
     7
 10
-2164.6284016602
 20
980.7679629409
 30
0.0
 40
6.700000000000728
 50
222.84
 51
360.0
  0
LINE
  5
2AD
  8
0
  6
CONTINUOUS
 62
     7
 10
-2199.5415038102
 20
1008.5642981613
 30
0.0
 11
-2169.5412045949
 21
976.212267884
 31
0.0
  0
ARC
  5
2AE
  8
0
  6
CONTINUOUS
 62
     7
 10
-2197.3784016602
 20
1010.5701717731
 30
0.0
 40
2.950000000000674
 50
180.0
 51
222.84
  0
LINE
  5
2AF
  8
0
  6
CONTINUOUS
 62
     7
 10
-2200.3284043305
 20
1046.5179729545
 30
0.0
 11
-2200.3284043305
 21
1010.5701732719
 31
0.0
  0
ARC
  5
2B0
  8
0
  6
CONTINUOUS
 62
     7
 10
-2197.3784016602
 20
1046.5179629409
 30
0.0
 40
2.950000000000045
 50
90.0
 51
180.0
  0
LINE
  5
2B1
  8
0
  6
CONTINUOUS
 62
     7
 10
-2191.8784028523
 20
1049.467955836
 30
0.0
 11
-2197.3783916466
 21
1049.467955836
 31
0.0
  0
LINE
  5
2B2
  8
0
  6
CONTINUOUS
 62
     7
 10
-2188.6283999913
 20
1046.5179729545
 30
0.0
 11
-2188.6283999913
 21
1041.7501676166
 31
0.0
  0
ARC
  5
2B3
  8
0
  6
CONTINUOUS
 62
     7
 10
-2191.8784016602
 20
1046.5179629409
 30
0.0
 40
3.25
 50
0.0
 51
90.0
  0
ARC
  5
2B4
  8
0
  6
CONTINUOUS
 62
     7
 10
-2164.6284016602
 20
1004.2989880093
 30
0.0
 40
7.000000000000455
 50
0.0
 51
42.84
  0
LINE
  5
2B5
  8
0
  6
CONTINUOUS
 62
     7
 10
-2187.7614802354
 20
1039.5402956092
 30
0.0
 11
-2159.4956165784
 21
1009.058659085
 31
0.0
  0
ARC
  5
2B6
  8
0
  6
CONTINUOUS
 62
     7
 10
-2197.3784016602
 20
1010.5701717731
 30
0.0
 40
3.250000000000541
 50
180.0
 51
222.84
  0
LINE
  5
2B7
  8
0
  6
CONTINUOUS
 62
     7
 10
-2200.6283945077
 20
1010.5701732719
 30
0.0
 11
-2200.6283945077
 21
1046.5179729545
 31
0.0
  0
LINE
  5
2B8
  8
0
  6
CONTINUOUS
 62
     7
 10
-2157.6284116738
 20
1004.2989897811
 30
0.0
 11
-2157.6284116738
 21
980.7679700935
 31
0.0
  0
LINE
  5
2B9
  8
0
  6
CONTINUOUS
 62
     7
 10
-2169.7611755364
 20
976.0082858884
 30
0.0
 11
-2199.7614747517
 21
1008.3603310668
 31
0.0
  0
ARC
  5
2BA
  8
0
  6
CONTINUOUS
 62
     7
 10
-2164.6284016602
 20
980.7679629409
 30
0.0
 40
7.000000000000455
 50
222.84
 51
0.0
  0
ARC
  5
2BB
  8
0
  6
CONTINUOUS
 62
     7
 10
-2197.3784016602
 20
1046.5179629409
 30
0.0
 40
3.25
 50
90.0
 51
180.0
  0
LINE
  5
2BC
  8
0
  6
CONTINUOUS
 62
     7
 10
-2197.3783916466
 20
1049.7679758155
 30
0.0
 11
-2191.8784028523
 21
1049.7679758155
 31
0.0
  0
ARC
  5
2BD
  8
0
  6
CONTINUOUS
 62
     7
 10
-2185.3784016602
 20
1041.7501563261
 30
0.0
 40
3.25
 50
180.0
 51
222.84
  0
LINE
  5
2BE
  8
0
  6
CONTINUOUS
 62
     7
 10
-2182.2284108632
 20
984.7679632985
 30
0.0
 11
-2182.2284108632
 21
989.4528138721
 31
0.0
  0
LINE
  5
2BF
  8
0
  6
CONTINUOUS
 62
     7
 10
-2182.2284108632
 20
968.7679606759
 30
0.0
 11
-2182.2284108632
 21
984.7679632985
 31
0.0
  0
LINE
  5
2C0
  8
0
  6
CONTINUOUS
 62
     7
 10
-2186.6283959382
 20
994.1977310264
 30
0.0
 11
-2186.6283959382
 21
984.7679632985
 31
0.0
  0
LINE
  5
2C1
  8
0
  6
CONTINUOUS
 62
     7
 10
-2186.6283959382
 20
984.7679632985
 30
0.0
 11
-2186.6283959382
 21
972.7679687822
 31
0.0
  0
LINE
  5
2C2
  8
0
  6
CONTINUOUS
 62
     7
 10
-2179.1284030907
 20
979.0681052291
 30
0.0
 11
-2179.127687835
 21
979.0681052291
 31
0.0
  0
LINE
  5
2C3
  8
0
  6
CONTINUOUS
 62
     7
 10
-2179.1284030907
 20
969.3528610551
 30
0.0
 11
-2179.127687835
 21
969.3528610551
 31
0.0
  0
LINE
  5
2C4
  8
0
  6
CONTINUOUS
 62
     7
 10
-1584.5783895486
 20
1043.467973479
 30
0.0
 11
-1582.5784152978
 21
1043.467973479
 31
0.0
  0
LINE
  5
2C5
  8
0
  6
CONTINUOUS
 62
     7
 10
-1582.5784152978
 20
1043.467973479
 30
0.0
 11
-1582.5784152978
 21
1040.4679524982
 31
0.0
  0
LINE
  5
2C6
  8
0
  6
CONTINUOUS
 62
     7
 10
-1582.5784152978
 20
1040.4679524982
 30
0.0
 11
-1584.5783895486
 21
1040.4679524982
 31
0.0
  0
LINE
  5
2C7
  8
0
  6
CONTINUOUS
 62
     7
 10
-2175.5784100526
 20
1043.467973479
 30
0.0
 11
-1584.5783895486
 21
1043.467973479
 31
0.0
  0
LINE
  5
2C8
  8
0
  6
CONTINUOUS
 62
     7
 10
-2175.5784100526
 20
1040.4679524982
 30
0.0
 11
-1584.5783895486
 21
1040.4679524982
 31
0.0
  0
LINE
  5
2C9
  8
0
  6
CONTINUOUS
 62
     7
 10
-2177.5784141057
 20
1040.4679524982
 30
0.0
 11
-2177.5784141057
 21
1043.467973479
 31
0.0
  0
LINE
  5
2CA
  8
0
  6
CONTINUOUS
 62
     7
 10
-2177.5784141057
 20
1043.467973479
 30
0.0
 11
-2175.5784100526
 21
1043.467973479
 31
0.0
  0
LINE
  5
2CB
  8
0
  6
CONTINUOUS
 62
     7
 10
-2175.5784100526
 20
1040.4679524982
 30
0.0
 11
-2177.5784141057
 21
1040.4679524982
 31
0.0
  0
LINE
  5
2CC
  8
0
  6
CONTINUOUS
 62
     7
 10
-1585.0784129136
 20
1036.4679741943
 30
0.0
 11
-1585.0784129136
 21
1037.9174399459
 31
0.0
  0
ARC
  5
2CD
  8
0
  6
CONTINUOUS
 62
     7
 10
-1585.5784018798
 20
1035.4679625152
 30
0.0
 40
2.5
 50
0.0
 51
78.4630409672
  0
POLYLINE
  5
2CE
  8
0
  6
CONTINUOUS
 62
     7
 66
     1
 10
0.0
 20
0.0
 30
0.0
  0
VERTEX
  5
622
  8
0
  6
CONTINUOUS
 62
     7
 10
-2175.0784164899
 20
1039.4679653728
 30
0.0
  0
VERTEX
  5
623
  8
0
  6
CONTINUOUS
 62
     7
 10
-2174.8638397687
 20
1039.4205498779
 30
0.0
  0
VERTEX
  5
624
  8
0
  6
CONTINUOUS
 62
     7
 10
-2174.7067517274
 20
1039.2634916389
 30
0.0
  0
VERTEX
  5
625
  8
0
  6
CONTINUOUS
 62
     7
 10
-2174.6105498307
 20
1038.9842438781
 30
0.0
  0
VERTEX
  5
626
  8
0
  6
CONTINUOUS
 62
     7
 10
-2174.5783931248
 20
1038.5892736995
 30
0.0
  0
VERTEX
  5
627
  8
0
  6
CONTINUOUS
 62
     7
 10
-2174.6104008191
 20
1038.1007838332
 30
0.0
  0
VERTEX
  5
628
  8
0
  6
CONTINUOUS
 62
     7
 10
-2174.7063642972
 20
1037.5580239379
 30
0.0
  0
VERTEX
  5
629
  8
0
  6
CONTINUOUS
 62
     7
 10
-2174.8639887803
 20
1036.9987237537
 30
0.0
  0
VERTEX
  5
62A
  8
0
  6
CONTINUOUS
 62
     7
 10
-2175.0784164899
 20
1036.4679741943
 30
0.0
  0
SEQEND
  5
62B
  8
0
  6
CONTINUOUS
 62
     7
  0
POLYLINE
  5
2CF
  8
0
  6
CONTINUOUS
 62
     7
 66
     1
 10
0.0
 20
0.0
 30
0.0
  0
VERTEX
  5
62C
  8
0
  6
CONTINUOUS
 62
     7
 10
-2175.0784164899
 20
1037.9679548824
 30
0.0
  0
VERTEX
  5
62D
  8
0
  6
CONTINUOUS
 62
     7
 10
-2174.8638397687
 20
1037.9442620361
 30
0.0
  0
VERTEX
  5
62E
  8
0
  6
CONTINUOUS
 62
     7
 10
-2174.7067517274
 20
1037.8657329166
 30
0.0
  0
VERTEX
  5
62F
  8
0
  6
CONTINUOUS
 62
     7
 10
-2174.6105498307
 20
1037.7261090362
 30
0.0
  0
VERTEX
  5
630
  8
0
  6
CONTINUOUS
 62
     7
 10
-2174.5783931248
 20
1037.5286090457
 30
0.0
  0
VERTEX
  5
631
  8
0
  6
CONTINUOUS
 62
     7
 10
-2174.5783931248
 20
1037.5286090457
 30
0.0
  0
SEQEND
  5
632
  8
0
  6
CONTINUOUS
 62
     7
  0
LINE
  5
2D0
  8
0
  6
CONTINUOUS
 62
     7
 10
-2175.0784164899
 20
1037.9679548824
 30
0.0
 11
-2175.0784164899
 21
1039.4679653728
 31
0.0
  0
LINE
  5
2D1
  8
0
  6
CONTINUOUS
 62
     7
 10
-2175.0784164899
 20
1039.4679653728
 30
0.0
 11
-1585.0784129136
 21
1039.4679653728
 31
0.0
  0
POLYLINE
  5
2D2
  8
0
  6
CONTINUOUS
 62
     7
 66
     1
 10
0.0
 20
0.0
 30
0.0
  0
VERTEX
  5
633
  8
0
  6
CONTINUOUS
 62
     7
 10
-1585.0784129136
 20
1039.4679653728
 30
0.0
  0
VERTEX
  5
634
  8
0
  6
CONTINUOUS
 62
     7
 10
-1585.2929598324
 20
1039.4205498779
 30
0.0
  0
VERTEX
  5
635
  8
0
  6
CONTINUOUS
 62
     7
 10
-1585.4500478738
 20
1039.2634916389
 30
0.0
  0
VERTEX
  5
636
  8
0
  6
CONTINUOUS
 62
     7
 10
-1585.5462497704
 20
1038.9842438781
 30
0.0
  0
VERTEX
  5
637
  8
0
  6
CONTINUOUS
 62
     7
 10
-1585.5784064763
 20
1038.5892736995
 30
0.0
  0
VERTEX
  5
638
  8
0
  6
CONTINUOUS
 62
     7
 10
-1585.5464285844
 20
1038.1007838332
 30
0.0
  0
VERTEX
  5
639
  8
0
  6
CONTINUOUS
 62
     7
 10
-1585.4504353039
 20
1037.5580239379
 30
0.0
  0
VERTEX
  5
63A
  8
0
  6
CONTINUOUS
 62
     7
 10
-1585.2928108208
 20
1036.9987237537
 30
0.0
  0
VERTEX
  5
63B
  8
0
  6
CONTINUOUS
 62
     7
 10
-1585.0784129136
 20
1036.4679741943
 30
0.0
  0
SEQEND
  5
63C
  8
0
  6
CONTINUOUS
 62
     7
  0
ARC
  5
2D3
  8
0
  6
CONTINUOUS
 62
     7
 10
-1583.0784018798
 20
1037.9679625152
 30
0.0
 40
2.500000000000182
 50
216.8698976458
 51
270.0
  0
LINE
  5
2D4
  8
0
  6
CONTINUOUS
 62
     7
 10
-1583.0784088605
 20
1035.4679572666
 30
0.0
 11
-1583.0784088605
 21
1029.2060124957
 31
0.0
  0
LINE
  5
2D5
  8
0
  6
CONTINUOUS
 62
     7
 10
-1587.4720162385
 20
1024.4679498756
 30
0.0
 11
-2173.784787082
 21
1024.4679498756
 31
0.0
  0
LINE
  5
2D6
  8
0
  6
CONTINUOUS
 62
     7
 10
-2177.0783907406
 20
1035.4679572666
 30
0.0
 11
-2177.0783907406
 21
1028.0197608554
 31
0.0
  0
ARC
  5
2D7
  8
0
  6
CONTINUOUS
 62
     7
 10
-2177.0784018798
 20
1037.9679625152
 30
0.0
 40
2.500000000000364
 50
270.0
 51
323.1301023542
  0
LINE
  5
2D8
  8
0
  6
CONTINUOUS
 62
     7
 10
-1585.0784129136
 20
1037.9679548824
 30
0.0
 11
-1585.0784129136
 21
1039.4679653728
 31
0.0
  0
POLYLINE
  5
2D9
  8
0
  6
CONTINUOUS
 62
     7
 66
     1
 10
0.0
 20
0.0
 30
0.0
  0
VERTEX
  5
63D
  8
0
  6
CONTINUOUS
 62
     7
 10
-1585.0784129136
 20
1037.9679548824
 30
0.0
  0
VERTEX
  5
63E
  8
0
  6
CONTINUOUS
 62
     7
 10
-1585.2929598324
 20
1037.9442620361
 30
0.0
  0
VERTEX
  5
63F
  8
0
  6
CONTINUOUS
 62
     7
 10
-1585.4500478738
 20
1037.8657329166
 30
0.0
  0
VERTEX
  5
640
  8
0
  6
CONTINUOUS
 62
     7
 10
-1585.5462497704
 20
1037.7261090362
 30
0.0
  0
VERTEX
  5
641
  8
0
  6
CONTINUOUS
 62
     7
 10
-1585.5784064763
 20
1037.5286090457
 30
0.0
  0
VERTEX
  5
642
  8
0
  6
CONTINUOUS
 62
     7
 10
-1585.5784064763
 20
1037.5286090457
 30
0.0
  0
SEQEND
  5
643
  8
0
  6
CONTINUOUS
 62
     7
  0
LINE
  5
2DA
  8
0
  6
CONTINUOUS
 62
     7
 10
-2177.0783907406
 20
1035.4679572666
 30
0.0
 11
-2177.0783907406
 21
1036.4679741943
 31
0.0
  0
LINE
  5
2DB
  8
0
  6
CONTINUOUS
 62
     7
 10
-2178.5784012311
 20
1035.4679572666
 30
0.0
 11
-2177.0783907406
 21
1035.4679572666
 31
0.0
  0
LINE
  5
2DC
  8
0
  6
CONTINUOUS
 62
     7
 10
-2178.5784012311
 20
1036.4679741943
 30
0.0
 11
-2177.0783907406
 21
1036.4679741943
 31
0.0
  0
LINE
  5
2DD
  8
0
  6
CONTINUOUS
 62
     7
 10
-2178.5784012311
 20
1035.4679572666
 30
0.0
 11
-2178.5784012311
 21
1036.4679741943
 31
0.0
  0
LINE
  5
2DE
  8
0
  6
CONTINUOUS
 62
     7
 10
-1583.0784088605
 20
1035.4679572666
 30
0.0
 11
-1581.57839837
 21
1035.4679572666
 31
0.0
  0
LINE
  5
2DF
  8
0
  6
CONTINUOUS
 62
     7
 10
-1581.57839837
 20
1036.4679741943
 30
0.0
 11
-1583.0784088605
 21
1036.4679741943
 31
0.0
  0
LINE
  5
2E0
  8
0
  6
CONTINUOUS
 62
     7
 10
-1581.57839837
 20
1035.4679572666
 30
0.0
 11
-1581.57839837
 21
1036.4679741943
 31
0.0
  0
LINE
  5
2E1
  8
0
  6
CONTINUOUS
 62
     7
 10
-1583.0784088605
 20
1035.4679572666
 30
0.0
 11
-1583.0784088605
 21
1036.4679741943
 31
0.0
  0
LINE
  5
2E2
  8
0
  6
CONTINUOUS
 62
     7
 10
-2178.5784012311
 20
1029.63737131
 30
0.0
 11
-2178.5784012311
 21
1035.4679572666
 31
0.0
  0
LINE
  5
2E3
  8
0
  6
CONTINUOUS
 62
     7
 10
-1581.57839837
 20
1030.823593148
 30
0.0
 11
-1581.57839837
 21
1035.4679572666
 31
0.0
  0
LINE
  5
2E4
  8
0
  6
CONTINUOUS
 62
     7
 10
-2175.5784100526
 20
1037.9679548824
 30
0.0
 11
-2175.0784164899
 21
1037.9679548824
 31
0.0
  0
LINE
  5
2E5
  8
0
  6
CONTINUOUS
 62
     7
 10
-2175.5784100526
 20
1039.4679653728
 30
0.0
 11
-2175.5784100526
 21
1037.9679548824
 31
0.0
  0
LINE
  5
2E6
  8
0
  6
CONTINUOUS
 62
     7
 10
-2175.5784100526
 20
1039.4679653728
 30
0.0
 11
-2175.0784164899
 21
1039.4679653728
 31
0.0
  0
LINE
  5
2E7
  8
0
  6
CONTINUOUS
 62
     7
 10
-1584.5783895486
 20
1039.4679653728
 30
0.0
 11
-1584.5783895486
 21
1037.9679548824
 31
0.0
  0
LINE
  5
2E8
  8
0
  6
CONTINUOUS
 62
     7
 10
-1584.5783895486
 20
1037.9679548824
 30
0.0
 11
-1585.0784129136
 21
1037.9679548824
 31
0.0
  0
LINE
  5
2E9
  8
0
  6
CONTINUOUS
 62
     7
 10
-1584.5783895486
 20
1039.4679653728
 30
0.0
 11
-1585.0784129136
 21
1039.4679653728
 31
0.0
  0
ARC
  5
2EA
  8
0
  6
CONTINUOUS
 62
     7
 10
-2175.5784125118
 20
1036.4679766535
 30
0.0
 40
2.999988719276742
 50
89.9999530319
 51
180.0000469681
  0
ARC
  5
2EB
  8
0
  6
CONTINUOUS
 62
     7
 10
-2175.5784266837
 20
1036.4679908254
 30
0.0
 40
1.49996405704917
 50
89.9993647221
 51
180.0006352779
  0
ARC
  5
2EC
  8
0
  6
CONTINUOUS
 62
     7
 10
-1584.5783729174
 20
1036.4679908254
 30
0.0
 40
1.499964057049624
 50
359.9993647221
 51
90.0006352779
  0
ARC
  5
2ED
  8
0
  6
CONTINUOUS
 62
     7
 10
-1584.5783870893
 20
1036.4679766535
 30
0.0
 40
2.999988719276742
 50
359.9999530319
 51
90.0000469681
  0
LINE
  5
2EE
  8
0
  6
CONTINUOUS
 62
     7
 10
-1600.1277810567
 20
1024.4679498756
 30
0.0
 11
-1600.3978795045
 21
1022.546296128
 31
0.0
  0
ARC
  5
2EF
  8
0
  6
CONTINUOUS
 62
     7
 10
-1598.4173293285
 20
1022.2679629408
 30
0.0
 40
2.000000082123393
 50
172.0000011903
 51
269.9999999999
  0
LINE
  5
2F0
  8
0
  6
CONTINUOUS
 62
     7
 10
-1598.4173363679
 20
1020.2679681861
 30
0.0
 11
-1591.3667029374
 21
1020.2679681861
 31
0.0
  0
ARC
  5
2F1
  8
0
  6
CONTINUOUS
 62
     7
 10
-1598.4173293285
 20
1022.2679629408
 30
0.0
 40
4.0
 50
172.0000011904
 51
270.0
  0
LINE
  5
2F2
  8
0
  6
CONTINUOUS
 62
     7
 10
-1602.3783928387
 20
1022.8246498191
 30
0.0
 11
-1602.1474546426
 21
1024.4679498756
 31
0.0
  0
LINE
  5
2F3
  8
0
  6
CONTINUOUS
 62
     7
 10
-1593.6730748646
 20
1020.48796893
 30
0.0
 11
-1596.8784040444
 21
1020.48796893
 31
0.0
  0
LINE
  5
2F4
  8
0
  6
CONTINUOUS
 62
     7
 10
-1591.8784088128
 20
1020.48796893
 30
0.0
 11
-1593.6730748646
 21
1020.48796893
 31
0.0
  0
LINE
  5
2F5
  8
0
  6
CONTINUOUS
 62
     7
 10
-1593.7859362595
 20
1020.8879757011
 30
0.0
 11
-1592.2784155839
 21
1020.8879757011
 31
0.0
  0
LINE
  5
2F6
  8
0
  6
CONTINUOUS
 62
     7
 10
-1596.4783972733
 20
1020.8879757011
 30
0.0
 11
-1593.7859362595
 21
1020.8879757011
 31
0.0
  0
LINE
  5
2F7
  8
0
  6
CONTINUOUS
 62
     7
 10
-2180.6284135811
 20
-484.1971096676
 30
0.0
 11
-2182.2284108632
 21
-484.1971096676
 31
0.0
  0
LINE
  5
2F8
  8
0
  6
CONTINUOUS
 62
     7
 10
-2182.2284108632
 20
-484.1971096676
 30
0.0
 11
-2186.6283959382
 21
-488.1971177738
 31
0.0
  0
ARC
  5
2F9
  8
0
  6
CONTINUOUS
 62
     7
 10
-2175.7784018798
 20
-552.8971115068
 30
0.0
 40
0.5000000000000663
 50
94.4051963236
 51
269.9999999999
  0
ARC
  5
2FA
  8
0
  6
CONTINUOUS
 62
     7
 10
-2170.5784018798
 20
-620.3971115068
 30
0.0
 40
68.20000000000022
 50
93.5967559811
 51
94.4051963235
  0
ARC
  5
2FB
  8
0
  6
CONTINUOUS
 62
     7
 10
-1584.3784018798
 20
-552.8971115068
 30
0.0
 40
0.5
 50
270.0
 51
17.071422653
  0
LINE
  5
2FC
  8
0
  6
CONTINUOUS
 62
     7
 10
-1877.3284019109
 20
-555.8971014898
 30
0.0
 11
-1877.3284019109
 21
-554.8971143644
 31
0.0
  0
LINE
  5
2FD
  8
0
  6
CONTINUOUS
 62
     7
 10
-1882.8284018811
 20
-554.8971143644
 30
0.0
 11
-1882.8284018811
 21
-555.8971014898
 31
0.0
  0
LINE
  5
2FE
  8
0
  6
CONTINUOUS
 62
     7
 10
-2160.3284126752
 20
-555.8971014898
 30
0.0
 11
-2160.3284126752
 21
-554.8971143644
 31
0.0
  0
LINE
  5
2FF
  8
0
  6
CONTINUOUS
 62
     7
 10
-2165.8284014695
 20
-554.8971143644
 30
0.0
 11
-2165.8284014695
 21
-555.8971014898
 31
0.0
  0
LINE
  5
300
  8
0
  6
CONTINUOUS
 62
     7
 10
-1594.3283981316
 20
-555.8971014898
 30
0.0
 11
-1594.3283981316
 21
-554.8971143644
 31
0.0
  0
LINE
  5
301
  8
0
  6
CONTINUOUS
 62
     7
 10
-1599.8284167283
 20
-554.8971143644
 30
0.0
 11
-1599.8284167283
 21
-555.8971014898
 31
0.0
  0
LINE
  5
302
  8
0
  6
CONTINUOUS
 62
     7
 10
-2167.8284055226
 20
-555.8971014898
 30
0.0
 11
-2167.8284055226
 21
-554.8971143644
 31
0.0
  0
LINE
  5
303
  8
0
  6
CONTINUOUS
 62
     7
 10
-2173.3283943169
 20
-554.8971143644
 30
0.0
 11
-2173.3283943169
 21
-555.8971014898
 31
0.0
  0
LINE
  5
304
  8
0
  6
CONTINUOUS
 62
     7
 10
-1586.8284052842
 20
-555.8971014898
 30
0.0
 11
-1586.8284052842
 21
-554.8971143644
 31
0.0
  0
LINE
  5
305
  8
0
  6
CONTINUOUS
 62
     7
 10
-1592.3283940785
 20
-554.8971143644
 30
0.0
 11
-1592.3283940785
 21
-555.8971014898
 31
0.0
  0
LINE
  5
306
  8
0
  6
CONTINUOUS
 62
     7
 10
-1596.8784040444
 20
-535.6971171778
 30
0.0
 11
-1596.8784040444
 21
-535.9171179216
 31
0.0
  0
LINE
  5
307
  8
0
  6
CONTINUOUS
 62
     7
 10
-1591.8784088128
 20
-535.9171179216
 30
0.0
 11
-1591.8784088128
 21
-535.6971171778
 31
0.0
  0
LINE
  5
308
  8
0
  6
CONTINUOUS
 62
     7
 10
-1596.8784040444
 20
-535.9171179216
 30
0.0
 11
-1596.4783972733
 21
-536.3171246927
 31
0.0
  0
LINE
  5
309
  8
0
  6
CONTINUOUS
 62
     7
 10
-1592.2784155839
 20
-536.3171246927
 30
0.0
 11
-1591.8784088128
 21
-535.9171179216
 31
0.0
  0
LINE
  5
30A
  8
0
  6
CONTINUOUS
 62
     7
 10
-2179.127687835
 20
-256.6971119586
 30
0.0
 11
-2179.127687835
 21
-501.5381869953
 31
0.0
  0
LINE
  5
30B
  8
0
  6
CONTINUOUS
 62
     7
 10
-1582.1291154854
 20
-501.5381869953
 30
0.0
 11
-1582.1291154854
 21
-256.6971119586
 31
0.0
  0
CIRCLE
  5
30C
  8
0
  6
CONTINUOUS
 62
     7
 10
-1880.6284016602
 20
-393.6971119325
 30
0.0
 40
25.25
  0
LINE
  5
30D
  8
0
  6
CONTINUOUS
 62
     7
 10
-1852.2193918609
 20
-369.8842969816
 30
0.0
 11
-1848.3303061359
 21
-365.9952056687
 31
0.0
  0
ARC
  5
30E
  8
0
  6
CONTINUOUS
 62
     7
 10
-1850.6284016602
 20
-363.6971119325
 30
0.0
 40
3.250000000000067
 50
315.0
 51
135.0
  0
LINE
  5
30F
  8
0
  6
CONTINUOUS
 62
     7
 10
-1852.9264985256
 20
-361.3990170043
 30
0.0
 11
-1856.8155861132
 21
-365.2881008666
 31
0.0
  0
ARC
  5
310
  8
0
  6
CONTINUOUS
 62
     7
 10
-1854.5174889567
 20
-367.5861992291
 30
0.0
 40
3.250000000000147
 50
135.0
 51
315.0
  0
LINE
  5
311
  8
0
  6
CONTINUOUS
 62
     7
 10
-1912.9264971845
 20
-365.9952056687
 30
0.0
 11
-1909.0374114596
 21
-369.8842969816
 31
0.0
  0
ARC
  5
312
  8
0
  6
CONTINUOUS
 62
     7
 10
-1906.7393143637
 20
-367.5861992291
 30
0.0
 40
3.250000000000067
 50
225.0
 51
45.0
  0
LINE
  5
313
  8
0
  6
CONTINUOUS
 62
     7
 10
-1904.4412172072
 20
-365.2881008666
 30
0.0
 11
-1908.3303047948
 21
-361.3990170043
 31
0.0
  0
ARC
  5
314
  8
0
  6
CONTINUOUS
 62
     7
 10
-1910.6284016602
 20
-363.6971119325
 30
0.0
 40
3.250000000000227
 50
45.0
 51
225.0
  0
LINE
  5
315
  8
0
  6
CONTINUOUS
 62
     7
 10
-1848.3303061359
 20
-421.3990119379
 30
0.0
 11
-1852.2193918609
 21
-417.5099280756
 31
0.0
  0
ARC
  5
316
  8
0
  6
CONTINUOUS
 62
     7
 10
-1854.5174889567
 20
-419.808024636
 30
0.0
 40
3.250000000000067
 50
45.0
 51
225.0
  0
LINE
  5
317
  8
0
  6
CONTINUOUS
 62
     7
 10
-1856.8155861132
 20
-422.10611674
 30
0.0
 11
-1852.9264985256
 21
-425.9952155035
 31
0.0
  0
ARC
  5
318
  8
0
  6
CONTINUOUS
 62
     7
 10
-1850.6284016602
 20
-423.6971119325
 30
0.0
 40
3.250000000000067
 50
225.0
 51
45.0
  0
LINE
  5
319
  8
0
  6
CONTINUOUS
 62
     7
 10
-1909.0374114596
 20
-417.5099280756
 30
0.0
 11
-1912.9264971845
 21
-421.3990119379
 31
0.0
  0
ARC
  5
31A
  8
0
  6
CONTINUOUS
 62
     7
 10
-1910.6284016602
 20
-423.6971119325
 30
0.0
 40
3.250000000000107
 50
135.0
 51
315.0
  0
LINE
  5
31B
  8
0
  6
CONTINUOUS
 62
     7
 10
-1908.3303047948
 20
-425.9952155035
 30
0.0
 11
-1904.4412172072
 21
-422.10611674
 31
0.0
  0
ARC
  5
31C
  8
0
  6
CONTINUOUS
 62
     7
 10
-1906.7393143637
 20
-419.808024636
 30
0.0
 40
3.250000000000348
 50
315.0
 51
135.0
  0
LINE
  5
31D
  8
0
  6
CONTINUOUS
 62
     7
 10
-1593.2213312619
 20
-533.6971131246
 30
0.0
 11
-2168.0354720586
 21
-533.6971131246
 31
0.0
  0
POLYLINE
  5
31E
  8
0
  6
CONTINUOUS
 62
     7
 66
     1
 10
0.0
 20
0.0
 30
0.0
  0
VERTEX
  5
644
  8
0
  6
CONTINUOUS
 62
     7
 10
-1582.1291154854
 20
-256.6971119586
 30
0.0
  0
VERTEX
  5
645
  8
0
  6
CONTINUOUS
 62
     7
 10
-1582.1518844598
 20
-256.1761673633
 30
0.0
  0
VERTEX
  5
646
  8
0
  6
CONTINUOUS
 62
     7
 10
-1582.2195357316
 20
-255.6710515264
 30
0.0
  0
VERTEX
  5
647
  8
0
  6
CONTINUOUS
 62
     7
 10
-1582.3299831383
 20
-255.1971119456
 30
0.0
  0
VERTEX
  5
648
  8
0
  6
CONTINUOUS
 62
     7
 10
-1582.4798888199
 20
-254.7687490797
 30
0.0
  0
VERTEX
  5
649
  8
0
  6
CONTINUOUS
 62
     7
 10
-1582.6646632188
 20
-254.3989786273
 30
0.0
  0
VERTEX
  5
64A
  8
0
  6
CONTINUOUS
 62
     7
 10
-1582.8787631028
 20
-254.0990357147
 30
0.0
  0
VERTEX
  5
64B
  8
0
  6
CONTINUOUS
 62
     7
 10
-1583.1156021588
 20
-253.8780340756
 30
0.0
  0
VERTEX
  5
64C
  8
0
  6
CONTINUOUS
 62
     7
 10
-1583.3680576317
 20
-253.7426886729
 30
0.0
  0
VERTEX
  5
64D
  8
0
  6
CONTINUOUS
 62
     7
 10
-1583.6284107201
 20
-253.6971119325
 30
0.0
  0
SEQEND
  5
64E
  8
0
  6
CONTINUOUS
 62
     7
  0
POLYLINE
  5
31F
  8
0
  6
CONTINUOUS
 62
     7
 66
     1
 10
0.0
 20
0.0
 30
0.0
  0
VERTEX
  5
64F
  8
0
  6
CONTINUOUS
 62
     7
 10
-2177.6283926003
 20
-253.6971119325
 30
0.0
  0
VERTEX
  5
650
  8
0
  6
CONTINUOUS
 62
     7
 10
-2177.8887456887
 20
-253.7426886729
 30
0.0
  0
VERTEX
  5
651
  8
0
  6
CONTINUOUS
 62
     7
 10
-2178.1412011616
 20
-253.8780340756
 30
0.0
  0
VERTEX
  5
652
  8
0
  6
CONTINUOUS
 62
     7
 10
-2178.3780402177
 20
-254.0990357147
 30
0.0
  0
VERTEX
  5
653
  8
0
  6
CONTINUOUS
 62
     7
 10
-2178.5921401017
 20
-254.3989786273
 30
0.0
  0
VERTEX
  5
654
  8
0
  6
CONTINUOUS
 62
     7
 10
-2178.7769145005
 20
-254.7687490797
 30
0.0
  0
VERTEX
  5
655
  8
0
  6
CONTINUOUS
 62
     7
 10
-2178.9268201821
 20
-255.1971119456
 30
0.0
  0
VERTEX
  5
656
  8
0
  6
CONTINUOUS
 62
     7
 10
-2179.0372675889
 20
-255.6710515264
 30
0.0
  0
VERTEX
  5
657
  8
0
  6
CONTINUOUS
 62
     7
 10
-2179.1049188607
 20
-256.1761673633
 30
0.0
  0
VERTEX
  5
658
  8
0
  6
CONTINUOUS
 62
     7
 10
-2179.127687835
 20
-256.6971119586
 30
0.0
  0
SEQEND
  5
659
  8
0
  6
CONTINUOUS
 62
     7
  0
LINE
  5
320
  8
0
  6
CONTINUOUS
 62
     7
 10
-1583.6284107201
 20
-253.6971119325
 30
0.0
 11
-2177.6283926003
 21
-253.6971119325
 31
0.0
  0
ARC
  5
321
  8
0
  6
CONTINUOUS
 62
     7
 10
-1583.6284213648
 20
-256.6971435582
 30
0.0
 40
3.000031625719414
 50
0.000603502
 51
89.999796703
  0
LINE
  5
322
  8
0
  6
CONTINUOUS
 62
     7
 10
-1582.1284002297
 20
-256.6971119586
 30
0.0
 11
-1582.1284002297
 21
-501.5389469545
 31
0.0
  0
LINE
  5
323
  8
0
  6
CONTINUOUS
 62
     7
 10
-1580.6283897393
 20
-256.6971119586
 30
0.0
 11
-1580.6283897393
 21
-503.1565425079
 31
0.0
  0
LINE
  5
324
  8
0
  6
CONTINUOUS
 62
     7
 10
-2180.6284135811
 20
-503.1565425079
 30
0.0
 11
-2180.6284135811
 21
-256.6971119586
 31
0.0
  0
LINE
  5
325
  8
0
  6
CONTINUOUS
 62
     7
 10
-2179.1284030907
 20
-501.5389469545
 30
0.0
 11
-2179.1284030907
 21
-256.6971119586
 31
0.0
  0
ARC
  5
326
  8
0
  6
CONTINUOUS
 62
     7
 10
-2177.6283850772
 20
-256.6971404366
 30
0.0
 40
3.000028504058715
 50
90.000143679
 51
179.999456116
  0
LINE
  5
327
  8
0
  6
CONTINUOUS
 62
     7
 10
-2158.1441110604
 20
-535.4058590811
 30
0.0
 11
-2156.658703708
 21
-535.6146243494
 31
0.0
  0
LINE
  5
328
  8
0
  6
CONTINUOUS
 62
     7
 10
-2158.7752944462
 20
-539.8970988672
 30
0.0
 11
-2158.1441110604
 21
-535.4058590811
 31
0.0
  0
LINE
  5
329
  8
0
  6
CONTINUOUS
 62
     7
 10
-2157.2605616086
 20
-539.8970988672
 30
0.0
 11
-2156.658703708
 21
-535.6146243494
 31
0.0
  0
LINE
  5
32A
  8
0
  6
CONTINUOUS
 62
     7
 10
-1602.9187089436
 20
-535.4058590811
 30
0.0
 11
-1602.2812968724
 21
-539.8970988672
 31
0.0
  0
POLYLINE
  5
32B
  8
0
  6
CONTINUOUS
 62
     7
 66
     1
 10
0.0
 20
0.0
 30
0.0
  0
VERTEX
  5
65A
  8
0
  6
CONTINUOUS
 62
     7
 10
-1602.7609950535
 20
-534.2148986738
 30
0.0
  0
VERTEX
  5
65B
  8
0
  6
CONTINUOUS
 62
     7
 10
-1602.250481271
 20
-533.8326838892
 30
0.0
  0
VERTEX
  5
65C
  8
0
  6
CONTINUOUS
 62
     7
 10
-1601.6272849076
 20
-533.6971131246
 30
0.0
  0
SEQEND
  5
65D
  8
0
  6
CONTINUOUS
 62
     7
  0
POLYLINE
  5
32C
  8
0
  6
CONTINUOUS
 62
     7
 66
     1
 10
0.0
 20
0.0
 30
0.0
  0
VERTEX
  5
65E
  8
0
  6
CONTINUOUS
 62
     7
 10
-2159.6295184128
 20
-533.6971131246
 30
0.0
  0
VERTEX
  5
65F
  8
0
  6
CONTINUOUS
 62
     7
 10
-2159.0063220494
 20
-533.8326838892
 30
0.0
  0
VERTEX
  5
660
  8
0
  6
CONTINUOUS
 62
     7
 10
-2158.4958082669
 20
-534.2148986738
 30
0.0
  0
SEQEND
  5
661
  8
0
  6
CONTINUOUS
 62
     7
  0
ARC
  5
32D
  8
0
  6
CONTINUOUS
 62
     7
 10
-1631.307219351
 20
-539.8071296897
 30
0.0
 40
28.72766447381319
 50
8.81280539
 51
11.2250735897
  0
ARC
  5
32E
  8
0
  6
CONTINUOUS
 62
     7
 10
-2128.3771007104
 20
-539.8192263603
 30
0.0
 40
28.80113494444399
 50
168.7793991852
 51
171.1855025695
  0
LINE
  5
32F
  8
0
  6
CONTINUOUS
 62
     7
 10
-2156.6277092927
 20
-534.2148986738
 30
0.0
 11
-2158.1276899808
 21
-534.2148986738
 31
0.0
  0
POLYLINE
  5
330
  8
0
  6
CONTINUOUS
 62
     7
 66
     1
 10
0.0
 20
0.0
 30
0.0
  0
VERTEX
  5
662
  8
0
  6
CONTINUOUS
 62
     7
 10
-1601.6261822217
 20
-533.6971131246
 30
0.0
  0
VERTEX
  5
663
  8
0
  6
CONTINUOUS
 62
     7
 10
-1602.3776477807
 20
-533.8326838892
 30
0.0
  0
VERTEX
  5
664
  8
0
  6
CONTINUOUS
 62
     7
 10
-1603.1291133397
 20
-534.2148986738
 30
0.0
  0
SEQEND
  5
665
  8
0
  6
CONTINUOUS
 62
     7
  0
POLYLINE
  5
331
  8
0
  6
CONTINUOUS
 62
     7
 66
     1
 10
0.0
 20
0.0
 30
0.0
  0
VERTEX
  5
666
  8
0
  6
CONTINUOUS
 62
     7
 10
-2158.1276899808
 20
-534.2148986738
 30
0.0
  0
VERTEX
  5
667
  8
0
  6
CONTINUOUS
 62
     7
 10
-2158.8818973534
 20
-533.8326838892
 30
0.0
  0
VERTEX
  5
668
  8
0
  6
CONTINUOUS
 62
     7
 10
-2159.6361047261
 20
-533.6971131246
 30
0.0
  0
SEQEND
  5
669
  8
0
  6
CONTINUOUS
 62
     7
  0
POLYLINE
  5
332
  8
0
  6
CONTINUOUS
 62
     7
 66
     1
 10
0.0
 20
0.0
 30
0.0
  0
VERTEX
  5
66A
  8
0
  6
CONTINUOUS
 62
     7
 10
-2156.7390209668
 20
-534.4205346983
 30
0.0
  0
VERTEX
  5
66B
  8
0
  6
CONTINUOUS
 62
     7
 10
-2156.7328816884
 20
-534.3474594038
 30
0.0
  0
VERTEX
  5
66C
  8
0
  6
CONTINUOUS
 62
     7
 10
-2156.7210799687
 20
-534.2148986738
 30
0.0
  0
SEQEND
  5
66D
  8
0
  6
CONTINUOUS
 62
     7
  0
ARC
  5
333
  8
0
  6
CONTINUOUS
 62
     7
 10
-1748.7025655409
 20
-546.9837630677
 30
0.0
 40
146.2252855874469
 50
4.6234479417
 51
5.062338643
  0
ARC
  5
334
  8
0
  6
CONTINUOUS
 62
     7
 10
-2159.1459755147
 20
-535.1711212091
 30
0.0
 40
2.526502736237571
 50
349.8898961263
 51
22.2393606941
  0
ARC
  5
335
  8
0
  6
CONTINUOUS
 62
     7
 10
-2159.6295200227
 20
-535.1970993068
 30
0.0
 40
1.500006809562134
 50
352.000031817
 51
40.90429328
  0
POLYLINE
  5
336
  8
0
  6
CONTINUOUS
 62
     7
 66
     1
 10
0.0
 20
0.0
 30
0.0
  0
VERTEX
  5
66E
  8
0
  6
CONTINUOUS
 62
     7
 10
-1603.0013507836
 20
-534.6169916075
 30
0.0
  0
VERTEX
  5
66F
  8
0
  6
CONTINUOUS
 62
     7
 10
-1602.9432958596
 20
-534.4772783201
 30
0.0
  0
VERTEX
  5
670
  8
0
  6
CONTINUOUS
 62
     7
 10
-1602.7609950535
 20
-534.2148986738
 30
0.0
  0
SEQEND
  5
671
  8
0
  6
CONTINUOUS
 62
     7
  0
POLYLINE
  5
337
  8
0
  6
CONTINUOUS
 62
     7
 66
     1
 10
0.0
 20
0.0
 30
0.0
  0
VERTEX
  5
672
  8
0
  6
CONTINUOUS
 62
     7
 10
-2158.2554525368
 20
-534.6169916075
 30
0.0
  0
VERTEX
  5
673
  8
0
  6
CONTINUOUS
 62
     7
 10
-2158.2854932778
 20
-534.9760201853
 30
0.0
  0
VERTEX
  5
674
  8
0
  6
CONTINUOUS
 62
     7
 10
-2158.3380943768
 20
-535.6146243494
 30
0.0
  0
SEQEND
  5
675
  8
0
  6
CONTINUOUS
 62
     7
  0
LINE
  5
338
  8
0
  6
CONTINUOUS
 62
     7
 10
-2158.3380943768
 20
-535.4058590811
 30
0.0
 11
-2158.3380943768
 21
-535.6146243494
 31
0.0
  0
LINE
  5
339
  8
0
  6
CONTINUOUS
 62
     7
 10
-2158.3032256596
 20
-535.1941433828
 30
0.0
 11
-2158.3380943768
 21
-535.4058590811
 31
0.0
  0
LINE
  5
33A
  8
0
  6
CONTINUOUS
 62
     7
 10
-2158.9458829396
 20
-539.8970988672
 30
0.0
 11
-2158.3380943768
 21
-535.6146243494
 31
0.0
  0
LINE
  5
33B
  8
0
  6
CONTINUOUS
 62
     7
 10
-2158.3380943768
 20
-535.4058590811
 30
0.0
 11
-2158.975506448
 21
-539.8970988672
 31
0.0
  0
CIRCLE
  5
33C
  8
0
  6
CONTINUOUS
 62
     7
 10
-1596.6284016602
 20
-521.1971119326
 30
0.0
 40
3.750000000000096
  0
CIRCLE
  5
33D
  8
0
  6
CONTINUOUS
 62
     7
 10
-1596.6284016602
 20
-496.1971119326
 30
0.0
 40
3.750000000000112
  0
CIRCLE
  5
33E
  8
0
  6
CONTINUOUS
 62
     7
 10
-2164.6284016602
 20
-521.1971119326
 30
0.0
 40
3.750000000000038
  0
CIRCLE
  5
33F
  8
0
  6
CONTINUOUS
 62
     7
 10
-2164.6284016602
 20
-496.1971119326
 30
0.0
 40
3.750000000000128
  0
CIRCLE
  5
340
  8
0
  6
CONTINUOUS
 62
     7
 10
-1566.6284016602
 20
-559.4971119326
 30
0.0
 40
3.060000000000141
  0
CIRCLE
  5
341
  8
0
  6
CONTINUOUS
 62
     7
 10
-1566.6284016602
 20
-528.8971119326
 30
0.0
 40
3.060000000000135
  0
CIRCLE
  5
342
  8
0
  6
CONTINUOUS
 62
     7
 10
-2194.6284016602
 20
-559.4971119326
 30
0.0
 40
3.060000000000108
  0
CIRCLE
  5
343
  8
0
  6
CONTINUOUS
 62
     7
 10
-2194.6284016602
 20
-528.8971119326
 30
0.0
 40
3.060000000000296
  0
ARC
  5
344
  8
0
  6
CONTINUOUS
 62
     7
 10
-2164.6284016602
 20
-496.1971119326
 30
0.0
 40
6.700000000000273
 50
0.0
 51
137.16
  0
ARC
  5
345
  8
0
  6
CONTINUOUS
 62
     7
 10
-2164.6284016602
 20
-496.1971119326
 30
0.0
 40
7.000000000000455
 50
0.0
 51
137.16
  0
LINE
  5
346
  8
0
  6
CONTINUOUS
 62
     7
 10
-2157.6284116738
 20
-496.1971190851
 30
0.0
 11
-2157.6284116738
 21
-519.7281387728
 31
0.0
  0
LINE
  5
347
  8
0
  6
CONTINUOUS
 62
     7
 10
-2157.928401851
 20
-519.7281387728
 30
0.0
 11
-2157.928401851
 21
-496.1971190851
 31
0.0
  0
CIRCLE
  5
348
  8
0
  6
CONTINUOUS
 62
     7
 10
-2164.6284016602
 20
-521.1971119326
 30
0.0
 40
3.199999999999932
  0
CIRCLE
  5
349
  8
0
  6
CONTINUOUS
 62
     7
 10
-2194.6284016602
 20
-559.4971119326
 30
0.0
 40
2.25
  0
CIRCLE
  5
34A
  8
0
  6
CONTINUOUS
 62
     7
 10
-2194.6284016602
 20
-528.8971119326
 30
0.0
 40
2.25
  0
ARC
  5
34B
  8
0
  6
CONTINUOUS
 62
     7
 10
-2197.3784016602
 20
-561.9471119326
 30
0.0
 40
2.949999999999932
 50
180.0
 51
270.0
  0
LINE
  5
34C
  8
0
  6
CONTINUOUS
 62
     7
 10
-2200.3284043305
 20
-525.9993222635
 30
0.0
 11
-2200.3284043305
 21
-561.9471219461
 31
0.0
  0
ARC
  5
34D
  8
0
  6
CONTINUOUS
 62
     7
 10
-2197.3784016602
 20
-525.9993207647
 30
0.0
 40
2.950000000000288
 50
137.16
 51
180.0
  0
LINE
  5
34E
  8
0
  6
CONTINUOUS
 62
     7
 10
-2169.5412045949
 20
-491.6414168756
 30
0.0
 11
-2199.5415038102
 21
-523.9934471529
 31
0.0
  0
ARC
  5
34F
  8
0
  6
CONTINUOUS
 62
     7
 10
-2164.6284016602
 20
-519.7281370009
 30
0.0
 40
6.700000000000273
 50
317.16
 51
0.0
  0
LINE
  5
350
  8
0
  6
CONTINUOUS
 62
     7
 10
-2187.9814511769
 20
-554.7654775064
 30
0.0
 11
-2159.7155875199
 21
-524.2838111799
 31
0.0
  0
ARC
  5
351
  8
0
  6
CONTINUOUS
 62
     7
 10
-2185.3784016602
 20
-557.1793053177
 30
0.0
 40
3.549999999999727
 50
137.16
 51
180.0
  0
LINE
  5
352
  8
0
  6
CONTINUOUS
 62
     7
 10
-2188.9283901684
 20
-561.9471219461
 30
0.0
 11
-2188.9283901684
 21
-557.1793166082
 31
0.0
  0
ARC
  5
353
  8
0
  6
CONTINUOUS
 62
     7
 10
-2191.8784016602
 20
-561.9471119326
 30
0.0
 40
2.950000000000273
 50
270.0
 51
360.0
  0
LINE
  5
354
  8
0
  6
CONTINUOUS
 62
     7
 10
-2197.3783916466
 20
-564.8971048277
 30
0.0
 11
-2191.8784028523
 21
-564.8971048277
 31
0.0
  0
CIRCLE
  5
355
  8
0
  6
CONTINUOUS
 62
     7
 10
-2164.6284016602
 20
-496.1971119326
 30
0.0
 40
3.199999999999989
  0
LINE
  5
356
  8
0
  6
CONTINUOUS
 62
     7
 10
-2199.7614747517
 20
-523.7894800585
 30
0.0
 11
-2169.7611755364
 21
-491.43743488
 31
0.0
  0
ARC
  5
357
  8
0
  6
CONTINUOUS
 62
     7
 10
-2197.3784016602
 20
-525.9993207647
 30
0.0
 40
3.25000000000031
 50
137.16
 51
180.0
  0
LINE
  5
358
  8
0
  6
CONTINUOUS
 62
     7
 10
-2159.4956165784
 20
-524.4878080766
 30
0.0
 11
-2187.7614802354
 21
-554.9694446009
 31
0.0
  0
LINE
  5
359
  8
0
  6
CONTINUOUS
 62
     7
 10
-2188.6283999913
 20
-557.1793166082
 30
0.0
 11
-2188.6283999913
 21
-561.9471219461
 31
0.0
  0
ARC
  5
35A
  8
0
  6
CONTINUOUS
 62
     7
 10
-2185.3784016602
 20
-557.1793053177
 30
0.0
 40
3.25
 50
137.16
 51
180.0
  0
LINE
  5
35B
  8
0
  6
CONTINUOUS
 62
     7
 10
-2200.6283945077
 20
-561.9471219461
 30
0.0
 11
-2200.6283945077
 21
-525.9993222635
 31
0.0
  0
ARC
  5
35C
  8
0
  6
CONTINUOUS
 62
     7
 10
-2164.6284016602
 20
-519.7281370009
 30
0.0
 40
7.0
 50
317.16
 51
0.0
  0
ARC
  5
35D
  8
0
  6
CONTINUOUS
 62
     7
 10
-2197.3784016602
 20
-561.9471119326
 30
0.0
 40
3.25
 50
180.0
 51
270.0
  0
ARC
  5
35E
  8
0
  6
CONTINUOUS
 62
     7
 10
-2191.8784016602
 20
-561.9471119326
 30
0.0
 40
3.25
 50
270.0
 51
360.0
  0
LINE
  5
35F
  8
0
  6
CONTINUOUS
 62
     7
 10
-2191.8784028523
 20
-565.1971248071
 30
0.0
 11
-2197.3783916466
 21
-565.1971248071
 31
0.0
  0
CIRCLE
  5
360
  8
0
  6
CONTINUOUS
 62
     7
 10
-1596.6284016602
 20
-496.1971119326
 30
0.0
 40
3.199999999999989
  0
CIRCLE
  5
361
  8
0
  6
CONTINUOUS
 62
     7
 10
-1596.6284016602
 20
-521.1971119326
 30
0.0
 40
3.199999999999932
  0
CIRCLE
  5
362
  8
0
  6
CONTINUOUS
 62
     7
 10
-1566.6284016602
 20
-559.4971119326
 30
0.0
 40
2.249999999999886
  0
CIRCLE
  5
363
  8
0
  6
CONTINUOUS
 62
     7
 10
-1566.6284016602
 20
-528.8971119326
 30
0.0
 40
2.250000000000114
  0
ARC
  5
364
  8
0
  6
CONTINUOUS
 62
     7
 10
-1569.3784016602
 20
-561.9471119326
 30
0.0
 40
2.950000000000045
 50
180.0
 51
270.0
  0
LINE
  5
365
  8
0
  6
CONTINUOUS
 62
     7
 10
-1572.328413152
 20
-557.1793166082
 30
0.0
 11
-1572.328413152
 21
-561.9471219461
 31
0.0
  0
ARC
  5
366
  8
0
  6
CONTINUOUS
 62
     7
 10
-1575.8784016602
 20
-557.1793053177
 30
0.0
 40
3.549999999999955
 50
360.0
 51
42.84
  0
LINE
  5
367
  8
0
  6
CONTINUOUS
 62
     7
 10
-1601.5412158005
 20
-524.2838111799
 30
0.0
 11
-1573.2753521435
 21
-554.7654775064
 31
0.0
  0
ARC
  5
368
  8
0
  6
CONTINUOUS
 62
     7
 10
-1596.6284016602
 20
-519.7281370009
 30
0.0
 40
6.700000000000045
 50
180.0
 51
222.84
  0
LINE
  5
369
  8
0
  6
CONTINUOUS
 62
     7
 10
-1603.3284014695
 20
-496.1971190851
 30
0.0
 11
-1603.3284014695
 21
-519.7281387728
 31
0.0
  0
ARC
  5
36A
  8
0
  6
CONTINUOUS
 62
     7
 10
-1596.6284016602
 20
-496.1971119326
 30
0.0
 40
6.700000000000284
 50
42.84
 51
180.0
  0
LINE
  5
36B
  8
0
  6
CONTINUOUS
 62
     7
 10
-1561.7152995103
 20
-523.9934471529
 30
0.0
 11
-1591.7155987256
 21
-491.6414168756
 31
0.0
  0
ARC
  5
36C
  8
0
  6
CONTINUOUS
 62
     7
 10
-1563.8784016602
 20
-525.9993207647
 30
0.0
 40
2.95000000000043
 50
0.0
 51
42.84
  0
LINE
  5
36D
  8
0
  6
CONTINUOUS
 62
     7
 10
-1560.9283989899
 20
-561.9471219461
 30
0.0
 11
-1560.9283989899
 21
-525.9993222635
 31
0.0
  0
ARC
  5
36E
  8
0
  6
CONTINUOUS
 62
     7
 10
-1563.8784016602
 20
-561.9471119326
 30
0.0
 40
2.950000000000045
 50
270.0
 51
0.0
  0
LINE
  5
36F
  8
0
  6
CONTINUOUS
 62
     7
 10
-1569.3784004681
 20
-564.8971048277
 30
0.0
 11
-1563.8784116738
 21
-564.8971048277
 31
0.0
  0
LINE
  5
370
  8
0
  6
CONTINUOUS
 62
     7
 10
-1572.6284033292
 20
-561.9471219461
 30
0.0
 11
-1572.6284033292
 21
-557.1793166082
 31
0.0
  0
ARC
  5
371
  8
0
  6
CONTINUOUS
 62
     7
 10
-1569.3784016602
 20
-561.9471119326
 30
0.0
 40
3.25
 50
180.0
 51
270.0
  0
ARC
  5
372
  8
0
  6
CONTINUOUS
 62
     7
 10
-1596.6284016602
 20
-519.7281370009
 30
0.0
 40
7.0
 50
180.0
 51
222.84
  0
LINE
  5
373
  8
0
  6
CONTINUOUS
 62
     7
 10
-1573.4953230851
 20
-554.9694446009
 30
0.0
 11
-1601.7611867421
 21
-524.4878080766
 31
0.0
  0
ARC
  5
374
  8
0
  6
CONTINUOUS
 62
     7
 10
-1563.8784016602
 20
-525.9993207647
 30
0.0
 40
3.250000000000464
 50
0.0
 51
42.84
  0
LINE
  5
375
  8
0
  6
CONTINUOUS
 62
     7
 10
-1560.6284088128
 20
-525.9993222635
 30
0.0
 11
-1560.6284088128
 21
-561.9471219461
 31
0.0
  0
LINE
  5
376
  8
0
  6
CONTINUOUS
 62
     7
 10
-1603.6283916466
 20
-519.7281387728
 30
0.0
 11
-1603.6283916466
 21
-496.1971190851
 31
0.0
  0
LINE
  5
377
  8
0
  6
CONTINUOUS
 62
     7
 10
-1591.495627784
 20
-491.43743488
 30
0.0
 11
-1561.4953285687
 21
-523.7894800585
 31
0.0
  0
ARC
  5
378
  8
0
  6
CONTINUOUS
 62
     7
 10
-1596.6284016602
 20
-496.1971119326
 30
0.0
 40
7.000000000000113
 50
42.84
 51
180.0
  0
ARC
  5
379
  8
0
  6
CONTINUOUS
 62
     7
 10
-1563.8784016602
 20
-561.9471119326
 30
0.0
 40
3.25
 50
270.0
 51
0.0
  0
LINE
  5
37A
  8
0
  6
CONTINUOUS
 62
     7
 10
-1563.8784116738
 20
-565.1971248071
 30
0.0
 11
-1569.3784004681
 21
-565.1971248071
 31
0.0
  0
ARC
  5
37B
  8
0
  6
CONTINUOUS
 62
     7
 10
-1575.8784016602
 20
-557.1793053177
 30
0.0
 40
3.25
 50
360.0
 51
42.84
  0
LINE
  5
37C
  8
0
  6
CONTINUOUS
 62
     7
 10
-2182.2284108632
 20
-504.8819628637
 30
0.0
 11
-2182.2284108632
 21
-500.1971122902
 31
0.0
  0
LINE
  5
37D
  8
0
  6
CONTINUOUS
 62
     7
 10
-2182.2284108632
 20
-500.1971122902
 30
0.0
 11
-2182.2284108632
 21
-484.1971096676
 31
0.0
  0
LINE
  5
37E
  8
0
  6
CONTINUOUS
 62
     7
 10
-2186.6283959382
 20
-500.1971122902
 30
0.0
 11
-2186.6283959382
 21
-509.626880018
 31
0.0
  0
LINE
  5
37F
  8
0
  6
CONTINUOUS
 62
     7
 10
-2186.6283959382
 20
-488.1971177738
 30
0.0
 11
-2186.6283959382
 21
-500.1971122902
 31
0.0
  0
LINE
  5
380
  8
0
  6
CONTINUOUS
 62
     7
 10
-2179.127687835
 20
-490.4818681162
 30
0.0
 11
-2179.1284030907
 21
-490.4818681162
 31
0.0
  0
LINE
  5
381
  8
0
  6
CONTINUOUS
 62
     7
 10
-2179.1284030907
 20
-484.7820100467
 30
0.0
 11
-2179.127687835
 21
-484.7820100467
 31
0.0
  0
LINE
  5
382
  8
0
  6
CONTINUOUS
 62
     7
 10
-1582.5784152978
 20
-555.8971014898
 30
0.0
 11
-1582.5784152978
 21
-558.8971224706
 31
0.0
  0
LINE
  5
383
  8
0
  6
CONTINUOUS
 62
     7
 10
-1584.5783895486
 20
-555.8971014898
 30
0.0
 11
-1582.5784152978
 21
-555.8971014898
 31
0.0
  0
LINE
  5
384
  8
0
  6
CONTINUOUS
 62
     7
 10
-1582.5784152978
 20
-558.8971224706
 30
0.0
 11
-1584.5783895486
 21
-558.8971224706
 31
0.0
  0
LINE
  5
385
  8
0
  6
CONTINUOUS
 62
     7
 10
-1584.5783895486
 20
-555.8971014898
 30
0.0
 11
-2175.5784100526
 21
-555.8971014898
 31
0.0
  0
LINE
  5
386
  8
0
  6
CONTINUOUS
 62
     7
 10
-1584.5783895486
 20
-558.8971224706
 30
0.0
 11
-2175.5784100526
 21
-558.8971224706
 31
0.0
  0
LINE
  5
387
  8
0
  6
CONTINUOUS
 62
     7
 10
-2177.5784141057
 20
-558.8971224706
 30
0.0
 11
-2177.5784141057
 21
-555.8971014898
 31
0.0
  0
LINE
  5
388
  8
0
  6
CONTINUOUS
 62
     7
 10
-2177.5784141057
 20
-555.8971014898
 30
0.0
 11
-2175.5784100526
 21
-555.8971014898
 31
0.0
  0
LINE
  5
389
  8
0
  6
CONTINUOUS
 62
     7
 10
-2175.5784100526
 20
-558.8971224706
 30
0.0
 11
-2177.5784141057
 21
-558.8971224706
 31
0.0
  0
LINE
  5
38A
  8
0
  6
CONTINUOUS
 62
     7
 10
-1585.0784129136
 20
-551.8971231859
 30
0.0
 11
-1585.0784129136
 21
-553.3465889376
 31
0.0
  0
ARC
  5
38B
  8
0
  6
CONTINUOUS
 62
     7
 10
-1585.5784018798
 20
-550.8971115069
 30
0.0
 40
2.500000000000227
 50
281.5369590328
 51
0.0000000001
  0
ARC
  5
38C
  8
0
  6
CONTINUOUS
 62
     7
 10
-2177.0784018798
 20
-553.3971115069
 30
0.0
 40
2.500000000000068
 50
36.8698976458
 51
90.0
  0
LINE
  5
38D
  8
0
  6
CONTINUOUS
 62
     7
 10
-2177.0783907406
 20
-550.8971062582
 30
0.0
 11
-2177.0783907406
 21
-543.4489098471
 31
0.0
  0
LINE
  5
38E
  8
0
  6
CONTINUOUS
 62
     7
 10
-2173.784787082
 20
-539.8970988672
 30
0.0
 11
-1587.4720162385
 21
-539.8970988672
 31
0.0
  0
LINE
  5
38F
  8
0
  6
CONTINUOUS
 62
     7
 10
-1583.0784088605
 20
-550.8971062582
 30
0.0
 11
-1583.0784088605
 21
-544.6351614874
 31
0.0
  0
ARC
  5
390
  8
0
  6
CONTINUOUS
 62
     7
 10
-1583.0784018798
 20
-553.3971115069
 30
0.0
 40
2.500000000000114
 50
90.0
 51
143.1301023542
  0
POLYLINE
  5
391
  8
0
  6
CONTINUOUS
 62
     7
 66
     1
 10
0.0
 20
0.0
 30
0.0
  0
VERTEX
  5
676
  8
0
  6
CONTINUOUS
 62
     7
 10
-1585.0784129136
 20
-554.8971143644
 30
0.0
  0
VERTEX
  5
677
  8
0
  6
CONTINUOUS
 62
     7
 10
-1585.2929598324
 20
-554.8496988695
 30
0.0
  0
VERTEX
  5
678
  8
0
  6
CONTINUOUS
 62
     7
 10
-1585.4500478738
 20
-554.6926406305
 30
0.0
  0
VERTEX
  5
679
  8
0
  6
CONTINUOUS
 62
     7
 10
-1585.5462497704
 20
-554.4133928697
 30
0.0
  0
VERTEX
  5
67A
  8
0
  6
CONTINUOUS
 62
     7
 10
-1585.5784064763
 20
-554.0184226911
 30
0.0
  0
VERTEX
  5
67B
  8
0
  6
CONTINUOUS
 62
     7
 10
-1585.5464285844
 20
-553.5299328249
 30
0.0
  0
VERTEX
  5
67C
  8
0
  6
CONTINUOUS
 62
     7
 10
-1585.4504353039
 20
-552.9871729296
 30
0.0
  0
VERTEX
  5
67D
  8
0
  6
CONTINUOUS
 62
     7
 10
-1585.2928108208
 20
-552.4278727453
 30
0.0
  0
VERTEX
  5
67E
  8
0
  6
CONTINUOUS
 62
     7
 10
-1585.0784129136
 20
-551.8971231859
 30
0.0
  0
SEQEND
  5
67F
  8
0
  6
CONTINUOUS
 62
     7
  0
POLYLINE
  5
392
  8
0
  6
CONTINUOUS
 62
     7
 66
     1
 10
0.0
 20
0.0
 30
0.0
  0
VERTEX
  5
680
  8
0
  6
CONTINUOUS
 62
     7
 10
-1585.0784129136
 20
-553.397103874
 30
0.0
  0
VERTEX
  5
681
  8
0
  6
CONTINUOUS
 62
     7
 10
-1585.2929598324
 20
-553.3734110277
 30
0.0
  0
VERTEX
  5
682
  8
0
  6
CONTINUOUS
 62
     7
 10
-1585.4500478738
 20
-553.2948819082
 30
0.0
  0
VERTEX
  5
683
  8
0
  6
CONTINUOUS
 62
     7
 10
-1585.5462497704
 20
-553.1552580278
 30
0.0
  0
VERTEX
  5
684
  8
0
  6
CONTINUOUS
 62
     7
 10
-1585.5784064763
 20
-552.9577580374
 30
0.0
  0
VERTEX
  5
685
  8
0
  6
CONTINUOUS
 62
     7
 10
-1585.5784064763
 20
-552.9577580374
 30
0.0
  0
SEQEND
  5
686
  8
0
  6
CONTINUOUS
 62
     7
  0
LINE
  5
393
  8
0
  6
CONTINUOUS
 62
     7
 10
-1585.0784129136
 20
-553.397103874
 30
0.0
 11
-1585.0784129136
 21
-554.8971143644
 31
0.0
  0
LINE
  5
394
  8
0
  6
CONTINUOUS
 62
     7
 10
-1585.0784129136
 20
-554.8971143644
 30
0.0
 11
-2175.0784164899
 21
-554.8971143644
 31
0.0
  0
POLYLINE
  5
395
  8
0
  6
CONTINUOUS
 62
     7
 66
     1
 10
0.0
 20
0.0
 30
0.0
  0
VERTEX
  5
687
  8
0
  6
CONTINUOUS
 62
     7
 10
-2175.0784164899
 20
-554.8971143644
 30
0.0
  0
VERTEX
  5
688
  8
0
  6
CONTINUOUS
 62
     7
 10
-2174.8638397687
 20
-554.8496988695
 30
0.0
  0
VERTEX
  5
689
  8
0
  6
CONTINUOUS
 62
     7
 10
-2174.7067517274
 20
-554.6926406305
 30
0.0
  0
VERTEX
  5
68A
  8
0
  6
CONTINUOUS
 62
     7
 10
-2174.6105498307
 20
-554.4133928697
 30
0.0
  0
VERTEX
  5
68B
  8
0
  6
CONTINUOUS
 62
     7
 10
-2174.5783931248
 20
-554.0184226911
 30
0.0
  0
VERTEX
  5
68C
  8
0
  6
CONTINUOUS
 62
     7
 10
-2174.6104008191
 20
-553.5299328249
 30
0.0
  0
VERTEX
  5
68D
  8
0
  6
CONTINUOUS
 62
     7
 10
-2174.7063642972
 20
-552.9871729296
 30
0.0
  0
VERTEX
  5
68E
  8
0
  6
CONTINUOUS
 62
     7
 10
-2174.8639887803
 20
-552.4278727453
 30
0.0
  0
VERTEX
  5
68F
  8
0
  6
CONTINUOUS
 62
     7
 10
-2175.0784164899
 20
-551.8971231859
 30
0.0
  0
SEQEND
  5
690
  8
0
  6
CONTINUOUS
 62
     7
  0
LINE
  5
396
  8
0
  6
CONTINUOUS
 62
     7
 10
-2175.0784164899
 20
-553.397103874
 30
0.0
 11
-2175.0784164899
 21
-554.8971143644
 31
0.0
  0
POLYLINE
  5
397
  8
0
  6
CONTINUOUS
 62
     7
 66
     1
 10
0.0
 20
0.0
 30
0.0
  0
VERTEX
  5
691
  8
0
  6
CONTINUOUS
 62
     7
 10
-2175.0784164899
 20
-553.397103874
 30
0.0
  0
VERTEX
  5
692
  8
0
  6
CONTINUOUS
 62
     7
 10
-2174.8638397687
 20
-553.3734110277
 30
0.0
  0
VERTEX
  5
693
  8
0
  6
CONTINUOUS
 62
     7
 10
-2174.7067517274
 20
-553.2948819082
 30
0.0
  0
VERTEX
  5
694
  8
0
  6
CONTINUOUS
 62
     7
 10
-2174.6105498307
 20
-553.1552580278
 30
0.0
  0
VERTEX
  5
695
  8
0
  6
CONTINUOUS
 62
     7
 10
-2174.5783931248
 20
-552.9577580374
 30
0.0
  0
VERTEX
  5
696
  8
0
  6
CONTINUOUS
 62
     7
 10
-2174.5783931248
 20
-552.9577580374
 30
0.0
  0
SEQEND
  5
697
  8
0
  6
CONTINUOUS
 62
     7
  0
LINE
  5
398
  8
0
  6
CONTINUOUS
 62
     7
 10
-1581.57839837
 20
-550.8971062582
 30
0.0
 11
-1583.0784088605
 21
-550.8971062582
 31
0.0
  0
LINE
  5
399
  8
0
  6
CONTINUOUS
 62
     7
 10
-1581.57839837
 20
-551.8971231859
 30
0.0
 11
-1583.0784088605
 21
-551.8971231859
 31
0.0
  0
LINE
  5
39A
  8
0
  6
CONTINUOUS
 62
     7
 10
-1583.0784088605
 20
-550.8971062582
 30
0.0
 11
-1583.0784088605
 21
-551.8971231859
 31
0.0
  0
LINE
  5
39B
  8
0
  6
CONTINUOUS
 62
     7
 10
-1581.57839837
 20
-550.8971062582
 30
0.0
 11
-1581.57839837
 21
-551.8971231859
 31
0.0
  0
LINE
  5
39C
  8
0
  6
CONTINUOUS
 62
     7
 10
-2177.0783907406
 20
-550.8971062582
 30
0.0
 11
-2178.5784012311
 21
-550.8971062582
 31
0.0
  0
LINE
  5
39D
  8
0
  6
CONTINUOUS
 62
     7
 10
-2178.5784012311
 20
-551.8971231859
 30
0.0
 11
-2177.0783907406
 21
-551.8971231859
 31
0.0
  0
LINE
  5
39E
  8
0
  6
CONTINUOUS
 62
     7
 10
-2178.5784012311
 20
-550.8971062582
 30
0.0
 11
-2178.5784012311
 21
-551.8971231859
 31
0.0
  0
LINE
  5
39F
  8
0
  6
CONTINUOUS
 62
     7
 10
-2177.0783907406
 20
-550.8971062582
 30
0.0
 11
-2177.0783907406
 21
-551.8971231859
 31
0.0
  0
LINE
  5
3A0
  8
0
  6
CONTINUOUS
 62
     7
 10
-1581.57839837
 20
-546.2527421396
 30
0.0
 11
-1581.57839837
 21
-550.8971062582
 31
0.0
  0
LINE
  5
3A1
  8
0
  6
CONTINUOUS
 62
     7
 10
-2178.5784012311
 20
-545.0665203016
 30
0.0
 11
-2178.5784012311
 21
-550.8971062582
 31
0.0
  0
LINE
  5
3A2
  8
0
  6
CONTINUOUS
 62
     7
 10
-1584.5783895486
 20
-553.397103874
 30
0.0
 11
-1585.0784129136
 21
-553.397103874
 31
0.0
  0
LINE
  5
3A3
  8
0
  6
CONTINUOUS
 62
     7
 10
-1584.5783895486
 20
-554.8971143644
 30
0.0
 11
-1584.5783895486
 21
-553.397103874
 31
0.0
  0
LINE
  5
3A4
  8
0
  6
CONTINUOUS
 62
     7
 10
-1584.5783895486
 20
-554.8971143644
 30
0.0
 11
-1585.0784129136
 21
-554.8971143644
 31
0.0
  0
LINE
  5
3A5
  8
0
  6
CONTINUOUS
 62
     7
 10
-2175.5784100526
 20
-554.8971143644
 30
0.0
 11
-2175.5784100526
 21
-553.397103874
 31
0.0
  0
LINE
  5
3A6
  8
0
  6
CONTINUOUS
 62
     7
 10
-2175.5784100526
 20
-554.8971143644
 30
0.0
 11
-2175.0784164899
 21
-554.8971143644
 31
0.0
  0
LINE
  5
3A7
  8
0
  6
CONTINUOUS
 62
     7
 10
-2175.5784100526
 20
-553.397103874
 30
0.0
 11
-2175.0784164899
 21
-553.397103874
 31
0.0
  0
ARC
  5
3A8
  8
0
  6
CONTINUOUS
 62
     7
 10
-1584.5783870893
 20
-551.8971256451
 30
0.0
 40
2.999988719276742
 50
269.9999530319
 51
0.0000469681
  0
ARC
  5
3A9
  8
0
  6
CONTINUOUS
 62
     7
 10
-1584.5783729174
 20
-551.897139817
 30
0.0
 40
1.499964057049624
 50
269.9993647221
 51
0.0006352779
  0
ARC
  5
3AA
  8
0
  6
CONTINUOUS
 62
     7
 10
-2175.5784125118
 20
-551.8971256451
 30
0.0
 40
2.999988719276742
 50
179.9999530319
 51
270.0000469681
  0
ARC
  5
3AB
  8
0
  6
CONTINUOUS
 62
     7
 10
-2175.5784266837
 20
-551.897139817
 30
0.0
 40
1.499964057049397
 50
179.9993647221
 51
270.0006352779
  0
LINE
  5
3AC
  8
0
  6
CONTINUOUS
 62
     7
 10
-1602.3783928387
 20
-538.2537988107
 30
0.0
 11
-1602.1474546426
 21
-539.8970988672
 31
0.0
  0
ARC
  5
3AD
  8
0
  6
CONTINUOUS
 62
     7
 10
-1598.4173293285
 20
-537.6971119324
 30
0.0
 40
4.000000000000114
 50
89.9999999999
 51
187.9999988096
  0
LINE
  5
3AE
  8
0
  6
CONTINUOUS
 62
     7
 10
-1598.4173363679
 20
-535.6971171778
 30
0.0
 11
-1591.3667029374
 21
-535.6971171778
 31
0.0
  0
ARC
  5
3AF
  8
0
  6
CONTINUOUS
 62
     7
 10
-1598.4173293285
 20
-537.6971119324
 30
0.0
 40
2.00000008212362
 50
89.9999999998
 51
187.9999988096
  0
LINE
  5
3B0
  8
0
  6
CONTINUOUS
 62
     7
 10
-1600.1277810567
 20
-539.8970988672
 30
0.0
 11
-1600.3978795045
 21
-537.9754451196
 31
0.0
  0
LINE
  5
3B1
  8
0
  6
CONTINUOUS
 62
     7
 10
-1594.8358720772
 20
-535.9171179216
 30
0.0
 11
-1591.8784088128
 21
-535.9171179216
 31
0.0
  0
LINE
  5
3B2
  8
0
  6
CONTINUOUS
 62
     7
 10
-1596.8784040444
 20
-535.9171179216
 30
0.0
 11
-1594.8358720772
 21
-535.9171179216
 31
0.0
  0
LINE
  5
3B3
  8
0
  6
CONTINUOUS
 62
     7
 10
-1594.7626775735
 20
-536.3171246927
 30
0.0
 11
-1596.4783972733
 21
-536.3171246927
 31
0.0
  0
LINE
  5
3B4
  8
0
  6
CONTINUOUS
 62
     7
 10
-1592.2784155839
 20
-536.3171246927
 30
0.0
 11
-1594.7626775735
 21
-536.3171246927
 31
0.0
  0
LINE
  5
3B5
  8
0
  6
CONTINUOUS
 62
     7
 10
-2641.0847233883
 20
369.238016519
 30
0.0
 11
-2641.0847233883
 21
-119.5769929731
 31
0.0
  0
LINE
  5
3B6
  8
0
  6
CONTINUOUS
 62
     7
 10
-2607.5933624219
 20
-107.3308829746
 30
0.0
 11
-2607.5933624219
 21
381.4841021827
 31
0.0
  0
LINE
  5
3B7
  8
0
  6
CONTINUOUS
 62
     7
 10
-3085.1477757357
 20
625.5901600304
 30
0.0
 11
-3085.1477757357
 21
136.7751505382
 31
0.0
  0
LINE
  5
3B8
  8
0
  6
CONTINUOUS
 62
     7
 10
-3051.6564147693
 20
625.4413576074
 30
0.0
 11
-3051.6564147693
 21
626.2203392909
 31
0.0
  0
LINE
  5
3B9
  8
0
  6
CONTINUOUS
 62
     7
 10
-2430.0666554772
 20
12.4281726095
 30
0.0
 11
-2430.0666554772
 21
499.1847246455
 31
0.0
  0
LINE
  5
3BA
  8
0
  6
CONTINUOUS
 62
     7
 10
-2430.8170755463
 20
500.4844278982
 30
0.0
 11
-2852.3379070411
 21
743.8232243082
 31
0.0
  0
LINE
  5
3BB
  8
0
  6
CONTINUOUS
 62
     7
 10
-3049.8353337388
 20
626.2599914335
 30
0.0
 11
-3049.8353337388
 21
624.3900801048
 31
0.0
  0
LINE
  5
3BC
  8
0
  6
CONTINUOUS
 62
     7
 10
-3086.1477940103
 20
629.7208484465
 30
0.0
 11
-3086.1477940103
 21
626.9446113603
 31
0.0
  0
LINE
  5
3BD
  8
0
  6
CONTINUOUS
 62
     7
 10
-3008.2972226977
 20
646.0485510731
 30
0.0
 11
-3008.5093793964
 21
646.1710541715
 31
0.0
  0
LINE
  5
3BE
  8
0
  6
CONTINUOUS
 62
     7
 10
-3006.2477795053
 20
640.4153420911
 30
0.0
 11
-3006.2477795053
 21
643.1915791772
 31
0.0
  0
LINE
  5
3BF
  8
0
  6
CONTINUOUS
 62
     7
 10
-2642.0847205895
 20
373.3686927697
 30
0.0
 11
-2642.0847205895
 21
370.5924556835
 31
0.0
  0
LINE
  5
3C0
  8
0
  6
CONTINUOUS
 62
     7
 10
-2606.6605578339
 20
414.1886397242
 30
0.0
 11
-2606.872735606
 21
414.3111549881
 31
0.0
  0
LINE
  5
3C1
  8
0
  6
CONTINUOUS
 62
     7
 10
-2604.6111146415
 20
408.5554307422
 30
0.0
 11
-2604.6111146415
 21
411.3316678284
 31
0.0
  0
LINE
  5
3C2
  8
0
  6
CONTINUOUS
 62
     7
 10
-2642.0847205895
 20
-119.8219593614
 30
0.0
 11
-2642.0847205895
 21
-122.5981964476
 31
0.0
  0
LINE
  5
3C3
  8
0
  6
CONTINUOUS
 62
     7
 10
-3086.1477940103
 20
136.5301963154
 30
0.0
 11
-3086.1477940103
 21
133.7539592292
 31
0.0
  0
LINE
  5
3C4
  8
0
  6
CONTINUOUS
 62
     7
 10
-2646.4261620875
 20
-110.1849454058
 30
0.0
 11
-2644.3048269082
 21
-108.9603246736
 31
0.0
  0
LINE
  5
3C5
  8
0
  6
CONTINUOUS
 62
     7
 10
-3064.204774903
 20
618.3281065713
 30
0.0
 11
-3066.3261100823
 21
617.1034858391
 31
0.0
  0
LINE
  5
3C6
  8
0
  6
CONTINUOUS
 62
     7
 10
-2743.201000288
 20
587.4211021081
 30
0.0
 11
-2739.9120920379
 21
585.5224557892
 31
0.0
  0
LINE
  5
3C7
  8
0
  6
CONTINUOUS
 62
     7
 10
-2704.2818614861
 20
564.9535615128
 30
0.0
 11
-2702.9854527433
 21
564.2051606758
 31
0.0
  0
ARC
  5
3C8
  8
0
  6
CONTINUOUS
 62
     7
 10
-2634.9456333046
 20
-119.6699385353
 30
0.0
 40
3.458338508991458
 50
242.6097788106
 51
297.3897830802
  0
LINE
  5
3C9
  8
0
  6
CONTINUOUS
 62
     7
 10
-2640.425715265
 20
-120.4954585223
 30
0.0
 11
-2636.5366358921
 21
-122.7405762556
 31
0.0
  0
LINE
  5
3CA
  8
0
  6
CONTINUOUS
 62
     7
 10
-2633.3546541966
 20
-122.740588421
 30
0.0
 11
-2608.2523494718
 21
-108.2493363583
 31
0.0
  0
ARC
  5
3CB
  8
0
  6
CONTINUOUS
 62
     7
 10
-2639.9587170988
 20
-119.4647275147
 30
0.0
 40
1.1315890142945
 50
185.6937066612
 51
245.625921356
  0
ARC
  5
3CC
  8
0
  6
CONTINUOUS
 62
     7
 10
-2608.7193781831
 20
-107.218607783
 30
0.0
 40
1.131599404886557
 50
294.3755381985
 51
354.3058505349
  0
ARC
  5
3CD
  8
0
  6
CONTINUOUS
 62
     7
 10
-3079.008685652
 20
136.6822049761
 30
0.0
 40
3.458338508991849
 50
242.6097788106
 51
297.3897830802
  0
LINE
  5
3CE
  8
0
  6
CONTINUOUS
 62
     7
 10
-3066.7403925297
 20
139.7754372689
 30
0.0
 11
-3077.417706544
 21
133.6115550903
 31
0.0
  0
LINE
  5
3CF
  8
0
  6
CONTINUOUS
 62
     7
 10
-3080.5996882395
 20
133.6115672558
 30
0.0
 11
-3084.4887676124
 21
135.8566849891
 31
0.0
  0
ARC
  5
3D0
  8
0
  6
CONTINUOUS
 62
     7
 10
-3084.0217694462
 20
136.8874159967
 30
0.0
 40
1.131589014292281
 50
185.6937066611
 51
245.6259213561
  0
LINE
  5
3D1
  8
0
  6
CONTINUOUS
 62
     7
 10
-2430.9453266365
 20
498.3186810349
 30
0.0
 11
-2605.318286076
 21
397.6553142305
 31
0.0
  0
LINE
  5
3D2
  8
0
  6
CONTINUOUS
 62
     7
 10
-2607.5933413484
 20
-91.1317461836
 30
0.0
 11
-2430.9453266365
 21
10.8449820739
 31
0.0
  0
LINE
  5
3D3
  8
0
  6
CONTINUOUS
 62
     7
 10
-2854.1482388553
 20
743.8539257968
 30
0.0
 11
-3021.709477322
 21
647.1228818082
 31
0.0
  0
LINE
  5
3D4
  8
0
  6
CONTINUOUS
 62
     7
 10
-2605.1519219282
 20
400.2019627007
 30
0.0
 11
-2432.0064999883
 21
500.1566871904
 31
0.0
  0
POLYLINE
  5
3D5
  8
0
  6
CONTINUOUS
 62
     7
 66
     1
 10
0.0
 20
0.0
 30
0.0
  0
VERTEX
  5
698
  8
0
  6
CONTINUOUS
 62
     7
 10
-2757.805445694
 20
576.3885033718
 30
0.0
  0
VERTEX
  5
699
  8
0
  6
CONTINUOUS
 62
     7
 10
-2759.7918306156
 20
575.0970967161
 30
0.0
  0
VERTEX
  5
69A
  8
0
  6
CONTINUOUS
 62
     7
 10
-2761.4996880888
 20
573.6791331038
 30
0.0
  0
VERTEX
  5
69B
  8
0
  6
CONTINUOUS
 62
     7
 10
-2762.9050523619
 20
572.1545121352
 30
0.0
  0
VERTEX
  5
69C
  8
0
  6
CONTINUOUS
 62
     7
 10
-2763.9881987098
 20
570.5446327997
 30
0.0
  0
VERTEX
  5
69D
  8
0
  6
CONTINUOUS
 62
     7
 10
-2764.7339042175
 20
568.8721060676
 30
0.0
  0
VERTEX
  5
69E
  8
0
  6
CONTINUOUS
 62
     7
 10
-2765.1317164668
 20
567.1603990511
 30
0.0
  0
VERTEX
  5
69F
  8
0
  6
CONTINUOUS
 62
     7
 10
-2765.1760549515
 20
565.4335407532
 30
0.0
  0
VERTEX
  5
6A0
  8
0
  6
CONTINUOUS
 62
     7
 10
-2764.8662775905
 20
563.7157833367
 30
0.0
  0
VERTEX
  5
6A1
  8
0
  6
CONTINUOUS
 62
     7
 10
-2764.2067505342
 20
562.0312287971
 30
0.0
  0
VERTEX
  5
6A2
  8
0
  6
CONTINUOUS
 62
     7
 10
-2763.206717113
 20
560.4035343315
 30
0.0
  0
VERTEX
  5
6A3
  8
0
  6
CONTINUOUS
 62
     7
 10
-2761.8802375816
 20
558.8555369211
 30
0.0
  0
VERTEX
  5
6A4
  8
0
  6
CONTINUOUS
 62
     7
 10
-2760.2459067674
 20
557.4089808443
 30
0.0
  0
VERTEX
  5
6A5
  8
0
  6
CONTINUOUS
 62
     7
 10
-2758.3266943734
 20
556.0841578464
 30
0.0
  0
VERTEX
  5
6A6
  8
0
  6
CONTINUOUS
 62
     7
 10
-2756.1495126443
 20
554.899681889
 30
0.0
  0
VERTEX
  5
6A7
  8
0
  6
CONTINUOUS
 62
     7
 10
-2753.7449508077
 20
553.8721655305
 30
0.0
  0
VERTEX
  5
6A8
  8
0
  6
CONTINUOUS
 62
     7
 10
-2751.1467414889
 20
553.0160457134
 30
0.0
  0
VERTEX
  5
6A9
  8
0
  6
CONTINUOUS
 62
     7
 10
-2748.3913794137
 20
552.3433271499
 30
0.0
  0
VERTEX
  5
6AA
  8
0
  6
CONTINUOUS
 62
     7
 10
-2745.5175221325
 20
551.8634675105
 30
0.0
  0
VERTEX
  5
6AB
  8
0
  6
CONTINUOUS
 62
     7
 10
-2742.5655351308
 20
551.5831878145
 30
0.0
  0
VERTEX
  5
6AC
  8
0
  6
CONTINUOUS
 62
     7
 10
-2739.5768375656
 20
551.5064353634
 30
0.0
  0
VERTEX
  5
6AD
  8
0
  6
CONTINUOUS
 62
     7
 10
-2736.5933925513
 20
551.6342841364
 30
0.0
  0
VERTEX
  5
6AE
  8
0
  6
CONTINUOUS
 62
     7
 10
-2733.6570795675
 20
551.9649374519
 30
0.0
  0
VERTEX
  5
6AF
  8
0
  6
CONTINUOUS
 62
     7
 10
-2730.8091248173
 20
552.4937519176
 30
0.0
  0
VERTEX
  5
6B0
  8
0
  6
CONTINUOUS
 62
     7
 10
-2728.0895019526
 20
553.2133051012
 30
0.0
  0
VERTEX
  5
6B1
  8
0
  6
CONTINUOUS
 62
     7
 10
-2725.53638153
 20
554.1135034986
 30
0.0
  0
VERTEX
  5
6B2
  8
0
  6
CONTINUOUS
 62
     7
 10
-2723.1856160296
 20
555.1816988653
 30
0.0
  0
VERTEX
  5
6B3
  8
0
  6
CONTINUOUS
 62
     7
 10
-2721.0702024825
 20
556.402901112
 30
0.0
  0
VERTEX
  5
6B4
  8
0
  6
CONTINUOUS
 62
     7
 10
-2719.2198333436
 20
557.7599691493
 30
0.0
  0
VERTEX
  5
6B5
  8
0
  6
CONTINUOUS
 62
     7
 10
-2717.6604750228
 20
559.2338541968
 30
0.0
  0
VERTEX
  5
6B6
  8
0
  6
CONTINUOUS
 62
     7
 10
-2716.4140372958
 20
560.8038590581
 30
0.0
  0
VERTEX
  5
6B7
  8
0
  6
CONTINUOUS
 62
     7
 10
-2715.4980045194
 20
562.4479483399
 30
0.0
  0
VERTEX
  5
6B8
  8
0
  6
CONTINUOUS
 62
     7
 10
-2714.9252341165
 20
564.1430457444
 30
0.0
  0
VERTEX
  5
6B9
  8
0
  6
CONTINUOUS
 62
     7
 10
-2714.7037695497
 20
565.8653518908
 30
0.0
  0
VERTEX
  5
6BA
  8
0
  6
CONTINUOUS
 62
     7
 10
-2714.8367231005
 20
567.5906902703
 30
0.0
  0
VERTEX
  5
6BB
  8
0
  6
CONTINUOUS
 62
     7
 10
-2715.3222291121
 20
569.294839134
 30
0.0
  0
VERTEX
  5
6BC
  8
0
  6
CONTINUOUS
 62
     7
 10
-2716.153465722
 20
570.9538785874
 30
0.0
  0
VERTEX
  5
6BD
  8
0
  6
CONTINUOUS
 62
     7
 10
-2717.3187694485
 20
572.5445182971
 30
0.0
  0
VERTEX
  5
6BE
  8
0
  6
CONTINUOUS
 62
     7
 10
-2718.801778424
 20
574.0444295689
 30
0.0
  0
VERTEX
  5
6BF
  8
0
  6
CONTINUOUS
 62
     7
 10
-2720.5816765505
 20
575.4325566115
 30
0.0
  0
VERTEX
  5
6C0
  8
0
  6
CONTINUOUS
 62
     7
 10
-2722.633481942
 20
576.689410788
 30
0.0
  0
VERTEX
  5
6C1
  8
0
  6
CONTINUOUS
 62
     7
 10
-2724.9283808069
 20
577.7973546026
 30
0.0
  0
VERTEX
  5
6C2
  8
0
  6
CONTINUOUS
 62
     7
 10
-2727.4341662027
 20
578.7408306578
 30
0.0
  0
VERTEX
  5
6C3
  8
0
  6
CONTINUOUS
 62
     7
 10
-2730.1156616454
 20
579.5065940329
 30
0.0
  0
VERTEX
  5
6C4
  8
0
  6
CONTINUOUS
 62
     7
 10
-2732.9352219319
 20
580.0838979973
 30
0.0
  0
VERTEX
  5
6C5
  8
0
  6
CONTINUOUS
 62
     7
 10
-2735.8532721595
 20
580.4646348627
 30
0.0
  0
VERTEX
  5
6C6
  8
0
  6
CONTINUOUS
 62
     7
 10
-2738.8288429571
 20
580.6434624853
 30
0.0
  0
VERTEX
  5
6C7
  8
0
  6
CONTINUOUS
 62
     7
 10
-2741.8201628466
 20
580.6178725057
 30
0.0
  0
VERTEX
  5
6C8
  8
0
  6
CONTINUOUS
 62
     7
 10
-2744.7852529083
 20
580.3882173411
 30
0.0
  0
VERTEX
  5
6C9
  8
0
  6
CONTINUOUS
 62
     7
 10
-2747.6824681047
 20
579.9577307146
 30
0.0
  0
VERTEX
  5
6CA
  8
0
  6
CONTINUOUS
 62
     7
 10
-2750.4711630687
 20
579.3324436376
 30
0.0
  0
VERTEX
  5
6CB
  8
0
  6
CONTINUOUS
 62
     7
 10
-2753.1121702072
 20
578.5211441117
 30
0.0
  0
VERTEX
  5
6CC
  8
0
  6
CONTINUOUS
 62
     7
 10
-2755.5684213669
 20
577.5352189785
 30
0.0
  0
VERTEX
  5
6CD
  8
0
  6
CONTINUOUS
 62
     7
 10
-2757.805445694
 20
576.3885033718
 30
0.0
  0
SEQEND
  5
6CE
  8
0
  6
CONTINUOUS
 62
     7
  0
LINE
  5
3D6
  8
0
  6
CONTINUOUS
 62
     7
 10
-2703.0245920191
 20
564.2051654655
 30
0.0
 11
-2697.5245902903
 21
564.2051677466
 31
0.0
  0
POLYLINE
  5
3D7
  8
0
  6
CONTINUOUS
 62
     7
 66
     1
 10
0.0
 20
0.0
 30
0.0
  0
VERTEX
  5
6CF
  8
0
  6
CONTINUOUS
 62
     7
 10
-2697.5245902903
 20
564.2051677466
 30
0.0
  0
VERTEX
  5
6D0
  8
0
  6
CONTINUOUS
 62
     7
 10
-2696.4130251128
 20
564.3183153592
 30
0.0
  0
VERTEX
  5
6D1
  8
0
  6
CONTINUOUS
 62
     7
 10
-2695.4355316945
 20
564.6441101064
 30
0.0
  0
VERTEX
  5
6D2
  8
0
  6
CONTINUOUS
 62
     7
 10
-2694.7100079417
 20
565.1432591738
 30
0.0
  0
VERTEX
  5
6D3
  8
0
  6
CONTINUOUS
 62
     7
 10
-2694.3239691511
 20
565.7555543331
 30
0.0
  0
VERTEX
  5
6D4
  8
0
  6
CONTINUOUS
 62
     7
 10
-2694.3239691511
 20
566.4071468691
 30
0.0
  0
VERTEX
  5
6D5
  8
0
  6
CONTINUOUS
 62
     7
 10
-2694.7100092588
 20
567.0194427887
 30
0.0
  0
VERTEX
  5
6D6
  8
0
  6
CONTINUOUS
 62
     7
 10
-2695.4355303774
 20
567.5185933768
 30
0.0
  0
VERTEX
  5
6D7
  8
0
  6
CONTINUOUS
 62
     7
 10
-2696.4130277469
 20
567.8443873637
 30
0.0
  0
VERTEX
  5
6D8
  8
0
  6
CONTINUOUS
 62
     7
 10
-2697.5245929245
 20
567.9575349764
 30
0.0
  0
SEQEND
  5
6D9
  8
0
  6
CONTINUOUS
 62
     7
  0
LINE
  5
3D8
  8
0
  6
CONTINUOUS
 62
     7
 10
-2697.5245929245
 20
567.9575349764
 30
0.0
 11
-2703.024590702
 21
567.957536497
 31
0.0
  0
POLYLINE
  5
3D9
  8
0
  6
CONTINUOUS
 62
     7
 66
     1
 10
0.0
 20
0.0
 30
0.0
  0
VERTEX
  5
6DA
  8
0
  6
CONTINUOUS
 62
     7
 10
-2703.024590702
 20
567.957536497
 30
0.0
  0
VERTEX
  5
6DB
  8
0
  6
CONTINUOUS
 62
     7
 10
-2704.1361558795
 20
567.8443888844
 30
0.0
  0
VERTEX
  5
6DC
  8
0
  6
CONTINUOUS
 62
     7
 10
-2705.1136532491
 20
567.5185903354
 30
0.0
  0
VERTEX
  5
6DD
  8
0
  6
CONTINUOUS
 62
     7
 10
-2705.8391717335
 20
567.0194443094
 30
0.0
  0
VERTEX
  5
6DE
  8
0
  6
CONTINUOUS
 62
     7
 10
-2706.2252171095
 20
566.4071468691
 30
0.0
  0
VERTEX
  5
6DF
  8
0
  6
CONTINUOUS
 62
     7
 10
-2706.2252171095
 20
565.7555543331
 30
0.0
  0
VERTEX
  5
6E0
  8
0
  6
CONTINUOUS
 62
     7
 10
-2705.8391756848
 20
565.1432576532
 30
0.0
  0
VERTEX
  5
6E1
  8
0
  6
CONTINUOUS
 62
     7
 10
-2705.1136492978
 20
564.6441101064
 30
0.0
  0
VERTEX
  5
6E2
  8
0
  6
CONTINUOUS
 62
     7
 10
-2704.1361571966
 20
564.3183130781
 30
0.0
  0
VERTEX
  5
6E3
  8
0
  6
CONTINUOUS
 62
     7
 10
-2703.0245920191
 20
564.2051654655
 30
0.0
  0
SEQEND
  5
6E4
  8
0
  6
CONTINUOUS
 62
     7
  0
LINE
  5
3DA
  8
0
  6
CONTINUOUS
 62
     7
 10
-2743.2009950196
 20
590.573594929
 30
0.0
 11
-2743.2009989709
 21
587.3985115146
 31
0.0
  0
POLYLINE
  5
3DB
  8
0
  6
CONTINUOUS
 62
     7
 66
     1
 10
0.0
 20
0.0
 30
0.0
  0
VERTEX
  5
6E5
  8
0
  6
CONTINUOUS
 62
     7
 10
-2743.2009989709
 20
587.3985115146
 30
0.0
  0
VERTEX
  5
6E6
  8
0
  6
CONTINUOUS
 62
     7
 10
-2743.0050003203
 20
586.7568185964
 30
0.0
  0
VERTEX
  5
6E7
  8
0
  6
CONTINUOUS
 62
     7
 10
-2742.4406421649
 20
586.1925244177
 30
0.0
  0
VERTEX
  5
6E8
  8
0
  6
CONTINUOUS
 62
     7
 10
-2741.5759995677
 20
585.7736869497
 30
0.0
  0
VERTEX
  5
6E9
  8
0
  6
CONTINUOUS
 62
     7
 10
-2740.5153556857
 20
585.5508299789
 30
0.0
  0
VERTEX
  5
6EA
  8
0
  6
CONTINUOUS
 62
     7
 10
-2739.3866420091
 20
585.5508299789
 30
0.0
  0
VERTEX
  5
6EB
  8
0
  6
CONTINUOUS
 62
     7
 10
-2738.32599681
 20
585.7736892308
 30
0.0
  0
VERTEX
  5
6EC
  8
0
  6
CONTINUOUS
 62
     7
 10
-2737.461356847
 20
586.1925221367
 30
0.0
  0
VERTEX
  5
6ED
  8
0
  6
CONTINUOUS
 62
     7
 10
-2736.8969960574
 20
586.7568193567
 30
0.0
  0
VERTEX
  5
6EE
  8
0
  6
CONTINUOUS
 62
     7
 10
-2736.7009974068
 20
587.3985122749
 30
0.0
  0
SEQEND
  5
6EF
  8
0
  6
CONTINUOUS
 62
     7
  0
LINE
  5
3DC
  8
0
  6
CONTINUOUS
 62
     7
 10
-2736.7009974068
 20
587.3985122749
 30
0.0
 11
-2736.701000041
 21
590.5735934084
 31
0.0
  0
POLYLINE
  5
3DD
  8
0
  6
CONTINUOUS
 62
     7
 66
     1
 10
0.0
 20
0.0
 30
0.0
  0
VERTEX
  5
6F0
  8
0
  6
CONTINUOUS
 62
     7
 10
-2736.701000041
 20
590.5735934084
 30
0.0
  0
VERTEX
  5
6F1
  8
0
  6
CONTINUOUS
 62
     7
 10
-2736.8969986916
 20
591.2152863265
 30
0.0
  0
VERTEX
  5
6F2
  8
0
  6
CONTINUOUS
 62
     7
 10
-2737.4613515786
 20
591.7795835466
 30
0.0
  0
VERTEX
  5
6F3
  8
0
  6
CONTINUOUS
 62
     7
 10
-2738.3259994442
 20
592.1984179732
 30
0.0
  0
VERTEX
  5
6F4
  8
0
  6
CONTINUOUS
 62
     7
 10
-2739.3866420091
 20
592.4212741837
 30
0.0
  0
VERTEX
  5
6F5
  8
0
  6
CONTINUOUS
 62
     7
 10
-2740.5153556857
 20
592.4212741837
 30
0.0
  0
VERTEX
  5
6F6
  8
0
  6
CONTINUOUS
 62
     7
 10
-2741.5759969335
 20
592.1984187335
 30
0.0
  0
VERTEX
  5
6F7
  8
0
  6
CONTINUOUS
 62
     7
 10
-2742.4406421649
 20
591.7795827862
 30
0.0
  0
VERTEX
  5
6F8
  8
0
  6
CONTINUOUS
 62
     7
 10
-2743.004996369
 20
591.2152878472
 30
0.0
  0
VERTEX
  5
6F9
  8
0
  6
CONTINUOUS
 62
     7
 10
-2743.2009950196
 20
590.573594929
 30
0.0
  0
SEQEND
  5
6FA
  8
0
  6
CONTINUOUS
 62
     7
  0
LINE
  5
3DE
  8
0
  6
CONTINUOUS
 62
     7
 10
-2736.7009974068
 20
541.5891093146
 30
0.0
 11
-2736.7009987239
 21
544.7641896876
 31
0.0
  0
POLYLINE
  5
3DF
  8
0
  6
CONTINUOUS
 62
     7
 66
     1
 10
0.0
 20
0.0
 30
0.0
  0
VERTEX
  5
6FB
  8
0
  6
CONTINUOUS
 62
     7
 10
-2736.7009987239
 20
544.7641896876
 30
0.0
  0
VERTEX
  5
6FC
  8
0
  6
CONTINUOUS
 62
     7
 10
-2736.8969921062
 20
545.4058856472
 30
0.0
  0
VERTEX
  5
6FD
  8
0
  6
CONTINUOUS
 62
     7
 10
-2737.4613555299
 20
545.9701767845
 30
0.0
  0
VERTEX
  5
6FE
  8
0
  6
CONTINUOUS
 62
     7
 10
-2738.3260033955
 20
546.3890112111
 30
0.0
  0
VERTEX
  5
6FF
  8
0
  6
CONTINUOUS
 62
     7
 10
-2739.3866367408
 20
546.6118742647
 30
0.0
  0
VERTEX
  5
700
  8
0
  6
CONTINUOUS
 62
     7
 10
-2740.5153504173
 20
546.6118742647
 30
0.0
  0
VERTEX
  5
701
  8
0
  6
CONTINUOUS
 62
     7
 10
-2741.5759956164
 20
546.3890150128
 30
0.0
  0
VERTEX
  5
702
  8
0
  6
CONTINUOUS
 62
     7
 10
-2742.4406461162
 20
545.9701760242
 30
0.0
  0
VERTEX
  5
703
  8
0
  6
CONTINUOUS
 62
     7
 10
-2743.004996369
 20
545.4058848868
 30
0.0
  0
VERTEX
  5
704
  8
0
  6
CONTINUOUS
 62
     7
 10
-2743.2009950196
 20
544.7641919687
 30
0.0
  0
SEQEND
  5
705
  8
0
  6
CONTINUOUS
 62
     7
  0
LINE
  5
3E0
  8
0
  6
CONTINUOUS
 62
     7
 10
-2743.2009950196
 20
544.7641919687
 30
0.0
 11
-2743.2010029222
 21
541.5891047525
 31
0.0
  0
POLYLINE
  5
3E1
  8
0
  6
CONTINUOUS
 62
     7
 66
     1
 10
0.0
 20
0.0
 30
0.0
  0
VERTEX
  5
706
  8
0
  6
CONTINUOUS
 62
     7
 10
-2743.2010029222
 20
541.5891047525
 30
0.0
  0
VERTEX
  5
707
  8
0
  6
CONTINUOUS
 62
     7
 10
-2743.0049990032
 20
540.9474148757
 30
0.0
  0
VERTEX
  5
708
  8
0
  6
CONTINUOUS
 62
     7
 10
-2742.4406461162
 20
540.3831176557
 30
0.0
  0
VERTEX
  5
709
  8
0
  6
CONTINUOUS
 62
     7
 10
-2741.5759982506
 20
539.964283229
 30
0.0
  0
VERTEX
  5
70A
  8
0
  6
CONTINUOUS
 62
     7
 10
-2740.5153556857
 20
539.7414270185
 30
0.0
  0
VERTEX
  5
70B
  8
0
  6
CONTINUOUS
 62
     7
 10
-2739.3866420091
 20
539.7414270185
 30
0.0
  0
VERTEX
  5
70C
  8
0
  6
CONTINUOUS
 62
     7
 10
-2738.3259954929
 20
539.96428551
 30
0.0
  0
VERTEX
  5
70D
  8
0
  6
CONTINUOUS
 62
     7
 10
-2737.4613555299
 20
540.383118416
 30
0.0
  0
VERTEX
  5
70E
  8
0
  6
CONTINUOUS
 62
     7
 10
-2736.8969960574
 20
540.9474163964
 30
0.0
  0
VERTEX
  5
70F
  8
0
  6
CONTINUOUS
 62
     7
 10
-2736.7009974068
 20
541.5891093146
 30
0.0
  0
SEQEND
  5
710
  8
0
  6
CONTINUOUS
 62
     7
  0
LINE
  5
3E2
  8
0
  6
CONTINUOUS
 62
     7
 10
-2776.8774056757
 20
567.9575357367
 30
0.0
 11
-2782.3774021361
 21
567.957536497
 31
0.0
  0
POLYLINE
  5
3E3
  8
0
  6
CONTINUOUS
 62
     7
 66
     1
 10
0.0
 20
0.0
 30
0.0
  0
VERTEX
  5
711
  8
0
  6
CONTINUOUS
 62
     7
 10
-2782.3774021361
 20
567.957536497
 30
0.0
  0
VERTEX
  5
712
  8
0
  6
CONTINUOUS
 62
     7
 10
-2783.4889673137
 20
567.8443888844
 30
0.0
  0
VERTEX
  5
713
  8
0
  6
CONTINUOUS
 62
     7
 10
-2784.4664660003
 20
567.5185910958
 30
0.0
  0
VERTEX
  5
714
  8
0
  6
CONTINUOUS
 62
     7
 10
-2785.1919844847
 20
567.0194450698
 30
0.0
  0
VERTEX
  5
715
  8
0
  6
CONTINUOUS
 62
     7
 10
-2785.5780285437
 20
566.4071468691
 30
0.0
  0
VERTEX
  5
716
  8
0
  6
CONTINUOUS
 62
     7
 10
-2785.5780285437
 20
565.7555543331
 30
0.0
  0
VERTEX
  5
717
  8
0
  6
CONTINUOUS
 62
     7
 10
-2785.191988436
 20
565.1432584135
 30
0.0
  0
VERTEX
  5
718
  8
0
  6
CONTINUOUS
 62
     7
 10
-2784.4664673174
 20
564.6441078254
 30
0.0
  0
VERTEX
  5
719
  8
0
  6
CONTINUOUS
 62
     7
 10
-2783.4889699478
 20
564.3183138385
 30
0.0
  0
VERTEX
  5
71A
  8
0
  6
CONTINUOUS
 62
     7
 10
-2782.3774100386
 20
564.2051631845
 30
0.0
  0
SEQEND
  5
71B
  8
0
  6
CONTINUOUS
 62
     7
  0
LINE
  5
3E4
  8
0
  6
CONTINUOUS
 62
     7
 10
-2782.3774100386
 20
564.2051631845
 30
0.0
 11
-2776.8774017245
 21
564.2051677466
 31
0.0
  0
POLYLINE
  5
3E5
  8
0
  6
CONTINUOUS
 62
     7
 66
     1
 10
0.0
 20
0.0
 30
0.0
  0
VERTEX
  5
71C
  8
0
  6
CONTINUOUS
 62
     7
 10
-2776.8774017245
 20
564.2051677466
 30
0.0
  0
VERTEX
  5
71D
  8
0
  6
CONTINUOUS
 62
     7
 10
-2775.7658365469
 20
564.3183153592
 30
0.0
  0
VERTEX
  5
71E
  8
0
  6
CONTINUOUS
 62
     7
 10
-2774.7883497141
 20
564.6441078254
 30
0.0
  0
VERTEX
  5
71F
  8
0
  6
CONTINUOUS
 62
     7
 10
-2774.0628206929
 20
565.1432599342
 30
0.0
  0
VERTEX
  5
720
  8
0
  6
CONTINUOUS
 62
     7
 10
-2773.6767753169
 20
565.7555573745
 30
0.0
  0
VERTEX
  5
721
  8
0
  6
CONTINUOUS
 62
     7
 10
-2773.6767753169
 20
566.4071499104
 30
0.0
  0
VERTEX
  5
722
  8
0
  6
CONTINUOUS
 62
     7
 10
-2774.0628272784
 20
567.0194405077
 30
0.0
  0
VERTEX
  5
723
  8
0
  6
CONTINUOUS
 62
     7
 10
-2774.788348397
 20
567.5185910958
 30
0.0
  0
VERTEX
  5
724
  8
0
  6
CONTINUOUS
 62
     7
 10
-2775.7658352298
 20
567.8443911654
 30
0.0
  0
VERTEX
  5
725
  8
0
  6
CONTINUOUS
 62
     7
 10
-2776.8774056757
 20
567.9575357367
 30
0.0
  0
SEQEND
  5
726
  8
0
  6
CONTINUOUS
 62
     7
  0
LINE
  5
3E6
  8
0
  6
CONTINUOUS
 62
     7
 10
-2432.0059942261
 20
498.930991401
 30
0.0
 11
-2605.2351514173
 21
398.9279275796
 31
0.0
  0
LINE
  5
3E7
  8
0
  6
CONTINUOUS
 62
     7
 10
-2605.2350776603
 20
398.9291381347
 30
0.0
 11
-2432.0064999883
 21
498.9318674068
 31
0.0
  0
LINE
  5
3E8
  8
0
  6
CONTINUOUS
 62
     7
 10
-2641.6623670206
 20
377.9023181521
 30
0.0
 11
-2641.1463842277
 21
378.2024756438
 31
0.0
  0
LINE
  5
3E9
  8
0
  6
CONTINUOUS
 62
     7
 10
-2641.6615873039
 20
377.8964900377
 30
0.0
 11
-2641.1373858755
 21
378.199179121
 31
0.0
  0
LINE
  5
3EA
  8
0
  6
CONTINUOUS
 62
     7
 10
-3048.1668875202
 20
626.2963166162
 30
0.0
 11
-3045.6729742002
 21
621.9871960182
 31
0.0
  0
LINE
  5
3EB
  8
0
  6
CONTINUOUS
 62
     7
 10
-2643.783807567
 20
376.5136919325
 30
0.0
 11
-2643.8448783504
 21
376.4783167399
 31
0.0
  0
POLYLINE
  5
3EC
  8
0
  6
CONTINUOUS
 62
     7
 66
     1
 10
0.0
 20
0.0
 30
0.0
  0
VERTEX
  5
727
  8
0
  6
CONTINUOUS
 62
     7
 10
-2643.2824075836
 20
375.6947067504
 30
0.0
  0
VERTEX
  5
728
  8
0
  6
CONTINUOUS
 62
     7
 10
-2643.144587389
 20
375.7075015229
 30
0.0
  0
VERTEX
  5
729
  8
0
  6
CONTINUOUS
 62
     7
 10
-2642.8301508257
 20
375.697263421
 30
0.0
  0
SEQEND
  5
72A
  8
0
  6
CONTINUOUS
 62
     7
  0
LINE
  5
3ED
  8
0
  6
CONTINUOUS
 62
     7
 10
-2641.9226448836
 20
377.7001410026
 30
0.0
 11
-2641.6623670206
 21
377.9023181521
 31
0.0
  0
LINE
  5
3EE
  8
0
  6
CONTINUOUS
 62
     7
 10
-2641.6615873039
 20
377.8964900377
 30
0.0
 11
-2641.9639277217
 21
377.7723992993
 31
0.0
  0
POLYLINE
  5
3EF
  8
0
  6
CONTINUOUS
 62
     7
 66
     1
 10
0.0
 20
0.0
 30
0.0
  0
VERTEX
  5
72B
  8
0
  6
CONTINUOUS
 62
     7
 10
-2642.2876998119
 20
377.6395101282
 30
0.0
  0
VERTEX
  5
72C
  8
0
  6
CONTINUOUS
 62
     7
 10
-2642.2888167034
 20
377.6390355262
 30
0.0
  0
VERTEX
  5
72D
  8
0
  6
CONTINUOUS
 62
     7
 10
-2643.0904497621
 20
377.3729098515
 30
0.0
  0
SEQEND
  5
72E
  8
0
  6
CONTINUOUS
 62
     7
  0
ARC
  5
3F0
  8
0
  6
CONTINUOUS
 62
     7
 10
-2644.9192116599
 20
378.1392883005
 30
0.0
 40
1.982852996563213
 50
304.9325232692
 51
337.2629256452
  0
LINE
  5
3F1
  8
0
  6
CONTINUOUS
 62
     7
 10
-2642.8301508257
 20
375.697263421
 30
0.0
 11
-2642.8835298093
 21
376.1276397983
 31
0.0
  0
ARC
  5
3F2
  8
0
  6
CONTINUOUS
 62
     7
 10
-2431.8340132755
 20
12.3736300187
 30
0.0
 40
1.768199219966545
 50
300.1717785705
 51
1.7676492636
  0
POLYLINE
  5
3F3
  8
0
  6
CONTINUOUS
 62
     7
 66
     1
 10
0.0
 20
0.0
 30
0.0
  0
VERTEX
  5
72F
  8
0
  6
CONTINUOUS
 62
     7
 10
-2430.9453414537
 20
499.5436781973
 30
0.0
  0
VERTEX
  5
730
  8
0
  6
CONTINUOUS
 62
     7
 10
-2430.5722410511
 20
499.5200769446
 30
0.0
  0
VERTEX
  5
731
  8
0
  6
CONTINUOUS
 62
     7
 10
-2430.2950268999
 20
499.4503173066
 30
0.0
  0
VERTEX
  5
732
  8
0
  6
CONTINUOUS
 62
     7
 10
-2430.124296067
 20
499.3370880695
 30
0.0
  0
VERTEX
  5
733
  8
0
  6
CONTINUOUS
 62
     7
 10
-2430.0666554772
 20
499.1847246455
 30
0.0
  0
VERTEX
  5
734
  8
0
  6
CONTINUOUS
 62
     7
 10
-2430.1242948322
 20
498.9991150679
 30
0.0
  0
VERTEX
  5
735
  8
0
  6
CONTINUOUS
 62
     7
 10
-2430.2950181331
 20
498.7873655088
 30
0.0
  0
VERTEX
  5
736
  8
0
  6
CONTINUOUS
 62
     7
 10
-2430.5722545873
 20
498.5576237255
 30
0.0
  0
VERTEX
  5
737
  8
0
  6
CONTINUOUS
 62
     7
 10
-2430.9453266365
 20
498.3186810349
 30
0.0
  0
SEQEND
  5
738
  8
0
  6
CONTINUOUS
 62
     7
  0
LINE
  5
3F4
  8
0
  6
CONTINUOUS
 62
     7
 10
-2432.0060016347
 20
498.9313721081
 30
0.0
 11
-2430.9453414537
 21
499.5436781973
 31
0.0
  0
POLYLINE
  5
3F5
  8
0
  6
CONTINUOUS
 62
     7
 66
     1
 10
0.0
 20
0.0
 30
0.0
  0
VERTEX
  5
739
  8
0
  6
CONTINUOUS
 62
     7
 10
-2432.0060016347
 20
498.9313721081
 30
0.0
  0
VERTEX
  5
73A
  8
0
  6
CONTINUOUS
 62
     7
 10
-2431.8379336677
 20
499.0283329057
 30
0.0
  0
VERTEX
  5
73B
  8
0
  6
CONTINUOUS
 62
     7
 10
-2431.707188299
 20
499.1037467779
 30
0.0
  0
VERTEX
  5
73C
  8
0
  6
CONTINUOUS
 62
     7
 10
-2431.6177693147
 20
499.1553013639
 30
0.0
  0
VERTEX
  5
73D
  8
0
  6
CONTINUOUS
 62
     7
 10
-2431.5723604483
 20
499.1814707629
 30
0.0
  0
VERTEX
  5
73E
  8
0
  6
CONTINUOUS
 62
     7
 10
-2431.5723545214
 20
499.1814013806
 30
0.0
  0
VERTEX
  5
73F
  8
0
  6
CONTINUOUS
 62
     7
 10
-2431.617762153
 20
499.1551593436
 30
0.0
  0
VERTEX
  5
740
  8
0
  6
CONTINUOUS
 62
     7
 10
-2431.707184924
 20
499.1035026714
 30
0.0
  0
VERTEX
  5
741
  8
0
  6
CONTINUOUS
 62
     7
 10
-2431.8379336677
 20
499.0280320057
 30
0.0
  0
VERTEX
  5
742
  8
0
  6
CONTINUOUS
 62
     7
 10
-2432.0059942261
 20
498.930991401
 30
0.0
  0
SEQEND
  5
743
  8
0
  6
CONTINUOUS
 62
     7
  0
POLYLINE
  5
3F6
  8
0
  6
CONTINUOUS
 62
     7
 66
     1
 10
0.0
 20
0.0
 30
0.0
  0
VERTEX
  5
744
  8
0
  6
CONTINUOUS
 62
     7
 10
-2432.0064999883
 20
500.1566871904
 30
0.0
  0
VERTEX
  5
745
  8
0
  6
CONTINUOUS
 62
     7
 10
-2431.6542366284
 20
500.3414010117
 30
0.0
  0
VERTEX
  5
746
  8
0
  6
CONTINUOUS
 62
     7
 10
-2431.344902468
 20
500.4647024849
 30
0.0
  0
VERTEX
  5
747
  8
0
  6
CONTINUOUS
 62
     7
 10
-2431.0878746868
 20
500.5227846538
 30
0.0
  0
VERTEX
  5
748
  8
0
  6
CONTINUOUS
 62
     7
 10
-2430.8909757235
 20
500.5139306671
 30
0.0
  0
VERTEX
  5
749
  8
0
  6
CONTINUOUS
 62
     7
 10
-2430.7601637595
 20
500.4383517708
 30
0.0
  0
VERTEX
  5
74A
  8
0
  6
CONTINUOUS
 62
     7
 10
-2430.6994635719
 20
500.298421865
 30
0.0
  0
VERTEX
  5
74B
  8
0
  6
CONTINUOUS
 62
     7
 10
-2430.7106623168
 20
500.0983177702
 30
0.0
  0
VERTEX
  5
74C
  8
0
  6
CONTINUOUS
 62
     7
 10
-2430.7934716416
 20
499.8441689232
 30
0.0
  0
VERTEX
  5
74D
  8
0
  6
CONTINUOUS
 62
     7
 10
-2430.9453414537
 20
499.5436781973
 30
0.0
  0
SEQEND
  5
74E
  8
0
  6
CONTINUOUS
 62
     7
  0
ARC
  5
3F7
  8
0
  6
CONTINUOUS
 62
     7
 10
-2853.269016825
 20
742.3087786915
 30
0.0
 40
1.777782595210065
 50
58.4160137417
 51
119.6408097686
  0
POLYLINE
  5
3F8
  8
0
  6
CONTINUOUS
 62
     7
 66
     1
 10
0.0
 20
0.0
 30
0.0
  0
VERTEX
  5
74F
  8
0
  6
CONTINUOUS
 62
     7
 10
-2432.0064999883
 20
498.9318674068
 30
0.0
  0
VERTEX
  5
750
  8
0
  6
CONTINUOUS
 62
     7
 10
-2431.8384183564
 20
499.0288715112
 30
0.0
  0
VERTEX
  5
751
  8
0
  6
CONTINUOUS
 62
     7
 10
-2431.7076696127
 20
499.104342177
 30
0.0
  0
VERTEX
  5
752
  8
0
  6
CONTINUOUS
 62
     7
 10
-2431.6182046949
 20
499.1559258487
 30
0.0
  0
VERTEX
  5
753
  8
0
  6
CONTINUOUS
 62
     7
 10
-2431.5727549165
 20
499.1820948852
 30
0.0
  0
VERTEX
  5
754
  8
0
  6
CONTINUOUS
 62
     7
 10
-2431.5726765497
 20
499.1820182666
 30
0.0
  0
VERTEX
  5
755
  8
0
  6
CONTINUOUS
 62
     7
 10
-2431.6180221958
 20
499.1557393667
 30
0.0
  0
VERTEX
  5
756
  8
0
  6
CONTINUOUS
 62
     7
 10
-2431.7073568864
 20
499.1040387798
 30
0.0
  0
VERTEX
  5
757
  8
0
  6
CONTINUOUS
 62
     7
 10
-2431.8380179614
 20
499.0284789067
 30
0.0
  0
VERTEX
  5
758
  8
0
  6
CONTINUOUS
 62
     7
 10
-2432.0060016347
 20
498.9313721081
 30
0.0
  0
SEQEND
  5
759
  8
0
  6
CONTINUOUS
 62
     7
  0
POLYLINE
  5
3F9
  8
0
  6
CONTINUOUS
 62
     7
 66
     1
 10
0.0
 20
0.0
 30
0.0
  0
VERTEX
  5
75A
  8
0
  6
CONTINUOUS
 62
     7
 10
-2736.7009987239
 20
543.539369904
 30
0.0
  0
VERTEX
  5
75B
  8
0
  6
CONTINUOUS
 62
     7
 10
-2736.8969921062
 20
544.1810658635
 30
0.0
  0
VERTEX
  5
75C
  8
0
  6
CONTINUOUS
 62
     7
 10
-2737.4613555299
 20
544.7453570008
 30
0.0
  0
VERTEX
  5
75D
  8
0
  6
CONTINUOUS
 62
     7
 10
-2738.3260033955
 20
545.1641914275
 30
0.0
  0
VERTEX
  5
75E
  8
0
  6
CONTINUOUS
 62
     7
 10
-2739.3866367408
 20
545.387054481
 30
0.0
  0
VERTEX
  5
75F
  8
0
  6
CONTINUOUS
 62
     7
 10
-2740.5153504173
 20
545.387054481
 30
0.0
  0
VERTEX
  5
760
  8
0
  6
CONTINUOUS
 62
     7
 10
-2741.5759956164
 20
545.1641952292
 30
0.0
  0
VERTEX
  5
761
  8
0
  6
CONTINUOUS
 62
     7
 10
-2742.4406461162
 20
544.7453562405
 30
0.0
  0
VERTEX
  5
762
  8
0
  6
CONTINUOUS
 62
     7
 10
-2743.004996369
 20
544.1810651032
 30
0.0
  0
VERTEX
  5
763
  8
0
  6
CONTINUOUS
 62
     7
 10
-2743.2009950196
 20
543.539372185
 30
0.0
  0
SEQEND
  5
764
  8
0
  6
CONTINUOUS
 62
     7
  0
POLYLINE
  5
3FA
  8
0
  6
CONTINUOUS
 62
     7
 66
     1
 10
0.0
 20
0.0
 30
0.0
  0
VERTEX
  5
765
  8
0
  6
CONTINUOUS
 62
     7
 10
-2757.805445694
 20
575.1636835881
 30
0.0
  0
VERTEX
  5
766
  8
0
  6
CONTINUOUS
 62
     7
 10
-2759.7918306156
 20
573.8722769324
 30
0.0
  0
VERTEX
  5
767
  8
0
  6
CONTINUOUS
 62
     7
 10
-2761.4996880888
 20
572.4543133201
 30
0.0
  0
VERTEX
  5
768
  8
0
  6
CONTINUOUS
 62
     7
 10
-2762.9050523619
 20
570.9296923515
 30
0.0
  0
VERTEX
  5
769
  8
0
  6
CONTINUOUS
 62
     7
 10
-2763.9881987098
 20
569.319813016
 30
0.0
  0
VERTEX
  5
76A
  8
0
  6
CONTINUOUS
 62
     7
 10
-2764.7339042175
 20
567.6472862839
 30
0.0
  0
VERTEX
  5
76B
  8
0
  6
CONTINUOUS
 62
     7
 10
-2765.1317164668
 20
565.9355792674
 30
0.0
  0
VERTEX
  5
76C
  8
0
  6
CONTINUOUS
 62
     7
 10
-2765.1787062517
 20
565.4689354656
 30
0.0
  0
SEQEND
  5
76D
  8
0
  6
CONTINUOUS
 62
     7
  0
POLYLINE
  5
3FB
  8
0
  6
CONTINUOUS
 62
     7
 66
     1
 10
0.0
 20
0.0
 30
0.0
  0
VERTEX
  5
76E
  8
0
  6
CONTINUOUS
 62
     7
 10
-2714.7232927602
 20
565.4689362259
 30
0.0
  0
VERTEX
  5
76F
  8
0
  6
CONTINUOUS
 62
     7
 10
-2714.8367231005
 20
566.3658704867
 30
0.0
  0
VERTEX
  5
770
  8
0
  6
CONTINUOUS
 62
     7
 10
-2715.3222291121
 20
568.0700193503
 30
0.0
  0
VERTEX
  5
771
  8
0
  6
CONTINUOUS
 62
     7
 10
-2716.153465722
 20
569.7290588037
 30
0.0
  0
VERTEX
  5
772
  8
0
  6
CONTINUOUS
 62
     7
 10
-2717.3187694485
 20
571.3196985134
 30
0.0
  0
VERTEX
  5
773
  8
0
  6
CONTINUOUS
 62
     7
 10
-2718.801778424
 20
572.8196097852
 30
0.0
  0
VERTEX
  5
774
  8
0
  6
CONTINUOUS
 62
     7
 10
-2720.5816765505
 20
574.2077368278
 30
0.0
  0
VERTEX
  5
775
  8
0
  6
CONTINUOUS
 62
     7
 10
-2722.633481942
 20
575.4645910043
 30
0.0
  0
VERTEX
  5
776
  8
0
  6
CONTINUOUS
 62
     7
 10
-2724.9283808069
 20
576.5725348189
 30
0.0
  0
VERTEX
  5
777
  8
0
  6
CONTINUOUS
 62
     7
 10
-2727.4341662027
 20
577.5160108741
 30
0.0
  0
VERTEX
  5
778
  8
0
  6
CONTINUOUS
 62
     7
 10
-2730.1156616454
 20
578.2817742493
 30
0.0
  0
VERTEX
  5
779
  8
0
  6
CONTINUOUS
 62
     7
 10
-2732.9352219319
 20
578.8590782136
 30
0.0
  0
VERTEX
  5
77A
  8
0
  6
CONTINUOUS
 62
     7
 10
-2735.8532721595
 20
579.239815079
 30
0.0
  0
VERTEX
  5
77B
  8
0
  6
CONTINUOUS
 62
     7
 10
-2738.8288429571
 20
579.4186427016
 30
0.0
  0
VERTEX
  5
77C
  8
0
  6
CONTINUOUS
 62
     7
 10
-2741.8201628466
 20
579.393052722
 30
0.0
  0
VERTEX
  5
77D
  8
0
  6
CONTINUOUS
 62
     7
 10
-2744.7852529083
 20
579.1633975574
 30
0.0
  0
VERTEX
  5
77E
  8
0
  6
CONTINUOUS
 62
     7
 10
-2747.6824681047
 20
578.7329109309
 30
0.0
  0
VERTEX
  5
77F
  8
0
  6
CONTINUOUS
 62
     7
 10
-2750.4711630687
 20
578.1076238539
 30
0.0
  0
VERTEX
  5
780
  8
0
  6
CONTINUOUS
 62
     7
 10
-2753.1121702072
 20
577.2963243281
 30
0.0
  0
VERTEX
  5
781
  8
0
  6
CONTINUOUS
 62
     7
 10
-2755.5684213669
 20
576.3103991948
 30
0.0
  0
VERTEX
  5
782
  8
0
  6
CONTINUOUS
 62
     7
 10
-2757.805445694
 20
575.1636835881
 30
0.0
  0
SEQEND
  5
783
  8
0
  6
CONTINUOUS
 62
     7
  0
ARC
  5
3FC
  8
0
  6
CONTINUOUS
 62
     7
 10
-2703.3852813549
 20
563.2438989854
 30
0.0
 40
3.507413133094496
 50
84.0974584394
 51
140.625873516
  0
ARC
  5
3FD
  8
0
  6
CONTINUOUS
 62
     7
 10
-2697.163899899
 20
563.2438949032
 30
0.0
 40
3.507415924986161
 50
39.3741753214
 51
95.9025758092
  0
ARC
  5
3FE
  8
0
  6
CONTINUOUS
 62
     7
 10
-2776.5167232064
 20
563.2438700036
 30
0.0
 40
3.507440363340699
 50
39.3743899534
 51
95.9023611772
  0
ARC
  5
3FF
  8
0
  6
CONTINUOUS
 62
     7
 10
-2782.738086438
 20
563.2438692705
 30
0.0
 40
3.507442037345309
 50
84.097611555
 51
140.6256651981
  0
LINE
  5
400
  8
0
  6
CONTINUOUS
 62
     7
 10
-2697.5245929245
 20
566.7327151927
 30
0.0
 11
-2703.024590702
 21
566.7327167133
 31
0.0
  0
LINE
  5
401
  8
0
  6
CONTINUOUS
 62
     7
 10
-2776.8774056757
 20
566.732715953
 30
0.0
 11
-2782.3774021361
 21
566.7327167133
 31
0.0
  0
POLYLINE
  5
402
  8
0
  6
CONTINUOUS
 62
     7
 66
     1
 10
0.0
 20
0.0
 30
0.0
  0
VERTEX
  5
784
  8
0
  6
CONTINUOUS
 62
     7
 10
-2736.701000041
 20
589.3487736247
 30
0.0
  0
VERTEX
  5
785
  8
0
  6
CONTINUOUS
 62
     7
 10
-2736.8969986916
 20
589.9904665429
 30
0.0
  0
VERTEX
  5
786
  8
0
  6
CONTINUOUS
 62
     7
 10
-2737.4613515786
 20
590.5547637629
 30
0.0
  0
VERTEX
  5
787
  8
0
  6
CONTINUOUS
 62
     7
 10
-2738.3259994442
 20
590.9735981895
 30
0.0
  0
VERTEX
  5
788
  8
0
  6
CONTINUOUS
 62
     7
 10
-2739.3866420091
 20
591.1964544001
 30
0.0
  0
VERTEX
  5
789
  8
0
  6
CONTINUOUS
 62
     7
 10
-2740.5153556857
 20
591.1964544001
 30
0.0
  0
VERTEX
  5
78A
  8
0
  6
CONTINUOUS
 62
     7
 10
-2741.5759969335
 20
590.9735989499
 30
0.0
  0
VERTEX
  5
78B
  8
0
  6
CONTINUOUS
 62
     7
 10
-2742.4406421649
 20
590.5547630025
 30
0.0
  0
VERTEX
  5
78C
  8
0
  6
CONTINUOUS
 62
     7
 10
-2743.004996369
 20
589.9904680635
 30
0.0
  0
VERTEX
  5
78D
  8
0
  6
CONTINUOUS
 62
     7
 10
-2743.2009950196
 20
589.3487751453
 30
0.0
  0
SEQEND
  5
78E
  8
0
  6
CONTINUOUS
 62
     7
  0
LINE
  5
403
  8
0
  6
CONTINUOUS
 62
     7
 10
-3048.1347294748
 20
626.2970253433
 30
0.0
 11
-3045.6331875752
 21
621.9642276885
 31
0.0
  0
LINE
  5
404
  8
0
  6
CONTINUOUS
 62
     7
 10
-2432.0064999883
 20
10.2321805911
 30
0.0
 11
-2607.5933624219
 21
-91.1319574954
 31
0.0
  0
POLYLINE
  5
405
  8
0
  6
CONTINUOUS
 62
     7
 66
     1
 10
0.0
 20
0.0
 30
0.0
  0
VERTEX
  5
78F
  8
0
  6
CONTINUOUS
 62
     7
 10
-2627.0767968172
 20
399.6234190836
 30
0.0
  0
VERTEX
  5
790
  8
0
  6
CONTINUOUS
 62
     7
 10
-2626.2493277404
 20
400.1035642305
 30
0.0
  0
VERTEX
  5
791
  8
0
  6
CONTINUOUS
 62
     7
 10
-2625.7193732672
 20
400.7078454135
 30
0.0
  0
VERTEX
  5
792
  8
0
  6
CONTINUOUS
 62
     7
 10
-2625.5387950948
 20
401.3770778213
 30
0.0
  0
VERTEX
  5
793
  8
0
  6
CONTINUOUS
 62
     7
 10
-2625.7253159729
 20
402.0457749502
 30
0.0
  0
VERTEX
  5
794
  8
0
  6
CONTINUOUS
 62
     7
 10
-2626.2606230958
 20
402.6484746275
 30
0.0
  0
VERTEX
  5
795
  8
0
  6
CONTINUOUS
 62
     7
 10
-2627.0923911512
 20
403.1261623577
 30
0.0
  0
VERTEX
  5
796
  8
0
  6
CONTINUOUS
 62
     7
 10
-2628.1391292074
 20
403.4321107284
 30
0.0
  0
VERTEX
  5
797
  8
0
  6
CONTINUOUS
 62
     7
 10
-2629.2984204225
 20
403.536344123
 30
0.0
  0
VERTEX
  5
798
  8
0
  6
CONTINUOUS
 62
     7
 10
-2630.4567422601
 20
403.4286800775
 30
0.0
  0
VERTEX
  5
799
  8
0
  6
CONTINUOUS
 62
     7
 10
-2631.5007618446
 20
403.1196295224
 30
0.0
  0
VERTEX
  5
79A
  8
0
  6
CONTINUOUS
 62
     7
 10
-2632.3282519948
 20
402.6394722101
 30
0.0
  0
VERTEX
  5
79B
  8
0
  6
CONTINUOUS
 62
     7
 10
-2632.858206468
 20
402.035215358
 30
0.0
  0
VERTEX
  5
79C
  8
0
  6
CONTINUOUS
 62
     7
 10
-2633.038763567
 20
401.3659707847
 30
0.0
  0
VERTEX
  5
79D
  8
0
  6
CONTINUOUS
 62
     7
 10
-2632.8522637624
 20
400.6972858212
 30
0.0
  0
VERTEX
  5
79E
  8
0
  6
CONTINUOUS
 62
     7
 10
-2632.316935566
 20
400.0945739785
 30
0.0
  0
VERTEX
  5
79F
  8
0
  6
CONTINUOUS
 62
     7
 10
-2631.4851885841
 20
399.6168740829
 30
0.0
  0
VERTEX
  5
7A0
  8
0
  6
CONTINUOUS
 62
     7
 10
-2630.4384294545
 20
399.3109378776
 30
0.0
  0
VERTEX
  5
7A1
  8
0
  6
CONTINUOUS
 62
     7
 10
-2629.2791593127
 20
399.2067166484
 30
0.0
  0
VERTEX
  5
7A2
  8
0
  6
CONTINUOUS
 62
     7
 10
-2628.1208164017
 20
399.3143685285
 30
0.0
  0
VERTEX
  5
7A3
  8
0
  6
CONTINUOUS
 62
     7
 10
-2627.0767968172
 20
399.6234190836
 30
0.0
  0
SEQEND
  5
7A4
  8
0
  6
CONTINUOUS
 62
     7
  0
POLYLINE
  5
406
  8
0
  6
CONTINUOUS
 62
     7
 66
     1
 10
0.0
 20
0.0
 30
0.0
  0
VERTEX
  5
7A5
  8
0
  6
CONTINUOUS
 62
     7
 10
-2610.5976213939
 20
409.4923617011
 30
0.0
  0
VERTEX
  5
7A6
  8
0
  6
CONTINUOUS
 62
     7
 10
-2609.5315379342
 20
409.7751714262
 30
0.0
  0
VERTEX
  5
7A7
  8
0
  6
CONTINUOUS
 62
     7
 10
-2608.6690132161
 20
410.23431296
 30
0.0
  0
VERTEX
  5
7A8
  8
0
  6
CONTINUOUS
 62
     7
 10
-2608.0944884507
 20
410.8248593739
 30
0.0
  0
VERTEX
  5
7A9
  8
0
  6
CONTINUOUS
 62
     7
 10
-2607.8641980704
 20
411.488994467
 30
0.0
  0
VERTEX
  5
7AA
  8
0
  6
CONTINUOUS
 62
     7
 10
-2608.0006590292
 20
412.1617001047
 30
0.0
  0
VERTEX
  5
7AB
  8
0
  6
CONTINUOUS
 62
     7
 10
-2608.4905529228
 20
412.7771369861
 30
0.0
  0
VERTEX
  5
7AC
  8
0
  6
CONTINUOUS
 62
     7
 10
-2609.2859166378
 20
413.2750619072
 30
0.0
  0
VERTEX
  5
7AD
  8
0
  6
CONTINUOUS
 62
     7
 10
-2610.3088733347
 20
413.6067340773
 30
0.0
  0
VERTEX
  5
7AE
  8
0
  6
CONTINUOUS
 62
     7
 10
-2611.4593137117
 20
413.739677884
 30
0.0
  0
VERTEX
  5
7AF
  8
0
  6
CONTINUOUS
 62
     7
 10
-2612.624600316
 20
413.6608884839
 30
0.0
  0
VERTEX
  5
7B0
  8
0
  6
CONTINUOUS
 62
     7
 10
-2613.6907048491
 20
413.3780909243
 30
0.0
  0
VERTEX
  5
7B1
  8
0
  6
CONTINUOUS
 62
     7
 10
-2614.5532084937
 20
412.918937225
 30
0.0
  0
VERTEX
  5
7B2
  8
0
  6
CONTINUOUS
 62
     7
 10
-2615.1277332592
 20
412.3283908112
 30
0.0
  0
VERTEX
  5
7B3
  8
0
  6
CONTINUOUS
 62
     7
 10
-2615.3580447129
 20
411.6642678835
 30
0.0
  0
VERTEX
  5
7B4
  8
0
  6
CONTINUOUS
 62
     7
 10
-2615.2215626807
 20
410.9915500803
 30
0.0
  0
VERTEX
  5
7B5
  8
0
  6
CONTINUOUS
 62
     7
 10
-2614.731668787
 20
410.376113199
 30
0.0
  0
VERTEX
  5
7B6
  8
0
  6
CONTINUOUS
 62
     7
 10
-2613.9363050721
 20
409.8781882779
 30
0.0
  0
VERTEX
  5
7B7
  8
0
  6
CONTINUOUS
 62
     7
 10
-2612.9133483751
 20
409.5465161078
 30
0.0
  0
VERTEX
  5
7B8
  8
0
  6
CONTINUOUS
 62
     7
 10
-2611.7629079982
 20
409.413572301
 30
0.0
  0
VERTEX
  5
7B9
  8
0
  6
CONTINUOUS
 62
     7
 10
-2610.5976213939
 20
409.4923617011
 30
0.0
  0
SEQEND
  5
7BA
  8
0
  6
CONTINUOUS
 62
     7
  0
POLYLINE
  5
407
  8
0
  6
CONTINUOUS
 62
     7
 66
     1
 10
0.0
 20
0.0
 30
0.0
  0
VERTEX
  5
7BB
  8
0
  6
CONTINUOUS
 62
     7
 10
-3034.4334633735
 20
633.9964890602
 30
0.0
  0
VERTEX
  5
7BC
  8
0
  6
CONTINUOUS
 62
     7
 10
-3034.6712980397
 20
633.333229878
 30
0.0
  0
VERTEX
  5
7BD
  8
0
  6
CONTINUOUS
 62
     7
 10
-3034.5424551238
 20
632.660019375
 30
0.0
  0
VERTEX
  5
7BE
  8
0
  6
CONTINUOUS
 62
     7
 10
-3034.0595365335
 20
632.0427455139
 30
0.0
  0
VERTEX
  5
7BF
  8
0
  6
CONTINUOUS
 62
     7
 10
-3033.2698731798
 20
631.5418218145
 30
0.0
  0
VERTEX
  5
7C0
  8
0
  6
CONTINUOUS
 62
     7
 10
-3032.2506780891
 20
631.2062992862
 30
0.0
  0
VERTEX
  5
7C1
  8
0
  6
CONTINUOUS
 62
     7
 10
-3031.1017760722
 20
631.0689880905
 30
0.0
  0
VERTEX
  5
7C2
  8
0
  6
CONTINUOUS
 62
     7
 10
-3029.9356149207
 20
631.1433675226
 30
0.0
  0
VERTEX
  5
7C3
  8
0
  6
CONTINUOUS
 62
     7
 10
-3028.866349374
 20
631.4221504907
 30
0.0
  0
VERTEX
  5
7C4
  8
0
  6
CONTINUOUS
 62
     7
 10
-3027.9986511303
 20
631.8780256069
 30
0.0
  0
VERTEX
  5
7C5
  8
0
  6
CONTINUOUS
 62
     7
 10
-3027.4174250159
 20
632.4663822436
 30
0.0
  0
VERTEX
  5
7C6
  8
0
  6
CONTINUOUS
 62
     7
 10
-3027.1795903497
 20
633.1296414258
 30
0.0
  0
VERTEX
  5
7C7
  8
0
  6
CONTINUOUS
 62
     7
 10
-3027.3084332656
 20
633.8028519288
 30
0.0
  0
VERTEX
  5
7C8
  8
0
  6
CONTINUOUS
 62
     7
 10
-3027.7913307824
 20
634.4201136245
 30
0.0
  0
VERTEX
  5
7C9
  8
0
  6
CONTINUOUS
 62
     7
 10
-3028.5810152096
 20
634.9210494892
 30
0.0
  0
VERTEX
  5
7CA
  8
0
  6
CONTINUOUS
 62
     7
 10
-3029.6002103003
 20
635.2565720176
 30
0.0
  0
VERTEX
  5
7CB
  8
0
  6
CONTINUOUS
 62
     7
 10
-3030.7490912438
 20
635.3938710479
 30
0.0
  0
VERTEX
  5
7CC
  8
0
  6
CONTINUOUS
 62
     7
 10
-3031.9152523953
 20
635.3194916157
 30
0.0
  0
VERTEX
  5
7CD
  8
0
  6
CONTINUOUS
 62
     7
 10
-3032.9845390154
 20
635.0407208131
 30
0.0
  0
VERTEX
  5
7CE
  8
0
  6
CONTINUOUS
 62
     7
 10
-3033.8522583325
 20
634.5848335314
 30
0.0
  0
VERTEX
  5
7CF
  8
0
  6
CONTINUOUS
 62
     7
 10
-3034.4334633735
 20
633.9964890602
 30
0.0
  0
SEQEND
  5
7D0
  8
0
  6
CONTINUOUS
 62
     7
  0
POLYLINE
  5
408
  8
0
  6
CONTINUOUS
 62
     7
 66
     1
 10
0.0
 20
0.0
 30
0.0
  0
VERTEX
  5
7D1
  8
0
  6
CONTINUOUS
 62
     7
 10
-3016.0709560244
 20
644.8614153397
 30
0.0
  0
VERTEX
  5
7D2
  8
0
  6
CONTINUOUS
 62
     7
 10
-3016.6955090991
 20
644.2880465114
 30
0.0
  0
VERTEX
  5
7D3
  8
0
  6
CONTINUOUS
 62
     7
 10
-3016.9825502109
 20
643.6313201645
 30
0.0
  0
VERTEX
  5
7D4
  8
0
  6
CONTINUOUS
 62
     7
 10
-3016.9040306321
 20
642.9555305905
 30
0.0
  0
VERTEX
  5
7D5
  8
0
  6
CONTINUOUS
 62
     7
 10
-3016.4676000158
 20
642.3268212263
 30
0.0
  0
VERTEX
  5
7D6
  8
0
  6
CONTINUOUS
 62
     7
 10
-3015.7159952663
 20
641.8067491419
 30
0.0
  0
VERTEX
  5
7D7
  8
0
  6
CONTINUOUS
 62
     7
 10
-3014.7227837077
 20
641.4462023264
 30
0.0
  0
VERTEX
  5
7D8
  8
0
  6
CONTINUOUS
 62
     7
 10
-3013.5851981195
 20
641.2804848542
 30
0.0
  0
VERTEX
  5
7D9
  8
0
  6
CONTINUOUS
 62
     7
 10
-3012.4145588654
 20
641.3258193249
 30
0.0
  0
VERTEX
  5
7DA
  8
0
  6
CONTINUOUS
 62
     7
 10
-3011.3254948366
 20
641.5777592742
 30
0.0
  0
VERTEX
  5
7DB
  8
0
  6
CONTINUOUS
 62
     7
 10
-3010.424595413
 20
642.0116575432
 30
0.0
  0
VERTEX
  5
7DC
  8
0
  6
CONTINUOUS
 62
     7
 10
-3009.8000423383
 20
642.5850263714
 30
0.0
  0
VERTEX
  5
7DD
  8
0
  6
CONTINUOUS
 62
     7
 10
-3009.5129801531
 20
643.2417405529
 30
0.0
  0
VERTEX
  5
7DE
  8
0
  6
CONTINUOUS
 62
     7
 10
-3009.5914997319
 20
643.9175301269
 30
0.0
  0
VERTEX
  5
7DF
  8
0
  6
CONTINUOUS
 62
     7
 10
-3010.0279303482
 20
644.5462394911
 30
0.0
  0
VERTEX
  5
7E0
  8
0
  6
CONTINUOUS
 62
     7
 10
-3010.7795350977
 20
645.0663115755
 30
0.0
  0
VERTEX
  5
7E1
  8
0
  6
CONTINUOUS
 62
     7
 10
-3011.7727466563
 20
645.426858391
 30
0.0
  0
VERTEX
  5
7E2
  8
0
  6
CONTINUOUS
 62
     7
 10
-3012.9103533179
 20
645.5925880286
 30
0.0
  0
VERTEX
  5
7E3
  8
0
  6
CONTINUOUS
 62
     7
 10
-3014.0809714986
 20
645.5472413924
 30
0.0
  0
VERTEX
  5
7E4
  8
0
  6
CONTINUOUS
 62
     7
 10
-3015.1700355274
 20
645.2953014432
 30
0.0
  0
VERTEX
  5
7E5
  8
0
  6
CONTINUOUS
 62
     7
 10
-3016.0709560244
 20
644.8614153397
 30
0.0
  0
SEQEND
  5
7E6
  8
0
  6
CONTINUOUS
 62
     7
  0
POLYLINE
  5
409
  8
0
  6
CONTINUOUS
 62
     7
 66
     1
 10
0.0
 20
0.0
 30
0.0
  0
VERTEX
  5
7E7
  8
0
  6
CONTINUOUS
 62
     7
 10
-2632.1133241409
 20
373.3132582228
 30
0.0
  0
VERTEX
  5
7E8
  8
0
  6
CONTINUOUS
 62
     7
 10
-2632.1915276183
 20
373.9250941371
 30
0.0
  0
VERTEX
  5
7E9
  8
0
  6
CONTINUOUS
 62
     7
 10
-2632.6274735458
 20
374.4845943765
 30
0.0
  0
VERTEX
  5
7EA
  8
0
  6
CONTINUOUS
 62
     7
 10
-2633.3686258769
 20
374.9242773069
 30
0.0
  0
VERTEX
  5
7EB
  8
0
  6
CONTINUOUS
 62
     7
 10
-2634.3255700723
 20
375.1911138238
 30
0.0
  0
VERTEX
  5
7EC
  8
0
  6
CONTINUOUS
 62
     7
 10
-2635.3828869875
 20
375.252902037
 30
0.0
  0
VERTEX
  5
7ED
  8
0
  6
CONTINUOUS
 62
     7
 10
-2636.4130613322
 20
375.1022088696
 30
0.0
  0
VERTEX
  5
7EE
  8
0
  6
CONTINUOUS
 62
     7
 10
-2637.2918231237
 20
374.7571973067
 30
0.0
  0
VERTEX
  5
7EF
  8
0
  6
CONTINUOUS
 62
     7
 10
-2637.9131941113
 20
374.2594852806
 30
0.0
  0
VERTEX
  5
7F0
  8
0
  6
CONTINUOUS
 62
     7
 10
-2638.2021950515
 20
373.6691213482
 30
0.0
  0
VERTEX
  5
7F1
  8
0
  6
CONTINUOUS
 62
     7
 10
-2638.124033721
 20
373.0572854338
 30
0.0
  0
VERTEX
  5
7F2
  8
0
  6
CONTINUOUS
 62
     7
 10
-2637.68806672
 20
372.497773029
 30
0.0
  0
VERTEX
  5
7F3
  8
0
  6
CONTINUOUS
 62
     7
 10
-2636.9469143889
 20
372.0580900987
 30
0.0
  0
VERTEX
  5
7F4
  8
0
  6
CONTINUOUS
 62
     7
 10
-2635.9899701935
 20
371.7912779126
 30
0.0
  0
VERTEX
  5
7F5
  8
0
  6
CONTINUOUS
 62
     7
 10
-2634.9326322049
 20
371.7294775339
 30
0.0
  0
VERTEX
  5
7F6
  8
0
  6
CONTINUOUS
 62
     7
 10
-2633.9024789336
 20
371.8801828668
 30
0.0
  0
VERTEX
  5
7F7
  8
0
  6
CONTINUOUS
 62
     7
 10
-2633.0237171421
 20
372.2251700988
 30
0.0
  0
VERTEX
  5
7F8
  8
0
  6
CONTINUOUS
 62
     7
 10
-2632.4023461545
 20
372.7228821249
 30
0.0
  0
VERTEX
  5
7F9
  8
0
  6
CONTINUOUS
 62
     7
 10
-2632.1133241409
 20
373.3132582228
 30
0.0
  0
SEQEND
  5
7FA
  8
0
  6
CONTINUOUS
 62
     7
  0
POLYLINE
  5
40A
  8
0
  6
CONTINUOUS
 62
     7
 66
     1
 10
0.0
 20
0.0
 30
0.0
  0
VERTEX
  5
7FB
  8
0
  6
CONTINUOUS
 62
     7
 10
-2610.6827474911
 20
385.3210474696
 30
0.0
  0
VERTEX
  5
7FC
  8
0
  6
CONTINUOUS
 62
     7
 10
-2610.4621298126
 20
385.9211802414
 30
0.0
  0
VERTEX
  5
7FD
  8
0
  6
CONTINUOUS
 62
     7
 10
-2610.6104024257
 20
386.5286730977
 30
0.0
  0
VERTEX
  5
7FE
  8
0
  6
CONTINUOUS
 62
     7
 10
-2611.1096318463
 20
387.0702779912
 30
0.0
  0
VERTEX
  5
7FF
  8
0
  6
CONTINUOUS
 62
     7
 10
-2611.8996113013
 20
387.4806300725
 30
0.0
  0
VERTEX
  5
800
  8
0
  6
CONTINUOUS
 62
     7
 10
-2612.8851099866
 20
387.7102525425
 30
0.0
  0
VERTEX
  5
801
  8
0
  6
CONTINUOUS
 62
     7
 10
-2613.9471894957
 20
387.7314568851
 30
0.0
  0
VERTEX
  5
802
  8
0
  6
CONTINUOUS
 62
     7
 10
-2614.9578077027
 20
387.5416883601
 30
0.0
  0
VERTEX
  5
803
  8
0
  6
CONTINUOUS
 62
     7
 10
-2615.7950127015
 20
387.1638058084
 30
0.0
  0
VERTEX
  5
804
  8
0
  6
CONTINUOUS
 62
     7
 10
-2616.35786279
 20
386.6434295883
 30
0.0
  0
VERTEX
  5
805
  8
0
  6
CONTINUOUS
 62
     7
 10
-2616.5784804685
 20
386.0432968165
 30
0.0
  0
VERTEX
  5
806
  8
0
  6
CONTINUOUS
 62
     7
 10
-2616.4302289289
 20
385.4357917948
 30
0.0
  0
VERTEX
  5
807
  8
0
  6
CONTINUOUS
 62
     7
 10
-2615.9309784348
 20
384.8941990667
 30
0.0
  0
VERTEX
  5
808
  8
0
  6
CONTINUOUS
 62
     7
 10
-2615.1409779063
 20
384.48383482
 30
0.0
  0
VERTEX
  5
809
  8
0
  6
CONTINUOUS
 62
     7
 10
-2614.1555213679
 20
384.25421235
 30
0.0
  0
VERTEX
  5
80A
  8
0
  6
CONTINUOUS
 62
     7
 10
-2613.093399712
 20
384.2330080074
 30
0.0
  0
VERTEX
  5
80B
  8
0
  6
CONTINUOUS
 62
     7
 10
-2612.0828025784
 20
384.4227886979
 30
0.0
  0
VERTEX
  5
80C
  8
0
  6
CONTINUOUS
 62
     7
 10
-2611.2455975796
 20
384.8006469187
 30
0.0
  0
VERTEX
  5
80D
  8
0
  6
CONTINUOUS
 62
     7
 10
-2610.6827474911
 20
385.3210474696
 30
0.0
  0
SEQEND
  5
80E
  8
0
  6
CONTINUOUS
 62
     7
  0
POLYLINE
  5
40B
  8
0
  6
CONTINUOUS
 62
     7
 66
     1
 10
0.0
 20
0.0
 30
0.0
  0
VERTEX
  5
80F
  8
0
  6
CONTINUOUS
 62
     7
 10
-3081.9381246342
 20
629.0310354455
 30
0.0
  0
VERTEX
  5
810
  8
0
  6
CONTINUOUS
 62
     7
 10
-3081.2930038975
 20
628.5435058833
 30
0.0
  0
VERTEX
  5
811
  8
0
  6
CONTINUOUS
 62
     7
 10
-3080.3979102023
 20
628.2127643685
 30
0.0
  0
VERTEX
  5
812
  8
0
  6
CONTINUOUS
 62
     7
 10
-3079.3608659212
 20
628.0786891769
 30
0.0
  0
VERTEX
  5
813
  8
0
  6
CONTINUOUS
 62
     7
 10
-3078.3069629008
 20
628.1574603289
 30
0.0
  0
VERTEX
  5
814
  8
0
  6
CONTINUOUS
 62
     7
 10
-3077.3632528158
 20
628.4395766245
 30
0.0
  0
VERTEX
  5
815
  8
0
  6
CONTINUOUS
 62
     7
 10
-3076.6435953774
 20
628.8909870283
 30
0.0
  0
VERTEX
  5
816
  8
0
  6
CONTINUOUS
 62
     7
 10
-3076.2348130937
 20
629.4572877424
 30
0.0
  0
VERTEX
  5
817
  8
0
  6
CONTINUOUS
 62
     7
 10
-3076.1861545571
 20
630.0701455528
 30
0.0
  0
VERTEX
  5
818
  8
0
  6
CONTINUOUS
 62
     7
 10
-3076.5035624733
 20
630.6556433136
 30
0.0
  0
VERTEX
  5
819
  8
0
  6
CONTINUOUS
 62
     7
 10
-3077.14868321
 20
631.1431728758
 30
0.0
  0
VERTEX
  5
81A
  8
0
  6
CONTINUOUS
 62
     7
 10
-3078.0437347584
 20
631.4739143906
 30
0.0
  0
VERTEX
  5
81B
  8
0
  6
CONTINUOUS
 62
     7
 10
-3079.0807790394
 20
631.6079895822
 30
0.0
  0
VERTEX
  5
81C
  8
0
  6
CONTINUOUS
 62
     7
 10
-3080.1347242067
 20
631.5292184302
 30
0.0
  0
VERTEX
  5
81D
  8
0
  6
CONTINUOUS
 62
     7
 10
-3081.0784132183
 20
631.2471143001
 30
0.0
  0
VERTEX
  5
81E
  8
0
  6
CONTINUOUS
 62
     7
 10
-3081.7980706566
 20
630.7956795654
 30
0.0
  0
VERTEX
  5
81F
  8
0
  6
CONTINUOUS
 62
     7
 10
-3082.2068740138
 20
630.2293910167
 30
0.0
  0
VERTEX
  5
820
  8
0
  6
CONTINUOUS
 62
     7
 10
-3082.2554904035
 20
629.6165332063
 30
0.0
  0
VERTEX
  5
821
  8
0
  6
CONTINUOUS
 62
     7
 10
-3081.9381246342
 20
629.0310354455
 30
0.0
  0
SEQEND
  5
822
  8
0
  6
CONTINUOUS
 62
     7
  0
POLYLINE
  5
40C
  8
0
  6
CONTINUOUS
 62
     7
 66
     1
 10
0.0
 20
0.0
 30
0.0
  0
VERTEX
  5
823
  8
0
  6
CONTINUOUS
 62
     7
 10
-3060.5853299934
 20
641.9919738792
 30
0.0
  0
VERTEX
  5
824
  8
0
  6
CONTINUOUS
 62
     7
 10
-3060.2014354238
 20
641.4198945864
 30
0.0
  0
VERTEX
  5
825
  8
0
  6
CONTINUOUS
 62
     7
 10
-3059.5017345182
 20
640.9581314026
 30
0.0
  0
VERTEX
  5
826
  8
0
  6
CONTINUOUS
 62
     7
 10
-3058.5706474143
 20
640.6623533304
 30
0.0
  0
VERTEX
  5
827
  8
0
  6
CONTINUOUS
 62
     7
 10
-3057.5204954634
 20
640.5682537381
 30
0.0
  0
VERTEX
  5
828
  8
0
  6
CONTINUOUS
 62
     7
 10
-3056.4779299452
 20
640.6871708053
 30
0.0
  0
VERTEX
  5
829
  8
0
  6
CONTINUOUS
 62
     7
 10
-3055.5687170557
 20
641.0047736569
 30
0.0
  0
VERTEX
  5
82A
  8
0
  6
CONTINUOUS
 62
     7
 10
-3054.9024596745
 20
641.4827290266
 30
0.0
  0
VERTEX
  5
82B
  8
0
  6
CONTINUOUS
 62
     7
 10
-3054.5595739884
 20
642.063421443
 30
0.0
  0
VERTEX
  5
82C
  8
0
  6
CONTINUOUS
 62
     7
 10
-3054.5814060559
 20
642.6768023669
 30
0.0
  0
VERTEX
  5
82D
  8
0
  6
CONTINUOUS
 62
     7
 10
-3054.965321699
 20
643.2488694942
 30
0.0
  0
VERTEX
  5
82E
  8
0
  6
CONTINUOUS
 62
     7
 10
-3055.6649804577
 20
643.710632678
 30
0.0
  0
VERTEX
  5
82F
  8
0
  6
CONTINUOUS
 62
     7
 10
-3056.5960675616
 20
644.0064107502
 30
0.0
  0
VERTEX
  5
830
  8
0
  6
CONTINUOUS
 62
     7
 10
-3057.6462195125
 20
644.1005103426
 30
0.0
  0
VERTEX
  5
831
  8
0
  6
CONTINUOUS
 62
     7
 10
-3058.6887850307
 20
643.9815932753
 30
0.0
  0
VERTEX
  5
832
  8
0
  6
CONTINUOUS
 62
     7
 10
-3059.5980400671
 20
643.6639904237
 30
0.0
  0
VERTEX
  5
833
  8
0
  6
CONTINUOUS
 62
     7
 10
-3060.2642763749
 20
643.1860228887
 30
0.0
  0
VERTEX
  5
834
  8
0
  6
CONTINUOUS
 62
     7
 10
-3060.607162061
 20
642.6053304722
 30
0.0
  0
VERTEX
  5
835
  8
0
  6
CONTINUOUS
 62
     7
 10
-3060.5853299934
 20
641.9919738792
 30
0.0
  0
SEQEND
  5
836
  8
0
  6
CONTINUOUS
 62
     7
  0
POLYLINE
  5
40D
  8
0
  6
CONTINUOUS
 62
     7
 66
     1
 10
0.0
 20
0.0
 30
0.0
  0
VERTEX
  5
837
  8
0
  6
CONTINUOUS
 62
     7
 10
-3010.9850325943
 20
644.7427902427
 30
0.0
  0
VERTEX
  5
838
  8
0
  6
CONTINUOUS
 62
     7
 10
-3011.8953939855
 20
645.110776218
 30
0.0
  0
VERTEX
  5
839
  8
0
  6
CONTINUOUS
 62
     7
 10
-3012.9688636803
 20
645.276816074
 30
0.0
  0
VERTEX
  5
83A
  8
0
  6
CONTINUOUS
 62
     7
 10
-3014.075977097
 20
645.2209037629
 30
0.0
  0
VERTEX
  5
83B
  8
0
  6
CONTINUOUS
 62
     7
 10
-3015.0832235561
 20
644.9497728496
 30
0.0
  0
VERTEX
  5
83C
  8
0
  6
CONTINUOUS
 62
     7
 10
-3015.8690620833
 20
644.4961179241
 30
0.0
  0
VERTEX
  5
83D
  8
0
  6
CONTINUOUS
 62
     7
 10
-3016.3387254897
 20
643.9146469202
 30
0.0
  0
VERTEX
  5
83E
  8
0
  6
CONTINUOUS
 62
     7
 10
-3016.4355789476
 20
643.2755239489
 30
0.0
  0
VERTEX
  5
83F
  8
0
  6
CONTINUOUS
 62
     7
 10
-3016.1479583167
 20
642.6558230848
 30
0.0
  0
VERTEX
  5
840
  8
0
  6
CONTINUOUS
 62
     7
 10
-3015.5105188431
 20
642.1302826401
 30
0.0
  0
VERTEX
  5
841
  8
0
  6
CONTINUOUS
 62
     7
 10
-3014.6001574519
 20
641.7622966648
 30
0.0
  0
VERTEX
  5
842
  8
0
  6
CONTINUOUS
 62
     7
 10
-3013.5266666837
 20
641.5962446434
 30
0.0
  0
VERTEX
  5
843
  8
0
  6
CONTINUOUS
 62
     7
 10
-3012.419553267
 20
641.6521569545
 30
0.0
  0
VERTEX
  5
844
  8
0
  6
CONTINUOUS
 62
     7
 10
-3011.4123278813
 20
641.9233000332
 30
0.0
  0
VERTEX
  5
845
  8
0
  6
CONTINUOUS
 62
     7
 10
-3010.6264893541
 20
642.3769549587
 30
0.0
  0
VERTEX
  5
846
  8
0
  6
CONTINUOUS
 62
     7
 10
-3010.1568048743
 20
642.9584137971
 30
0.0
  0
VERTEX
  5
847
  8
0
  6
CONTINUOUS
 62
     7
 10
-3010.0599514164
 20
643.5975367685
 30
0.0
  0
VERTEX
  5
848
  8
0
  6
CONTINUOUS
 62
     7
 10
-3010.3475931207
 20
644.2172497981
 30
0.0
  0
VERTEX
  5
849
  8
0
  6
CONTINUOUS
 62
     7
 10
-3010.9850325943
 20
644.7427902427
 30
0.0
  0
SEQEND
  5
84A
  8
0
  6
CONTINUOUS
 62
     7
  0
POLYLINE
  5
40E
  8
0
  6
CONTINUOUS
 62
     7
 66
     1
 10
0.0
 20
0.0
 30
0.0
  0
VERTEX
  5
84B
  8
0
  6
CONTINUOUS
 62
     7
 10
-3028.662695802
 20
634.5376924945
 30
0.0
  0
VERTEX
  5
84C
  8
0
  6
CONTINUOUS
 62
     7
 10
-3029.5730677298
 20
634.9056723871
 30
0.0
  0
VERTEX
  5
84D
  8
0
  6
CONTINUOUS
 62
     7
 10
-3030.646526888
 20
635.0717183258
 30
0.0
  0
VERTEX
  5
84E
  8
0
  6
CONTINUOUS
 62
     7
 10
-3031.7536403046
 20
635.0158060147
 30
0.0
  0
VERTEX
  5
84F
  8
0
  6
CONTINUOUS
 62
     7
 10
-3032.7608867638
 20
634.7446751014
 30
0.0
  0
VERTEX
  5
850
  8
0
  6
CONTINUOUS
 62
     7
 10
-3033.5467358277
 20
634.2910140933
 30
0.0
  0
VERTEX
  5
851
  8
0
  6
CONTINUOUS
 62
     7
 10
-3034.0163992341
 20
633.7095430894
 30
0.0
  0
VERTEX
  5
852
  8
0
  6
CONTINUOUS
 62
     7
 10
-3034.113252692
 20
633.070420118
 30
0.0
  0
VERTEX
  5
853
  8
0
  6
CONTINUOUS
 62
     7
 10
-3033.8256215243
 20
632.4507253366
 30
0.0
  0
VERTEX
  5
854
  8
0
  6
CONTINUOUS
 62
     7
 10
-3033.1881925874
 20
631.9251788092
 30
0.0
  0
VERTEX
  5
855
  8
0
  6
CONTINUOUS
 62
     7
 10
-3032.2778206596
 20
631.5571989166
 30
0.0
  0
VERTEX
  5
856
  8
0
  6
CONTINUOUS
 62
     7
 10
-3031.204340428
 20
631.3911408125
 30
0.0
  0
VERTEX
  5
857
  8
0
  6
CONTINUOUS
 62
     7
 10
-3030.0972270113
 20
631.4470531236
 30
0.0
  0
VERTEX
  5
858
  8
0
  6
CONTINUOUS
 62
     7
 10
-3029.0900016256
 20
631.7181962024
 30
0.0
  0
VERTEX
  5
859
  8
0
  6
CONTINUOUS
 62
     7
 10
-3028.3041525617
 20
632.1718572105
 30
0.0
  0
VERTEX
  5
85A
  8
0
  6
CONTINUOUS
 62
     7
 10
-3027.8344680819
 20
632.753316049
 30
0.0
  0
VERTEX
  5
85B
  8
0
  6
CONTINUOUS
 62
     7
 10
-3027.737614624
 20
633.3924390203
 30
0.0
  0
VERTEX
  5
85C
  8
0
  6
CONTINUOUS
 62
     7
 10
-3028.0252668651
 20
634.0121459672
 30
0.0
  0
VERTEX
  5
85D
  8
0
  6
CONTINUOUS
 62
     7
 10
-3028.662695802
 20
634.5376924945
 30
0.0
  0
SEQEND
  5
85E
  8
0
  6
CONTINUOUS
 62
     7
  0
POLYLINE
  5
40F
  8
0
  6
CONTINUOUS
 62
     7
 66
     1
 10
0.0
 20
0.0
 30
0.0
  0
VERTEX
  5
85F
  8
0
  6
CONTINUOUS
 62
     7
 10
-3077.629852706
 20
630.761798846
 30
0.0
  0
VERTEX
  5
860
  8
0
  6
CONTINUOUS
 62
     7
 10
-3078.3597939754
 20
631.0433555319
 30
0.0
  0
VERTEX
  5
861
  8
0
  6
CONTINUOUS
 62
     7
 10
-3079.220833017
 20
631.1422239723
 30
0.0
  0
VERTEX
  5
862
  8
0
  6
CONTINUOUS
 62
     7
 10
-3080.0818720587
 20
631.0433555319
 30
0.0
  0
VERTEX
  5
863
  8
0
  6
CONTINUOUS
 62
     7
 10
-3080.8118133281
 20
630.761798846
 30
0.0
  0
VERTEX
  5
864
  8
0
  6
CONTINUOUS
 62
     7
 10
-3081.2995577324
 20
630.3404005552
 30
0.0
  0
VERTEX
  5
865
  8
0
  6
CONTINUOUS
 62
     7
 10
-3081.4708214514
 20
629.8433332968
 30
0.0
  0
VERTEX
  5
866
  8
0
  6
CONTINUOUS
 62
     7
 10
-3081.2995577324
 20
629.3462660385
 30
0.0
  0
VERTEX
  5
867
  8
0
  6
CONTINUOUS
 62
     7
 10
-3080.8118344015
 20
628.9248799131
 30
0.0
  0
VERTEX
  5
868
  8
0
  6
CONTINUOUS
 62
     7
 10
-3080.0818720587
 20
628.6433110618
 30
0.0
  0
VERTEX
  5
869
  8
0
  6
CONTINUOUS
 62
     7
 10
-3079.220833017
 20
628.5444426214
 30
0.0
  0
VERTEX
  5
86A
  8
0
  6
CONTINUOUS
 62
     7
 10
-3078.3597939754
 20
628.6433110618
 30
0.0
  0
VERTEX
  5
86B
  8
0
  6
CONTINUOUS
 62
     7
 10
-3077.6298316326
 20
628.9248799131
 30
0.0
  0
VERTEX
  5
86C
  8
0
  6
CONTINUOUS
 62
     7
 10
-3077.1421083016
 20
629.3462660385
 30
0.0
  0
VERTEX
  5
86D
  8
0
  6
CONTINUOUS
 62
     7
 10
-3076.9708445827
 20
629.8433332968
 30
0.0
  0
VERTEX
  5
86E
  8
0
  6
CONTINUOUS
 62
     7
 10
-3077.1421083016
 20
630.3404005552
 30
0.0
  0
VERTEX
  5
86F
  8
0
  6
CONTINUOUS
 62
     7
 10
-3077.629852706
 20
630.761798846
 30
0.0
  0
SEQEND
  5
870
  8
0
  6
CONTINUOUS
 62
     7
  0
POLYLINE
  5
410
  8
0
  6
CONTINUOUS
 62
     7
 66
     1
 10
0.0
 20
0.0
 30
0.0
  0
VERTEX
  5
871
  8
0
  6
CONTINUOUS
 62
     7
 10
-3055.992377177
 20
643.2528475895
 30
0.0
  0
VERTEX
  5
872
  8
0
  6
CONTINUOUS
 62
     7
 10
-3056.7223184463
 20
643.5344042753
 30
0.0
  0
VERTEX
  5
873
  8
0
  6
CONTINUOUS
 62
     7
 10
-3057.583357488
 20
643.6332727158
 30
0.0
  0
VERTEX
  5
874
  8
0
  6
CONTINUOUS
 62
     7
 10
-3058.4443965296
 20
643.5344042753
 30
0.0
  0
VERTEX
  5
875
  8
0
  6
CONTINUOUS
 62
     7
 10
-3059.1743588724
 20
643.252835424
 30
0.0
  0
VERTEX
  5
876
  8
0
  6
CONTINUOUS
 62
     7
 10
-3059.6620822034
 20
642.8314492987
 30
0.0
  0
VERTEX
  5
877
  8
0
  6
CONTINUOUS
 62
     7
 10
-3059.8333459223
 20
642.3343820403
 30
0.0
  0
VERTEX
  5
878
  8
0
  6
CONTINUOUS
 62
     7
 10
-3059.6620822034
 20
641.837314782
 30
0.0
  0
VERTEX
  5
879
  8
0
  6
CONTINUOUS
 62
     7
 10
-3059.1743588724
 20
641.4159286566
 30
0.0
  0
VERTEX
  5
87A
  8
0
  6
CONTINUOUS
 62
     7
 10
-3058.4443965296
 20
641.1343598053
 30
0.0
  0
VERTEX
  5
87B
  8
0
  6
CONTINUOUS
 62
     7
 10
-3057.583357488
 20
641.0354913649
 30
0.0
  0
VERTEX
  5
87C
  8
0
  6
CONTINUOUS
 62
     7
 10
-3056.7223184463
 20
641.1343598053
 30
0.0
  0
VERTEX
  5
87D
  8
0
  6
CONTINUOUS
 62
     7
 10
-3055.992377177
 20
641.4159164912
 30
0.0
  0
VERTEX
  5
87E
  8
0
  6
CONTINUOUS
 62
     7
 10
-3055.5046327726
 20
641.837314782
 30
0.0
  0
VERTEX
  5
87F
  8
0
  6
CONTINUOUS
 62
     7
 10
-3055.3333690536
 20
642.3343820403
 30
0.0
  0
VERTEX
  5
880
  8
0
  6
CONTINUOUS
 62
     7
 10
-3055.5046327726
 20
642.8314492987
 30
0.0
  0
VERTEX
  5
881
  8
0
  6
CONTINUOUS
 62
     7
 10
-3055.992377177
 20
643.2528475895
 30
0.0
  0
SEQEND
  5
882
  8
0
  6
CONTINUOUS
 62
     7
  0
ARC
  5
411
  8
0
  6
CONTINUOUS
 62
     7
 10
-3084.5267124533
 20
629.9658005857
 30
0.0
 40
1.288015600209418
 50
110.7840843019
 51
249.2169183697
  0
LINE
  5
412
  8
0
  6
CONTINUOUS
 62
     7
 10
-3059.5648283504
 20
645.844035278
 30
0.0
 11
-3084.9837612748
 21
631.1699976464
 31
0.0
  0
ARC
  5
413
  8
0
  6
CONTINUOUS
 62
     7
 10
-3057.5807325422
 20
642.1372177632
 30
0.0
 40
4.204418183733595
 50
90.1268071621
 51
118.1581775991
  0
LINE
  5
414
  8
0
  6
CONTINUOUS
 62
     7
 10
-3013.5002827565
 20
647.3016118077
 30
0.0
 11
-3057.5900377635
 21
646.3416256498
 31
0.0
  0
POLYLINE
  5
415
  8
0
  6
CONTINUOUS
 62
     7
 66
     1
 10
0.0
 20
0.0
 30
0.0
  0
VERTEX
  5
883
  8
0
  6
CONTINUOUS
 62
     7
 10
-3008.5101591131
 20
640.7015625077
 30
0.0
  0
VERTEX
  5
884
  8
0
  6
CONTINUOUS
 62
     7
 10
-3007.5219208826
 20
641.4280454238
 30
0.0
  0
VERTEX
  5
885
  8
0
  6
CONTINUOUS
 62
     7
 10
-3006.8602680445
 20
642.2690841008
 30
0.0
  0
VERTEX
  5
886
  8
0
  6
CONTINUOUS
 62
     7
 10
-3006.5629009549
 20
643.176685922
 30
0.0
  0
VERTEX
  5
887
  8
0
  6
CONTINUOUS
 62
     7
 10
-3006.646825867
 20
644.0991356491
 30
0.0
  0
VERTEX
  5
888
  8
0
  6
CONTINUOUS
 62
     7
 10
-3007.10720643
 20
644.9837752233
 30
0.0
  0
VERTEX
  5
889
  8
0
  6
CONTINUOUS
 62
     7
 10
-3007.9178167674
 20
645.7801728591
 30
0.0
  0
VERTEX
  5
88A
  8
0
  6
CONTINUOUS
 62
     7
 10
-3009.0324112497
 20
646.4429089279
 30
0.0
  0
VERTEX
  5
88B
  8
0
  6
CONTINUOUS
 62
     7
 10
-3010.3874324293
 20
646.9341732767
 30
0.0
  0
VERTEX
  5
88C
  8
0
  6
CONTINUOUS
 62
     7
 10
-3011.9055935228
 20
647.2259550055
 30
0.0
  0
VERTEX
  5
88D
  8
0
  6
CONTINUOUS
 62
     7
 10
-3013.5002827565
 20
647.3016118077
 30
0.0
  0
SEQEND
  5
88E
  8
0
  6
CONTINUOUS
 62
     7
  0
LINE
  5
416
  8
0
  6
CONTINUOUS
 62
     7
 10
-3025.1491027024
 20
631.0961048315
 30
0.0
 11
-3008.5101591131
 21
640.7015625077
 31
0.0
  0
ARC
  5
417
  8
0
  6
CONTINUOUS
 62
     7
 10
-3029.6553619034
 20
639.5151181057
 30
0.0
 40
9.54914428089718
 50
270.1270895905
 51
298.1578230885
  0
LINE
  5
418
  8
0
  6
CONTINUOUS
 62
     7
 10
-3071.1749574895
 20
629.0614976794
 30
0.0
 11
-3029.6341806602
 21
629.9659973162
 31
0.0
  0
ARC
  5
419
  8
0
  6
CONTINUOUS
 62
     7
 10
-3071.1637747213
 20
624.002066612
 30
0.0
 40
5.059443425878802
 50
90.1266396097
 51
118.1584762493
  0
LINE
  5
41A
  8
0
  6
CONTINUOUS
 62
     7
 10
-3076.9227339551
 20
626.516465628
 30
0.0
 11
-3073.5513864693
 21
628.4627031048
 31
0.0
  0
ARC
  5
41B
  8
0
  6
CONTINUOUS
 62
     7
 10
-3079.008685652
 20
630.5424206793
 30
0.0
 40
4.534259427612908
 50
242.6098207867
 51
297.3898450618
  0
LINE
  5
41C
  8
0
  6
CONTINUOUS
 62
     7
 10
-3084.9837402013
 20
628.7615955268
 30
0.0
 11
-3081.0946608284
 21
626.5164777935
 31
0.0
  0
LINE
  5
41D
  8
0
  6
CONTINUOUS
 62
     7
 10
-3029.6228853048
 20
629.5479777022
 30
0.0
 11
-3071.1636410606
 21
628.6434902308
 31
0.0
  0
LINE
  5
41E
  8
0
  6
CONTINUOUS
 62
     7
 10
-3071.1636410606
 20
625.8672531447
 30
0.0
 11
-3029.6228853048
 21
626.771740616
 31
0.0
  0
LINE
  5
41F
  8
0
  6
CONTINUOUS
 62
     7
 10
-3029.6341806602
 20
626.6998517844
 30
0.0
 11
-3071.1749574895
 21
625.7953521476
 31
0.0
  0
ARC
  5
420
  8
0
  6
CONTINUOUS
 62
     7
 10
-3079.0087079285
 20
630.5844774206
 30
0.0
 40
4.995421750005877
 50
242.6102436511
 51
297.389756349
  0
ARC
  5
421
  8
0
  6
CONTINUOUS
 62
     7
 10
-3079.0087079285
 20
627.8082403344
 30
0.0
 40
4.995421750004781
 50
242.6102436511
 51
297.389756349
  0
LINE
  5
422
  8
0
  6
CONTINUOUS
 62
     7
 10
-3081.3068069904
 20
626.1490541982
 30
0.0
 11
-3085.1958863633
 21
628.3941719315
 31
0.0
  0
LINE
  5
423
  8
0
  6
CONTINUOUS
 62
     7
 10
-3073.3392613808
 20
628.0952916749
 30
0.0
 11
-3076.7106088666
 21
626.1490541982
 31
0.0
  0
LINE
  5
424
  8
0
  6
CONTINUOUS
 62
     7
 10
-3085.1958863633
 20
625.6179348453
 30
0.0
 11
-3081.3068069904
 21
623.372817112
 31
0.0
  0
LINE
  5
425
  8
0
  6
CONTINUOUS
 62
     7
 10
-3076.7106088666
 20
623.372817112
 30
0.0
 11
-3073.3392613808
 21
625.3190545887
 31
0.0
  0
ARC
  5
426
  8
0
  6
CONTINUOUS
 62
     7
 10
-3079.008685652
 20
627.2762751475
 30
0.0
 40
4.534259427612908
 50
242.6098207867
 51
297.3898450618
  0
LINE
  5
427
  8
0
  6
CONTINUOUS
 62
     7
 10
-3084.9837402013
 20
625.495449995
 30
0.0
 11
-3085.1958863633
 21
625.6179348453
 31
0.0
  0
LINE
  5
428
  8
0
  6
CONTINUOUS
 62
     7
 10
-3081.0946608284
 20
623.2503322617
 30
0.0
 11
-3084.9837402013
 21
625.495449995
 31
0.0
  0
LINE
  5
429
  8
0
  6
CONTINUOUS
 62
     7
 10
-3073.5513864693
 20
625.196557573
 30
0.0
 11
-3076.9227339551
 21
623.2503200962
 31
0.0
  0
ARC
  5
42A
  8
0
  6
CONTINUOUS
 62
     7
 10
-3071.1533123252
 20
624.0112377446
 30
0.0
 40
4.632264001397463
 50
90.1277546866
 51
118.1574714382
  0
ARC
  5
42B
  8
0
  6
CONTINUOUS
 62
     7
 10
-3071.1533123252
 20
621.2350006585
 30
0.0
 40
4.632264001397563
 50
90.1277546866
 51
118.1574714382
  0
ARC
  5
42C
  8
0
  6
CONTINUOUS
 62
     7
 10
-3084.692363195
 20
629.7208362811
 30
0.0
 40
1.419004537535203
 50
110.7837940721
 51
249.2162059279
  0
LINE
  5
42D
  8
0
  6
CONTINUOUS
 62
     7
 10
-3084.9837612748
 20
631.1699976464
 30
0.0
 11
-3085.1958863633
 21
631.0475006307
 31
0.0
  0
ARC
  5
42E
  8
0
  6
CONTINUOUS
 62
     7
 10
-3084.5211944932
 20
627.106876347
 30
0.0
 40
1.634673029979716
 50
185.6968181972
 51
245.6230444492
  0
ARC
  5
42F
  8
0
  6
CONTINUOUS
 62
     7
 10
-3029.6449652989
 20
639.5244479443
 30
0.0
 40
9.976494675825565
 50
270.1268072152
 51
298.1582206159
  0
ARC
  5
430
  8
0
  6
CONTINUOUS
 62
     7
 10
-3029.6449652989
 20
636.7482108581
 30
0.0
 40
9.976494675825565
 50
270.1268072152
 51
298.1582206159
  0
ARC
  5
431
  8
0
  6
CONTINUOUS
 62
     7
 10
-3071.1637747213
 20
620.7359210802
 30
0.0
 40
5.059443425872832
 50
90.1266396096
 51
118.1584762493
  0
ARC
  5
432
  8
0
  6
CONTINUOUS
 62
     7
 10
-3029.6553619034
 20
636.2489725739
 30
0.0
 40
9.54914428089728
 50
270.1270895905
 51
298.1578230885
  0
LINE
  5
433
  8
0
  6
CONTINUOUS
 62
     7
 10
-3008.2980340245
 20
640.3341510778
 30
0.0
 11
-3024.9369776139
 21
630.7286934016
 31
0.0
  0
LINE
  5
434
  8
0
  6
CONTINUOUS
 62
     7
 10
-3024.9369776139
 20
627.9524563154
 30
0.0
 11
-3008.2980340245
 21
637.5579139916
 31
0.0
  0
LINE
  5
435
  8
0
  6
CONTINUOUS
 62
     7
 10
-3008.2980340245
 20
637.5579139916
 30
0.0
 11
-3008.5101591131
 21
637.4354169759
 31
0.0
  0
LINE
  5
436
  8
0
  6
CONTINUOUS
 62
     7
 10
-3008.5101591131
 20
637.4354169759
 30
0.0
 11
-3025.1491027024
 21
627.8299592997
 31
0.0
  0
POLYLINE
  5
437
  8
0
  6
CONTINUOUS
 62
     7
 66
     1
 10
0.0
 20
0.0
 30
0.0
  0
VERTEX
  5
88F
  8
0
  6
CONTINUOUS
 62
     7
 10
-3008.2972226977
 20
646.0485510731
 30
0.0
  0
VERTEX
  5
890
  8
0
  6
CONTINUOUS
 62
     7
 10
-3007.6791707744
 20
645.6401637085
 30
0.0
  0
VERTEX
  5
891
  8
0
  6
CONTINUOUS
 62
     7
 10
-3006.8322614637
 20
644.8081031179
 30
0.0
  0
VERTEX
  5
892
  8
0
  6
CONTINUOUS
 62
     7
 10
-3006.3512500184
 20
643.8838407419
 30
0.0
  0
VERTEX
  5
893
  8
0
  6
CONTINUOUS
 62
     7
 10
-3006.2635740368
 20
642.9201015492
 30
0.0
  0
VERTEX
  5
894
  8
0
  6
CONTINUOUS
 62
     7
 10
-3006.5742489938
 20
641.9718489474
 30
0.0
  0
VERTEX
  5
895
  8
0
  6
CONTINUOUS
 62
     7
 10
-3007.2655521398
 20
641.093158268
 30
0.0
  0
VERTEX
  5
896
  8
0
  6
CONTINUOUS
 62
     7
 10
-3008.2980340245
 20
640.3341510778
 30
0.0
  0
SEQEND
  5
897
  8
0
  6
CONTINUOUS
 62
     7
  0
ARC
  5
438
  8
0
  6
CONTINUOUS
 62
     7
 10
-3009.6372510518
 20
640.6830863215
 30
0.0
 40
3.400030049476793
 50
293.1963826671
 51
355.4834182118
  0
ARC
  5
439
  8
0
  6
CONTINUOUS
 62
     7
 10
-2634.9456333047
 20
374.19023968
 30
0.0
 40
4.534226142234846
 50
242.6096028593
 51
297.3900629892
  0
ARC
  5
43A
  8
0
  6
CONTINUOUS
 62
     7
 10
-2634.9456555811
 20
374.2322700956
 30
0.0
 40
4.995365090095581
 50
242.6099069336
 51
297.3900930664
  0
ARC
  5
43B
  8
0
  6
CONTINUOUS
 62
     7
 10
-2634.9456555811
 20
371.4560330094
 30
0.0
 40
4.99536509009543
 50
242.6099069336
 51
297.3900930664
  0
POLYLINE
  5
43C
  8
0
  6
CONTINUOUS
 62
     7
 66
     1
 10
0.0
 20
0.0
 30
0.0
  0
VERTEX
  5
898
  8
0
  6
CONTINUOUS
 62
     7
 10
-2609.3483677306
 20
412.8828788938
 30
0.0
  0
VERTEX
  5
899
  8
0
  6
CONTINUOUS
 62
     7
 10
-2608.710928257
 20
412.3573384492
 30
0.0
  0
VERTEX
  5
89A
  8
0
  6
CONTINUOUS
 62
     7
 10
-2608.423307626
 20
411.737637585
 30
0.0
  0
VERTEX
  5
89B
  8
0
  6
CONTINUOUS
 62
     7
 10
-2608.5201610839
 20
411.0985146137
 30
0.0
  0
VERTEX
  5
89C
  8
0
  6
CONTINUOUS
 62
     7
 10
-2608.9898244903
 20
410.5170436098
 30
0.0
  0
VERTEX
  5
89D
  8
0
  6
CONTINUOUS
 62
     7
 10
-2609.7756630175
 20
410.0633886844
 30
0.0
  0
VERTEX
  5
89E
  8
0
  6
CONTINUOUS
 62
     7
 10
-2610.7829094766
 20
409.792257771
 30
0.0
  0
VERTEX
  5
89F
  8
0
  6
CONTINUOUS
 62
     7
 10
-2611.8900228933
 20
409.7363454599
 30
0.0
  0
VERTEX
  5
8A0
  8
0
  6
CONTINUOUS
 62
     7
 10
-2612.9634925882
 20
409.9023853159
 30
0.0
  0
VERTEX
  5
8A1
  8
0
  6
CONTINUOUS
 62
     7
 10
-2613.8738539793
 20
410.2703712912
 30
0.0
  0
VERTEX
  5
8A2
  8
0
  6
CONTINUOUS
 62
     7
 10
-2614.5112934529
 20
410.7959117359
 30
0.0
  0
VERTEX
  5
8A3
  8
0
  6
CONTINUOUS
 62
     7
 10
-2614.7989351573
 20
411.4156247654
 30
0.0
  0
VERTEX
  5
8A4
  8
0
  6
CONTINUOUS
 62
     7
 10
-2614.7020816994
 20
412.0547477368
 30
0.0
  0
VERTEX
  5
8A5
  8
0
  6
CONTINUOUS
 62
     7
 10
-2614.2323972196
 20
412.6362065753
 30
0.0
  0
VERTEX
  5
8A6
  8
0
  6
CONTINUOUS
 62
     7
 10
-2613.4465586924
 20
413.0898615007
 30
0.0
  0
VERTEX
  5
8A7
  8
0
  6
CONTINUOUS
 62
     7
 10
-2612.4393333067
 20
413.3610045794
 30
0.0
  0
VERTEX
  5
8A8
  8
0
  6
CONTINUOUS
 62
     7
 10
-2611.33221989
 20
413.4169168905
 30
0.0
  0
VERTEX
  5
8A9
  8
0
  6
CONTINUOUS
 62
     7
 10
-2610.2587291217
 20
413.2508648691
 30
0.0
  0
VERTEX
  5
8AA
  8
0
  6
CONTINUOUS
 62
     7
 10
-2609.3483677306
 20
412.8828788938
 30
0.0
  0
SEQEND
  5
8AB
  8
0
  6
CONTINUOUS
 62
     7
  0
POLYLINE
  5
43D
  8
0
  6
CONTINUOUS
 62
     7
 66
     1
 10
0.0
 20
0.0
 30
0.0
  0
VERTEX
  5
8AC
  8
0
  6
CONTINUOUS
 62
     7
 10
-2627.0260309382
 20
402.6777811457
 30
0.0
  0
VERTEX
  5
8AD
  8
0
  6
CONTINUOUS
 62
     7
 10
-2626.3886020013
 20
402.1522346183
 30
0.0
  0
VERTEX
  5
8AE
  8
0
  6
CONTINUOUS
 62
     7
 10
-2626.1009708337
 20
401.5325398369
 30
0.0
  0
VERTEX
  5
8AF
  8
0
  6
CONTINUOUS
 62
     7
 10
-2626.1978242915
 20
400.8934168655
 30
0.0
  0
VERTEX
  5
8B0
  8
0
  6
CONTINUOUS
 62
     7
 10
-2626.6674876979
 20
400.3119458616
 30
0.0
  0
VERTEX
  5
8B1
  8
0
  6
CONTINUOUS
 62
     7
 10
-2627.4533367618
 20
399.8582848535
 30
0.0
  0
VERTEX
  5
8B2
  8
0
  6
CONTINUOUS
 62
     7
 10
-2628.460583221
 20
399.5871539402
 30
0.0
  0
VERTEX
  5
8B3
  8
0
  6
CONTINUOUS
 62
     7
 10
-2629.5676966377
 20
399.5312416291
 30
0.0
  0
VERTEX
  5
8B4
  8
0
  6
CONTINUOUS
 62
     7
 10
-2630.6411557958
 20
399.6972875678
 30
0.0
  0
VERTEX
  5
8B5
  8
0
  6
CONTINUOUS
 62
     7
 10
-2631.5515277236
 20
400.0652674604
 30
0.0
  0
VERTEX
  5
8B6
  8
0
  6
CONTINUOUS
 62
     7
 10
-2632.1889566605
 20
400.5908139877
 30
0.0
  0
VERTEX
  5
8B7
  8
0
  6
CONTINUOUS
 62
     7
 10
-2632.4766089016
 20
401.2105209346
 30
0.0
  0
VERTEX
  5
8B8
  8
0
  6
CONTINUOUS
 62
     7
 10
-2632.3797554437
 20
401.8496439059
 30
0.0
  0
VERTEX
  5
8B9
  8
0
  6
CONTINUOUS
 62
     7
 10
-2631.9100709639
 20
402.4311027444
 30
0.0
  0
VERTEX
  5
8BA
  8
0
  6
CONTINUOUS
 62
     7
 10
-2631.1242219
 20
402.8847637525
 30
0.0
  0
VERTEX
  5
8BB
  8
0
  6
CONTINUOUS
 62
     7
 10
-2630.1169965143
 20
403.1559068313
 30
0.0
  0
VERTEX
  5
8BC
  8
0
  6
CONTINUOUS
 62
     7
 10
-2629.0098830976
 20
403.2118191424
 30
0.0
  0
VERTEX
  5
8BD
  8
0
  6
CONTINUOUS
 62
     7
 10
-2627.936402866
 20
403.0457610383
 30
0.0
  0
VERTEX
  5
8BE
  8
0
  6
CONTINUOUS
 62
     7
 10
-2627.0260309382
 20
402.6777811457
 30
0.0
  0
SEQEND
  5
8BF
  8
0
  6
CONTINUOUS
 62
     7
  0
POLYLINE
  5
43E
  8
0
  6
CONTINUOUS
 62
     7
 66
     1
 10
0.0
 20
0.0
 30
0.0
  0
VERTEX
  5
8C0
  8
0
  6
CONTINUOUS
 62
     7
 10
-2633.5667792852
 20
374.4096431692
 30
0.0
  0
VERTEX
  5
8C1
  8
0
  6
CONTINUOUS
 62
     7
 10
-2633.0790559542
 20
373.9882570439
 30
0.0
  0
VERTEX
  5
8C2
  8
0
  6
CONTINUOUS
 62
     7
 10
-2632.9077922353
 20
373.4911897855
 30
0.0
  0
VERTEX
  5
8C3
  8
0
  6
CONTINUOUS
 62
     7
 10
-2633.0790559542
 20
372.9941225271
 30
0.0
  0
VERTEX
  5
8C4
  8
0
  6
CONTINUOUS
 62
     7
 10
-2633.5667792852
 20
372.5727364018
 30
0.0
  0
VERTEX
  5
8C5
  8
0
  6
CONTINUOUS
 62
     7
 10
-2634.296741628
 20
372.2911675505
 30
0.0
  0
VERTEX
  5
8C6
  8
0
  6
CONTINUOUS
 62
     7
 10
-2635.1577806696
 20
372.19229911
 30
0.0
  0
VERTEX
  5
8C7
  8
0
  6
CONTINUOUS
 62
     7
 10
-2636.0188197113
 20
372.2911675505
 30
0.0
  0
VERTEX
  5
8C8
  8
0
  6
CONTINUOUS
 62
     7
 10
-2636.7487609806
 20
372.5727242363
 30
0.0
  0
VERTEX
  5
8C9
  8
0
  6
CONTINUOUS
 62
     7
 10
-2637.236505385
 20
372.9941225271
 30
0.0
  0
VERTEX
  5
8CA
  8
0
  6
CONTINUOUS
 62
     7
 10
-2637.407769104
 20
373.4911897855
 30
0.0
  0
VERTEX
  5
8CB
  8
0
  6
CONTINUOUS
 62
     7
 10
-2637.236505385
 20
373.9882570439
 30
0.0
  0
VERTEX
  5
8CC
  8
0
  6
CONTINUOUS
 62
     7
 10
-2636.7487609806
 20
374.4096553346
 30
0.0
  0
VERTEX
  5
8CD
  8
0
  6
CONTINUOUS
 62
     7
 10
-2636.0188197113
 20
374.6912120205
 30
0.0
  0
VERTEX
  5
8CE
  8
0
  6
CONTINUOUS
 62
     7
 10
-2635.1577806696
 20
374.790080461
 30
0.0
  0
VERTEX
  5
8CF
  8
0
  6
CONTINUOUS
 62
     7
 10
-2634.296741628
 20
374.6912120205
 30
0.0
  0
VERTEX
  5
8D0
  8
0
  6
CONTINUOUS
 62
     7
 10
-2633.5667792852
 20
374.4096431692
 30
0.0
  0
SEQEND
  5
8D1
  8
0
  6
CONTINUOUS
 62
     7
  0
POLYLINE
  5
43F
  8
0
  6
CONTINUOUS
 62
     7
 66
     1
 10
0.0
 20
0.0
 30
0.0
  0
VERTEX
  5
8D2
  8
0
  6
CONTINUOUS
 62
     7
 10
-2611.9293037561
 20
386.9006919127
 30
0.0
  0
VERTEX
  5
8D3
  8
0
  6
CONTINUOUS
 62
     7
 10
-2611.4415804251
 20
386.4793057873
 30
0.0
  0
VERTEX
  5
8D4
  8
0
  6
CONTINUOUS
 62
     7
 10
-2611.2703167062
 20
385.982238529
 30
0.0
  0
VERTEX
  5
8D5
  8
0
  6
CONTINUOUS
 62
     7
 10
-2611.4415804251
 20
385.4851712706
 30
0.0
  0
VERTEX
  5
8D6
  8
0
  6
CONTINUOUS
 62
     7
 10
-2611.9293248295
 20
385.0637729798
 30
0.0
  0
VERTEX
  5
8D7
  8
0
  6
CONTINUOUS
 62
     7
 10
-2612.6592660989
 20
384.782216294
 30
0.0
  0
VERTEX
  5
8D8
  8
0
  6
CONTINUOUS
 62
     7
 10
-2613.5203051406
 20
384.6833478535
 30
0.0
  0
VERTEX
  5
8D9
  8
0
  6
CONTINUOUS
 62
     7
 10
-2614.3813441822
 20
384.782216294
 30
0.0
  0
VERTEX
  5
8DA
  8
0
  6
CONTINUOUS
 62
     7
 10
-2615.1112854516
 20
385.0637729798
 30
0.0
  0
VERTEX
  5
8DB
  8
0
  6
CONTINUOUS
 62
     7
 10
-2615.599029856
 20
385.4851712706
 30
0.0
  0
VERTEX
  5
8DC
  8
0
  6
CONTINUOUS
 62
     7
 10
-2615.7702935749
 20
385.982238529
 30
0.0
  0
VERTEX
  5
8DD
  8
0
  6
CONTINUOUS
 62
     7
 10
-2615.599029856
 20
386.4793057873
 30
0.0
  0
VERTEX
  5
8DE
  8
0
  6
CONTINUOUS
 62
     7
 10
-2615.111306525
 20
386.9006919127
 30
0.0
  0
VERTEX
  5
8DF
  8
0
  6
CONTINUOUS
 62
     7
 10
-2614.3813441822
 20
387.182260764
 30
0.0
  0
VERTEX
  5
8E0
  8
0
  6
CONTINUOUS
 62
     7
 10
-2613.5203051406
 20
387.2811292044
 30
0.0
  0
VERTEX
  5
8E1
  8
0
  6
CONTINUOUS
 62
     7
 10
-2612.6592660989
 20
387.182260764
 30
0.0
  0
VERTEX
  5
8E2
  8
0
  6
CONTINUOUS
 62
     7
 10
-2611.9293037561
 20
386.9006919127
 30
0.0
  0
SEQEND
  5
8E3
  8
0
  6
CONTINUOUS
 62
     7
  0
ARC
  5
440
  8
0
  6
CONTINUOUS
 62
     7
 10
-2640.4636497714
 20
373.6136570744
 30
0.0
 40
1.288019267292446
 50
110.7845140987
 51
249.216488573
  0
LINE
  5
441
  8
0
  6
CONTINUOUS
 62
     7
 10
-2637.5493614415
 20
376.7640916118
 30
0.0
 11
-2640.9207089273
 21
374.8178541351
 31
0.0
  0
ARC
  5
442
  8
0
  6
CONTINUOUS
 62
     7
 10
-2638.3208374081
 20
378.4254561084
 30
0.0
 40
1.831749752940566
 50
294.9084049095
 51
350.9071196398
  0
LINE
  5
443
  8
0
  6
CONTINUOUS
 62
     7
 10
-2634.9452973329
 20
402.1169548746
 30
0.0
 11
-2636.5121064262
 21
378.1359748605
 31
0.0
  0
ARC
  5
444
  8
0
  6
CONTINUOUS
 62
     7
 10
-2631.5315556867
 20
401.570551408
 30
0.0
 40
3.457193771701163
 50
114.9095655727
 51
170.9063715227
  0
LINE
  5
445
  8
0
  6
CONTINUOUS
 62
     7
 10
-2616.3487379973
 20
414.3115929435
 30
0.0
 11
-2632.9876815866
 21
404.7061352673
 31
0.0
  0
POLYLINE
  5
446
  8
0
  6
CONTINUOUS
 62
     7
 66
     1
 10
0.0
 20
0.0
 30
0.0
  0
VERTEX
  5
8E4
  8
0
  6
CONTINUOUS
 62
     7
 10
-2604.9158785031
 20
411.4308558824
 30
0.0
  0
VERTEX
  5
8E5
  8
0
  6
CONTINUOUS
 62
     7
 10
-2605.0469341285
 20
412.3514503816
 30
0.0
  0
VERTEX
  5
8E6
  8
0
  6
CONTINUOUS
 62
     7
 10
-2605.5523696726
 20
413.2278661258
 30
0.0
  0
VERTEX
  5
8E7
  8
0
  6
CONTINUOUS
 62
     7
 10
-2606.4033566909
 20
414.0101032025
 30
0.0
  0
VERTEX
  5
8E8
  8
0
  6
CONTINUOUS
 62
     7
 10
-2607.551373624
 20
414.653544901
 30
0.0
  0
VERTEX
  5
8E9
  8
0
  6
CONTINUOUS
 62
     7
 10
-2608.9309242695
 20
415.1215002881
 30
0.0
  0
VERTEX
  5
8EA
  8
0
  6
CONTINUOUS
 62
     7
 10
-2610.4633309978
 20
415.38727233
 30
0.0
  0
VERTEX
  5
8EB
  8
0
  6
CONTINUOUS
 62
     7
 10
-2612.0612339287
 20
415.4357211505
 30
0.0
  0
VERTEX
  5
8EC
  8
0
  6
CONTINUOUS
 62
     7
 10
-2613.6334167452
 20
415.2640547837
 30
0.0
  0
VERTEX
  5
8ED
  8
0
  6
CONTINUOUS
 62
     7
 10
-2615.090296321
 20
414.8820907306
 30
0.0
  0
VERTEX
  5
8EE
  8
0
  6
CONTINUOUS
 62
     7
 10
-2616.3487379973
 20
414.3115929435
 30
0.0
  0
SEQEND
  5
8EF
  8
0
  6
CONTINUOUS
 62
     7
  0
LINE
  5
447
  8
0
  6
CONTINUOUS
 62
     7
 10
-2606.5788034845
 20
385.978382088
 30
0.0
 11
-2604.9158785031
 21
411.4308558824
 31
0.0
  0
ARC
  5
448
  8
0
  6
CONTINUOUS
 62
     7
 10
-2608.0818609101
 20
386.218950094
 30
0.0
 40
1.522187435933895
 50
294.9089971354
 51
350.9067936005
  0
LINE
  5
449
  8
0
  6
CONTINUOUS
 62
     7
 10
-2632.8596816077
 20
370.1643221167
 30
0.0
 11
-2607.4407486834
 21
384.8383597482
 31
0.0
  0
LINE
  5
44A
  8
0
  6
CONTINUOUS
 62
     7
 10
-2640.9206878539
 20
372.4094520154
 30
0.0
 11
-2637.031608481
 21
370.1643342821
 31
0.0
  0
LINE
  5
44B
  8
0
  6
CONTINUOUS
 62
     7
 10
-2607.2286235948
 20
384.4709483183
 30
0.0
 11
-2632.6475565192
 21
369.7969106868
 31
0.0
  0
LINE
  5
44C
  8
0
  6
CONTINUOUS
 62
     7
 10
-2637.243754643
 20
369.7969106868
 30
0.0
 11
-2641.1328340159
 21
372.0420284201
 31
0.0
  0
LINE
  5
44D
  8
0
  6
CONTINUOUS
 62
     7
 10
-2632.6475565192
 20
367.0206736006
 30
0.0
 11
-2607.2286235948
 21
381.6947112322
 31
0.0
  0
LINE
  5
44E
  8
0
  6
CONTINUOUS
 62
     7
 10
-2641.1328340159
 20
369.2657913339
 30
0.0
 11
-2637.243754643
 21
367.0206736006
 31
0.0
  0
ARC
  5
44F
  8
0
  6
CONTINUOUS
 62
     7
 10
-2634.9456333047
 20
370.9240941482
 30
0.0
 40
4.53422614223535
 50
242.6096028593
 51
297.3900629892
  0
LINE
  5
450
  8
0
  6
CONTINUOUS
 62
     7
 10
-2607.4407486834
 20
381.5722142164
 30
0.0
 11
-2607.2286235948
 21
381.6947112322
 31
0.0
  0
LINE
  5
451
  8
0
  6
CONTINUOUS
 62
     7
 10
-2607.4407486834
 20
381.5722142164
 30
0.0
 11
-2632.8596816077
 21
366.8981765849
 31
0.0
  0
LINE
  5
452
  8
0
  6
CONTINUOUS
 62
     7
 10
-2640.9206878539
 20
369.1433064836
 30
0.0
 11
-2641.1328340159
 21
369.2657913339
 31
0.0
  0
LINE
  5
453
  8
0
  6
CONTINUOUS
 62
     7
 10
-2637.031608481
 20
366.8981887503
 30
0.0
 11
-2640.9206878539
 21
369.1433064836
 31
0.0
  0
ARC
  5
454
  8
0
  6
CONTINUOUS
 62
     7
 10
-2640.6292923263
 20
373.3686927697
 30
0.0
 40
1.419011109774605
 50
110.7844932454
 51
249.2155067546
  0
LINE
  5
455
  8
0
  6
CONTINUOUS
 62
     7
 10
-2640.9207089273
 20
374.8178541351
 30
0.0
 11
-2641.1328340159
 21
374.6953571193
 31
0.0
  0
ARC
  5
456
  8
0
  6
CONTINUOUS
 62
     7
 10
-2640.4581869405
 20
370.7546763457
 30
0.0
 40
1.634603087772508
 50
185.6955013989
 51
245.6236573539
  0
ARC
  5
457
  8
0
  6
CONTINUOUS
 62
     7
 10
-2638.4678788303
 20
378.1626588759
 30
0.0
 40
1.677088735017067
 50
294.9104668211
 51
350.9048338399
  0
LINE
  5
458
  8
0
  6
CONTINUOUS
 62
     7
 10
-2636.8118758863
 20
377.897553473
 30
0.0
 11
-2635.2450878663
 21
401.8785213216
 31
0.0
  0
ARC
  5
459
  8
0
  6
CONTINUOUS
 62
     7
 10
-2607.9349102752
 20
385.9919075239
 30
0.0
 40
1.676948949630018
 50
294.9087059981
 51
350.9072840605
  0
ARC
  5
45A
  8
0
  6
CONTINUOUS
 62
     7
 10
-2607.9349102752
 20
383.2156704377
 30
0.0
 40
1.67694894963041
 50
294.9087059981
 51
350.9072840605
  0
LINE
  5
45B
  8
0
  6
CONTINUOUS
 62
     7
 10
-2604.6160985063
 20
411.179374907
 30
0.0
 11
-2606.2790340245
 21
385.7268950299
 31
0.0
  0
LINE
  5
45C
  8
0
  6
CONTINUOUS
 62
     7
 10
-2606.2790340245
 20
382.9506579437
 30
0.0
 11
-2604.6160985063
 21
408.4031378208
 31
0.0
  0
ARC
  5
45D
  8
0
  6
CONTINUOUS
 62
     7
 10
-2631.6785447888
 20
401.3076893997
 30
0.0
 40
3.611935576231679
 50
114.9088784479
 51
170.906824837
  0
LINE
  5
45E
  8
0
  6
CONTINUOUS
 62
     7
 10
-2633.1998066752
 20
404.5836382515
 30
0.0
 11
-2632.9876815866
 21
404.7061352673
 31
0.0
  0
ARC
  5
45F
  8
0
  6
CONTINUOUS
 62
     7
 10
-2608.1580266574
 20
410.9721536277
 30
0.0
 40
3.547984735899858
 50
3.3482853242
 51
65.035173874
  0
LINE
  5
460
  8
0
  6
CONTINUOUS
 62
     7
 10
-2604.6160985063
 20
408.4031378208
 30
0.0
 11
-2604.6111146415
 21
408.5554307422
 31
0.0
  0
ARC
  5
461
  8
0
  6
CONTINUOUS
 62
     7
 10
-2634.9456333047
 20
-119.0004124511
 30
0.0
 40
4.534226142235426
 50
242.6096028593
 51
297.3900629892
  0
ARC
  5
462
  8
0
  6
CONTINUOUS
 62
     7
 10
-2634.9456555811
 20
-118.9583820355
 30
0.0
 40
4.995365090095531
 50
242.6099069336
 51
297.3900930664
  0
ARC
  5
463
  8
0
  6
CONTINUOUS
 62
     7
 10
-2634.9456555811
 20
-121.7346191217
 30
0.0
 40
4.995365090095481
 50
242.6099069336
 51
297.3900930664
  0
POLYLINE
  5
464
  8
0
  6
CONTINUOUS
 62
     7
 66
     1
 10
0.0
 20
0.0
 30
0.0
  0
VERTEX
  5
8F0
  8
0
  6
CONTINUOUS
 62
     7
 10
-2641.0847233883
 20
-118.4756080354
 30
0.0
  0
VERTEX
  5
8F1
  8
0
  6
CONTINUOUS
 62
     7
 10
-2641.2875761702
 20
-118.6308632387
 30
0.0
  0
VERTEX
  5
8F2
  8
0
  6
CONTINUOUS
 62
     7
 10
-2641.5601819864
 20
-118.9252909483
 30
0.0
  0
VERTEX
  5
8F3
  8
0
  6
CONTINUOUS
 62
     7
 10
-2641.728052884
 20
-119.2447551106
 30
0.0
  0
VERTEX
  5
8F4
  8
0
  6
CONTINUOUS
 62
     7
 10
-2641.7847193218
 20
-119.5770051386
 30
0.0
  0
VERTEX
  5
8F5
  8
0
  6
CONTINUOUS
 62
     7
 10
-2641.7280318106
 20
-119.9092430011
 30
0.0
  0
VERTEX
  5
8F6
  8
0
  6
CONTINUOUS
 62
     7
 10
-2641.5601609129
 20
-120.2287071634
 30
0.0
  0
VERTEX
  5
8F7
  8
0
  6
CONTINUOUS
 62
     7
 10
-2641.2875550968
 20
-120.523134873
 30
0.0
  0
VERTEX
  5
8F8
  8
0
  6
CONTINUOUS
 62
     7
 10
-2640.9206878539
 20
-120.7812001157
 30
0.0
  0
SEQEND
  5
8F9
  8
0
  6
CONTINUOUS
 62
     7
  0
LINE
  5
465
  8
0
  6
CONTINUOUS
 62
     7
 10
-2606.5788034845
 20
-107.2122700431
 30
0.0
 11
-2605.4472659691
 21
-89.8930423843
 31
0.0
  0
ARC
  5
466
  8
0
  6
CONTINUOUS
 62
     7
 10
-2608.0818609101
 20
-106.9717020371
 30
0.0
 40
1.522187435933844
 50
294.9089971354
 51
350.9067936005
  0
LINE
  5
467
  8
0
  6
CONTINUOUS
 62
     7
 10
-2632.8596816077
 20
-123.0263300144
 30
0.0
 11
-2607.4407486834
 21
-108.3522923829
 31
0.0
  0
LINE
  5
468
  8
0
  6
CONTINUOUS
 62
     7
 10
-2640.9206878539
 20
-120.7812001157
 30
0.0
 11
-2637.031608481
 21
-123.026317849
 31
0.0
  0
LINE
  5
469
  8
0
  6
CONTINUOUS
 62
     7
 10
-2607.2286235948
 20
-108.7197038128
 30
0.0
 11
-2632.6475565192
 21
-123.3937414443
 31
0.0
  0
LINE
  5
46A
  8
0
  6
CONTINUOUS
 62
     7
 10
-2637.243754643
 20
-123.3937414443
 30
0.0
 11
-2641.1328340159
 21
-121.148623711
 31
0.0
  0
LINE
  5
46B
  8
0
  6
CONTINUOUS
 62
     7
 10
-2632.6475565192
 20
-126.1699785305
 30
0.0
 11
-2607.2286235948
 21
-111.4959408989
 31
0.0
  0
LINE
  5
46C
  8
0
  6
CONTINUOUS
 62
     7
 10
-2641.1328340159
 20
-123.9248607972
 30
0.0
 11
-2637.243754643
 21
-126.1699785305
 31
0.0
  0
ARC
  5
46D
  8
0
  6
CONTINUOUS
 62
     7
 10
-2634.9456333047
 20
-122.2665579829
 30
0.0
 40
4.534226142235439
 50
242.6096028593
 51
297.3900629892
  0
LINE
  5
46E
  8
0
  6
CONTINUOUS
 62
     7
 10
-2607.4407486834
 20
-111.6184379147
 30
0.0
 11
-2607.2286235948
 21
-111.4959408989
 31
0.0
  0
LINE
  5
46F
  8
0
  6
CONTINUOUS
 62
     7
 10
-2607.4407486834
 20
-111.6184379147
 30
0.0
 11
-2632.8596816077
 21
-126.2924755462
 31
0.0
  0
LINE
  5
470
  8
0
  6
CONTINUOUS
 62
     7
 10
-2640.9206878539
 20
-124.0473456475
 30
0.0
 11
-2641.1328340159
 21
-123.9248607972
 31
0.0
  0
LINE
  5
471
  8
0
  6
CONTINUOUS
 62
     7
 10
-2637.031608481
 20
-126.2924633808
 30
0.0
 11
-2640.9206878539
 21
-124.0473456475
 31
0.0
  0
ARC
  5
472
  8
0
  6
CONTINUOUS
 62
     7
 10
-2640.6292923263
 20
-119.8219593614
 30
0.0
 40
1.41901110977443
 50
110.7844932454
 51
249.2155067546
  0
LINE
  5
473
  8
0
  6
CONTINUOUS
 62
     7
 10
-2641.0847444617
 20
-118.4675244783
 30
0.0
 11
-2641.1328340159
 21
-118.4952950118
 31
0.0
  0
ARC
  5
474
  8
0
  6
CONTINUOUS
 62
     7
 10
-2640.4581869405
 20
-122.4359757854
 30
0.0
 40
1.634603087772497
 50
185.6955013989
 51
245.6236573539
  0
ARC
  5
475
  8
0
  6
CONTINUOUS
 62
     7
 10
-2607.9349102752
 20
-107.1987446072
 30
0.0
 40
1.676948949630439
 50
294.9087059981
 51
350.9072840605
  0
ARC
  5
476
  8
0
  6
CONTINUOUS
 62
     7
 10
-2607.9349102752
 20
-109.9749816934
 30
0.0
 40
1.676948949630403
 50
294.9087059981
 51
350.9072840605
  0
LINE
  5
477
  8
0
  6
CONTINUOUS
 62
     7
 10
-2605.118657528
 20
-89.7033319161
 30
0.0
 11
-2606.2790340245
 21
-107.4637571012
 31
0.0
  0
LINE
  5
478
  8
0
  6
CONTINUOUS
 62
     7
 10
-2606.2790340245
 20
-110.2399941874
 30
0.0
 11
-2604.9301452113
 21
-89.5945192966
 31
0.0
  0
POLYLINE
  5
479
  8
0
  6
CONTINUOUS
 62
     7
 66
     1
 10
0.0
 20
0.0
 30
0.0
  0
VERTEX
  5
8FA
  8
0
  6
CONTINUOUS
 62
     7
 10
-3085.1477968092
 20
137.8765476414
 30
0.0
  0
VERTEX
  5
8FB
  8
0
  6
CONTINUOUS
 62
     7
 10
-3085.3506285176
 20
137.7212802726
 30
0.0
  0
VERTEX
  5
8FC
  8
0
  6
CONTINUOUS
 62
     7
 10
-3085.6232343338
 20
137.426852563
 30
0.0
  0
VERTEX
  5
8FD
  8
0
  6
CONTINUOUS
 62
     7
 10
-3085.7911052314
 20
137.1073884008
 30
0.0
  0
VERTEX
  5
8FE
  8
0
  6
CONTINUOUS
 62
     7
 10
-3085.8477927426
 20
136.7751505382
 30
0.0
  0
VERTEX
  5
8FF
  8
0
  6
CONTINUOUS
 62
     7
 10
-3085.7911052314
 20
136.4429126757
 30
0.0
  0
VERTEX
  5
900
  8
0
  6
CONTINUOUS
 62
     7
 10
-3085.6232132604
 20
136.123436348
 30
0.0
  0
VERTEX
  5
901
  8
0
  6
CONTINUOUS
 62
     7
 10
-3085.3506074442
 20
135.8290086384
 30
0.0
  0
VERTEX
  5
902
  8
0
  6
CONTINUOUS
 62
     7
 10
-3084.9837402013
 20
135.5709433957
 30
0.0
  0
SEQEND
  5
903
  8
0
  6
CONTINUOUS
 62
     7
  0
LINE
  5
47A
  8
0
  6
CONTINUOUS
 62
     7
 10
-3071.1749574895
 20
135.8708455483
 30
0.0
 11
-3066.7403925297
 21
135.9674147227
 31
0.0
  0
ARC
  5
47B
  8
0
  6
CONTINUOUS
 62
     7
 10
-3071.1637747213
 20
130.8114144809
 30
0.0
 40
5.059443425872942
 50
90.1266396096
 51
118.1584762493
  0
LINE
  5
47C
  8
0
  6
CONTINUOUS
 62
     7
 10
-3076.9227339551
 20
133.3258134969
 30
0.0
 11
-3073.5513864693
 21
135.2720509737
 31
0.0
  0
ARC
  5
47D
  8
0
  6
CONTINUOUS
 62
     7
 10
-3079.008685652
 20
137.3517685482
 30
0.0
 40
4.534259427614095
 50
242.6098207867
 51
297.3898450618
  0
LINE
  5
47E
  8
0
  6
CONTINUOUS
 62
     7
 10
-3084.9837402013
 20
135.5709433957
 30
0.0
 11
-3081.0946608284
 21
133.3258256624
 31
0.0
  0
LINE
  5
47F
  8
0
  6
CONTINUOUS
 62
     7
 10
-3066.7403925297
 20
135.5491518001
 30
0.0
 11
-3071.1636410606
 21
135.4528380997
 31
0.0
  0
LINE
  5
480
  8
0
  6
CONTINUOUS
 62
     7
 10
-3071.1636410606
 20
132.6766010136
 30
0.0
 11
-3066.5843227497
 21
132.7762967032
 31
0.0
  0
LINE
  5
481
  8
0
  6
CONTINUOUS
 62
     7
 10
-3066.558212777
 20
132.7052229553
 30
0.0
 11
-3071.1749574895
 21
132.6047000165
 31
0.0
  0
ARC
  5
482
  8
0
  6
CONTINUOUS
 62
     7
 10
-3079.0087079285
 20
137.3938252895
 30
0.0
 40
4.995421750006205
 50
242.6102436511
 51
297.3897563489
  0
ARC
  5
483
  8
0
  6
CONTINUOUS
 62
     7
 10
-3079.0087079285
 20
134.6175882033
 30
0.0
 40
4.995421750006598
 50
242.6102436511
 51
297.389756349
  0
LINE
  5
484
  8
0
  6
CONTINUOUS
 62
     7
 10
-3081.3068069904
 20
132.9584020671
 30
0.0
 11
-3085.1958863633
 21
135.2035198004
 31
0.0
  0
LINE
  5
485
  8
0
  6
CONTINUOUS
 62
     7
 10
-3073.3392613808
 20
134.9046395438
 30
0.0
 11
-3076.7106088666
 21
132.9584020671
 31
0.0
  0
LINE
  5
486
  8
0
  6
CONTINUOUS
 62
     7
 10
-3085.1958863633
 20
132.4272827142
 30
0.0
 11
-3081.3068069904
 21
130.1821649809
 31
0.0
  0
LINE
  5
487
  8
0
  6
CONTINUOUS
 62
     7
 10
-3076.7106088666
 20
130.1821649809
 30
0.0
 11
-3073.3392613808
 21
132.1284024576
 31
0.0
  0
ARC
  5
488
  8
0
  6
CONTINUOUS
 62
     7
 10
-3079.008685652
 20
134.0856230164
 30
0.0
 40
4.534259427612933
 50
242.6098207867
 51
297.3898450618
  0
LINE
  5
489
  8
0
  6
CONTINUOUS
 62
     7
 10
-3084.9837402013
 20
132.3047978639
 30
0.0
 11
-3085.1958863633
 21
132.4272827142
 31
0.0
  0
LINE
  5
48A
  8
0
  6
CONTINUOUS
 62
     7
 10
-3081.0946608284
 20
130.0596801306
 30
0.0
 11
-3084.9837402013
 21
132.3047978639
 31
0.0
  0
LINE
  5
48B
  8
0
  6
CONTINUOUS
 62
     7
 10
-3073.5513864693
 20
132.0059054419
 30
0.0
 11
-3076.9227339551
 21
130.0596679651
 31
0.0
  0
ARC
  5
48C
  8
0
  6
CONTINUOUS
 62
     7
 10
-3071.1533123252
 20
130.8205856135
 30
0.0
 40
4.632264001397512
 50
90.1277546866
 51
118.1574714382
  0
ARC
  5
48D
  8
0
  6
CONTINUOUS
 62
     7
 10
-3071.1533123252
 20
128.0443485274
 30
0.0
 40
4.632264001397512
 50
90.1277546866
 51
118.1574714382
  0
ARC
  5
48E
  8
0
  6
CONTINUOUS
 62
     7
 10
-3084.692363195
 20
136.53018415
 30
0.0
 40
1.419004537534936
 50
110.7837940721
 51
249.2162059279
  0
LINE
  5
48F
  8
0
  6
CONTINUOUS
 62
     7
 10
-3085.1477968092
 20
137.8846190331
 30
0.0
 11
-3085.1958863633
 21
137.8568484996
 31
0.0
  0
ARC
  5
490
  8
0
  6
CONTINUOUS
 62
     7
 10
-3084.5211944932
 20
133.9162242159
 30
0.0
 40
1.63467302997956
 50
185.6968181972
 51
245.6230444492
  0
ARC
  5
491
  8
0
  6
CONTINUOUS
 62
     7
 10
-3071.1637747213
 20
127.5452689491
 30
0.0
 40
5.059443425872908
 50
90.1266396096
 51
118.1584762493
  0
ARC
  5
492
  8
0
  6
CONTINUOUS
 62
     7
 10
-3065.8782462442
 20
616.327626425
 30
0.0
 40
0.8734321449597492
 50
50.7987844357
 51
189.2119673191
  0
LINE
  5
493
  8
0
  6
CONTINUOUS
 62
     7
 10
-2647.426074995
 20
375.7558707267
 30
0.0
 11
-3065.3261971748
 21
617.0044761401
 31
0.0
  0
ARC
  5
494
  8
0
  6
CONTINUOUS
 62
     7
 10
-2649.0823222403
 20
373.1666651838
 30
0.0
 40
3.073620061189531
 50
2.6054939595
 51
57.3940132303
  0
LINE
  5
495
  8
0
  6
CONTINUOUS
 62
     7
 10
-2646.0118796401
 20
-109.2692483744
 30
0.0
 11
-2646.0118796401
 21
373.3063881925
 31
0.0
  0
ARC
  5
496
  8
0
  6
CONTINUOUS
 62
     7
 10
-2646.8740259475
 20
-109.4091061174
 30
0.0
 40
0.8734165351169485
 50
230.7979510998
 51
9.2142793621
  0
LINE
  5
497
  8
0
  6
CONTINUOUS
 62
     7
 10
-3065.3261971748
 20
131.1626697066
 30
0.0
 11
-2647.426074995
 21
-110.0859357068
 31
0.0
  0
ARC
  5
498
  8
0
  6
CONTINUOUS
 62
     7
 10
-3063.669861625
 20
133.7519519538
 30
0.0
 40
3.073732260424959
 50
182.6066030667
 51
237.3933970789
  0
LINE
  5
499
  8
0
  6
CONTINUOUS
 62
     7
 10
-3066.7404136031
 20
616.1878009731
 30
0.0
 11
-3066.7404136031
 21
133.6121644063
 31
0.0
  0
ARC
  5
49A
  8
0
  6
CONTINUOUS
 62
     7
 10
-2646.9609870611
 20
374.391285916
 30
0.0
 40
3.073620061189872
 50
2.6054939595
 51
57.3940132303
  0
LINE
  5
49B
  8
0
  6
CONTINUOUS
 62
     7
 10
-2643.8905444608
 20
-108.0446276422
 30
0.0
 11
-2643.8905444608
 21
374.5310089247
 31
0.0
  0
LINE
  5
49C
  8
0
  6
CONTINUOUS
 62
     7
 10
-2645.3047398157
 20
376.9804914589
 30
0.0
 11
-3063.2048619955
 21
618.2290968723
 31
0.0
  0
ARC
  5
49D
  8
0
  6
CONTINUOUS
 62
     7
 10
-2644.8419264705
 20
-108.1657644687
 30
0.0
 40
0.959063011002635
 50
304.0575482739
 51
7.2562670289
  0
ARC
  5
49E
  8
0
  6
CONTINUOUS
 62
     7
 10
-3063.7907042674
 20
617.4112287371
 30
0.0
 40
1.006041477346226
 50
54.3858207842
 51
114.3043818724
  0
ARC
  5
49F
  8
0
  6
CONTINUOUS
 62
     7
 10
-2642.458300434
 20
377.2491932305
 30
0.0
 40
2.835657196239232
 50
238.6299345236
 51
317.8788284431
  0
LINE
  5
4A0
  8
0
  6
CONTINUOUS
 62
     7
 10
-2644.1633610112
 20
375.5980209998
 30
0.0
 11
-2643.5369745486
 21
375.9596262077
 31
0.0
  0
ARC
  5
4A1
  8
0
  6
CONTINUOUS
 62
     7
 10
-2642.4763280324
 20
376.495276019
 30
0.0
 40
1.188230513303289
 50
206.7947794053
 51
333.2052205947
  0
LINE
  5
4A2
  8
0
  6
CONTINUOUS
 62
     7
 10
-2640.3550139266
 20
375.3473158416
 30
0.0
 11
-2641.4156815162
 21
375.9596262077
 31
0.0
  0
ARC
  5
4A3
  8
0
  6
CONTINUOUS
 62
     7
 10
-2642.4743733421
 20
-88.2210093487
 30
0.0
 40
18.2881991781888
 50
265.7754872744
 51
274.3578865791
  0
ARC
  5
4A4
  8
0
  6
CONTINUOUS
 62
     7
 10
-2642.2023046883
 20
376.8359769126
 30
0.0
 40
2.867485762866119
 50
102.6423979039
 51
180.9297947841
  0
LINE
  5
4A5
  8
0
  6
CONTINUOUS
 62
     7
 10
-2642.8298979446
 20
378.4091209073
 30
0.0
 11
-2642.8298979446
 21
379.633940691
 31
0.0
  0
ARC
  5
4A6
  8
0
  6
CONTINUOUS
 62
     7
 10
-2642.8963447396
 20
377.2227548809
 30
0.0
 40
1.188225367983579
 50
86.7942883016
 51
213.2057115527
  0
LINE
  5
4A7
  8
0
  6
CONTINUOUS
 62
     7
 10
-2643.8905444608
 20
376.5720272577
 30
0.0
 11
-2644.5174999058
 21
376.2100935833
 31
0.0
  0
ARC
  5
4A8
  8
0
  6
CONTINUOUS
 62
     7
 10
-3038.3878261496
 20
605.5825988448
 30
0.0
 40
26.26481086518618
 50
145.4597992288
 51
153.3624629371
  0
ARC
  5
4A9
  8
0
  6
CONTINUOUS
 62
     7
 10
-2643.393895675
 20
377.5431284162
 30
0.0
 40
3.74918593073501
 50
324.1491572027
 51
357.6379774989
  0
LINE
  5
4AA
  8
0
  6
CONTINUOUS
 62
     7
 10
-2636.7352739891
 20
379.0700321617
 30
0.0
 11
-2639.6478951757
 21
377.3886117407
 31
0.0
  0
ARC
  5
4AB
  8
0
  6
CONTINUOUS
 62
     7
 10
-2644.4545632646
 20
378.1554387823
 30
0.0
 40
3.74918593072911
 50
324.1491572027
 51
357.637977499
  0
LINE
  5
4AC
  8
0
  6
CONTINUOUS
 62
     7
 10
-2639.6478951757
 20
377.3886117407
 30
0.0
 11
-2640.7085627654
 21
378.0009221068
 31
0.0
  0
ARC
  5
4AD
  8
0
  6
CONTINUOUS
 62
     7
 10
-3061.169293468
 20
620.6288536589
 30
0.0
 40
1.15675875075731
 50
352.3235494633
 51
67.6798555227
  0
LINE
  5
4AE
  8
0
  6
CONTINUOUS
 62
     7
 10
-3060.7299779775
 20
621.6989437053
 30
0.0
 11
-3052.9517981583
 21
626.1891913373
 31
0.0
  0
LINE
  5
4AF
  8
0
  6
CONTINUOUS
 62
     7
 10
-3052.9517981583
 20
626.1891913373
 30
0.0
 11
-2636.3044699771
 21
385.6638085051
 31
0.0
  0
LINE
  5
4B0
  8
0
  6
CONTINUOUS
 62
     7
 10
-2640.7085627654
 20
379.2257418905
 30
0.0
 11
-2636.5689835983
 21
381.6154700769
 31
0.0
  0
ARC
  5
4B1
  8
0
  6
CONTINUOUS
 62
     7
 10
-2642.4476757107
 20
375.9040837464
 30
0.0
 40
3.749390172142268
 50
62.3648976657
 51
95.851039674
  0
LINE
  5
4B2
  8
0
  6
CONTINUOUS
 62
     7
 10
-2640.7085627654
 20
378.0009221068
 30
0.0
 11
-2640.7085627654
 21
379.2257418905
 31
0.0
  0
ARC
  5
4B3
  8
0
  6
CONTINUOUS
 62
     7
 10
-2642.4476757107
 20
374.6792639627
 30
0.0
 40
3.749390172142362
 50
62.3648976657
 51
95.851039674
  0
LINE
  5
4B4
  8
0
  6
CONTINUOUS
 62
     7
 10
-2640.7085627654
 20
378.0009221068
 30
0.0
 11
-2636.6521393304
 21
380.3426455108
 31
0.0
  0
ARC
  5
4B5
  8
0
  6
CONTINUOUS
 62
     7
 10
-2639.9908470096
 20
378.4152512702
 30
0.0
 40
4.313364692533125
 50
205.298144244
 51
214.7018559016
  0
LINE
  5
4B6
  8
0
  6
CONTINUOUS
 62
     7
 10
-3060.7299779775
 20
621.6989437053
 30
0.0
 11
-3060.7299779775
 21
620.4741239216
 31
0.0
  0
ARC
  5
4B7
  8
0
  6
CONTINUOUS
 62
     7
 10
-3061.5997657718
 20
618.9101317179
 30
0.0
 40
1.789581632701198
 50
40.8091004751
 51
60.9201167628
  0
ARC
  5
4B8
  8
0
  6
CONTINUOUS
 62
     7
 10
-2643.7625741671
 20
-104.3795704503
 30
0.0
 40
3.584810948744927
 50
267.459382881
 51
285.0804137317
  0
ARC
  5
4B9
  8
0
  6
CONTINUOUS
 62
     7
 10
-2643.0981698819
 20
-104.1422553935
 30
0.0
 40
2.48835476027123
 50
250.3889472122
 51
276.1891428296
  0
LINE
  5
4BA
  8
0
  6
CONTINUOUS
 62
     7
 10
-2642.8298979446
 20
-106.6161065573
 30
0.0
 11
-2642.8298979446
 21
-107.840926341
 31
0.0
  0
ARC
  5
4BB
  8
0
  6
CONTINUOUS
 62
     7
 10
-3059.9692338435
 20
616.508925061
 30
0.0
 40
3.581318807878191
 50
134.9130864801
 51
152.5561399734
  0
LINE
  5
4BC
  8
0
  6
CONTINUOUS
 62
     7
 10
-3062.497764318
 20
619.0451383885
 30
0.0
 11
-3061.4370967284
 21
618.4328280224
 31
0.0
  0
ARC
  5
4BD
  8
0
  6
CONTINUOUS
 62
     7
 10
-3059.429028209
 20
616.9635405982
 30
0.0
 40
2.488201099898355
 50
143.8073688671
 51
169.6106761483
  0
ARC
  5
4BE
  8
0
  6
CONTINUOUS
 62
     7
 10
-2642.4587978714
 20
-111.7649829483
 30
0.0
 40
3.941565110738381
 50
69.5975951128
 51
95.4024242078
  0
ARC
  5
4BF
  8
0
  6
CONTINUOUS
 62
     7
 10
-3064.4759784767
 20
620.628640597
 30
0.0
 40
3.74918593072486
 50
324.1491572026
 51
357.637977499
  0
LINE
  5
4C0
  8
0
  6
CONTINUOUS
 62
     7
 10
-3060.7299779775
 20
620.4741239216
 30
0.0
 11
-3061.7906455671
 21
621.0864342877
 31
0.0
  0
ARC
  5
4C1
  8
0
  6
CONTINUOUS
 62
     7
 10
-3065.5366460664
 20
621.2409509631
 30
0.0
 40
3.749185930725229
 50
324.1491572026
 51
357.637977499
  0
LINE
  5
4C2
  8
0
  6
CONTINUOUS
 62
     7
 10
-3060.7299990509
 20
621.6987324884
 30
0.0
 11
-3061.7906455671
 21
621.0864342877
 31
0.0
  0
POLYLINE
  5
4C3
  8
0
  6
CONTINUOUS
 62
     7
 66
     1
 10
0.0
 20
0.0
 30
0.0
  0
VERTEX
  5
904
  8
0
  6
CONTINUOUS
 62
     7
 10
-2714.7232927602
 20
565.4689362259
 30
0.0
  0
VERTEX
  5
905
  8
0
  6
CONTINUOUS
 62
     7
 10
-2714.9252314823
 20
566.7948356742
 30
0.0
  0
VERTEX
  5
906
  8
0
  6
CONTINUOUS
 62
     7
 10
-2715.4979992511
 20
568.4899315579
 30
0.0
  0
VERTEX
  5
907
  8
0
  6
CONTINUOUS
 62
     7
 10
-2716.4140366373
 20
570.1340204596
 30
0.0
  0
VERTEX
  5
908
  8
0
  6
CONTINUOUS
 62
     7
 10
-2717.6604753521
 20
571.7040289325
 30
0.0
  0
VERTEX
  5
909
  8
0
  6
CONTINUOUS
 62
     7
 10
-2719.2198293924
 20
573.1779099882
 30
0.0
  0
VERTEX
  5
90A
  8
0
  6
CONTINUOUS
 62
     7
 10
-2721.0701993545
 20
574.5349800214
 30
0.0
  0
VERTEX
  5
90B
  8
0
  6
CONTINUOUS
 62
     7
 10
-2723.1856165235
 20
575.7561843591
 30
0.0
  0
VERTEX
  5
90C
  8
0
  6
CONTINUOUS
 62
     7
 10
-2725.5363854812
 20
576.824380201
 30
0.0
  0
VERTEX
  5
90D
  8
0
  6
CONTINUOUS
 62
     7
 10
-2728.0894989891
 20
577.7245761272
 30
0.0
  0
VERTEX
  5
90E
  8
0
  6
CONTINUOUS
 62
     7
 10
-2730.8091281101
 20
578.4441298811
 30
0.0
  0
VERTEX
  5
90F
  8
0
  6
CONTINUOUS
 62
     7
 10
-2733.6570822016
 20
578.972947008
 30
0.0
  0
VERTEX
  5
910
  8
0
  6
CONTINUOUS
 62
     7
 10
-2736.5933925513
 20
579.3035988028
 30
0.0
  0
VERTEX
  5
911
  8
0
  6
CONTINUOUS
 62
     7
 10
-2739.5768388827
 20
579.4314437742
 30
0.0
  0
VERTEX
  5
912
  8
0
  6
CONTINUOUS
 62
     7
 10
-2742.5655338137
 20
579.3546913231
 30
0.0
  0
VERTEX
  5
913
  8
0
  6
CONTINUOUS
 62
     7
 10
-2745.5175267423
 20
579.0744158089
 30
0.0
  0
VERTEX
  5
914
  8
0
  6
CONTINUOUS
 62
     7
 10
-2748.3913780967
 20
578.5945535083
 30
0.0
  0
VERTEX
  5
915
  8
0
  6
CONTINUOUS
 62
     7
 10
-2751.1467441231
 20
577.9218387465
 30
0.0
  0
VERTEX
  5
916
  8
0
  6
CONTINUOUS
 62
     7
 10
-2753.7449445515
 20
577.065717979
 30
0.0
  0
VERTEX
  5
917
  8
0
  6
CONTINUOUS
 62
     7
 10
-2756.149510504
 20
576.0382038064
 30
0.0
  0
VERTEX
  5
918
  8
0
  6
CONTINUOUS
 62
     7
 10
-2758.3266942088
 20
574.8537191051
 30
0.0
  0
VERTEX
  5
919
  8
0
  6
CONTINUOUS
 62
     7
 10
-2760.2459115418
 20
573.52890238
 30
0.0
  0
VERTEX
  5
91A
  8
0
  6
CONTINUOUS
 62
     7
 10
-2761.8802346182
 20
572.0823446875
 30
0.0
  0
VERTEX
  5
91B
  8
0
  6
CONTINUOUS
 62
     7
 10
-2763.2067184301
 20
570.5343524094
 30
0.0
  0
VERTEX
  5
91C
  8
0
  6
CONTINUOUS
 62
     7
 10
-2764.2067511927
 20
568.9066507206
 30
0.0
  0
VERTEX
  5
91D
  8
0
  6
CONTINUOUS
 62
     7
 10
-2764.866276932
 20
567.222098462
 30
0.0
  0
VERTEX
  5
91E
  8
0
  6
CONTINUOUS
 62
     7
 10
-2765.1760523173
 20
565.504337624
 30
0.0
  0
VERTEX
  5
91F
  8
0
  6
CONTINUOUS
 62
     7
 10
-2765.1787062517
 20
565.4689354656
 30
0.0
  0
SEQEND
  5
920
  8
0
  6
CONTINUOUS
 62
     7
  0
POLYLINE
  5
4C4
  8
0
  6
CONTINUOUS
 62
     7
 66
     1
 10
0.0
 20
0.0
 30
0.0
  0
VERTEX
  5
921
  8
0
  6
CONTINUOUS
 62
     7
 10
-2736.7009987239
 20
543.539369904
 30
0.0
  0
VERTEX
  5
922
  8
0
  6
CONTINUOUS
 62
     7
 10
-2736.8969921062
 20
544.1810658635
 30
0.0
  0
VERTEX
  5
923
  8
0
  6
CONTINUOUS
 62
     7
 10
-2737.4613555299
 20
544.7453570008
 30
0.0
  0
VERTEX
  5
924
  8
0
  6
CONTINUOUS
 62
     7
 10
-2738.3260033955
 20
545.1641914275
 30
0.0
  0
VERTEX
  5
925
  8
0
  6
CONTINUOUS
 62
     7
 10
-2739.3866367408
 20
545.387054481
 30
0.0
  0
VERTEX
  5
926
  8
0
  6
CONTINUOUS
 62
     7
 10
-2740.5153504173
 20
545.387054481
 30
0.0
  0
VERTEX
  5
927
  8
0
  6
CONTINUOUS
 62
     7
 10
-2741.5759956164
 20
545.1641952292
 30
0.0
  0
VERTEX
  5
928
  8
0
  6
CONTINUOUS
 62
     7
 10
-2742.4406461162
 20
544.7453562405
 30
0.0
  0
VERTEX
  5
929
  8
0
  6
CONTINUOUS
 62
     7
 10
-2743.004996369
 20
544.1810651032
 30
0.0
  0
VERTEX
  5
92A
  8
0
  6
CONTINUOUS
 62
     7
 10
-2743.2009950196
 20
543.539372185
 30
0.0
  0
SEQEND
  5
92B
  8
0
  6
CONTINUOUS
 62
     7
  0
POLYLINE
  5
4C5
  8
0
  6
CONTINUOUS
 62
     7
 66
     1
 10
0.0
 20
0.0
 30
0.0
  0
VERTEX
  5
92C
  8
0
  6
CONTINUOUS
 62
     7
 10
-2736.701000041
 20
589.3487736247
 30
0.0
  0
VERTEX
  5
92D
  8
0
  6
CONTINUOUS
 62
     7
 10
-2736.8969986916
 20
589.9904665429
 30
0.0
  0
VERTEX
  5
92E
  8
0
  6
CONTINUOUS
 62
     7
 10
-2737.4613515786
 20
590.5547637629
 30
0.0
  0
VERTEX
  5
92F
  8
0
  6
CONTINUOUS
 62
     7
 10
-2738.3259994442
 20
590.9735981895
 30
0.0
  0
VERTEX
  5
930
  8
0
  6
CONTINUOUS
 62
     7
 10
-2739.3866420091
 20
591.1964544001
 30
0.0
  0
VERTEX
  5
931
  8
0
  6
CONTINUOUS
 62
     7
 10
-2740.5153556857
 20
591.1964544001
 30
0.0
  0
VERTEX
  5
932
  8
0
  6
CONTINUOUS
 62
     7
 10
-2741.5759969335
 20
590.9735989499
 30
0.0
  0
VERTEX
  5
933
  8
0
  6
CONTINUOUS
 62
     7
 10
-2742.4406421649
 20
590.5547630025
 30
0.0
  0
VERTEX
  5
934
  8
0
  6
CONTINUOUS
 62
     7
 10
-2743.004996369
 20
589.9904680635
 30
0.0
  0
VERTEX
  5
935
  8
0
  6
CONTINUOUS
 62
     7
 10
-2743.2009950196
 20
589.3487751453
 30
0.0
  0
SEQEND
  5
936
  8
0
  6
CONTINUOUS
 62
     7
  0
POLYLINE
  5
4C6
  8
0
  6
CONTINUOUS
 62
     7
 66
     1
 10
0.0
 20
0.0
 30
0.0
  0
VERTEX
  5
937
  8
0
  6
CONTINUOUS
 62
     7
 10
-2743.2009950196
 20
541.9062872517
 30
0.0
  0
VERTEX
  5
938
  8
0
  6
CONTINUOUS
 62
     7
 10
-2743.004996369
 20
542.5479801699
 30
0.0
  0
VERTEX
  5
939
  8
0
  6
CONTINUOUS
 62
     7
 10
-2742.4406461162
 20
543.1122713072
 30
0.0
  0
VERTEX
  5
93A
  8
0
  6
CONTINUOUS
 62
     7
 10
-2741.5759956164
 20
543.5311102958
 30
0.0
  0
VERTEX
  5
93B
  8
0
  6
CONTINUOUS
 62
     7
 10
-2740.5153504173
 20
543.7539695477
 30
0.0
  0
VERTEX
  5
93C
  8
0
  6
CONTINUOUS
 62
     7
 10
-2739.3866367408
 20
543.7539695477
 30
0.0
  0
VERTEX
  5
93D
  8
0
  6
CONTINUOUS
 62
     7
 10
-2738.3260033955
 20
543.5311064941
 30
0.0
  0
VERTEX
  5
93E
  8
0
  6
CONTINUOUS
 62
     7
 10
-2737.4613555299
 20
543.1122720675
 30
0.0
  0
VERTEX
  5
93F
  8
0
  6
CONTINUOUS
 62
     7
 10
-2736.8969921062
 20
542.5479809302
 30
0.0
  0
VERTEX
  5
940
  8
0
  6
CONTINUOUS
 62
     7
 10
-2736.7009987239
 20
541.9062849707
 30
0.0
  0
SEQEND
  5
941
  8
0
  6
CONTINUOUS
 62
     7
  0
ARC
  5
4C7
  8
0
  6
CONTINUOUS
 62
     7
 10
-2727.9799960446
 20
561.291404154
 30
0.0
 40
13.57986855437274
 50
14.3294978472
 51
64.3261621994
  0
POLYLINE
  5
4C8
  8
0
  6
CONTINUOUS
 62
     7
 66
     1
 10
0.0
 20
0.0
 30
0.0
  0
VERTEX
  5
942
  8
0
  6
CONTINUOUS
 62
     7
 10
-2765.0793819348
 20
564.652391077
 30
0.0
  0
VERTEX
  5
943
  8
0
  6
CONTINUOUS
 62
     7
 10
-2765.0652706431
 20
564.732784793
 30
0.0
  0
VERTEX
  5
944
  8
0
  6
CONTINUOUS
 62
     7
 10
-2764.5797666071
 20
566.4369340368
 30
0.0
  0
VERTEX
  5
945
  8
0
  6
CONTINUOUS
 62
     7
 10
-2763.7485306557
 20
568.0959731101
 30
0.0
  0
VERTEX
  5
946
  8
0
  6
CONTINUOUS
 62
     7
 10
-2762.5832282463
 20
569.6866120594
 30
0.0
  0
VERTEX
  5
947
  8
0
  6
CONTINUOUS
 62
     7
 10
-2761.1002123561
 20
571.186527323
 30
0.0
  0
VERTEX
  5
948
  8
0
  6
CONTINUOUS
 62
     7
 10
-2759.3203127479
 20
572.5746537003
 30
0.0
  0
VERTEX
  5
949
  8
0
  6
CONTINUOUS
 62
     7
 10
-2757.2685132832
 20
573.8315090173
 30
0.0
  0
VERTEX
  5
94A
  8
0
  6
CONTINUOUS
 62
     7
 10
-2754.9736147476
 20
574.9394496005
 30
0.0
  0
VERTEX
  5
94B
  8
0
  6
CONTINUOUS
 62
     7
 10
-2752.4678318213
 20
575.88292423
 30
0.0
  0
VERTEX
  5
94C
  8
0
  6
CONTINUOUS
 62
     7
 10
-2749.7863400007
 20
576.6486870349
 30
0.0
  0
VERTEX
  5
94D
  8
0
  6
CONTINUOUS
 62
     7
 10
-2746.9667724701
 20
577.2259936605
 30
0.0
  0
VERTEX
  5
94E
  8
0
  6
CONTINUOUS
 62
     7
 10
-2744.0487261939
 20
577.6067297656
 30
0.0
  0
VERTEX
  5
94F
  8
0
  6
CONTINUOUS
 62
     7
 10
-2741.0731547377
 20
577.785559289
 30
0.0
  0
VERTEX
  5
950
  8
0
  6
CONTINUOUS
 62
     7
 10
-2738.081830897
 20
577.7599670283
 30
0.0
  0
VERTEX
  5
951
  8
0
  6
CONTINUOUS
 62
     7
 10
-2735.1167480792
 20
577.5303145249
 30
0.0
  0
VERTEX
  5
952
  8
0
  6
CONTINUOUS
 62
     7
 10
-2732.2195249803
 20
577.0998248571
 30
0.0
  0
VERTEX
  5
953
  8
0
  6
CONTINUOUS
 62
     7
 10
-2729.4308372602
 20
576.4745404413
 30
0.0
  0
VERTEX
  5
954
  8
0
  6
CONTINUOUS
 62
     7
 10
-2726.7898301218
 20
575.6632393947
 30
0.0
  0
VERTEX
  5
955
  8
0
  6
CONTINUOUS
 62
     7
 10
-2724.3335710596
 20
574.6773142615
 30
0.0
  0
VERTEX
  5
956
  8
0
  6
CONTINUOUS
 62
     7
 10
-2722.0965506837
 20
573.5305994151
 30
0.0
  0
SEQEND
  5
957
  8
0
  6
CONTINUOUS
 62
     7
  0
ARC
  5
4C9
  8
0
  6
CONTINUOUS
 62
     7
 10
-2703.1397927583
 20
560.4597363999
 30
0.0
 40
4.64132531208196
 50
88.5777188382
 51
115.4004824125
  0
ARC
  5
4CA
  8
0
  6
CONTINUOUS
 62
     7
 10
-2697.4092310469
 20
560.4604615047
 30
0.0
 40
4.640602880802059
 50
64.5974305585
 51
91.4244764841
  0
ARC
  5
4CB
  8
0
  6
CONTINUOUS
 62
     7
 10
-2782.4925205741
 20
560.459321716
 30
0.0
 40
4.641737793649508
 50
88.5788777227
 51
115.3993153289
  0
ARC
  5
4CC
  8
0
  6
CONTINUOUS
 62
     7
 10
-2776.7620291313
 20
560.4605832876
 30
0.0
 40
4.640482260256152
 50
64.5969957905
 51
91.4246946653
  0
LINE
  5
4CD
  8
0
  6
CONTINUOUS
 62
     7
 10
-2703.024590702
 20
565.09963178
 30
0.0
 11
-2697.5245929245
 21
565.0996302594
 31
0.0
  0
LINE
  5
4CE
  8
0
  6
CONTINUOUS
 62
     7
 10
-2782.3774021361
 20
565.09963178
 30
0.0
 11
-2776.8774056757
 21
565.0996310197
 31
0.0
  0
POLYLINE
  5
4CF
  8
0
  6
CONTINUOUS
 62
     7
 66
     1
 10
0.0
 20
0.0
 30
0.0
  0
VERTEX
  5
958
  8
0
  6
CONTINUOUS
 62
     7
 10
-2743.2009950196
 20
587.715690212
 30
0.0
  0
VERTEX
  5
959
  8
0
  6
CONTINUOUS
 62
     7
 10
-2743.004996369
 20
588.3573831302
 30
0.0
  0
VERTEX
  5
95A
  8
0
  6
CONTINUOUS
 62
     7
 10
-2742.4406421649
 20
588.9216780692
 30
0.0
  0
VERTEX
  5
95B
  8
0
  6
CONTINUOUS
 62
     7
 10
-2741.5759969335
 20
589.3405140166
 30
0.0
  0
VERTEX
  5
95C
  8
0
  6
CONTINUOUS
 62
     7
 10
-2740.5153556857
 20
589.5633694667
 30
0.0
  0
VERTEX
  5
95D
  8
0
  6
CONTINUOUS
 62
     7
 10
-2739.3866420091
 20
589.5633694667
 30
0.0
  0
VERTEX
  5
95E
  8
0
  6
CONTINUOUS
 62
     7
 10
-2738.3259994442
 20
589.3405132562
 30
0.0
  0
VERTEX
  5
95F
  8
0
  6
CONTINUOUS
 62
     7
 10
-2737.4613515786
 20
588.9216788296
 30
0.0
  0
VERTEX
  5
960
  8
0
  6
CONTINUOUS
 62
     7
 10
-2736.8969986916
 20
588.3573816096
 30
0.0
  0
VERTEX
  5
961
  8
0
  6
CONTINUOUS
 62
     7
 10
-2736.701000041
 20
587.7156886914
 30
0.0
  0
SEQEND
  5
962
  8
0
  6
CONTINUOUS
 62
     7
  0
ENDSEC
  0
EOF
