  0
SECTION
  2
HEADER
  9
$ACADVER
  1
AC1009
  9
$DWGCODEPAGE
  3
ansi_1252
  9
$INSBASE
 10
0.0
 20
0.0
 30
0.0
  9
$EXTMIN
 10
0.0
 20
0.0
 30
0.0
  9
$EXTMAX
 10
594.0
 20
420.0
 30
0.0
  9
$LIMMIN
 10
0.0
 20
0.0
  9
$LIMMAX
 10
594.0
 20
420.0
  9
$ORTHOMODE
 70
     0
  9
$REGENMODE
 70
     1
  9
$FILLMODE
 70
     1
  9
$QTEXTMODE
 70
     0
  9
$MIRRTEXT
 70
     1
  9
$DRAGMODE
 70
     2
  9
$LTSCALE
 40
1.0
  9
$OSMODE
 70
    37
  9
$ATTMODE
 70
     1
  9
$TEXTSIZE
 40
4.2333333333
  9
$TRACEWID
 40
1.0
  9
$TEXTSTYLE
  7
STANDARD
  9
$CLAYER
  8
0
  9
$CELTYPE
  6
BYLAYER
  9
$CECOLOR
 62
   256
  9
$DIMSCALE
 40
1.0
  9
$DIMASZ
 40
2.0
  9
$DIMEXO
 40
1.0
  9
$DIMDLI
 40
3.75
  9
$DIMRND
 40
0.0
  9
$DIMDLE
 40
0.0
  9
$DIMEXE
 40
0.5
  9
$DIMTP
 40
0.0
  9
$DIMTM
 40
0.0
  9
$DIMTXT
 40
3.175
  9
$DIMCEN
 40
2.5
  9
$DIMTSZ
 40
0.0
  9
$DIMTOL
 70
     0
  9
$DIMLIM
 70
     0
  9
$DIMTIH
 70
     1
  9
$DIMTOH
 70
     1
  9
$DIMSE1
 70
     0
  9
$DIMSE2
 70
     0
  9
$DIMTAD
 70
     1
  9
$DIMZIN
 70
     0
  9
$DIMBLK
  1

  9
$DIMASO
 70
     1
  9
$DIMSHO
 70
     1
  9
$DIMPOST
  1

  9
$DIMAPOST
  1

  9
$DIMALT
 70
     0
  9
$DIMALTD
 70
     3
  9
$DIMALTF
 40
0.0393700787
  9
$DIMLFAC
 40
1.0
  9
$DIMTOFL
 70
     1
  9
$DIMTVP
 40
0.0
  9
$DIMTIX
 70
     0
  9
$DIMSOXD
 70
     0
  9
$DIMSAH
 70
     0
  9
$DIMBLK1
  1

  9
$DIMBLK2
  1

  9
$DIMSTYLE
  2
ISO-25
  9
$DIMCLRD
 70
     0
  9
$DIMCLRE
 70
     0
  9
$DIMCLRT
 70
     0
  9
$DIMTFAC
 40
1.0
  9
$DIMGAP
 40
2.0
  9
$LUNITS
 70
     2
  9
$LUPREC
 70
     2
  9
$SKETCHINC
 40
1.0
  9
$FILLETRAD
 40
10.0
  9
$AUNITS
 70
     0
  9
$AUPREC
 70
     2
  9
$MENU
  1
.
  9
$ELEVATION
 40
0.0
  9
$PELEVATION
 40
0.0
  9
$THICKNESS
 40
0.0
  9
$LIMCHECK
 70
     0
  9
$CHAMFERA
 40
10.0
  9
$CHAMFERB
 40
10.0
  9
$SKPOLY
 70
     0
  9
$TDCREATE
 40
2456630.685063206
  9
$TDUPDATE
 40
2456630.685063218
  9
$TDINDWG
 40
0.0000000116
  9
$TDUSRTIMER
 40
0.0000000116
  9
$USRTIMER
 70
     1
  9
$ANGBASE
 50
0.0
  9
$ANGDIR
 70
     0
  9
$PDMODE
 70
     0
  9
$PDSIZE
 40
-1.0
  9
$PLINEWID
 40
0.0
  9
$COORDS
 70
     1
  9
$SPLFRAME
 70
     0
  9
$SPLINETYPE
 70
     6
  9
$SPLINESEGS
 70
     8
  9
$ATTDIA
 70
     0
  9
$ATTREQ
 70
     1
  9
$HANDLING
 70
     1
  9
$HANDSEED
  5
DD
  9
$SURFTAB1
 70
     6
  9
$SURFTAB2
 70
     6
  9
$SURFTYPE
 70
     6
  9
$SURFU
 70
     6
  9
$SURFV
 70
     6
  9
$UCSNAME
  2

  9
$UCSORG
 10
0.0
 20
0.0
 30
0.0
  9
$UCSXDIR
 10
1.0
 20
0.0
 30
0.0
  9
$UCSYDIR
 10
0.0
 20
1.0
 30
0.0
  9
$PUCSNAME
  2

  9
$PUCSORG
 10
0.0
 20
0.0
 30
0.0
  9
$PUCSXDIR
 10
1.0
 20
0.0
 30
0.0
  9
$PUCSYDIR
 10
0.0
 20
1.0
 30
0.0
  9
$USERI1
 70
     0
  9
$USERI2
 70
     0
  9
$USERI3
 70
     0
  9
$USERI4
 70
     0
  9
$USERI5
 70
     0
  9
$USERR1
 40
0.0
  9
$USERR2
 40
0.0
  9
$USERR3
 40
0.0
  9
$USERR4
 40
0.0
  9
$USERR5
 40
0.0
  9
$WORLDVIEW
 70
     1
  9
$SHADEDGE
 70
     3
  9
$SHADEDIF
 70
    70
  9
$TILEMODE
 70
     1
  9
$MAXACTVP
 70
    64
  9
$PLIMCHECK
 70
     0
  9
$PEXTMIN
 10
1.0000000000E+20
 20
1.0000000000E+20
 30
1.0000000000E+20
  9
$PEXTMAX
 10
-1.0000000000E+20
 20
-1.0000000000E+20
 30
-1.0000000000E+20
  9
$PLIMMIN
 10
0.0
 20
0.0
  9
$PLIMMAX
 10
420.0
 20
297.0
  9
$UNITMODE
 70
     0
  9
$VISRETAIN
 70
     1
  9
$PLINEGEN
 70
     0
  9
$PSLTSCALE
 70
     1
  0
ENDSEC
  0
SECTION
  2
TABLES
  0
TABLE
  2
VPORT
 70
     1
  0
VPORT
  2
*ACTIVE
 70
     0
 10
0.0
 20
0.0
 11
1.0
 21
1.0
 12
297.0
 22
210.0
 13
0.0
 23
0.0
 14
10.0
 24
10.0
 15
10.0
 25
10.0
 16
0.0
 26
0.0
 36
1.0
 17
0.0
 27
0.0
 37
0.0
 40
420.0
 41
1.4142857143
 42
50.0
 43
0.0
 44
0.0
 50
0.0
 51
0.0
 71
     0
 72
  2000
 73
     1
 74
     3
 75
     0
 76
     0
 77
     0
 78
     0
  0
ENDTAB
  0
TABLE
  2
LTYPE
 70
     6
  0
LTYPE
  2
CONTINUOUS
 70
     0
  3
Solid line
 72
    65
 73
     0
 40
0.0
  0
LTYPE
  2
HIDDEN
 70
     0
  3
Hidden __ __ __ __ __ __ __ __ __ __ __ __ __ __
 72
    65
 73
     2
 40
1.905
 49
1.27
 49
-0.635
  0
LTYPE
  2
PHANTOM
 70
     0
  3
Phantom ______  __  __  ______  __  __  ______
 72
    65
 73
     6
 40
12.7
 49
6.35
 49
-1.27
 49
1.27
 49
-1.27
 49
1.27
 49
-1.27
  0
LTYPE
  2
CENTER
 70
     0
  3
Center ____ _ ____ _ ____ _ ____ _ ____ _ ____
 72
    65
 73
     4
 40
10.16
 49
6.35
 49
-1.27
 49
1.27
 49
-1.27
  0
LTYPE
  2
CENTERX2
 70
     0
  3
Center (2x) ________  __  ________  __  _____
 72
    65
 73
     4
 40
20.32
 49
12.7
 49
-2.54
 49
2.54
 49
-2.54
  0
LTYPE
  2
DOT2
 70
     0
  3
Dot (.5x) ........................................
 72
    65
 73
     2
 40
0.635
 49
0.0
 49
-0.635
  0
ENDTAB
  0
TABLE
  2
LAYER
 70
     8
  0
LAYER
  2
0
 70
     0
 62
     7
  6
CONTINUOUS
  0
LAYER
  2
SLD-0
 70
     0
 62
     7
  6
CONTINUOUS
  0
LAYER
  2
AM_BOR
 70
     0
 62
     7
  6
CONTINUOUS
  0
LAYER
  2
BIEGLINIE__ZU_
 70
     0
 62
     8
  6
CONTINUOUS
  0
LAYER
  2
BIEGELINIE__WEG_
 70
     0
 62
     8
  6
HIDDEN
  0
LAYER
  2
LAYER0
 70
     0
 62
     7
  6
CONTINUOUS
  0
LAYER
  2
BIEGELINIE__ZU_
 70
     0
 62
     8
  6
CONTINUOUS
  0
LAYER
  2
CK_LEVEL_1
 70
     0
 62
     7
  6
CONTINUOUS
  0
ENDTAB
  0
TABLE
  2
STYLE
 70
     1
  0
STYLE
  2
STANDARD
 70
     0
 40
0.0
 41
1.0
 50
0.0
 71
     0
 42
2.5
  3
txt
  4

  0
ENDTAB
  0
TABLE
  2
VIEW
 70
     0
  0
ENDTAB
  0
TABLE
  2
UCS
 70
     0
  0
ENDTAB
  0
TABLE
  2
APPID
 70
     1
  0
APPID
  2
ACAD
 70
     0
  0
ENDTAB
  0
TABLE
  2
DIMSTYLE
 70
     1
  0
DIMSTYLE
  2
ISO-25
 70
     0
  3

  4

  5

  6

  7

 40
1.0
 41
2.5
 42
0.625
 43
3.75
 44
1.25
 45
0.0
 46
0.0
 47
0.0
 48
0.0
140
2.5
141
2.5
142
0.0
143
0.0393700787
144
1.0
145
0.0
146
1.0
147
0.625
 71
     0
 72
     0
 73
     0
 74
     0
 75
     0
 76
     0
 77
     1
 78
     8
170
     0
171
     3
172
     1
173
     0
174
     0
175
     0
176
     0
177
     0
178
     0
  0
ENDTAB
  0
ENDSEC
  0
SECTION
  2
BLOCKS
  0
BLOCK
  8
0
  2
$MODEL_SPACE
 70
     0
 10
0.0
 20
0.0
 30
0.0
  3
$MODEL_SPACE
  1

  0
ENDBLK
  5
21
  8
0
  0
BLOCK
 67
     1
  8
0
  2
$PAPER_SPACE
 70
     0
 10
0.0
 20
0.0
 30
0.0
  3
$PAPER_SPACE
  1

  0
ENDBLK
  5
1D
 67
     1
  8
0
  0
BLOCK
  8
0
  2
ERDUNG2
 70
     0
 10
0.0
 20
0.0
 30
0.0
  3
ERDUNG2
  1

  0
CIRCLE
  5
4E
  8
CK_LEVEL_1
  6
CONTINUOUS
 62
     7
 10
7.882894401
 20
8.75
 30
0.0
 40
9.354800019675764
  0
LINE
  5
4F
  8
CK_LEVEL_1
  6
CONTINUOUS
 62
     7
 10
8.7487451733
 20
3.8098753807
 30
0.0
 11
9.700327903
 21
3.8098753807
 31
0.0
  0
LINE
  5
50
  8
CK_LEVEL_1
  6
CONTINUOUS
 62
     7
 10
8.7487451733
 20
3.8098753807
 30
0.0
 11
6.6709551936
 21
3.8098753807
 31
0.0
  0
LINE
  5
51
  8
CK_LEVEL_1
  6
CONTINUOUS
 62
     7
 10
7.882894401
 20
8.75
 30
0.0
 11
12.815547
 21
8.75
 31
0.0
  0
LINE
  5
52
  8
CK_LEVEL_1
  6
CONTINUOUS
 62
     7
 10
11.24812514
 20
6.3492067038
 30
0.0
 11
4.4479159892
 21
6.3492067038
 31
0.0
  0
LINE
  5
53
  8
CK_LEVEL_1
  6
CONTINUOUS
 62
     7
 10
7.882894401
 20
8.75
 30
0.0
 11
2.6893228315
 21
8.75
 31
0.0
  0
LINE
  5
54
  8
CK_LEVEL_1
  6
CONTINUOUS
 62
     7
 10
7.882894401
 20
8.75
 30
0.0
 11
7.882894401
 21
15.2853511284
 31
0.0
  0
ENDBLK
  5
4D
  8
0
  0
ENDSEC
  0
SECTION
  2
ENTITIES
  0
ARC
  5
55
  8
0
  6
CONTINUOUS
 62
     7
 10
47.2706663199
 20
801.5859474044
 30
0.0
 40
2.000000000000046
 50
0.0
 51
135.0
  0
LINE
  5
56
  8
0
  6
CONTINUOUS
 62
     7
 10
49.2706529684
 20
794.5860036712
 30
0.0
 11
49.2706529684
 21
801.5859731536
 31
0.0
  0
ARC
  5
57
  8
0
  6
CONTINUOUS
 62
     7
 10
54.0206663199
 20
794.5859474044
 30
0.0
 40
4.750000000000036
 50
180.0
 51
0.0
  0
LINE
  5
58
  8
0
  6
CONTINUOUS
 62
     7
 10
58.7706647702
 20
806.5859683852
 30
0.0
 11
58.7706647702
 21
794.5860036712
 31
0.0
  0
LINE
  5
59
  8
0
  6
CONTINUOUS
 62
     7
 10
549.2706678696
 20
806.5859683852
 30
0.0
 11
58.7706647702
 21
806.5859683852
 31
0.0
  0
LINE
  5
5A
  8
0
  6
CONTINUOUS
 62
     7
 10
549.2706678696
 20
806.5859683852
 30
0.0
 11
549.2706678696
 21
794.5860036712
 31
0.0
  0
ARC
  5
5B
  8
0
  6
CONTINUOUS
 62
     7
 10
554.0206663199
 20
794.5859474044
 30
0.0
 40
4.750000000000114
 50
180.0
 51
0.0
  0
LINE
  5
5C
  8
0
  6
CONTINUOUS
 62
     7
 10
558.7706796713
 20
794.5860036712
 30
0.0
 11
558.7706796713
 21
801.5859731536
 31
0.0
  0
ARC
  5
5D
  8
0
  6
CONTINUOUS
 62
     7
 10
560.7706663199
 20
801.5859474044
 30
0.0
 40
2.0
 50
45.0
 51
180.0
  0
LINE
  5
5E
  8
0
  6
CONTINUOUS
 62
     7
 10
562.1848933287
 20
803.0001529555
 30
0.0
 11
569.0206520148
 21
796.1643346648
 31
0.0
  0
LINE
  5
5F
  8
0
  6
CONTINUOUS
 62
     7
 10
562.1848933287
 20
-339.8282668491
 30
0.0
 11
569.0206520148
 21
-332.9924783607
 31
0.0
  0
ARC
  5
60
  8
0
  6
CONTINUOUS
 62
     7
 10
560.7706663199
 20
-338.4140525956
 30
0.0
 40
2.0
 50
180.0
 51
315.0
  0
LINE
  5
61
  8
0
  6
CONTINUOUS
 62
     7
 10
558.7706796713
 20
-331.4140542348
 30
0.0
 11
558.7706796713
 21
-338.4140535195
 31
0.0
  0
ARC
  5
62
  8
0
  6
CONTINUOUS
 62
     7
 10
554.0206663199
 20
-331.4140525956
 30
0.0
 40
4.750000000000114
 50
0.0
 51
180.0
  0
LINE
  5
63
  8
0
  6
CONTINUOUS
 62
     7
 10
549.2706678696
 20
-343.4140524764
 30
0.0
 11
549.2706678696
 21
-331.4140542348
 31
0.0
  0
LINE
  5
64
  8
0
  6
CONTINUOUS
 62
     7
 10
58.7706647702
 20
-343.4140524764
 30
0.0
 11
549.2706678696
 21
-343.4140524764
 31
0.0
  0
LINE
  5
65
  8
0
  6
CONTINUOUS
 62
     7
 10
58.7706647702
 20
-343.4140524764
 30
0.0
 11
58.7706647702
 21
-331.4140542348
 31
0.0
  0
ARC
  5
66
  8
0
  6
CONTINUOUS
 62
     7
 10
54.0206663199
 20
-331.4140525956
 30
0.0
 40
4.750000000000036
 50
0.0
 51
180.0
  0
LINE
  5
67
  8
0
  6
CONTINUOUS
 62
     7
 10
49.2706529684
 20
-331.4140542348
 30
0.0
 11
49.2706529684
 21
-338.4140535195
 31
0.0
  0
ARC
  5
68
  8
0
  6
CONTINUOUS
 62
     7
 10
47.2706663199
 20
-338.4140525956
 30
0.0
 40
2.0
 50
225.0
 51
0.0
  0
LINE
  5
69
  8
0
  6
CONTINUOUS
 62
     7
 10
45.8564393111
 20
-339.8282668491
 30
0.0
 11
39.020680625
 21
-332.9924783607
 31
0.0
  0
LINE
  5
6A
  8
0
  6
CONTINUOUS
 62
     7
 10
45.8564393111
 20
803.0001529555
 30
0.0
 11
39.020680625
 21
796.1643346648
 31
0.0
  0
CIRCLE
  5
6B
  8
0
  6
CONTINUOUS
 62
     7
 10
524.0206663199
 20
794.5859474044
 30
0.0
 40
4.0
  0
CIRCLE
  5
6C
  8
0
  6
CONTINUOUS
 62
     7
 10
524.0206663199
 20
-331.4140525956
 30
0.0
 40
4.0
  0
CIRCLE
  5
6D
  8
0
  6
CONTINUOUS
 62
     7
 10
84.0206663199
 20
-331.4140525956
 30
0.0
 40
4.0
  0
CIRCLE
  5
6E
  8
0
  6
CONTINUOUS
 62
     7
 10
84.0206663199
 20
794.5859474044
 30
0.0
 40
4.0
  0
POLYLINE
  5
6F
  8
0
  6
CONTINUOUS
 62
     7
 66
     1
 10
0.0
 20
0.0
 30
0.0
  0
VERTEX
  5
B9
  8
0
  6
CONTINUOUS
 62
     7
 10
39.020680625
 20
-332.9924783607
 30
0.0
  0
VERTEX
  5
BA
  8
0
  6
CONTINUOUS
 62
     7
 10
37.0732776709
 20
-331.7190325756
 30
0.0
  0
VERTEX
  5
BB
  8
0
  6
CONTINUOUS
 62
     7
 10
35.4320935793
 20
-330.4443611701
 30
0.0
  0
VERTEX
  5
BC
  8
0
  6
CONTINUOUS
 62
     7
 10
34.3587331362
 20
-329.1696860392
 30
0.0
  0
VERTEX
  5
BD
  8
0
  6
CONTINUOUS
 62
     7
 10
34.0206555911
 20
-327.9924794037
 30
0.0
  0
SEQEND
  5
BE
  8
0
  6
CONTINUOUS
 62
     7
  0
LINE
  5
70
  8
0
  6
CONTINUOUS
 62
     7
 10
34.0206555911
 20
791.1643394332
 30
0.0
 11
34.0206555911
 21
-327.9924794037
 31
0.0
  0
POLYLINE
  5
71
  8
0
  6
CONTINUOUS
 62
     7
 66
     1
 10
0.0
 20
0.0
 30
0.0
  0
VERTEX
  5
BF
  8
0
  6
CONTINUOUS
 62
     7
 10
34.0206555911
 20
791.1643394332
 30
0.0
  0
VERTEX
  5
C0
  8
0
  6
CONTINUOUS
 62
     7
 10
34.415476758
 20
792.4378522734
 30
0.0
  0
VERTEX
  5
C1
  8
0
  6
CONTINUOUS
 62
     7
 10
35.5389647074
 20
793.7124379973
 30
0.0
  0
VERTEX
  5
C2
  8
0
  6
CONTINUOUS
 62
     7
 10
37.2133783884
 20
794.9871429305
 30
0.0
  0
VERTEX
  5
C3
  8
0
  6
CONTINUOUS
 62
     7
 10
39.020680625
 20
796.1643346648
 30
0.0
  0
SEQEND
  5
C4
  8
0
  6
CONTINUOUS
 62
     7
  0
POLYLINE
  5
72
  8
0
  6
CONTINUOUS
 62
     7
 66
     1
 10
0.0
 20
0.0
 30
0.0
  0
VERTEX
  5
C5
  8
0
  6
CONTINUOUS
 62
     7
 10
569.0206520148
 20
796.1643346648
 30
0.0
  0
VERTEX
  5
C6
  8
0
  6
CONTINUOUS
 62
     7
 10
570.9680549689
 20
794.8909410338
 30
0.0
  0
VERTEX
  5
C7
  8
0
  6
CONTINUOUS
 62
     7
 10
572.6092390604
 20
793.6162361007
 30
0.0
  0
VERTEX
  5
C8
  8
0
  6
CONTINUOUS
 62
     7
 10
573.6825995036
 20
792.3415311675
 30
0.0
  0
VERTEX
  5
C9
  8
0
  6
CONTINUOUS
 62
     7
 10
574.0206770487
 20
791.1643394332
 30
0.0
  0
SEQEND
  5
CA
  8
0
  6
CONTINUOUS
 62
     7
  0
LINE
  5
73
  8
0
  6
CONTINUOUS
 62
     7
 10
574.0206770487
 20
-327.9924794037
 30
0.0
 11
574.0206770487
 21
791.1643394332
 31
0.0
  0
POLYLINE
  5
74
  8
0
  6
CONTINUOUS
 62
     7
 66
     1
 10
0.0
 20
0.0
 30
0.0
  0
VERTEX
  5
CB
  8
0
  6
CONTINUOUS
 62
     7
 10
574.0206770487
 20
-327.9924794037
 30
0.0
  0
VERTEX
  5
CC
  8
0
  6
CONTINUOUS
 62
     7
 10
573.6258558817
 20
-329.2659251888
 30
0.0
  0
VERTEX
  5
CD
  8
0
  6
CONTINUOUS
 62
     7
 10
572.5023679324
 20
-330.5405965943
 30
0.0
  0
VERTEX
  5
CE
  8
0
  6
CONTINUOUS
 62
     7
 10
570.8279542513
 20
-331.8152754505
 30
0.0
  0
VERTEX
  5
CF
  8
0
  6
CONTINUOUS
 62
     7
 10
569.0206520148
 20
-332.9924783607
 30
0.0
  0
SEQEND
  5
D0
  8
0
  6
CONTINUOUS
 62
     7
  0
LINE
  5
75
  8
0
  6
CONTINUOUS
 62
     7
 10
758.8797664456
 20
803.5859474044
 30
0.0
 11
756.3797688298
 21
803.5859474044
 31
0.0
  0
LINE
  5
76
  8
0
  6
CONTINUOUS
 62
     7
 10
756.3797688298
 20
-340.4140538473
 30
0.0
 11
758.8797664456
 21
-340.4140538473
 31
0.0
  0
LINE
  5
77
  8
0
  6
CONTINUOUS
 62
     7
 10
753.3797776513
 20
-327.9924794037
 30
0.0
 11
753.879771214
 21
-327.9924794037
 31
0.0
  0
LINE
  5
78
  8
0
  6
CONTINUOUS
 62
     7
 10
753.3797776513
 20
-293.4140554567
 30
0.0
 11
753.3797776513
 21
-327.9924794037
 31
0.0
  0
LINE
  5
79
  8
0
  6
CONTINUOUS
 62
     7
 10
743.3797722869
 20
756.5858968596
 30
0.0
 11
743.3797722869
 21
-293.4140554567
 31
0.0
  0
LINE
  5
7A
  8
0
  6
CONTINUOUS
 62
     7
 10
753.3797776513
 20
756.5858968596
 30
0.0
 11
743.3797722869
 21
756.5858968596
 31
0.0
  0
LINE
  5
7B
  8
0
  6
CONTINUOUS
 62
     7
 10
753.3797776513
 20
791.1643394332
 30
0.0
 11
753.3797776513
 21
756.5858968596
 31
0.0
  0
LINE
  5
7C
  8
0
  6
CONTINUOUS
 62
     7
 10
753.879771214
 20
791.1643394332
 30
0.0
 11
753.3797776513
 21
791.1643394332
 31
0.0
  0
LINE
  5
7D
  8
0
  6
CONTINUOUS
 62
     7
 10
743.3797722869
 20
-293.4140554567
 30
0.0
 11
753.3797776513
 21
-293.4140554567
 31
0.0
  0
POLYLINE
  5
7E
  8
0
  6
CONTINUOUS
 62
     7
 66
     1
 10
0.0
 20
0.0
 30
0.0
  0
VERTEX
  5
D1
  8
0
  6
CONTINUOUS
 62
     7
 10
758.8797664456
 20
-332.9924783607
 30
0.0
  0
VERTEX
  5
D2
  8
0
  6
CONTINUOUS
 62
     7
 10
758.4849452786
 20
-331.7190325756
 30
0.0
  0
VERTEX
  5
D3
  8
0
  6
CONTINUOUS
 62
     7
 10
757.3614573293
 20
-330.4443611701
 30
0.0
  0
VERTEX
  5
D4
  8
0
  6
CONTINUOUS
 62
     7
 10
755.6870585494
 20
-329.1696860392
 30
0.0
  0
VERTEX
  5
D5
  8
0
  6
CONTINUOUS
 62
     7
 10
753.879771214
 20
-327.9924794037
 30
0.0
  0
SEQEND
  5
D6
  8
0
  6
CONTINUOUS
 62
     7
  0
POLYLINE
  5
7F
  8
0
  6
CONTINUOUS
 62
     7
 66
     1
 10
0.0
 20
0.0
 30
0.0
  0
VERTEX
  5
D7
  8
0
  6
CONTINUOUS
 62
     7
 10
753.879771214
 20
791.1643394332
 30
0.0
  0
VERTEX
  5
D8
  8
0
  6
CONTINUOUS
 62
     7
 10
755.8271592669
 20
792.4378522734
 30
0.0
  0
VERTEX
  5
D9
  8
0
  6
CONTINUOUS
 62
     7
 10
757.4683433585
 20
793.7124379973
 30
0.0
  0
VERTEX
  5
DA
  8
0
  6
CONTINUOUS
 62
     7
 10
758.5417187028
 20
794.9871429305
 30
0.0
  0
VERTEX
  5
DB
  8
0
  6
CONTINUOUS
 62
     7
 10
758.8797664456
 20
796.1643346648
 30
0.0
  0
SEQEND
  5
DC
  8
0
  6
CONTINUOUS
 62
     7
  0
LINE
  5
80
  8
0
  6
CONTINUOUS
 62
     7
 10
758.8797664456
 20
796.1643346648
 30
0.0
 11
758.8797664456
 21
-332.9924783607
 31
0.0
  0
LINE
  5
81
  8
0
  6
CONTINUOUS
 62
     7
 10
756.3797688298
 20
796.1643346648
 30
0.0
 11
758.8797664456
 21
796.1643346648
 31
0.0
  0
ARC
  5
82
  8
0
  6
CONTINUOUS
 62
     7
 10
747.8495603319
 20
797.304441894
 30
0.0
 40
8.606061904947756
 50
314.4826630688
 51
352.3872345771
  0
LINE
  5
83
  8
0
  6
CONTINUOUS
 62
     7
 10
756.3797688298
 20
-332.9924783607
 30
0.0
 11
758.8797664456
 21
-332.9924783607
 31
0.0
  0
ARC
  5
84
  8
0
  6
CONTINUOUS
 62
     7
 10
747.5346356763
 20
-334.2900432256
 30
0.0
 40
8.93980173618215
 50
8.3456586876
 51
44.7844095156
  0
LINE
  5
85
  8
0
  6
CONTINUOUS
 62
     7
 10
756.3797688298
 20
796.1643346648
 30
0.0
 11
756.3797688298
 21
803.0001529555
 31
0.0
  0
LINE
  5
86
  8
0
  6
CONTINUOUS
 62
     7
 10
758.8797664456
 20
803.0001529555
 30
0.0
 11
758.8797664456
 21
796.1643346648
 31
0.0
  0
LINE
  5
87
  8
0
  6
CONTINUOUS
 62
     7
 10
756.3797688298
 20
-332.9924783607
 30
0.0
 11
756.3797688298
 21
-339.8282668491
 31
0.0
  0
LINE
  5
88
  8
0
  6
CONTINUOUS
 62
     7
 10
758.8797664456
 20
-339.8282668491
 30
0.0
 11
758.8797664456
 21
-332.9924783607
 31
0.0
  0
LINE
  5
89
  8
0
  6
CONTINUOUS
 62
     7
 10
756.3797688298
 20
803.0001529555
 30
0.0
 11
756.3797688298
 21
803.5859474044
 31
0.0
  0
LINE
  5
8A
  8
0
  6
CONTINUOUS
 62
     7
 10
758.8797664456
 20
803.5859474044
 30
0.0
 11
758.8797664456
 21
803.0001529555
 31
0.0
  0
LINE
  5
8B
  8
0
  6
CONTINUOUS
 62
     7
 10
756.3797688298
 20
-339.8282668491
 30
0.0
 11
756.3797688298
 21
-340.4140538473
 31
0.0
  0
LINE
  5
8C
  8
0
  6
CONTINUOUS
 62
     7
 10
758.8797664456
 20
-340.4140538473
 30
0.0
 11
758.8797664456
 21
-339.8282668491
 31
0.0
  0
LINE
  5
8D
  8
0
  6
CONTINUOUS
 62
     7
 10
756.3797688298
 20
-343.4140524764
 30
0.0
 11
758.8797664456
 21
-343.4140524764
 31
0.0
  0
LINE
  5
8E
  8
0
  6
CONTINUOUS
 62
     7
 10
756.3797688298
 20
-340.4140538473
 30
0.0
 11
756.3797688298
 21
-343.4140524764
 31
0.0
  0
LINE
  5
8F
  8
0
  6
CONTINUOUS
 62
     7
 10
758.8797664456
 20
-343.4140524764
 30
0.0
 11
758.8797664456
 21
-340.4140538473
 31
0.0
  0
LINE
  5
90
  8
0
  6
CONTINUOUS
 62
     7
 10
756.3797688298
 20
806.5859683852
 30
0.0
 11
758.8797664456
 21
806.5859683852
 31
0.0
  0
LINE
  5
91
  8
0
  6
CONTINUOUS
 62
     7
 10
756.3797688298
 20
803.5859474044
 30
0.0
 11
756.3797688298
 21
806.5859683852
 31
0.0
  0
LINE
  5
92
  8
0
  6
CONTINUOUS
 62
     7
 10
758.8797664456
 20
806.5859683852
 30
0.0
 11
758.8797664456
 21
803.5859474044
 31
0.0
  0
LINE
  5
93
  8
0
  6
CONTINUOUS
 62
     7
 10
549.2706678696
 20
-508.0290338696
 30
0.0
 11
549.2706678696
 21
-510.5290314854
 31
0.0
  0
LINE
  5
94
  8
0
  6
CONTINUOUS
 62
     7
 10
58.7706647702
 20
-508.0290338696
 30
0.0
 11
58.7706647702
 21
-510.5290314854
 31
0.0
  0
LINE
  5
95
  8
0
  6
CONTINUOUS
 62
     7
 10
549.2706678696
 20
-508.0290338696
 30
0.0
 11
58.7706647702
 21
-508.0290338696
 31
0.0
  0
LINE
  5
96
  8
0
  6
CONTINUOUS
 62
     7
 10
549.2706678696
 20
-510.5290314854
 30
0.0
 11
58.7706647702
 21
-510.5290314854
 31
0.0
  0
LINE
  5
97
  8
0
  6
CONTINUOUS
 62
     7
 10
558.7706796713
 20
-508.0290338696
 30
0.0
 11
558.7706796713
 21
-510.5290314854
 31
0.0
  0
LINE
  5
98
  8
0
  6
CONTINUOUS
 62
     7
 10
562.1848933287
 20
-508.0290338696
 30
0.0
 11
558.7706796713
 21
-508.0290338696
 31
0.0
  0
LINE
  5
99
  8
0
  6
CONTINUOUS
 62
     7
 10
558.7706796713
 20
-510.5290314854
 30
0.0
 11
562.1848933287
 21
-510.5290314854
 31
0.0
  0
LINE
  5
9A
  8
0
  6
CONTINUOUS
 62
     7
 10
49.2706529684
 20
-508.0290338696
 30
0.0
 11
49.2706529684
 21
-510.5290314854
 31
0.0
  0
LINE
  5
9B
  8
0
  6
CONTINUOUS
 62
     7
 10
45.8564393111
 20
-508.0290338696
 30
0.0
 11
49.2706529684
 21
-508.0290338696
 31
0.0
  0
LINE
  5
9C
  8
0
  6
CONTINUOUS
 62
     7
 10
49.2706529684
 20
-510.5290314854
 30
0.0
 11
45.8564393111
 21
-510.5290314854
 31
0.0
  0
LINE
  5
9D
  8
0
  6
CONTINUOUS
 62
     7
 10
39.020680625
 20
-508.0290338696
 30
0.0
 11
39.020680625
 21
-510.5290314854
 31
0.0
  0
LINE
  5
9E
  8
0
  6
CONTINUOUS
 62
     7
 10
39.020680625
 20
-508.0290338696
 30
0.0
 11
45.8564393111
 21
-508.0290338696
 31
0.0
  0
LINE
  5
9F
  8
0
  6
CONTINUOUS
 62
     7
 10
45.8564393111
 20
-510.5290314854
 30
0.0
 11
39.020680625
 21
-510.5290314854
 31
0.0
  0
LINE
  5
A0
  8
0
  6
CONTINUOUS
 62
     7
 10
569.0206520148
 20
-508.0290338696
 30
0.0
 11
569.0206520148
 21
-510.5290314854
 31
0.0
  0
LINE
  5
A1
  8
0
  6
CONTINUOUS
 62
     7
 10
569.0206520148
 20
-508.0290338696
 30
0.0
 11
562.1848933287
 21
-508.0290338696
 31
0.0
  0
LINE
  5
A2
  8
0
  6
CONTINUOUS
 62
     7
 10
562.1848933287
 20
-510.5290314854
 30
0.0
 11
569.0206520148
 21
-510.5290314854
 31
0.0
  0
ARC
  5
A3
  8
0
  6
CONTINUOUS
 62
     7
 10
569.020648089
 20
-505.5290025256
 30
0.0
 40
5.000028959886394
 50
270.0000449863
 51
359.9996135049
  0
ARC
  5
A4
  8
0
  6
CONTINUOUS
 62
     7
 10
569.0206571101
 20
-505.5290115467
 30
0.0
 40
2.500022322940785
 50
269.999883225
 51
359.9994337595
  0
LINE
  5
A5
  8
0
  6
CONTINUOUS
 62
     7
 10
571.5206794329
 20
-505.5290362538
 30
0.0
 11
574.0206770487
 21
-505.5290362538
 31
0.0
  0
ARC
  5
A6
  8
0
  6
CONTINUOUS
 62
     7
 10
39.0206442994
 20
-505.5290427772
 30
0.0
 40
4.999988708360916
 50
179.9999252472
 51
270.0004162616
  0
LINE
  5
A7
  8
0
  6
CONTINUOUS
 62
     7
 10
36.5206532069
 20
-505.5290362538
 30
0.0
 11
34.0206555911
 21
-505.5290362538
 31
0.0
  0
ARC
  5
A8
  8
0
  6
CONTINUOUS
 62
     7
 10
39.020673942
 20
-505.5290131344
 30
0.0
 40
2.500020735217602
 50
180.0005298531
 51
270.0001531624
  0
LINE
  5
A9
  8
0
  6
CONTINUOUS
 62
     7
 10
558.7706796713
 20
-508.0290338696
 30
0.0
 11
549.2706678696
 21
-508.0290338696
 31
0.0
  0
LINE
  5
AA
  8
0
  6
CONTINUOUS
 62
     7
 10
549.2706678696
 20
-510.5290314854
 30
0.0
 11
558.7706796713
 21
-510.5290314854
 31
0.0
  0
LINE
  5
AB
  8
0
  6
CONTINUOUS
 62
     7
 10
49.2706529684
 20
-508.0290338696
 30
0.0
 11
58.7706647702
 21
-508.0290338696
 31
0.0
  0
LINE
  5
AC
  8
0
  6
CONTINUOUS
 62
     7
 10
58.7706647702
 20
-510.5290314854
 30
0.0
 11
49.2706529684
 21
-510.5290314854
 31
0.0
  0
LINE
  5
AD
  8
0
  6
CONTINUOUS
 62
     7
 10
571.5206794329
 20
-505.0290426911
 30
0.0
 11
571.5206794329
 21
-505.5290362538
 31
0.0
  0
LINE
  5
AE
  8
0
  6
CONTINUOUS
 62
     7
 10
574.0206770487
 20
-505.0290426911
 30
0.0
 11
571.5206794329
 21
-505.0290426911
 31
0.0
  0
LINE
  5
AF
  8
0
  6
CONTINUOUS
 62
     7
 10
574.0206770487
 20
-505.0290426911
 30
0.0
 11
574.0206770487
 21
-505.5290362538
 31
0.0
  0
LINE
  5
B0
  8
0
  6
CONTINUOUS
 62
     7
 10
36.5206532069
 20
-505.5290362538
 30
0.0
 11
36.5206532069
 21
-505.0290426911
 31
0.0
  0
LINE
  5
B1
  8
0
  6
CONTINUOUS
 62
     7
 10
34.0206555911
 20
-505.5290362538
 30
0.0
 11
34.0206555911
 21
-505.0290426911
 31
0.0
  0
LINE
  5
B2
  8
0
  6
CONTINUOUS
 62
     7
 10
34.0206555911
 20
-505.0290426911
 30
0.0
 11
36.5206532069
 21
-505.0290426911
 31
0.0
  0
LINE
  5
B3
  8
0
  6
CONTINUOUS
 62
     7
 10
34.0206555911
 20
-495.0290373267
 30
0.0
 11
36.5206532069
 21
-495.0290373267
 31
0.0
  0
LINE
  5
B4
  8
0
  6
CONTINUOUS
 62
     7
 10
36.5206532069
 20
-505.0290426911
 30
0.0
 11
36.5206532069
 21
-495.0290373267
 31
0.0
  0
LINE
  5
B5
  8
0
  6
CONTINUOUS
 62
     7
 10
34.0206555911
 20
-505.0290426911
 30
0.0
 11
34.0206555911
 21
-495.0290373267
 31
0.0
  0
LINE
  5
B6
  8
0
  6
CONTINUOUS
 62
     7
 10
574.0206770487
 20
-495.0290373267
 30
0.0
 11
571.5206794329
 21
-495.0290373267
 31
0.0
  0
LINE
  5
B7
  8
0
  6
CONTINUOUS
 62
     7
 10
571.5206794329
 20
-495.0290373267
 30
0.0
 11
571.5206794329
 21
-505.0290426911
 31
0.0
  0
LINE
  5
B8
  8
0
  6
CONTINUOUS
 62
     7
 10
574.0206770487
 20
-495.0290373267
 30
0.0
 11
574.0206770487
 21
-505.0290426911
 31
0.0
  0
ENDSEC
  0
EOF
