  0
SECTION
  2
HEADER
  9
$ACADVER
  1
AC1009
  9
$DWGCODEPAGE
  3
ansi_1252
  9
$INSBASE
 10
0.0
 20
0.0
 30
0.0
  9
$EXTMIN
 10
0.0
 20
0.0
 30
0.0
  9
$EXTMAX
 10
594.0
 20
420.0
 30
0.0
  9
$LIMMIN
 10
0.0
 20
0.0
  9
$LIMMAX
 10
594.0
 20
420.0
  9
$ORTHOMODE
 70
     0
  9
$REGENMODE
 70
     1
  9
$FILLMODE
 70
     1
  9
$QTEXTMODE
 70
     0
  9
$MIRRTEXT
 70
     1
  9
$DRAGMODE
 70
     2
  9
$LTSCALE
 40
1.0
  9
$OSMODE
 70
    37
  9
$ATTMODE
 70
     1
  9
$TEXTSIZE
 40
4.2333333333
  9
$TRACEWID
 40
1.0
  9
$TEXTSTYLE
  7
STANDARD
  9
$CLAYER
  8
0
  9
$CELTYPE
  6
BYLAYER
  9
$CECOLOR
 62
   256
  9
$DIMSCALE
 40
1.0
  9
$DIMASZ
 40
2.0
  9
$DIMEXO
 40
1.0
  9
$DIMDLI
 40
3.75
  9
$DIMRND
 40
0.0
  9
$DIMDLE
 40
0.0
  9
$DIMEXE
 40
0.5
  9
$DIMTP
 40
0.0
  9
$DIMTM
 40
0.0
  9
$DIMTXT
 40
3.175
  9
$DIMCEN
 40
2.5
  9
$DIMTSZ
 40
0.0
  9
$DIMTOL
 70
     0
  9
$DIMLIM
 70
     0
  9
$DIMTIH
 70
     1
  9
$DIMTOH
 70
     1
  9
$DIMSE1
 70
     0
  9
$DIMSE2
 70
     0
  9
$DIMTAD
 70
     1
  9
$DIMZIN
 70
     0
  9
$DIMBLK
  1

  9
$DIMASO
 70
     1
  9
$DIMSHO
 70
     1
  9
$DIMPOST
  1

  9
$DIMAPOST
  1

  9
$DIMALT
 70
     0
  9
$DIMALTD
 70
     3
  9
$DIMALTF
 40
0.0393700787
  9
$DIMLFAC
 40
1.0
  9
$DIMTOFL
 70
     1
  9
$DIMTVP
 40
0.0
  9
$DIMTIX
 70
     0
  9
$DIMSOXD
 70
     0
  9
$DIMSAH
 70
     0
  9
$DIMBLK1
  1

  9
$DIMBLK2
  1

  9
$DIMSTYLE
  2
ISO-25
  9
$DIMCLRD
 70
     0
  9
$DIMCLRE
 70
     0
  9
$DIMCLRT
 70
     0
  9
$DIMTFAC
 40
1.0
  9
$DIMGAP
 40
2.0
  9
$LUNITS
 70
     2
  9
$LUPREC
 70
     2
  9
$SKETCHINC
 40
1.0
  9
$FILLETRAD
 40
10.0
  9
$AUNITS
 70
     0
  9
$AUPREC
 70
     2
  9
$MENU
  1
.
  9
$ELEVATION
 40
0.0
  9
$PELEVATION
 40
0.0
  9
$THICKNESS
 40
0.0
  9
$LIMCHECK
 70
     0
  9
$CHAMFERA
 40
10.0
  9
$CHAMFERB
 40
10.0
  9
$SKPOLY
 70
     0
  9
$TDCREATE
 40
2456630.678505868
  9
$TDUPDATE
 40
2456630.67850588
  9
$TDINDWG
 40
0.0000000116
  9
$TDUSRTIMER
 40
0.0000000116
  9
$USRTIMER
 70
     1
  9
$ANGBASE
 50
0.0
  9
$ANGDIR
 70
     0
  9
$PDMODE
 70
     0
  9
$PDSIZE
 40
-1.0
  9
$PLINEWID
 40
0.0
  9
$COORDS
 70
     1
  9
$SPLFRAME
 70
     0
  9
$SPLINETYPE
 70
     6
  9
$SPLINESEGS
 70
     8
  9
$ATTDIA
 70
     0
  9
$ATTREQ
 70
     1
  9
$HANDLING
 70
     1
  9
$HANDSEED
  5
A75
  9
$SURFTAB1
 70
     6
  9
$SURFTAB2
 70
     6
  9
$SURFTYPE
 70
     6
  9
$SURFU
 70
     6
  9
$SURFV
 70
     6
  9
$UCSNAME
  2

  9
$UCSORG
 10
0.0
 20
0.0
 30
0.0
  9
$UCSXDIR
 10
1.0
 20
0.0
 30
0.0
  9
$UCSYDIR
 10
0.0
 20
1.0
 30
0.0
  9
$PUCSNAME
  2

  9
$PUCSORG
 10
0.0
 20
0.0
 30
0.0
  9
$PUCSXDIR
 10
1.0
 20
0.0
 30
0.0
  9
$PUCSYDIR
 10
0.0
 20
1.0
 30
0.0
  9
$USERI1
 70
     0
  9
$USERI2
 70
     0
  9
$USERI3
 70
     0
  9
$USERI4
 70
     0
  9
$USERI5
 70
     0
  9
$USERR1
 40
0.0
  9
$USERR2
 40
0.0
  9
$USERR3
 40
0.0
  9
$USERR4
 40
0.0
  9
$USERR5
 40
0.0
  9
$WORLDVIEW
 70
     1
  9
$SHADEDGE
 70
     3
  9
$SHADEDIF
 70
    70
  9
$TILEMODE
 70
     1
  9
$MAXACTVP
 70
    64
  9
$PLIMCHECK
 70
     0
  9
$PEXTMIN
 10
1.0000000000E+20
 20
1.0000000000E+20
 30
1.0000000000E+20
  9
$PEXTMAX
 10
-1.0000000000E+20
 20
-1.0000000000E+20
 30
-1.0000000000E+20
  9
$PLIMMIN
 10
0.0
 20
0.0
  9
$PLIMMAX
 10
420.0
 20
297.0
  9
$UNITMODE
 70
     0
  9
$VISRETAIN
 70
     1
  9
$PLINEGEN
 70
     0
  9
$PSLTSCALE
 70
     1
  0
ENDSEC
  0
SECTION
  2
TABLES
  0
TABLE
  2
VPORT
 70
     1
  0
VPORT
  2
*ACTIVE
 70
     0
 10
0.0
 20
0.0
 11
1.0
 21
1.0
 12
297.0
 22
210.0
 13
0.0
 23
0.0
 14
10.0
 24
10.0
 15
10.0
 25
10.0
 16
0.0
 26
0.0
 36
1.0
 17
0.0
 27
0.0
 37
0.0
 40
420.0
 41
1.4142857143
 42
50.0
 43
0.0
 44
0.0
 50
0.0
 51
0.0
 71
     0
 72
  2000
 73
     1
 74
     3
 75
     0
 76
     0
 77
     0
 78
     0
  0
ENDTAB
  0
TABLE
  2
LTYPE
 70
     6
  0
LTYPE
  2
CONTINUOUS
 70
     0
  3
Solid line
 72
    65
 73
     0
 40
0.0
  0
LTYPE
  2
HIDDEN
 70
     0
  3
Hidden __ __ __ __ __ __ __ __ __ __ __ __ __ __
 72
    65
 73
     2
 40
1.905
 49
1.27
 49
-0.635
  0
LTYPE
  2
PHANTOM
 70
     0
  3
Phantom ______  __  __  ______  __  __  ______
 72
    65
 73
     6
 40
12.7
 49
6.35
 49
-1.27
 49
1.27
 49
-1.27
 49
1.27
 49
-1.27
  0
LTYPE
  2
CENTER
 70
     0
  3
Center ____ _ ____ _ ____ _ ____ _ ____ _ ____
 72
    65
 73
     4
 40
10.16
 49
6.35
 49
-1.27
 49
1.27
 49
-1.27
  0
LTYPE
  2
CENTERX2
 70
     0
  3
Center (2x) ________  __  ________  __  _____
 72
    65
 73
     4
 40
20.32
 49
12.7
 49
-2.54
 49
2.54
 49
-2.54
  0
LTYPE
  2
DOT2
 70
     0
  3
Dot (.5x) ........................................
 72
    65
 73
     2
 40
0.635
 49
0.0
 49
-0.635
  0
ENDTAB
  0
TABLE
  2
LAYER
 70
     8
  0
LAYER
  2
0
 70
     0
 62
     7
  6
CONTINUOUS
  0
LAYER
  2
SLD-0
 70
     0
 62
     7
  6
CONTINUOUS
  0
LAYER
  2
AM_BOR
 70
     0
 62
     7
  6
CONTINUOUS
  0
LAYER
  2
BIEGLINIE__ZU_
 70
     0
 62
     8
  6
CONTINUOUS
  0
LAYER
  2
BIEGELINIE__WEG_
 70
     0
 62
     8
  6
HIDDEN
  0
LAYER
  2
LAYER0
 70
     0
 62
     7
  6
CONTINUOUS
  0
LAYER
  2
BIEGELINIE__ZU_
 70
     0
 62
     8
  6
CONTINUOUS
  0
LAYER
  2
CK_LEVEL_1
 70
     0
 62
     7
  6
CONTINUOUS
  0
ENDTAB
  0
TABLE
  2
STYLE
 70
     1
  0
STYLE
  2
STANDARD
 70
     0
 40
0.0
 41
1.0
 50
0.0
 71
     0
 42
2.5
  3
txt
  4

  0
ENDTAB
  0
TABLE
  2
VIEW
 70
     0
  0
ENDTAB
  0
TABLE
  2
UCS
 70
     0
  0
ENDTAB
  0
TABLE
  2
APPID
 70
     1
  0
APPID
  2
ACAD
 70
     0
  0
ENDTAB
  0
TABLE
  2
DIMSTYLE
 70
     1
  0
DIMSTYLE
  2
ISO-25
 70
     0
  3

  4

  5

  6

  7

 40
1.0
 41
2.5
 42
0.625
 43
3.75
 44
1.25
 45
0.0
 46
0.0
 47
0.0
 48
0.0
140
2.5
141
2.5
142
0.0
143
0.0393700787
144
1.0
145
0.0
146
1.0
147
0.625
 71
     0
 72
     0
 73
     0
 74
     0
 75
     0
 76
     0
 77
     1
 78
     8
170
     0
171
     3
172
     1
173
     0
174
     0
175
     0
176
     0
177
     0
178
     0
  0
ENDTAB
  0
ENDSEC
  0
SECTION
  2
BLOCKS
  0
BLOCK
  8
0
  2
$MODEL_SPACE
 70
     0
 10
0.0
 20
0.0
 30
0.0
  3
$MODEL_SPACE
  1

  0
ENDBLK
  5
21
  8
0
  0
BLOCK
 67
     1
  8
0
  2
$PAPER_SPACE
 70
     0
 10
0.0
 20
0.0
 30
0.0
  3
$PAPER_SPACE
  1

  0
ENDBLK
  5
1D
 67
     1
  8
0
  0
BLOCK
  8
0
  2
ERDUNG2
 70
     0
 10
0.0
 20
0.0
 30
0.0
  3
ERDUNG2
  1

  0
CIRCLE
  5
4E
  8
CK_LEVEL_1
  6
CONTINUOUS
 62
     7
 10
7.882894401
 20
8.75
 30
0.0
 40
9.354800019675764
  0
LINE
  5
4F
  8
CK_LEVEL_1
  6
CONTINUOUS
 62
     7
 10
8.7487451733
 20
3.8098753807
 30
0.0
 11
9.700327903
 21
3.8098753807
 31
0.0
  0
LINE
  5
50
  8
CK_LEVEL_1
  6
CONTINUOUS
 62
     7
 10
8.7487451733
 20
3.8098753807
 30
0.0
 11
6.6709551936
 21
3.8098753807
 31
0.0
  0
LINE
  5
51
  8
CK_LEVEL_1
  6
CONTINUOUS
 62
     7
 10
7.882894401
 20
8.75
 30
0.0
 11
12.815547
 21
8.75
 31
0.0
  0
LINE
  5
52
  8
CK_LEVEL_1
  6
CONTINUOUS
 62
     7
 10
11.24812514
 20
6.3492067038
 30
0.0
 11
4.4479159892
 21
6.3492067038
 31
0.0
  0
LINE
  5
53
  8
CK_LEVEL_1
  6
CONTINUOUS
 62
     7
 10
7.882894401
 20
8.75
 30
0.0
 11
2.6893228315
 21
8.75
 31
0.0
  0
LINE
  5
54
  8
CK_LEVEL_1
  6
CONTINUOUS
 62
     7
 10
7.882894401
 20
8.75
 30
0.0
 11
7.882894401
 21
15.2853511284
 31
0.0
  0
ENDBLK
  5
4D
  8
0
  0
ENDSEC
  0
SECTION
  2
ENTITIES
  0
ARC
  5
55
  8
0
  6
CONTINUOUS
 62
     7
 10
350.3655039359
 20
283.4409043797
 30
0.0
 40
9.624099524889589
 50
68.6144531621
 51
85.3073217934
  0
POLYLINE
  5
56
  8
0
  6
CONTINUOUS
 62
     7
 66
     1
 10
0.0
 20
0.0
 30
0.0
  0
VERTEX
  5
675
  8
0
  6
CONTINUOUS
 62
     7
 10
346.3642291331
 20
292.7755484329
 30
0.0
  0
VERTEX
  5
676
  8
0
  6
CONTINUOUS
 62
     7
 10
345.1806969547
 20
292.4479017005
 30
0.0
  0
VERTEX
  5
677
  8
0
  6
CONTINUOUS
 62
     7
 10
345.0711696946
 20
292.4043903099
 30
0.0
  0
SEQEND
  5
678
  8
0
  6
CONTINUOUS
 62
     7
  0
ARC
  5
57
  8
0
  6
CONTINUOUS
 62
     7
 10
349.2295697473
 20
281.9882001092
 30
0.0
 40
11.16140944024322
 50
88.7480104079
 51
104.8754399663
  0
LINE
  5
58
  8
0
  6
CONTINUOUS
 62
     7
 10
-188.4265624381
 20
822.0732578979
 30
0.0
 11
-188.4265624381
 21
821.6814169632
 31
0.0
  0
LINE
  5
59
  8
0
  6
CONTINUOUS
 62
     7
 10
-169.7265588141
 20
821.6814169632
 30
0.0
 11
-169.7265588141
 21
822.0732578979
 31
0.0
  0
ARC
  5
5A
  8
0
  6
CONTINUOUS
 62
     7
 10
-179.0765577651
 20
783.1813692794
 30
0.0
 40
39.99999999999999
 50
76.4820489901
 51
103.5179510099
  0
LINE
  5
5B
  8
0
  6
CONTINUOUS
 62
     7
 10
755.573443284
 20
822.0732578979
 30
0.0
 11
755.573443284
 21
821.6814169632
 31
0.0
  0
LINE
  5
5C
  8
0
  6
CONTINUOUS
 62
     7
 10
774.2734469079
 20
821.6814169632
 30
0.0
 11
774.2734469079
 21
822.0732578979
 31
0.0
  0
ARC
  5
5D
  8
0
  6
CONTINUOUS
 62
     7
 10
764.9234422349
 20
783.1813692794
 30
0.0
 40
40.0
 50
76.4820489901
 51
103.5179510099
  0
LINE
  5
5E
  8
0
  6
CONTINUOUS
 62
     7
 10
287.3734423497
 20
792.4410471664
 30
0.0
 11
293.4734419991
 21
792.4410471664
 31
0.0
  0
LINE
  5
5F
  8
0
  6
CONTINUOUS
 62
     7
 10
287.3734423497
 20
815.6813750015
 30
0.0
 11
293.4734419991
 21
815.6813750015
 31
0.0
  0
LINE
  5
60
  8
0
  6
CONTINUOUS
 62
     7
 10
293.4734419991
 20
-332.7783351793
 30
0.0
 11
287.3734423497
 21
-332.7783351793
 31
0.0
  0
LINE
  5
61
  8
0
  6
CONTINUOUS
 62
     7
 10
295.6739891392
 20
-356.0186313494
 30
0.0
 11
295.0288086736
 21
-356.0186313494
 31
0.0
  0
LINE
  5
62
  8
0
  6
CONTINUOUS
 62
     7
 10
293.4734419991
 20
-356.0186313494
 30
0.0
 11
287.3734423497
 21
-356.0186313494
 31
0.0
  0
LINE
  5
63
  8
0
  6
CONTINUOUS
 62
     7
 10
285.8143394419
 20
-356.0186313494
 30
0.0
 11
285.1485248261
 21
-356.0186313494
 31
0.0
  0
ARC
  5
64
  8
0
  6
CONTINUOUS
 62
     7
 10
294.9734420152
 20
818.6813692795
 30
0.0
 40
2.999999999999936
 50
300.0
 51
330.0
  0
ARC
  5
65
  8
0
  6
CONTINUOUS
 62
     7
 10
790.4734420152
 20
818.6813692795
 30
0.0
 40
3.000000000000008
 50
210.0
 51
240.0
  0
ARC
  5
66
  8
0
  6
CONTINUOUS
 62
     7
 10
790.4734420152
 20
-358.8186307205
 30
0.0
 40
3.0
 50
120.0
 51
150.0
  0
ARC
  5
67
  8
0
  6
CONTINUOUS
 62
     7
 10
294.9734420152
 20
-358.8186307205
 30
0.0
 40
3.0
 50
30.0
 51
60.0
  0
LINE
  5
68
  8
0
  6
CONTINUOUS
 62
     7
 10
293.4734419991
 20
-337.7903481974
 30
0.0
 11
293.4734419991
 21
797.4530825363
 31
0.0
  0
LINE
  5
69
  8
0
  6
CONTINUOUS
 62
     7
 10
293.4734419991
 20
802.8788933502
 30
0.0
 11
293.4734419991
 21
816.0833487258
 31
0.0
  0
POLYLINE
  5
6A
  8
0
  6
CONTINUOUS
 62
     7
 66
     1
 10
0.0
 20
0.0
 30
0.0
  0
VERTEX
  5
679
  8
0
  6
CONTINUOUS
 62
     7
 10
296.4734420252
 20
816.0833487258
 30
0.0
  0
VERTEX
  5
67A
  8
0
  6
CONTINUOUS
 62
     7
 10
295.7912955039
 20
815.9017929779
 30
0.0
  0
VERTEX
  5
67B
  8
0
  6
CONTINUOUS
 62
     7
 10
295.2045343422
 20
815.772570108
 30
0.0
  0
VERTEX
  5
67C
  8
0
  6
CONTINUOUS
 62
     7
 10
294.3525233145
 20
815.6706461654
 30
0.0
  0
VERTEX
  5
67D
  8
0
  6
CONTINUOUS
 62
     7
 10
293.7638796006
 20
815.7749542938
 30
0.0
  0
VERTEX
  5
67E
  8
0
  6
CONTINUOUS
 62
     7
 10
293.5555815652
 20
815.9037003265
 30
0.0
  0
VERTEX
  5
67F
  8
0
  6
CONTINUOUS
 62
     7
 10
293.4734419991
 20
816.0833487258
 30
0.0
  0
SEQEND
  5
680
  8
0
  6
CONTINUOUS
 62
     7
  0
POLYLINE
  5
6B
  8
0
  6
CONTINUOUS
 62
     7
 66
     1
 10
0.0
 20
0.0
 30
0.0
  0
VERTEX
  5
681
  8
0
  6
CONTINUOUS
 62
     7
 10
293.4734419991
 20
-356.2205551221
 30
0.0
  0
VERTEX
  5
682
  8
0
  6
CONTINUOUS
 62
     7
 10
293.5520251935
 20
-356.0391036822
 30
0.0
  0
VERTEX
  5
683
  8
0
  6
CONTINUOUS
 62
     7
 10
293.755009859
 20
-355.9098472847
 30
0.0
  0
VERTEX
  5
684
  8
0
  6
CONTINUOUS
 62
     7
 10
294.3517200488
 20
-355.8079158916
 30
0.0
  0
VERTEX
  5
685
  8
0
  6
CONTINUOUS
 62
     7
 10
295.1857032326
 20
-355.9122519596
 30
0.0
  0
VERTEX
  5
686
  8
0
  6
CONTINUOUS
 62
     7
 10
295.7762402088
 20
-356.0409067227
 30
0.0
  0
VERTEX
  5
687
  8
0
  6
CONTINUOUS
 62
     7
 10
296.4734420252
 20
-356.2205551221
 30
0.0
  0
SEQEND
  5
688
  8
0
  6
CONTINUOUS
 62
     7
  0
LINE
  5
6C
  8
0
  6
CONTINUOUS
 62
     7
 10
293.4734419991
 20
-356.2205551221
 30
0.0
 11
293.4734419991
 21
-343.2162111654
 31
0.0
  0
POLYLINE
  5
6D
  8
0
  6
CONTINUOUS
 62
     7
 66
     1
 10
0.0
 20
0.0
 30
0.0
  0
VERTEX
  5
689
  8
0
  6
CONTINUOUS
 62
     7
 10
297.5715181396
 20
820.1814064727
 30
0.0
  0
VERTEX
  5
68A
  8
0
  6
CONTINUOUS
 62
     7
 10
297.7529691138
 20
820.1027283416
 30
0.0
  0
VERTEX
  5
68B
  8
0
  6
CONTINUOUS
 62
     7
 10
297.882225977
 20
819.8998341308
 30
0.0
  0
VERTEX
  5
68C
  8
0
  6
CONTINUOUS
 62
     7
 10
297.9841559731
 20
819.3030724273
 30
0.0
  0
VERTEX
  5
68D
  8
0
  6
CONTINUOUS
 62
     7
 10
297.8798208364
 20
818.4690842376
 30
0.0
  0
VERTEX
  5
68E
  8
0
  6
CONTINUOUS
 62
     7
 10
297.7511656077
 20
817.8785214172
 30
0.0
  0
VERTEX
  5
68F
  8
0
  6
CONTINUOUS
 62
     7
 10
297.5715181396
 20
817.1813854919
 30
0.0
  0
SEQEND
  5
690
  8
0
  6
CONTINUOUS
 62
     7
  0
LINE
  5
6E
  8
0
  6
CONTINUOUS
 62
     7
 10
297.5715181396
 20
820.1814064727
 30
0.0
 11
787.8753758573
 21
820.1814064727
 31
0.0
  0
POLYLINE
  5
6F
  8
0
  6
CONTINUOUS
 62
     7
 66
     1
 10
0.0
 20
0.0
 30
0.0
  0
VERTEX
  5
691
  8
0
  6
CONTINUOUS
 62
     7
 10
787.8753758573
 20
817.1813854919
 30
0.0
  0
VERTEX
  5
692
  8
0
  6
CONTINUOUS
 62
     7
 10
787.6939095163
 20
817.8635010467
 30
0.0
  0
VERTEX
  5
693
  8
0
  6
CONTINUOUS
 62
     7
 10
787.5646568441
 20
818.4502491699
 30
0.0
  0
VERTEX
  5
694
  8
0
  6
CONTINUOUS
 62
     7
 10
787.4627329015
 20
819.3022379623
 30
0.0
  0
VERTEX
  5
695
  8
0
  6
CONTINUOUS
 62
     7
 10
787.5670708322
 20
819.8908934341
 30
0.0
  0
VERTEX
  5
696
  8
0
  6
CONTINUOUS
 62
     7
 10
787.6957274579
 20
820.0992712722
 30
0.0
  0
VERTEX
  5
697
  8
0
  6
CONTINUOUS
 62
     7
 10
787.8753758573
 20
820.1814064727
 30
0.0
  0
SEQEND
  5
698
  8
0
  6
CONTINUOUS
 62
     7
  0
POLYLINE
  5
70
  8
0
  6
CONTINUOUS
 62
     7
 66
     1
 10
0.0
 20
0.0
 30
0.0
  0
VERTEX
  5
699
  8
0
  6
CONTINUOUS
 62
     7
 10
787.8753758573
 20
-360.3186314954
 30
0.0
  0
VERTEX
  5
69A
  8
0
  6
CONTINUOUS
 62
     7
 10
787.6939095163
 20
-360.2400483592
 30
0.0
  0
VERTEX
  5
69B
  8
0
  6
CONTINUOUS
 62
     7
 10
787.5646568441
 20
-360.0370628788
 30
0.0
  0
VERTEX
  5
69C
  8
0
  6
CONTINUOUS
 62
     7
 10
787.4627329015
 20
-359.4403533294
 30
0.0
  0
VERTEX
  5
69D
  8
0
  6
CONTINUOUS
 62
     7
 10
787.5670708322
 20
-358.606368865
 30
0.0
  0
VERTEX
  5
69E
  8
0
  6
CONTINUOUS
 62
     7
 10
787.6957274579
 20
-358.0158321216
 30
0.0
  0
VERTEX
  5
69F
  8
0
  6
CONTINUOUS
 62
     7
 10
787.8753758573
 20
-357.3186310037
 30
0.0
  0
SEQEND
  5
6A0
  8
0
  6
CONTINUOUS
 62
     7
  0
LINE
  5
71
  8
0
  6
CONTINUOUS
 62
     7
 10
787.8753758573
 20
-360.3186314954
 30
0.0
 11
297.5715181396
 21
-360.3186314954
 31
0.0
  0
POLYLINE
  5
72
  8
0
  6
CONTINUOUS
 62
     7
 66
     1
 10
0.0
 20
0.0
 30
0.0
  0
VERTEX
  5
6A1
  8
0
  6
CONTINUOUS
 62
     7
 10
297.5715181396
 20
-357.3186310037
 30
0.0
  0
VERTEX
  5
6A2
  8
0
  6
CONTINUOUS
 62
     7
 10
297.7529691138
 20
-358.0007763608
 30
0.0
  0
VERTEX
  5
6A3
  8
0
  6
CONTINUOUS
 62
     7
 10
297.882225977
 20
-358.5875375225
 30
0.0
  0
VERTEX
  5
6A4
  8
0
  6
CONTINUOUS
 62
     7
 10
297.9841559731
 20
-359.4395486667
 30
0.0
  0
VERTEX
  5
6A5
  8
0
  6
CONTINUOUS
 62
     7
 10
297.8798208364
 20
-360.0281929626
 30
0.0
  0
VERTEX
  5
6A6
  8
0
  6
CONTINUOUS
 62
     7
 10
297.7511656077
 20
-360.236490707
 30
0.0
  0
VERTEX
  5
6A7
  8
0
  6
CONTINUOUS
 62
     7
 10
297.5715181396
 20
-360.3186314954
 30
0.0
  0
SEQEND
  5
6A8
  8
0
  6
CONTINUOUS
 62
     7
  0
LINE
  5
73
  8
0
  6
CONTINUOUS
 62
     7
 10
787.8753758573
 20
820.1814064727
 30
0.0
 11
787.8753758573
 21
818.6813959823
 31
0.0
  0
LINE
  5
74
  8
0
  6
CONTINUOUS
 62
     7
 10
293.4734419991
 20
816.0833487258
 30
0.0
 11
294.9734420122
 21
816.0833487258
 31
0.0
  0
POLYLINE
  5
75
  8
0
  6
CONTINUOUS
 62
     7
 66
     1
 10
0.0
 20
0.0
 30
0.0
  0
VERTEX
  5
6A9
  8
0
  6
CONTINUOUS
 62
     7
 10
788.9734424257
 20
-356.2205551221
 30
0.0
  0
VERTEX
  5
6AA
  8
0
  6
CONTINUOUS
 62
     7
 10
789.6555877828
 20
-356.0391036822
 30
0.0
  0
VERTEX
  5
6AB
  8
0
  6
CONTINUOUS
 62
     7
 10
790.242335906
 20
-355.9098472847
 30
0.0
  0
VERTEX
  5
6AC
  8
0
  6
CONTINUOUS
 62
     7
 10
791.0943545007
 20
-355.8079158916
 30
0.0
  0
VERTEX
  5
6AD
  8
0
  6
CONTINUOUS
 62
     7
 10
791.6830099725
 20
-355.9122519596
 30
0.0
  0
VERTEX
  5
6AE
  8
0
  6
CONTINUOUS
 62
     7
 10
791.8912984037
 20
-356.0409067227
 30
0.0
  0
VERTEX
  5
6AF
  8
0
  6
CONTINUOUS
 62
     7
 10
791.9734336042
 20
-356.2205551221
 30
0.0
  0
SEQEND
  5
6B0
  8
0
  6
CONTINUOUS
 62
     7
  0
LINE
  5
76
  8
0
  6
CONTINUOUS
 62
     7
 10
791.9734336042
 20
-356.2205551221
 30
0.0
 11
790.4734529161
 21
-356.2205551221
 31
0.0
  0
POLYLINE
  5
77
  8
0
  6
CONTINUOUS
 62
     7
 66
     1
 10
0.0
 20
0.0
 30
0.0
  0
VERTEX
  5
6B1
  8
0
  6
CONTINUOUS
 62
     7
 10
791.9734336042
 20
816.0833487258
 30
0.0
  0
VERTEX
  5
6B2
  8
0
  6
CONTINUOUS
 62
     7
 10
791.89484488
 20
815.9017929779
 30
0.0
  0
VERTEX
  5
6B3
  8
0
  6
CONTINUOUS
 62
     7
 10
791.6918612623
 20
815.772570108
 30
0.0
  0
VERTEX
  5
6B4
  8
0
  6
CONTINUOUS
 62
     7
 10
791.0951591634
 20
815.6706461654
 30
0.0
  0
VERTEX
  5
6B5
  8
0
  6
CONTINUOUS
 62
     7
 10
790.2611709737
 20
815.7749542938
 30
0.0
  0
VERTEX
  5
6B6
  8
0
  6
CONTINUOUS
 62
     7
 10
789.6706379556
 20
815.9037003265
 30
0.0
  0
VERTEX
  5
6B7
  8
0
  6
CONTINUOUS
 62
     7
 10
788.9734424257
 20
816.0833487258
 30
0.0
  0
SEQEND
  5
6B8
  8
0
  6
CONTINUOUS
 62
     7
  0
LINE
  5
78
  8
0
  6
CONTINUOUS
 62
     7
 10
791.9734336042
 20
816.0833487258
 30
0.0
 11
791.9734336042
 21
-356.2205551221
 31
0.0
  0
LINE
  5
79
  8
0
  6
CONTINUOUS
 62
     7
 10
297.5715181396
 20
818.6813959823
 30
0.0
 11
297.5715181396
 21
820.1814064727
 31
0.0
  0
LINE
  5
7A
  8
0
  6
CONTINUOUS
 62
     7
 10
790.4734529161
 20
816.0833487258
 30
0.0
 11
791.9734336042
 21
816.0833487258
 31
0.0
  0
LINE
  5
7B
  8
0
  6
CONTINUOUS
 62
     7
 10
294.9734420122
 20
-356.2205551221
 30
0.0
 11
293.4734419991
 21
-356.2205551221
 31
0.0
  0
LINE
  5
7C
  8
0
  6
CONTINUOUS
 62
     7
 10
297.5715181396
 20
-360.3186314954
 30
0.0
 11
297.5715181396
 21
-358.8186303182
 31
0.0
  0
LINE
  5
7D
  8
0
  6
CONTINUOUS
 62
     7
 10
787.8753758573
 20
-358.8186303182
 30
0.0
 11
787.8753758573
 21
-360.3186314954
 31
0.0
  0
LINE
  5
7E
  8
0
  6
CONTINUOUS
 62
     7
 10
294.9734420122
 20
-360.3186314954
 30
0.0
 11
294.9734420122
 21
-358.8186303182
 31
0.0
  0
LINE
  5
7F
  8
0
  6
CONTINUOUS
 62
     7
 10
297.5715181396
 20
-358.8186303182
 30
0.0
 11
294.9734420122
 21
-358.8186303182
 31
0.0
  0
LINE
  5
80
  8
0
  6
CONTINUOUS
 62
     7
 10
294.9734420122
 20
-360.3186314954
 30
0.0
 11
297.5715181396
 21
-360.3186314954
 31
0.0
  0
LINE
  5
81
  8
0
  6
CONTINUOUS
 62
     7
 10
790.4734529161
 20
820.1814064727
 30
0.0
 11
790.4734529161
 21
818.6813959823
 31
0.0
  0
LINE
  5
82
  8
0
  6
CONTINUOUS
 62
     7
 10
787.8753758573
 20
818.6813959823
 30
0.0
 11
790.4734529161
 21
818.6813959823
 31
0.0
  0
LINE
  5
83
  8
0
  6
CONTINUOUS
 62
     7
 10
790.4734529161
 20
820.1814064727
 30
0.0
 11
787.8753758573
 21
820.1814064727
 31
0.0
  0
LINE
  5
84
  8
0
  6
CONTINUOUS
 62
     7
 10
791.9734336042
 20
-358.8186303182
 30
0.0
 11
790.4734529161
 21
-358.8186303182
 31
0.0
  0
LINE
  5
85
  8
0
  6
CONTINUOUS
 62
     7
 10
790.4734529161
 20
-358.8186303182
 30
0.0
 11
790.4734529161
 21
-356.2205551221
 31
0.0
  0
LINE
  5
86
  8
0
  6
CONTINUOUS
 62
     7
 10
791.9734336042
 20
-358.8186303182
 30
0.0
 11
791.9734336042
 21
-356.2205551221
 31
0.0
  0
LINE
  5
87
  8
0
  6
CONTINUOUS
 62
     7
 10
294.9734420122
 20
-358.8186303182
 30
0.0
 11
293.4734419991
 21
-358.8186303182
 31
0.0
  0
LINE
  5
88
  8
0
  6
CONTINUOUS
 62
     7
 10
293.4734419991
 20
-356.2205551221
 30
0.0
 11
293.4734419991
 21
-358.8186303182
 31
0.0
  0
LINE
  5
89
  8
0
  6
CONTINUOUS
 62
     7
 10
294.9734420122
 20
-358.8186303182
 30
0.0
 11
294.9734420122
 21
-356.2205551221
 31
0.0
  0
LINE
  5
8A
  8
0
  6
CONTINUOUS
 62
     7
 10
790.4734529161
 20
818.6813959823
 30
0.0
 11
791.9734336042
 21
818.6813959823
 31
0.0
  0
LINE
  5
8B
  8
0
  6
CONTINUOUS
 62
     7
 10
790.4734529161
 20
818.6813959823
 30
0.0
 11
790.4734529161
 21
816.0833487258
 31
0.0
  0
LINE
  5
8C
  8
0
  6
CONTINUOUS
 62
     7
 10
791.9734336042
 20
816.0833487258
 30
0.0
 11
791.9734336042
 21
818.6813959823
 31
0.0
  0
LINE
  5
8D
  8
0
  6
CONTINUOUS
 62
     7
 10
293.4734419991
 20
818.6813959823
 30
0.0
 11
294.9734420122
 21
818.6813959823
 31
0.0
  0
LINE
  5
8E
  8
0
  6
CONTINUOUS
 62
     7
 10
294.9734420122
 20
816.0833487258
 30
0.0
 11
294.9734420122
 21
818.6813959823
 31
0.0
  0
LINE
  5
8F
  8
0
  6
CONTINUOUS
 62
     7
 10
293.4734419991
 20
818.6813959823
 30
0.0
 11
293.4734419991
 21
816.0833487258
 31
0.0
  0
LINE
  5
90
  8
0
  6
CONTINUOUS
 62
     7
 10
294.9734420122
 20
818.6813959823
 30
0.0
 11
294.9734420122
 21
820.1814064727
 31
0.0
  0
LINE
  5
91
  8
0
  6
CONTINUOUS
 62
     7
 10
294.9734420122
 20
818.6813959823
 30
0.0
 11
297.5715181396
 21
818.6813959823
 31
0.0
  0
LINE
  5
92
  8
0
  6
CONTINUOUS
 62
     7
 10
297.5715181396
 20
820.1814064727
 30
0.0
 11
294.9734420122
 21
820.1814064727
 31
0.0
  0
LINE
  5
93
  8
0
  6
CONTINUOUS
 62
     7
 10
790.4734529161
 20
-358.8186303182
 30
0.0
 11
790.4734529161
 21
-360.3186314954
 31
0.0
  0
LINE
  5
94
  8
0
  6
CONTINUOUS
 62
     7
 10
787.8753758573
 20
-358.8186303182
 30
0.0
 11
790.4734529161
 21
-358.8186303182
 31
0.0
  0
LINE
  5
95
  8
0
  6
CONTINUOUS
 62
     7
 10
787.8753758573
 20
-360.3186314954
 30
0.0
 11
790.4734529161
 21
-360.3186314954
 31
0.0
  0
POLYLINE
  5
96
  8
0
  6
CONTINUOUS
 62
     7
 66
     1
 10
0.0
 20
0.0
 30
0.0
  0
VERTEX
  5
6B9
  8
0
  6
CONTINUOUS
 62
     7
 10
-206.1265491343
 20
-356.2205551221
 30
0.0
  0
VERTEX
  5
6BA
  8
0
  6
CONTINUOUS
 62
     7
 10
-206.0479604102
 20
-356.0391036822
 30
0.0
  0
VERTEX
  5
6BB
  8
0
  6
CONTINUOUS
 62
     7
 10
-205.8449767924
 20
-355.9098472847
 30
0.0
  0
VERTEX
  5
6BC
  8
0
  6
CONTINUOUS
 62
     7
 10
-205.2482746936
 20
-355.8079158916
 30
0.0
  0
VERTEX
  5
6BD
  8
0
  6
CONTINUOUS
 62
     7
 10
-204.4142865039
 20
-355.9122519596
 30
0.0
  0
VERTEX
  5
6BE
  8
0
  6
CONTINUOUS
 62
     7
 10
-203.8237534857
 20
-356.0409067227
 30
0.0
  0
VERTEX
  5
6BF
  8
0
  6
CONTINUOUS
 62
     7
 10
-203.1265579558
 20
-356.2205551221
 30
0.0
  0
SEQEND
  5
6C0
  8
0
  6
CONTINUOUS
 62
     7
  0
LINE
  5
97
  8
0
  6
CONTINUOUS
 62
     7
 10
-204.6265684462
 20
-356.2205551221
 30
0.0
 11
-206.1265491343
 21
-356.2205551221
 31
0.0
  0
POLYLINE
  5
98
  8
0
  6
CONTINUOUS
 62
     7
 66
     1
 10
0.0
 20
0.0
 30
0.0
  0
VERTEX
  5
6C1
  8
0
  6
CONTINUOUS
 62
     7
 10
287.3734423497
 20
816.0833487258
 30
0.0
  0
VERTEX
  5
6C2
  8
0
  6
CONTINUOUS
 62
     7
 10
287.2948592135
 20
815.9017929779
 30
0.0
  0
VERTEX
  5
6C3
  8
0
  6
CONTINUOUS
 62
     7
 10
287.0918746644
 20
815.772570108
 30
0.0
  0
VERTEX
  5
6C4
  8
0
  6
CONTINUOUS
 62
     7
 10
286.4951641836
 20
815.6706461654
 30
0.0
  0
VERTEX
  5
6C5
  8
0
  6
CONTINUOUS
 62
     7
 10
285.6611811162
 20
815.7749542938
 30
0.0
  0
VERTEX
  5
6C6
  8
0
  6
CONTINUOUS
 62
     7
 10
285.0706439071
 20
815.9037003265
 30
0.0
  0
VERTEX
  5
6C7
  8
0
  6
CONTINUOUS
 62
     7
 10
284.3734427893
 20
816.0833487258
 30
0.0
  0
SEQEND
  5
6C8
  8
0
  6
CONTINUOUS
 62
     7
  0
LINE
  5
99
  8
0
  6
CONTINUOUS
 62
     7
 10
285.8734425695
 20
816.0833487258
 30
0.0
 11
287.3734423497
 21
816.0833487258
 31
0.0
  0
ARC
  5
9A
  8
0
  6
CONTINUOUS
 62
     7
 10
285.8734424543
 20
818.6813692794
 30
0.0
 40
3.0
 50
210.0
 51
240.0
  0
ARC
  5
9B
  8
0
  6
CONTINUOUS
 62
     7
 10
285.8734424543
 20
-358.8186307206
 30
0.0
 40
2.999999999999699
 50
120.0
 51
150.0
  0
ARC
  5
9C
  8
0
  6
CONTINUOUS
 62
     7
 10
-204.6265575457
 20
-358.8186307206
 30
0.0
 40
3.000000000000049
 50
30.0
 51
60.0
  0
ARC
  5
9D
  8
0
  6
CONTINUOUS
 62
     7
 10
-204.6265575457
 20
818.6813692794
 30
0.0
 40
3.000000000000119
 50
300.0
 51
330.0
  0
LINE
  5
9E
  8
0
  6
CONTINUOUS
 62
     7
 10
-206.1265491343
 20
-356.2205551221
 30
0.0
 11
-206.1265491343
 21
816.0833487258
 31
0.0
  0
POLYLINE
  5
9F
  8
0
  6
CONTINUOUS
 62
     7
 66
     1
 10
0.0
 20
0.0
 30
0.0
  0
VERTEX
  5
6C9
  8
0
  6
CONTINUOUS
 62
     7
 10
-203.1265579558
 20
816.0833487258
 30
0.0
  0
VERTEX
  5
6CA
  8
0
  6
CONTINUOUS
 62
     7
 10
-203.8087033129
 20
815.9017929779
 30
0.0
  0
VERTEX
  5
6CB
  8
0
  6
CONTINUOUS
 62
     7
 10
-204.3954514361
 20
815.772570108
 30
0.0
  0
VERTEX
  5
6CC
  8
0
  6
CONTINUOUS
 62
     7
 10
-205.2474700309
 20
815.6706461654
 30
0.0
  0
VERTEX
  5
6CD
  8
0
  6
CONTINUOUS
 62
     7
 10
-205.8361255027
 20
815.7749542938
 30
0.0
  0
VERTEX
  5
6CE
  8
0
  6
CONTINUOUS
 62
     7
 10
-206.0444139338
 20
815.9037003265
 30
0.0
  0
VERTEX
  5
6CF
  8
0
  6
CONTINUOUS
 62
     7
 10
-206.1265491343
 20
816.0833487258
 30
0.0
  0
SEQEND
  5
6D0
  8
0
  6
CONTINUOUS
 62
     7
  0
POLYLINE
  5
A0
  8
0
  6
CONTINUOUS
 62
     7
 66
     1
 10
0.0
 20
0.0
 30
0.0
  0
VERTEX
  5
6D1
  8
0
  6
CONTINUOUS
 62
     7
 10
-202.0284913874
 20
820.1814064727
 30
0.0
  0
VERTEX
  5
6D2
  8
0
  6
CONTINUOUS
 62
     7
 10
-201.8470250464
 20
820.1027283416
 30
0.0
  0
VERTEX
  5
6D3
  8
0
  6
CONTINUOUS
 62
     7
 10
-201.7177723742
 20
819.8998341308
 30
0.0
  0
VERTEX
  5
6D4
  8
0
  6
CONTINUOUS
 62
     7
 10
-201.6158484317
 20
819.3030724273
 30
0.0
  0
VERTEX
  5
6D5
  8
0
  6
CONTINUOUS
 62
     7
 10
-201.7201863623
 20
818.4690842376
 30
0.0
  0
VERTEX
  5
6D6
  8
0
  6
CONTINUOUS
 62
     7
 10
-201.8488429881
 20
817.8785214172
 30
0.0
  0
VERTEX
  5
6D7
  8
0
  6
CONTINUOUS
 62
     7
 10
-202.0284913874
 20
817.1813854919
 30
0.0
  0
SEQEND
  5
6D8
  8
0
  6
CONTINUOUS
 62
     7
  0
LINE
  5
A1
  8
0
  6
CONTINUOUS
 62
     7
 10
-202.0284913874
 20
820.1814064727
 30
0.0
 11
283.2753659763
 21
820.1814064727
 31
0.0
  0
POLYLINE
  5
A2
  8
0
  6
CONTINUOUS
 62
     7
 66
     1
 10
0.0
 20
0.0
 30
0.0
  0
VERTEX
  5
6D9
  8
0
  6
CONTINUOUS
 62
     7
 10
283.2753659763
 20
817.1813854919
 30
0.0
  0
VERTEX
  5
6DA
  8
0
  6
CONTINUOUS
 62
     7
 10
283.0939154678
 20
817.8635010467
 30
0.0
  0
VERTEX
  5
6DB
  8
0
  6
CONTINUOUS
 62
     7
 10
282.964658139
 20
818.4502491699
 30
0.0
  0
VERTEX
  5
6DC
  8
0
  6
CONTINUOUS
 62
     7
 10
282.8627286085
 20
819.3022379623
 30
0.0
  0
VERTEX
  5
6DD
  8
0
  6
CONTINUOUS
 62
     7
 10
282.9670637452
 20
819.8908934341
 30
0.0
  0
VERTEX
  5
6DE
  8
0
  6
CONTINUOUS
 62
     7
 10
283.0957194396
 20
820.0992712722
 30
0.0
  0
VERTEX
  5
6DF
  8
0
  6
CONTINUOUS
 62
     7
 10
283.2753659763
 20
820.1814064727
 30
0.0
  0
SEQEND
  5
6E0
  8
0
  6
CONTINUOUS
 62
     7
  0
POLYLINE
  5
A3
  8
0
  6
CONTINUOUS
 62
     7
 66
     1
 10
0.0
 20
0.0
 30
0.0
  0
VERTEX
  5
6E1
  8
0
  6
CONTINUOUS
 62
     7
 10
283.2753659763
 20
-360.3186314954
 30
0.0
  0
VERTEX
  5
6E2
  8
0
  6
CONTINUOUS
 62
     7
 10
283.0939154678
 20
-360.2400483592
 30
0.0
  0
VERTEX
  5
6E3
  8
0
  6
CONTINUOUS
 62
     7
 10
282.964658139
 20
-360.0370628788
 30
0.0
  0
VERTEX
  5
6E4
  8
0
  6
CONTINUOUS
 62
     7
 10
282.8627286085
 20
-359.4403533294
 30
0.0
  0
VERTEX
  5
6E5
  8
0
  6
CONTINUOUS
 62
     7
 10
282.9670637452
 20
-358.606368865
 30
0.0
  0
VERTEX
  5
6E6
  8
0
  6
CONTINUOUS
 62
     7
 10
283.0957194396
 20
-358.0158321216
 30
0.0
  0
VERTEX
  5
6E7
  8
0
  6
CONTINUOUS
 62
     7
 10
283.2753659763
 20
-357.3186310037
 30
0.0
  0
SEQEND
  5
6E8
  8
0
  6
CONTINUOUS
 62
     7
  0
LINE
  5
A4
  8
0
  6
CONTINUOUS
 62
     7
 10
283.2753659763
 20
-360.3186314954
 30
0.0
 11
-202.0284913874
 21
-360.3186314954
 31
0.0
  0
POLYLINE
  5
A5
  8
0
  6
CONTINUOUS
 62
     7
 66
     1
 10
0.0
 20
0.0
 30
0.0
  0
VERTEX
  5
6E9
  8
0
  6
CONTINUOUS
 62
     7
 10
-202.0284913874
 20
-357.3186310037
 30
0.0
  0
VERTEX
  5
6EA
  8
0
  6
CONTINUOUS
 62
     7
 10
-201.8470250464
 20
-358.0007763608
 30
0.0
  0
VERTEX
  5
6EB
  8
0
  6
CONTINUOUS
 62
     7
 10
-201.7177723742
 20
-358.5875375225
 30
0.0
  0
VERTEX
  5
6EC
  8
0
  6
CONTINUOUS
 62
     7
 10
-201.6158484317
 20
-359.4395486667
 30
0.0
  0
VERTEX
  5
6ED
  8
0
  6
CONTINUOUS
 62
     7
 10
-201.7201863623
 20
-360.0281929626
 30
0.0
  0
VERTEX
  5
6EE
  8
0
  6
CONTINUOUS
 62
     7
 10
-201.8488429881
 20
-360.236490707
 30
0.0
  0
VERTEX
  5
6EF
  8
0
  6
CONTINUOUS
 62
     7
 10
-202.0284913874
 20
-360.3186314954
 30
0.0
  0
SEQEND
  5
6F0
  8
0
  6
CONTINUOUS
 62
     7
  0
POLYLINE
  5
A6
  8
0
  6
CONTINUOUS
 62
     7
 66
     1
 10
0.0
 20
0.0
 30
0.0
  0
VERTEX
  5
6F1
  8
0
  6
CONTINUOUS
 62
     7
 10
284.3734427893
 20
-356.2205551221
 30
0.0
  0
VERTEX
  5
6F2
  8
0
  6
CONTINUOUS
 62
     7
 10
285.0555890777
 20
-356.0391036822
 30
0.0
  0
VERTEX
  5
6F3
  8
0
  6
CONTINUOUS
 62
     7
 10
285.6423502394
 20
-355.9098472847
 30
0.0
  0
VERTEX
  5
6F4
  8
0
  6
CONTINUOUS
 62
     7
 10
286.4943609179
 20
-355.8079158916
 30
0.0
  0
VERTEX
  5
6F5
  8
0
  6
CONTINUOUS
 62
     7
 10
287.0830047482
 20
-355.9122519596
 30
0.0
  0
VERTEX
  5
6F6
  8
0
  6
CONTINUOUS
 62
     7
 10
287.2913029582
 20
-356.0409067227
 30
0.0
  0
VERTEX
  5
6F7
  8
0
  6
CONTINUOUS
 62
     7
 10
287.3734423497
 20
-356.2205551221
 30
0.0
  0
SEQEND
  5
6F8
  8
0
  6
CONTINUOUS
 62
     7
  0
LINE
  5
A7
  8
0
  6
CONTINUOUS
 62
     7
 10
287.3734423497
 20
-356.2205551221
 30
0.0
 11
285.8734425695
 21
-356.2205551221
 31
0.0
  0
LINE
  5
A8
  8
0
  6
CONTINUOUS
 62
     7
 10
-202.0284913874
 20
818.6813959823
 30
0.0
 11
-202.0284913874
 21
820.1814064727
 31
0.0
  0
LINE
  5
A9
  8
0
  6
CONTINUOUS
 62
     7
 10
-206.1265491343
 20
816.0833487258
 30
0.0
 11
-204.6265684462
 21
816.0833487258
 31
0.0
  0
LINE
  5
AA
  8
0
  6
CONTINUOUS
 62
     7
 10
-202.0284913874
 20
-360.3186314954
 30
0.0
 11
-202.0284913874
 21
-358.8186303182
 31
0.0
  0
LINE
  5
AB
  8
0
  6
CONTINUOUS
 62
     7
 10
283.2753659763
 20
-358.8186303182
 30
0.0
 11
283.2753659763
 21
-360.3186314954
 31
0.0
  0
LINE
  5
AC
  8
0
  6
CONTINUOUS
 62
     7
 10
287.3734423497
 20
797.4530825363
 30
0.0
 11
287.3734423497
 21
-337.7903481974
 31
0.0
  0
LINE
  5
AD
  8
0
  6
CONTINUOUS
 62
     7
 10
287.3734423497
 20
-343.2162111654
 30
0.0
 11
287.3734423497
 21
-356.2205551221
 31
0.0
  0
LINE
  5
AE
  8
0
  6
CONTINUOUS
 62
     7
 10
287.3734423497
 20
816.0833487258
 30
0.0
 11
287.3734423497
 21
802.8788933502
 31
0.0
  0
LINE
  5
AF
  8
0
  6
CONTINUOUS
 62
     7
 10
283.2753659763
 20
820.1814064727
 30
0.0
 11
283.2753659763
 21
818.6813959823
 31
0.0
  0
LINE
  5
B0
  8
0
  6
CONTINUOUS
 62
     7
 10
285.8734425695
 20
820.1814064727
 30
0.0
 11
285.8734425695
 21
818.6813959823
 31
0.0
  0
LINE
  5
B1
  8
0
  6
CONTINUOUS
 62
     7
 10
283.2753659763
 20
818.6813959823
 30
0.0
 11
285.8734425695
 21
818.6813959823
 31
0.0
  0
LINE
  5
B2
  8
0
  6
CONTINUOUS
 62
     7
 10
285.8734425695
 20
820.1814064727
 30
0.0
 11
283.2753659763
 21
820.1814064727
 31
0.0
  0
LINE
  5
B3
  8
0
  6
CONTINUOUS
 62
     7
 10
-204.6265684462
 20
-360.3186314954
 30
0.0
 11
-204.6265684462
 21
-358.8186303182
 31
0.0
  0
LINE
  5
B4
  8
0
  6
CONTINUOUS
 62
     7
 10
-202.0284913874
 20
-358.8186303182
 30
0.0
 11
-204.6265684462
 21
-358.8186303182
 31
0.0
  0
LINE
  5
B5
  8
0
  6
CONTINUOUS
 62
     7
 10
-204.6265684462
 20
-360.3186314954
 30
0.0
 11
-202.0284913874
 21
-360.3186314954
 31
0.0
  0
LINE
  5
B6
  8
0
  6
CONTINUOUS
 62
     7
 10
-206.1265491343
 20
818.6813959823
 30
0.0
 11
-204.6265684462
 21
818.6813959823
 31
0.0
  0
LINE
  5
B7
  8
0
  6
CONTINUOUS
 62
     7
 10
-204.6265684462
 20
818.6813959823
 30
0.0
 11
-204.6265684462
 21
816.0833487258
 31
0.0
  0
LINE
  5
B8
  8
0
  6
CONTINUOUS
 62
     7
 10
-206.1265491343
 20
818.6813959823
 30
0.0
 11
-206.1265491343
 21
816.0833487258
 31
0.0
  0
LINE
  5
B9
  8
0
  6
CONTINUOUS
 62
     7
 10
-204.6265684462
 20
-358.8186303182
 30
0.0
 11
-206.1265491343
 21
-358.8186303182
 31
0.0
  0
LINE
  5
BA
  8
0
  6
CONTINUOUS
 62
     7
 10
-206.1265491343
 20
-356.2205551221
 30
0.0
 11
-206.1265491343
 21
-358.8186303182
 31
0.0
  0
LINE
  5
BB
  8
0
  6
CONTINUOUS
 62
     7
 10
-204.6265684462
 20
-358.8186303182
 30
0.0
 11
-204.6265684462
 21
-356.2205551221
 31
0.0
  0
LINE
  5
BC
  8
0
  6
CONTINUOUS
 62
     7
 10
287.3734423497
 20
-358.8186303182
 30
0.0
 11
285.8734425695
 21
-358.8186303182
 31
0.0
  0
LINE
  5
BD
  8
0
  6
CONTINUOUS
 62
     7
 10
285.8734425695
 20
-356.2205551221
 30
0.0
 11
285.8734425695
 21
-358.8186303182
 31
0.0
  0
LINE
  5
BE
  8
0
  6
CONTINUOUS
 62
     7
 10
287.3734423497
 20
-358.8186303182
 30
0.0
 11
287.3734423497
 21
-356.2205551221
 31
0.0
  0
LINE
  5
BF
  8
0
  6
CONTINUOUS
 62
     7
 10
285.8734425695
 20
818.6813959823
 30
0.0
 11
287.3734423497
 21
818.6813959823
 31
0.0
  0
LINE
  5
C0
  8
0
  6
CONTINUOUS
 62
     7
 10
285.8734425695
 20
818.6813959823
 30
0.0
 11
285.8734425695
 21
816.0833487258
 31
0.0
  0
LINE
  5
C1
  8
0
  6
CONTINUOUS
 62
     7
 10
287.3734423497
 20
816.0833487258
 30
0.0
 11
287.3734423497
 21
818.6813959823
 31
0.0
  0
LINE
  5
C2
  8
0
  6
CONTINUOUS
 62
     7
 10
285.8734425695
 20
-358.8186303182
 30
0.0
 11
285.8734425695
 21
-360.3186314954
 31
0.0
  0
LINE
  5
C3
  8
0
  6
CONTINUOUS
 62
     7
 10
285.8734425695
 20
-358.8186303182
 30
0.0
 11
283.2753659763
 21
-358.8186303182
 31
0.0
  0
LINE
  5
C4
  8
0
  6
CONTINUOUS
 62
     7
 10
283.2753659763
 20
-360.3186314954
 30
0.0
 11
285.8734425695
 21
-360.3186314954
 31
0.0
  0
LINE
  5
C5
  8
0
  6
CONTINUOUS
 62
     7
 10
-204.6265684462
 20
818.6813959823
 30
0.0
 11
-204.6265684462
 21
820.1814064727
 31
0.0
  0
LINE
  5
C6
  8
0
  6
CONTINUOUS
 62
     7
 10
-202.0284913874
 20
818.6813959823
 30
0.0
 11
-204.6265684462
 21
818.6813959823
 31
0.0
  0
LINE
  5
C7
  8
0
  6
CONTINUOUS
 62
     7
 10
-202.0284913874
 20
820.1814064727
 30
0.0
 11
-204.6265684462
 21
820.1814064727
 31
0.0
  0
LINE
  5
C8
  8
0
  6
CONTINUOUS
 62
     7
 10
287.8127821327
 20
-332.3641127004
 30
0.0
 11
288.8734425955
 21
-332.3641127004
 31
0.0
  0
ARC
  5
C9
  8
0
  6
CONTINUOUS
 62
     7
 10
287.9705036418
 20
-332.9775974211
 30
0.0
 40
0.6334347455736229
 50
104.4179957045
 51
160.4890066527
  0
ARC
  5
CA
  8
0
  6
CONTINUOUS
 62
     7
 10
288.1535319966
 20
793.1332482782
 30
0.0
 40
0.9683532712999599
 50
225.6286885948
 51
249.3972912592
  0
LINE
  5
CB
  8
0
  6
CONTINUOUS
 62
     7
 10
288.8734425955
 20
792.2268280731
 30
0.0
 11
287.8127821327
 21
792.2268280731
 31
0.0
  0
LINE
  5
CC
  8
0
  6
CONTINUOUS
 62
     7
 10
288.8734425955
 20
-332.3641127004
 30
0.0
 11
293.4734419991
 21
-332.3641127004
 31
0.0
  0
LINE
  5
CD
  8
0
  6
CONTINUOUS
 62
     7
 10
293.4734419991
 20
792.2268280731
 30
0.0
 11
288.8734425955
 21
792.2268280731
 31
0.0
  0
LINE
  5
CE
  8
0
  6
CONTINUOUS
 62
     7
 10
-205.076553712
 20
-375.3186306945
 30
0.0
 11
-205.076553712
 21
-374.8186306125
 31
0.0
  0
LINE
  5
CF
  8
0
  6
CONTINUOUS
 62
     7
 10
-205.076553712
 20
-374.8186306125
 30
0.0
 11
-190.5765615798
 21
-360.3186314954
 31
0.0
  0
LINE
  5
D0
  8
0
  6
CONTINUOUS
 62
     7
 10
776.4234460496
 20
-360.3186314954
 30
0.0
 11
790.9234381818
 21
-374.8186306125
 31
0.0
  0
LINE
  5
D1
  8
0
  6
CONTINUOUS
 62
     7
 10
790.9234381818
 20
-374.8186306125
 30
0.0
 11
790.9234381818
 21
-375.3186306945
 31
0.0
  0
LINE
  5
D2
  8
0
  6
CONTINUOUS
 62
     7
 10
790.9234381818
 20
-375.3186306945
 30
0.0
 11
790.9234381818
 21
-378.3186307206
 31
0.0
  0
LINE
  5
D3
  8
0
  6
CONTINUOUS
 62
     7
 10
790.9234381818
 20
-378.3186307206
 30
0.0
 11
-205.076553712
 21
-378.3186307206
 31
0.0
  0
LINE
  5
D4
  8
0
  6
CONTINUOUS
 62
     7
 10
-205.076553712
 20
-378.3186307206
 30
0.0
 11
-205.076553712
 21
-375.3186306945
 31
0.0
  0
LINE
  5
D5
  8
0
  6
CONTINUOUS
 62
     7
 10
-202.2500716544
 20
816.8504605041
 30
0.0
 11
-204.0810071326
 21
818.6813959823
 31
0.0
  0
LINE
  5
D6
  8
0
  6
CONTINUOUS
 62
     7
 10
789.9278916025
 20
818.6813959823
 30
0.0
 11
788.0969561242
 21
816.8504605041
 31
0.0
  0
ARC
  5
D7
  8
0
  6
CONTINUOUS
 62
     7
 10
-228.8794167799
 20
810.1511936161
 30
0.0
 40
26.02148466063996
 50
20.9402722553
 51
26.302095448
  0
LINE
  5
D8
  8
0
  6
CONTINUOUS
 62
     7
 10
-205.5519305564
 20
821.6814169632
 30
0.0
 11
791.3988150262
 21
821.6814169632
 31
0.0
  0
ARC
  5
D9
  8
0
  6
CONTINUOUS
 62
     7
 10
805.7047084201
 20
814.0966034473
 30
0.0
 40
16.19221979430372
 50
152.0679999427
 51
160.6896323539
  0
LINE
  5
DA
  8
0
  6
CONTINUOUS
 62
     7
 10
791.3988150262
 20
820.1814064727
 30
0.0
 11
791.3988150262
 21
821.6814169632
 31
0.0
  0
ARC
  5
DB
  8
0
  6
CONTINUOUS
 62
     7
 10
796.5418550258
 20
814.6991023365
 30
0.0
 40
7.517081819431263
 50
133.1711838129
 51
144.4821195499
  0
ARC
  5
DC
  8
0
  6
CONTINUOUS
 62
     7
 10
-214.0109358977
 20
811.7989175769
 30
0.0
 40
11.90885768890228
 50
37.6070084103
 51
44.7396882269
  0
LINE
  5
DD
  8
0
  6
CONTINUOUS
 62
     7
 10
-205.5519305564
 20
821.6814169632
 30
0.0
 11
-205.5519305564
 21
820.1814064727
 31
0.0
  0
LINE
  5
DE
  8
0
  6
CONTINUOUS
 62
     7
 10
791.4234317445
 20
821.6814169632
 30
0.0
 11
791.4234317445
 21
820.1814064727
 31
0.0
  0
LINE
  5
DF
  8
0
  6
CONTINUOUS
 62
     7
 10
791.3988150262
 20
820.1814064727
 30
0.0
 11
791.4234317445
 21
820.1814064727
 31
0.0
  0
LINE
  5
E0
  8
0
  6
CONTINUOUS
 62
     7
 10
791.3988150262
 20
821.6814169632
 30
0.0
 11
791.4234317445
 21
821.6814169632
 31
0.0
  0
LINE
  5
E1
  8
0
  6
CONTINUOUS
 62
     7
 10
-205.5765472747
 20
820.1814064727
 30
0.0
 11
-205.5519305564
 21
820.1814064727
 31
0.0
  0
LINE
  5
E2
  8
0
  6
CONTINUOUS
 62
     7
 10
-205.5765472747
 20
820.1814064727
 30
0.0
 11
-205.5765472747
 21
821.6814169632
 31
0.0
  0
LINE
  5
E3
  8
0
  6
CONTINUOUS
 62
     7
 10
-205.5519305564
 20
821.6814169632
 30
0.0
 11
-205.5765472747
 21
821.6814169632
 31
0.0
  0
LINE
  5
E4
  8
0
  6
CONTINUOUS
 62
     7
 10
-205.5765472747
 20
820.1814064727
 30
0.0
 11
-205.501236806
 21
820.1562533126
 31
0.0
  0
LINE
  5
E5
  8
0
  6
CONTINUOUS
 62
     7
 10
356.9953135752
 20
281.974113916
 30
0.0
 11
354.512377789
 21
281.9689283119
 31
0.0
  0
LINE
  5
E6
  8
0
  6
CONTINUOUS
 62
     7
 10
344.4345064067
 20
281.9689283119
 30
0.0
 11
341.9515743458
 21
281.974113916
 31
0.0
  0
LINE
  5
E7
  8
0
  6
CONTINUOUS
 62
     7
 10
341.9520027541
 20
277.9461512313
 30
0.0
 11
344.4353147947
 21
277.9510388122
 31
0.0
  0
LINE
  5
E8
  8
0
  6
CONTINUOUS
 62
     7
 10
354.5115805768
 20
277.9509792076
 30
0.0
 11
356.9948814415
 21
277.9461512313
 31
0.0
  0
ARC
  5
E9
  8
0
  6
CONTINUOUS
 62
     7
 10
349.4733697247
 20
279.9314244618
 30
0.0
 40
5.00007616373713
 50
270.0008293225
 51
338.2615641916
  0
ARC
  5
EA
  8
0
  6
CONTINUOUS
 62
     7
 10
349.4735292926
 20
279.9314463276
 30
0.0
 40
5.000098029777648
 50
201.7386056448
 51
269.9990008411
  0
ARC
  5
EB
  8
0
  6
CONTINUOUS
 62
     7
 10
354.4894164968
 20
277.9313692795
 30
0.0
 40
0.4000000000008868
 50
89.9999999997
 51
158.2615392082
  0
ARC
  5
EC
  8
0
  6
CONTINUOUS
 62
     7
 10
344.4574675336
 20
277.9313692795
 30
0.0
 40
0.4000000000008868
 50
21.7384607918
 51
90.0000000003
  0
LINE
  5
ED
  8
0
  6
CONTINUOUS
 62
     7
 10
356.942876389
 20
278.3313760505
 30
0.0
 11
354.4894150996
 21
278.3313760505
 31
0.0
  0
LINE
  5
EE
  8
0
  6
CONTINUOUS
 62
     7
 10
344.4574690961
 20
278.3313760505
 30
0.0
 11
342.0040040814
 21
278.3313760505
 31
0.0
  0
ARC
  5
EF
  8
0
  6
CONTINUOUS
 62
     7
 10
349.4734402352
 20
280.0490860378
 30
0.0
 40
13.75555649526929
 50
227.8971299581
 51
312.1028700419
  0
ARC
  5
F0
  8
0
  6
CONTINUOUS
 62
     7
 10
356.9428916161
 20
278.8313646618
 30
0.0
 40
0.4999886115584843
 50
269.9982550628
 51
351.6206327429
  0
ARC
  5
F1
  8
0
  6
CONTINUOUS
 62
     7
 10
342.0040126933
 20
278.8313922703
 30
0.0
 40
0.5000162198677264
 50
188.3820990052
 51
269.9990131891
  0
ARC
  5
F2
  8
0
  6
CONTINUOUS
 62
     7
 10
349.4734945787
 20
279.9313515496
 30
0.0
 40
5.000046817183105
 50
90.000601381
 51
158.2617921331
  0
ARC
  5
F3
  8
0
  6
CONTINUOUS
 62
     7
 10
349.4733951476
 20
279.9313597088
 30
0.0
 40
5.000038657947066
 50
21.7381444917
 51
89.9994619942
  0
LINE
  5
F4
  8
0
  6
CONTINUOUS
 62
     7
 10
342.0040040814
 20
281.5313706146
 30
0.0
 11
344.4574690961
 21
281.5313706146
 31
0.0
  0
ARC
  5
F5
  8
0
  6
CONTINUOUS
 62
     7
 10
344.4574675336
 20
281.9313692795
 30
0.0
 40
0.4000000000004997
 50
296.7075131236
 51
338.2615392082
  0
ARC
  5
F6
  8
0
  6
CONTINUOUS
 62
     7
 10
352.5397479301
 20
281.8529504665
 30
0.0
 40
1.976010038686036
 50
350.6339115325
 51
3.3665229702
  0
LINE
  5
F7
  8
0
  6
CONTINUOUS
 62
     7
 10
354.4894188248
 20
281.5313706146
 30
0.0
 11
356.942876389
 21
281.5313706146
 31
0.0
  0
ARC
  5
F8
  8
0
  6
CONTINUOUS
 62
     7
 10
354.4894164968
 20
281.9313692795
 30
0.0
 40
0.400000000000394
 50
201.7384607918
 51
270.0000000003
  0
LINE
  5
F9
  8
0
  6
CONTINUOUS
 62
     7
 10
357.4375427865
 20
281.1042437301
 30
0.0
 11
357.4375427865
 21
278.758502935
 31
0.0
  0
ARC
  5
FA
  8
0
  6
CONTINUOUS
 62
     7
 10
356.9428972251
 20
281.0313884992
 30
0.0
 40
0.4999821158249806
 50
8.3787244663
 51
90.0023877281
  0
ARC
  5
FB
  8
0
  6
CONTINUOUS
 62
     7
 10
342.0040178501
 20
281.0313484225
 30
0.0
 40
0.5000221922607008
 50
90.0015777044
 51
171.6173101013
  0
ARC
  5
FC
  8
0
  6
CONTINUOUS
 62
     7
 10
349.5177159086
 20
279.6799640505
 30
0.0
 40
13.45371623399339
 50
313.0169730765
 51
69.5934447358
  0
ARC
  5
FD
  8
0
  6
CONTINUOUS
 62
     7
 10
349.4291737751
 20
279.67996143
 30
0.0
 40
13.45372060354544
 50
110.4065732784
 51
226.9829906219
  0
ARC
  5
FE
  8
0
  6
CONTINUOUS
 62
     7
 10
349.4734420978
 20
279.6517545119
 30
0.0
 40
13.49562989614434
 50
69.4590352936
 51
110.5409647064
  0
LINE
  5
FF
  8
0
  6
CONTINUOUS
 62
     7
 10
332.3243811333
 20
188.055134748
 30
0.0
 11
332.3243811333
 21
271.9076046691
 31
0.0
  0
LINE
  5
100
  8
0
  6
CONTINUOUS
 62
     7
 10
366.6225067877
 20
271.9076046691
 30
0.0
 11
366.6225067877
 21
188.055134748
 31
0.0
  0
ARC
  5
101
  8
0
  6
CONTINUOUS
 62
     7
 10
333.9602540651
 20
156.186118058
 30
0.0
 40
1.57184481803361
 50
248.5024549364
 51
273.0582176611
  0
ARC
  5
102
  8
0
  6
CONTINUOUS
 62
     7
 10
364.9866218921
 20
303.7765505693
 30
0.0
 40
1.571915067698713
 50
68.5029947669
 51
93.05778014
  0
LINE
  5
103
  8
0
  6
CONTINUOUS
 62
     7
 10
332.3243811333
 20
188.055134748
 30
0.0
 11
332.6839834058
 21
154.0096173034
 31
0.0
  0
LINE
  5
104
  8
0
  6
CONTINUOUS
 62
     7
 10
366.2628970646
 20
305.9531221138
 30
0.0
 11
366.6225067877
 21
271.9076046691
 31
0.0
  0
LINE
  5
105
  8
0
  6
CONTINUOUS
 62
     7
 10
366.2628970646
 20
154.0096173034
 30
0.0
 11
366.6225067877
 21
188.055134748
 31
0.0
  0
LINE
  5
106
  8
0
  6
CONTINUOUS
 62
     7
 10
332.3243811333
 20
271.9076046691
 30
0.0
 11
332.6839871311
 21
305.9531221138
 31
0.0
  0
ARC
  5
107
  8
0
  6
CONTINUOUS
 62
     7
 10
349.4734439605
 20
-39.216313934
 30
0.0
 40
347.7383665164451
 50
87.8202281714
 51
92.1797718286
  0
ARC
  5
108
  8
0
  6
CONTINUOUS
 62
     7
 10
349.4734402352
 20
499.178832914
 30
0.0
 40
347.7381460970367
 50
267.8202274033
 51
272.1797725967
  0
ARC
  5
109
  8
0
  6
CONTINUOUS
 62
     7
 10
349.4734420152
 20
330.3813692795
 30
0.0
 40
180.0000000000179
 50
265.5843621468
 51
274.4156379362
  0
ARC
  5
10A
  8
0
  6
CONTINUOUS
 62
     7
 10
349.4734420152
 20
129.5813692795
 30
0.0
 40
180.0000000000177
 50
85.5843602115
 51
94.415639811
  0
ARC
  5
10B
  8
0
  6
CONTINUOUS
 62
     7
 10
335.8544719144
 20
154.0778142658
 30
0.0
 40
3.171206981816986
 50
181.2322435524
 51
265.6698413317
  0
ARC
  5
10C
  8
0
  6
CONTINUOUS
 62
     7
 10
363.0924553904
 20
305.8849624614
 30
0.0
 40
3.171166804914322
 50
1.2315849041
 51
85.6704999801
  0
ARC
  5
10D
  8
0
  6
CONTINUOUS
 62
     7
 10
363.0927824616
 20
154.0774676833
 30
0.0
 40
3.170833176341884
 50
274.3238944685
 51
358.7738752167
  0
ARC
  5
10E
  8
0
  6
CONTINUOUS
 62
     7
 10
335.8540800674
 20
305.8852928354
 30
0.0
 40
3.170811063107472
 50
94.3236670653
 51
178.7742480506
  0
LINE
  5
10F
  8
0
  6
CONTINUOUS
 62
     7
 10
341.5558404826
 20
278.7860998855
 30
0.0
 11
341.6300072872
 21
278.3564100013
 31
0.0
  0
POLYLINE
  5
110
  8
0
  6
CONTINUOUS
 62
     7
 66
     1
 10
0.0
 20
0.0
 30
0.0
  0
VERTEX
  5
6F9
  8
0
  6
CONTINUOUS
 62
     7
 10
357.3205761217
 20
278.3749470459
 30
0.0
  0
VERTEX
  5
6FA
  8
0
  6
CONTINUOUS
 62
     7
 10
357.4265457296
 20
279.0664205299
 30
0.0
  0
VERTEX
  5
6FB
  8
0
  6
CONTINUOUS
 62
     7
 10
357.4651248359
 20
280.2961239563
 30
0.0
  0
SEQEND
  5
6FC
  8
0
  6
CONTINUOUS
 62
     7
  0
POLYLINE
  5
111
  8
0
  6
CONTINUOUS
 62
     7
 66
     1
 10
0.0
 20
0.0
 30
0.0
  0
VERTEX
  5
6FD
  8
0
  6
CONTINUOUS
 62
     7
 10
357.4519969129
 20
280.5167207466
 30
0.0
  0
VERTEX
  5
6FE
  8
0
  6
CONTINUOUS
 62
     7
 10
357.4265457296
 20
280.7963261352
 30
0.0
  0
VERTEX
  5
6FF
  8
0
  6
CONTINUOUS
 62
     7
 10
357.3188252353
 20
281.4966211067
 30
0.0
  0
SEQEND
  5
700
  8
0
  6
CONTINUOUS
 62
     7
  0
LINE
  5
112
  8
0
  6
CONTINUOUS
 62
     7
 10
341.6123717629
 20
281.4157972084
 30
0.0
 11
341.5627806985
 21
281.1236152397
 31
0.0
  0
LINE
  5
113
  8
0
  6
CONTINUOUS
 62
     7
 10
354.3457902574
 20
281.4313540206
 30
0.0
 11
354.2431398832
 21
281.4313540206
 31
0.0
  0
LINE
  5
114
  8
0
  6
CONTINUOUS
 62
     7
 10
354.2431398832
 20
281.4313540206
 30
0.0
 11
354.1178620958
 21
281.7832002388
 31
0.0
  0
LINE
  5
115
  8
0
  6
CONTINUOUS
 62
     7
 10
344.8290220999
 20
281.7832002388
 30
0.0
 11
344.7037443125
 21
281.4313540206
 31
0.0
  0
LINE
  5
116
  8
0
  6
CONTINUOUS
 62
     7
 10
344.7037443125
 20
281.4313540206
 30
0.0
 11
344.6010939383
 21
281.4313540206
 31
0.0
  0
LINE
  5
117
  8
0
  6
CONTINUOUS
 62
     7
 10
342.2234423065
 20
281.4313540206
 30
0.0
 11
342.2234423065
 21
278.4313926445
 31
0.0
  0
LINE
  5
118
  8
0
  6
CONTINUOUS
 62
     7
 10
344.7037443125
 20
278.4313926445
 30
0.0
 11
344.8290220999
 21
278.0795464263
 31
0.0
  0
LINE
  5
119
  8
0
  6
CONTINUOUS
 62
     7
 10
354.1178620958
 20
278.0795464263
 30
0.0
 11
354.2431398832
 21
278.4313926445
 31
0.0
  0
LINE
  5
11A
  8
0
  6
CONTINUOUS
 62
     7
 10
356.7234418892
 20
278.4313926445
 30
0.0
 11
356.7234418892
 21
281.4313540206
 31
0.0
  0
LINE
  5
11B
  8
0
  6
CONTINUOUS
 62
     7
 10
354.2431398832
 20
278.4313926445
 30
0.0
 11
354.3457902574
 21
278.4313926445
 31
0.0
  0
LINE
  5
11C
  8
0
  6
CONTINUOUS
 62
     7
 10
344.6010939383
 20
278.4313926445
 30
0.0
 11
344.7037443125
 21
278.4313926445
 31
0.0
  0
CIRCLE
  5
11D
  8
0
  6
CONTINUOUS
 62
     7
 10
349.4734420152
 20
279.9313692795
 30
0.0
 40
1.5
  0
LINE
  5
11E
  8
0
  6
CONTINUOUS
 62
     7
 10
288.8255023003
 20
-332.3641127004
 30
0.0
 11
289.396175563
 21
-332.7783351793
 31
0.0
  0
LINE
  5
11F
  8
0
  6
CONTINUOUS
 62
     7
 10
288.0138872729
 20
-332.7783351793
 30
0.0
 11
287.8604933225
 21
-332.3641127004
 31
0.0
  0
LINE
  5
120
  8
0
  6
CONTINUOUS
 62
     7
 10
-188.4265624381
 20
822.0732578979
 30
0.0
 11
-169.7265588141
 21
822.0732578979
 31
0.0
  0
LINE
  5
121
  8
0
  6
CONTINUOUS
 62
     7
 10
764.9234450959
 20
822.0732578979
 30
0.0
 11
774.2734469079
 21
822.0732578979
 31
0.0
  0
LINE
  5
122
  8
0
  6
CONTINUOUS
 62
     7
 10
755.573443284
 20
822.0732578979
 30
0.0
 11
764.9234450959
 21
822.0732578979
 31
0.0
  0
POLYLINE
  5
123
  8
0
  6
CONTINUOUS
 62
     7
 66
     1
 10
0.0
 20
0.0
 30
0.0
  0
VERTEX
  5
701
  8
0
  6
CONTINUOUS
 62
     7
 10
-204.0765665866
 20
-373.1854982703
 30
0.0
  0
VERTEX
  5
702
  8
0
  6
CONTINUOUS
 62
     7
 10
-204.7738217211
 20
-374.1122159204
 30
0.0
  0
VERTEX
  5
703
  8
0
  6
CONTINUOUS
 62
     7
 10
-205.3112768031
 20
-375.0389333377
 30
0.0
  0
SEQEND
  5
704
  8
0
  6
CONTINUOUS
 62
     7
  0
LINE
  5
124
  8
0
  6
CONTINUOUS
 62
     7
 10
-206.5459870196
 20
-375.0389333377
 30
0.0
 11
-205.3112768031
 21
-375.0389333377
 31
0.0
  0
ARC
  5
125
  8
0
  6
CONTINUOUS
 62
     7
 10
-197.7743411645
 20
-384.1540400697
 30
0.0
 40
12.6501760649856
 50
119.8805021298
 51
133.8999411876
  0
POLYLINE
  5
126
  8
0
  6
CONTINUOUS
 62
     7
 66
     1
 10
0.0
 20
0.0
 30
0.0
  0
VERTEX
  5
705
  8
0
  6
CONTINUOUS
 62
     7
 10
-206.5459870196
 20
-375.0389333377
 30
0.0
  0
VERTEX
  5
706
  8
0
  6
CONTINUOUS
 62
     7
 10
-206.9408379889
 20
-375.1664730749
 30
0.0
  0
VERTEX
  5
707
  8
0
  6
CONTINUOUS
 62
     7
 10
-207.0765577651
 20
-375.294012812
 30
0.0
  0
SEQEND
  5
708
  8
0
  6
CONTINUOUS
 62
     7
  0
LINE
  5
127
  8
0
  6
CONTINUOUS
 62
     7
 10
-207.0765577651
 20
-375.294012812
 30
0.0
 11
-207.0765577651
 21
819.9935326324
 31
0.0
  0
ARC
  5
128
  8
0
  6
CONTINUOUS
 62
     7
 10
-205.8361229838
 20
820.847592442
 30
0.0
 40
1.506020121062197
 50
214.5480524575
 51
265.4371488867
  0
POLYLINE
  5
129
  8
0
  6
CONTINUOUS
 62
     7
 66
     1
 10
0.0
 20
0.0
 30
0.0
  0
VERTEX
  5
709
  8
0
  6
CONTINUOUS
 62
     7
 10
-205.9559308387
 20
819.3463453994
 30
0.0
  0
VERTEX
  5
70A
  8
0
  6
CONTINUOUS
 62
     7
 10
-205.072768817
 20
818.6974892364
 30
0.0
  0
VERTEX
  5
70B
  8
0
  6
CONTINUOUS
 62
     7
 10
-205.0480328894
 20
818.6813959823
 30
0.0
  0
SEQEND
  5
70C
  8
0
  6
CONTINUOUS
 62
     7
  0
LINE
  5
12A
  8
0
  6
CONTINUOUS
 62
     7
 10
-204.7557615138
 20
818.4910187469
 30
0.0
 11
-204.0765665866
 21
818.0486330734
 31
0.0
  0
LINE
  5
12B
  8
0
  6
CONTINUOUS
 62
     7
 10
-202.5498532153
 20
816.5163168655
 30
0.0
 11
-204.0765665866
 21
818.0486330734
 31
0.0
  0
LINE
  5
12C
  8
0
  6
CONTINUOUS
 62
     7
 10
-204.0765665866
 20
-373.1854982703
 30
0.0
 11
-191.256501565
 21
-360.3186314954
 31
0.0
  0
POLYLINE
  5
12D
  8
0
  6
CONTINUOUS
 62
     7
 66
     1
 10
0.0
 20
0.0
 30
0.0
  0
VERTEX
  5
70D
  8
0
  6
CONTINUOUS
 62
     7
 10
-205.0162338114
 20
819.3463453994
 30
0.0
  0
VERTEX
  5
70E
  8
0
  6
CONTINUOUS
 62
     7
 10
-204.5746528006
 20
818.6974892364
 30
0.0
  0
VERTEX
  5
70F
  8
0
  6
CONTINUOUS
 62
     7
 10
-204.0765665866
 20
818.0486330734
 30
0.0
  0
SEQEND
  5
710
  8
0
  6
CONTINUOUS
 62
     7
  0
LINE
  5
12E
  8
0
  6
CONTINUOUS
 62
     7
 10
-205.9559308387
 20
819.3463453994
 30
0.0
 11
-205.0162338114
 21
819.3463453994
 31
0.0
  0
ARC
  5
12F
  8
0
  6
CONTINUOUS
 62
     7
 10
-204.659837154
 20
820.2210460461
 30
0.0
 40
0.9445209361174779
 50
193.9383101429
 51
247.8315680271
  0
LINE
  5
130
  8
0
  6
CONTINUOUS
 62
     7
 10
-205.5765472747
 20
819.9935326324
 30
0.0
 11
-207.0765577651
 21
819.9935326324
 31
0.0
  0
POLYLINE
  5
131
  8
0
  6
CONTINUOUS
 62
     7
 66
     1
 10
0.0
 20
0.0
 30
0.0
  0
VERTEX
  5
711
  8
0
  6
CONTINUOUS
 62
     7
 10
-205.3112768031
 20
-375.0389333377
 30
0.0
  0
VERTEX
  5
712
  8
0
  6
CONTINUOUS
 62
     7
 10
-205.5086873866
 20
-375.1664730749
 30
0.0
  0
VERTEX
  5
713
  8
0
  6
CONTINUOUS
 62
     7
 10
-205.5765472747
 20
-375.294012812
 30
0.0
  0
SEQEND
  5
714
  8
0
  6
CONTINUOUS
 62
     7
  0
LINE
  5
132
  8
0
  6
CONTINUOUS
 62
     7
 10
-207.0765577651
 20
-375.294012812
 30
0.0
 11
-205.5765472747
 21
-375.294012812
 31
0.0
  0
LINE
  5
133
  8
0
  6
CONTINUOUS
 62
     7
 10
-205.5765472747
 20
820.1814064727
 30
0.0
 11
-207.0765577651
 21
820.1814064727
 31
0.0
  0
LINE
  5
134
  8
0
  6
CONTINUOUS
 62
     7
 10
-207.0765577651
 20
819.9935326324
 30
0.0
 11
-207.0765577651
 21
820.1814064727
 31
0.0
  0
LINE
  5
135
  8
0
  6
CONTINUOUS
 62
     7
 10
-205.5765472747
 20
819.9935326324
 30
0.0
 11
-205.5765472747
 21
820.1814064727
 31
0.0
  0
LINE
  5
136
  8
0
  6
CONTINUOUS
 62
     7
 10
-207.0765577651
 20
-375.3186306945
 30
0.0
 11
-205.5765472747
 21
-375.3186306945
 31
0.0
  0
LINE
  5
137
  8
0
  6
CONTINUOUS
 62
     7
 10
-207.0765577651
 20
-375.294012812
 30
0.0
 11
-207.0765577651
 21
-375.3186306945
 31
0.0
  0
LINE
  5
138
  8
0
  6
CONTINUOUS
 62
     7
 10
-205.5765472747
 20
-375.3186306945
 30
0.0
 11
-205.5765472747
 21
-375.294012812
 31
0.0
  0
ARC
  5
139
  8
0
  6
CONTINUOUS
 62
     7
 10
-204.2045237862
 20
-375.369961201
 30
0.0
 40
1.372983347966156
 50
177.8574343668
 51
230.5699941713
  0
LINE
  5
13A
  8
0
  6
CONTINUOUS
 62
     7
 10
-205.4787062503
 20
-377.9707956797
 30
0.0
 11
-205.076553712
 21
-377.2101312439
 31
0.0
  0
ARC
  5
13B
  8
0
  6
CONTINUOUS
 62
     7
 10
-204.0765665138
 20
-375.3186358679
 30
0.0
 40
2.999991251319754
 50
179.9999011952
 51
242.1355567289
  0
LINE
  5
13C
  8
0
  6
CONTINUOUS
 62
     7
 10
-205.4787062503
 20
-377.9707962327
 30
0.0
 11
-205.076553712
 21
-378.1243486388
 31
0.0
  0
POLYLINE
  5
13D
  8
0
  6
CONTINUOUS
 62
     7
 66
     1
 10
0.0
 20
0.0
 30
0.0
  0
VERTEX
  5
715
  8
0
  6
CONTINUOUS
 62
     7
 10
-205.5765472747
 20
-375.3186306945
 30
0.0
  0
VERTEX
  5
716
  8
0
  6
CONTINUOUS
 62
     7
 10
-205.4623745776
 20
-375.2971841982
 30
0.0
  0
VERTEX
  5
717
  8
0
  6
CONTINUOUS
 62
     7
 10
-205.140896926
 20
-375.2759800787
 30
0.0
  0
SEQEND
  5
718
  8
0
  6
CONTINUOUS
 62
     7
  0
LINE
  5
13E
  8
0
  6
CONTINUOUS
 62
     7
 10
789.9234510564
 20
818.0486330734
 30
0.0
 11
788.3967376851
 21
816.5163168655
 31
0.0
  0
LINE
  5
13F
  8
0
  6
CONTINUOUS
 62
     7
 10
777.1305359506
 20
-360.3186314954
 30
0.0
 11
789.9234510564
 21
-373.1115237838
 31
0.0
  0
ARC
  5
140
  8
0
  6
CONTINUOUS
 62
     7
 10
791.6830074537
 20
820.847592442
 30
0.0
 40
1.50602012106222
 50
274.5628511133
 51
325.4519475425
  0
LINE
  5
141
  8
0
  6
CONTINUOUS
 62
     7
 10
792.9234422349
 20
819.9935326324
 30
0.0
 11
792.9234422349
 21
-375.294012812
 31
0.0
  0
POLYLINE
  5
142
  8
0
  6
CONTINUOUS
 62
     7
 66
     1
 10
0.0
 20
0.0
 30
0.0
  0
VERTEX
  5
719
  8
0
  6
CONTINUOUS
 62
     7
 10
792.4960769319
 20
-375.0795979081
 30
0.0
  0
VERTEX
  5
71A
  8
0
  6
CONTINUOUS
 62
     7
 10
792.8146339559
 20
-375.1868054765
 30
0.0
  0
VERTEX
  5
71B
  8
0
  6
CONTINUOUS
 62
     7
 10
792.9234422349
 20
-375.294012812
 30
0.0
  0
SEQEND
  5
71C
  8
0
  6
CONTINUOUS
 62
     7
  0
ARC
  5
143
  8
0
  6
CONTINUOUS
 62
     7
 10
784.3197715745
 20
-383.1020167319
 30
0.0
 40
11.45474456639713
 50
44.4557112289
 51
60.7118807953
  0
POLYLINE
  5
144
  8
0
  6
CONTINUOUS
 62
     7
 66
     1
 10
0.0
 20
0.0
 30
0.0
  0
VERTEX
  5
71D
  8
0
  6
CONTINUOUS
 62
     7
 10
791.8028153085
 20
819.3463453994
 30
0.0
  0
VERTEX
  5
71E
  8
0
  6
CONTINUOUS
 62
     7
 10
790.9196532869
 20
818.6974892364
 30
0.0
  0
VERTEX
  5
71F
  8
0
  6
CONTINUOUS
 62
     7
 10
790.8949173593
 20
818.6813959823
 30
0.0
  0
SEQEND
  5
720
  8
0
  6
CONTINUOUS
 62
     7
  0
LINE
  5
145
  8
0
  6
CONTINUOUS
 62
     7
 10
790.6026459836
 20
818.4910187469
 30
0.0
 11
789.9234510564
 21
818.0486330734
 31
0.0
  0
LINE
  5
146
  8
0
  6
CONTINUOUS
 62
     7
 10
791.209749093
 20
-375.0795979081
 30
0.0
 11
792.4960769319
 21
-375.0795979081
 31
0.0
  0
POLYLINE
  5
147
  8
0
  6
CONTINUOUS
 62
     7
 66
     1
 10
0.0
 20
0.0
 30
0.0
  0
VERTEX
  5
721
  8
0
  6
CONTINUOUS
 62
     7
 10
789.9234510564
 20
-373.1115237838
 30
0.0
  0
VERTEX
  5
722
  8
0
  6
CONTINUOUS
 62
     7
 10
790.6625486516
 20
-374.0955610788
 30
0.0
  0
VERTEX
  5
723
  8
0
  6
CONTINUOUS
 62
     7
 10
791.209749093
 20
-375.0795979081
 30
0.0
  0
SEQEND
  5
724
  8
0
  6
CONTINUOUS
 62
     7
  0
POLYLINE
  5
148
  8
0
  6
CONTINUOUS
 62
     7
 66
     1
 10
0.0
 20
0.0
 30
0.0
  0
VERTEX
  5
725
  8
0
  6
CONTINUOUS
 62
     7
 10
790.8631182813
 20
819.3463453994
 30
0.0
  0
VERTEX
  5
726
  8
0
  6
CONTINUOUS
 62
     7
 10
790.4215372705
 20
818.6974892364
 30
0.0
  0
VERTEX
  5
727
  8
0
  6
CONTINUOUS
 62
     7
 10
789.9234510564
 20
818.0486330734
 30
0.0
  0
SEQEND
  5
728
  8
0
  6
CONTINUOUS
 62
     7
  0
LINE
  5
149
  8
0
  6
CONTINUOUS
 62
     7
 10
790.8631182813
 20
819.3463453994
 30
0.0
 11
791.8028153085
 21
819.3463453994
 31
0.0
  0
ARC
  5
14A
  8
0
  6
CONTINUOUS
 62
     7
 10
790.5067216238
 20
820.2210460461
 30
0.0
 40
0.9445209361175331
 50
292.1684319729
 51
346.0616898571
  0
LINE
  5
14B
  8
0
  6
CONTINUOUS
 62
     7
 10
792.9234422349
 20
819.9935326324
 30
0.0
 11
791.4234317445
 21
819.9935326324
 31
0.0
  0
LINE
  5
14C
  8
0
  6
CONTINUOUS
 62
     7
 10
791.4234317445
 20
-375.294012812
 30
0.0
 11
792.9234422349
 21
-375.294012812
 31
0.0
  0
POLYLINE
  5
14D
  8
0
  6
CONTINUOUS
 62
     7
 66
     1
 10
0.0
 20
0.0
 30
0.0
  0
VERTEX
  5
729
  8
0
  6
CONTINUOUS
 62
     7
 10
791.209749093
 20
-375.0795979081
 30
0.0
  0
VERTEX
  5
72A
  8
0
  6
CONTINUOUS
 62
     7
 10
791.3690425062
 20
-375.1868054765
 30
0.0
  0
VERTEX
  5
72B
  8
0
  6
CONTINUOUS
 62
     7
 10
791.4234317445
 20
-375.294012812
 30
0.0
  0
SEQEND
  5
72C
  8
0
  6
CONTINUOUS
 62
     7
  0
LINE
  5
14E
  8
0
  6
CONTINUOUS
 62
     7
 10
791.4234317445
 20
820.1814064727
 30
0.0
 11
791.4234317445
 21
819.9935326324
 31
0.0
  0
LINE
  5
14F
  8
0
  6
CONTINUOUS
 62
     7
 10
792.9234422349
 20
820.1814064727
 30
0.0
 11
791.4234317445
 21
820.1814064727
 31
0.0
  0
LINE
  5
150
  8
0
  6
CONTINUOUS
 62
     7
 10
792.9234422349
 20
820.1814064727
 30
0.0
 11
792.9234422349
 21
819.9935326324
 31
0.0
  0
LINE
  5
151
  8
0
  6
CONTINUOUS
 62
     7
 10
791.4234317445
 20
-375.3186306945
 30
0.0
 11
792.9234422349
 21
-375.3186306945
 31
0.0
  0
LINE
  5
152
  8
0
  6
CONTINUOUS
 62
     7
 10
791.4234317445
 20
-375.294012812
 30
0.0
 11
791.4234317445
 21
-375.3186306945
 31
0.0
  0
LINE
  5
153
  8
0
  6
CONTINUOUS
 62
     7
 10
792.9234422349
 20
-375.3186306945
 30
0.0
 11
792.9234422349
 21
-375.294012812
 31
0.0
  0
LINE
  5
154
  8
0
  6
CONTINUOUS
 62
     7
 10
790.9234381818
 20
-376.9257780892
 30
0.0
 11
791.508338561
 21
-377.8658025054
 31
0.0
  0
ARC
  5
155
  8
0
  6
CONTINUOUS
 62
     7
 10
790.0458516864
 20
-375.360522543
 30
0.0
 40
1.378216870985375
 50
309.5502720409
 51
1.7418128569
  0
ARC
  5
156
  8
0
  6
CONTINUOUS
 62
     7
 10
789.9234736633
 20
-375.3186443464
 30
0.0
 40
2.999968571624042
 50
301.8902483666
 51
0.0002607345
  0
LINE
  5
157
  8
0
  6
CONTINUOUS
 62
     7
 10
791.508338561
 20
-377.8658025054
 30
0.0
 11
790.9234381818
 21
-378.1252159766
 31
0.0
  0
POLYLINE
  5
158
  8
0
  6
CONTINUOUS
 62
     7
 66
     1
 10
0.0
 20
0.0
 30
0.0
  0
VERTEX
  5
72D
  8
0
  6
CONTINUOUS
 62
     7
 10
791.4234317445
 20
-375.3186306945
 30
0.0
  0
VERTEX
  5
72E
  8
0
  6
CONTINUOUS
 62
     7
 10
791.3092590474
 20
-375.2971841982
 30
0.0
  0
VERTEX
  5
72F
  8
0
  6
CONTINUOUS
 62
     7
 10
790.9877813958
 20
-375.2759800787
 30
0.0
  0
SEQEND
  5
730
  8
0
  6
CONTINUOUS
 62
     7
  0
ARC
  5
159
  8
0
  6
CONTINUOUS
 62
     7
 10
1234.6348382896
 20
257.7717620445
 30
0.0
 40
279.9999999999779
 50
7.2582600318
 51
10.3102613261
  0
ARC
  5
15A
  8
0
  6
CONTINUOUS
 62
     7
 10
1234.6348382896
 20
202.1909765145
 30
0.0
 40
280.0000000002276
 50
349.689847532
 51
357.0
  0
ARC
  5
15B
  8
0
  6
CONTINUOUS
 62
     7
 10
704.3625553349
 20
229.9813692795
 30
0.0
 40
811.0000000004949
 50
357.0
 51
0.0
  0
ARC
  5
15C
  8
0
  6
CONTINUOUS
 62
     7
 10
704.3625553349
 20
229.9813692795
 30
0.0
 40
811.0000000004901
 50
0.0
 51
2.5676082653
  0
ARC
  5
15D
  8
0
  6
CONTINUOUS
 62
     7
 10
1500.3625553349
 20
276.8246905712
 30
0.0
 40
33.00000000000009
 50
73.9885793219
 51
83.0379373089
  0
ARC
  5
15E
  8
0
  6
CONTINUOUS
 62
     7
 10
1500.3625553349
 20
183.1380479878
 30
0.0
 40
33.00000000000006
 50
276.9620626911
 51
286.0038114314
  0
ARC
  5
15F
  8
0
  6
CONTINUOUS
 62
     7
 10
1512.3820072078
 20
292.3469684756
 30
0.0
 40
0.8000000000004255
 50
21.3050835821
 51
89.368240118
  0
ARC
  5
160
  8
0
  6
CONTINUOUS
 62
     7
 10
1514.1538216411
 20
267.008841599
 30
0.0
 40
0.8000000000005993
 50
299.5405628497
 51
346.6949164185
  0
ARC
  5
161
  8
0
  6
CONTINUOUS
 62
     7
 10
1509.3247549512
 20
152.2101312531
 30
0.0
 40
0.8000233075586557
 50
284.5511000342
 51
350.061114004
  0
ARC
  5
162
  8
0
  6
CONTINUOUS
 62
     7
 10
1509.3247390395
 20
307.7525934843
 30
0.0
 40
0.8000415142641165
 50
9.9397248444
 51
75.4480611174
  0
ARC
  5
163
  8
0
  6
CONTINUOUS
 62
     7
 10
1483.5671254536
 20
281.1095701956
 30
0.0
 40
31.72857142857162
 50
7.7404456693
 51
21.3050835822
  0
ARC
  5
164
  8
0
  6
CONTINUOUS
 62
     7
 10
1484.0554207698
 20
274.1266218438
 30
0.0
 40
31.72857142862248
 50
346.6949164182
 51
0.7440974729
  0
ARC
  5
165
  8
0
  6
CONTINUOUS
 62
     7
 10
1168.1625557606
 20
783.1813692794
 30
0.0
 40
40.00000000000003
 50
76.4820489901
 51
103.5179510099
  0
LINE
  5
166
  8
0
  6
CONTINUOUS
 62
     7
 10
1158.8125620787
 20
822.0732578979
 30
0.0
 11
1158.8125620787
 21
821.6814169632
 31
0.0
  0
LINE
  5
167
  8
0
  6
CONTINUOUS
 62
     7
 10
1177.512558252
 20
821.6814169632
 30
0.0
 11
1177.512558252
 21
822.0732578979
 31
0.0
  0
ARC
  5
168
  8
0
  6
CONTINUOUS
 62
     7
 10
1418.1625557606
 20
783.1813692794
 30
0.0
 40
40.00000000000003
 50
76.4820489901
 51
103.5179510099
  0
LINE
  5
169
  8
0
  6
CONTINUOUS
 62
     7
 10
1408.8125546281
 20
822.0732578979
 30
0.0
 11
1408.8125546281
 21
821.6814169632
 31
0.0
  0
LINE
  5
16A
  8
0
  6
CONTINUOUS
 62
     7
 10
1427.5125508015
 20
821.6814169632
 30
0.0
 11
1427.5125508015
 21
822.0732578979
 31
0.0
  0
LINE
  5
16B
  8
0
  6
CONTINUOUS
 62
     7
 10
1485.1625506584
 20
207.431353067
 30
0.0
 11
1485.3825514023
 21
207.431353067
 31
0.0
  0
LINE
  5
16C
  8
0
  6
CONTINUOUS
 62
     7
 10
1485.3825514023
 20
212.4313482986
 30
0.0
 11
1485.1625506584
 21
212.4313482986
 31
0.0
  0
LINE
  5
16D
  8
0
  6
CONTINUOUS
 62
     7
 10
1485.3825514023
 20
207.431353067
 30
0.0
 11
1485.7825581734
 21
207.8313598381
 31
0.0
  0
LINE
  5
16E
  8
0
  6
CONTINUOUS
 62
     7
 10
1485.7825581734
 20
212.0313415275
 30
0.0
 11
1485.3825514023
 21
212.4313482986
 31
0.0
  0
LINE
  5
16F
  8
0
  6
CONTINUOUS
 62
     7
 10
1485.3825514023
 20
247.4313745246
 30
0.0
 11
1485.7825581734
 21
247.8313812957
 31
0.0
  0
LINE
  5
170
  8
0
  6
CONTINUOUS
 62
     7
 10
1485.7825581734
 20
252.0313629852
 30
0.0
 11
1485.3825514023
 21
252.4313697563
 31
0.0
  0
LINE
  5
171
  8
0
  6
CONTINUOUS
 62
     7
 10
1485.1625506584
 20
247.4313745246
 30
0.0
 11
1485.3825514023
 21
247.4313745246
 31
0.0
  0
LINE
  5
172
  8
0
  6
CONTINUOUS
 62
     7
 10
1485.3825514023
 20
252.4313697563
 30
0.0
 11
1485.1625506584
 21
252.4313697563
 31
0.0
  0
LINE
  5
173
  8
0
  6
CONTINUOUS
 62
     7
 10
1485.1625506584
 20
-232.818626429
 30
0.0
 11
1485.3825514023
 21
-232.818626429
 31
0.0
  0
LINE
  5
174
  8
0
  6
CONTINUOUS
 62
     7
 10
1485.3825514023
 20
-227.8186311974
 30
0.0
 11
1485.1625506584
 21
-227.8186311974
 31
0.0
  0
LINE
  5
175
  8
0
  6
CONTINUOUS
 62
     7
 10
1485.3825514023
 20
-232.818626429
 30
0.0
 11
1485.7825581734
 21
-232.4186345591
 31
0.0
  0
LINE
  5
176
  8
0
  6
CONTINUOUS
 62
     7
 10
1485.7825581734
 20
-228.2186379685
 30
0.0
 11
1485.3825514023
 21
-227.8186311974
 31
0.0
  0
LINE
  5
177
  8
0
  6
CONTINUOUS
 62
     7
 10
1485.3825514023
 20
-272.8186329855
 30
0.0
 11
1485.7825581734
 21
-272.418633665
 31
0.0
  0
LINE
  5
178
  8
0
  6
CONTINUOUS
 62
     7
 10
1485.7825581734
 20
-268.2186296238
 30
0.0
 11
1485.3825514023
 21
-267.8186303033
 31
0.0
  0
LINE
  5
179
  8
0
  6
CONTINUOUS
 62
     7
 10
1485.1625506584
 20
-272.8186329855
 30
0.0
 11
1485.3825514023
 21
-272.8186329855
 31
0.0
  0
LINE
  5
17A
  8
0
  6
CONTINUOUS
 62
     7
 10
1485.3825514023
 20
-267.8186303033
 30
0.0
 11
1485.1625506584
 21
-267.8186303033
 31
0.0
  0
LINE
  5
17B
  8
0
  6
CONTINUOUS
 62
     7
 10
1485.3825514023
 20
687.6813540206
 30
0.0
 11
1485.7825581734
 21
688.0814203964
 31
0.0
  0
LINE
  5
17C
  8
0
  6
CONTINUOUS
 62
     7
 10
1485.7825581734
 20
692.2814020858
 30
0.0
 11
1485.3825514023
 21
692.6813492523
 31
0.0
  0
LINE
  5
17D
  8
0
  6
CONTINUOUS
 62
     7
 10
1485.1625506584
 20
687.6813540206
 30
0.0
 11
1485.3825514023
 21
687.6813540206
 31
0.0
  0
LINE
  5
17E
  8
0
  6
CONTINUOUS
 62
     7
 10
1485.3825514023
 20
692.6813492523
 30
0.0
 11
1485.1625506584
 21
692.6813492523
 31
0.0
  0
LINE
  5
17F
  8
0
  6
CONTINUOUS
 62
     7
 10
1485.3825514023
 20
727.6813158737
 30
0.0
 11
1485.7825581734
 21
728.0813822494
 31
0.0
  0
LINE
  5
180
  8
0
  6
CONTINUOUS
 62
     7
 10
1485.7825581734
 20
732.2813639389
 30
0.0
 11
1485.3825514023
 21
732.6813111053
 31
0.0
  0
LINE
  5
181
  8
0
  6
CONTINUOUS
 62
     7
 10
1485.1625506584
 20
727.6813158737
 30
0.0
 11
1485.3825514023
 21
727.6813158737
 31
0.0
  0
LINE
  5
182
  8
0
  6
CONTINUOUS
 62
     7
 10
1485.3825514023
 20
732.6813111053
 30
0.0
 11
1485.1625506584
 21
732.6813111053
 31
0.0
  0
POLYLINE
  5
183
  8
0
  6
CONTINUOUS
 62
     7
 66
     1
 10
0.0
 20
0.0
 30
0.0
  0
VERTEX
  5
731
  8
0
  6
CONTINUOUS
 62
     7
 10
1099.9625568096
 20
815.1814112411
 30
0.0
  0
VERTEX
  5
732
  8
0
  6
CONTINUOUS
 62
     7
 10
1099.2559437458
 20
815.0045046554
 30
0.0
  0
VERTEX
  5
733
  8
0
  6
CONTINUOUS
 62
     7
 10
1099.0157221262
 20
814.7926697479
 30
0.0
  0
SEQEND
  5
734
  8
0
  6
CONTINUOUS
 62
     7
  0
ARC
  5
184
  8
0
  6
CONTINUOUS
 62
     7
 10
1099.9626016984
 20
813.6813707632
 30
0.0
 40
3.000050968647995
 50
90.0008572988
 51
179.9994272911
  0
LINE
  5
185
  8
0
  6
CONTINUOUS
 62
     7
 10
1099.9625568096
 20
816.6814217315
 30
0.0
 11
1099.9625568096
 21
815.1814112411
 31
0.0
  0
POLYLINE
  5
186
  8
0
  6
CONTINUOUS
 62
     7
 66
     1
 10
0.0
 20
0.0
 30
0.0
  0
VERTEX
  5
735
  8
0
  6
CONTINUOUS
 62
     7
 10
1098.9718680088
 20
-358.4181411221
 30
0.0
  0
VERTEX
  5
736
  8
0
  6
CONTINUOUS
 62
     7
 10
1099.3680898849
 20
-358.6958037718
 30
0.0
  0
VERTEX
  5
737
  8
0
  6
CONTINUOUS
 62
     7
 10
1099.9625568096
 20
-358.8186303182
 30
0.0
  0
SEQEND
  5
738
  8
0
  6
CONTINUOUS
 62
     7
  0
LINE
  5
187
  8
0
  6
CONTINUOUS
 62
     7
 10
1099.9625568096
 20
-360.3186314954
 30
0.0
 11
1099.9625568096
 21
-358.8186303182
 31
0.0
  0
ARC
  5
188
  8
0
  6
CONTINUOUS
 62
     7
 10
1099.9625688448
 20
-357.3186133806
 30
0.0
 40
3.000018114883836
 50
180.0003365748
 51
269.9997701468
  0
LINE
  5
189
  8
0
  6
CONTINUOUS
 62
     7
 10
1099.9625568096
 20
815.1814112411
 30
0.0
 11
1103.9625500147
 21
815.1814112411
 31
0.0
  0
LINE
  5
18A
  8
0
  6
CONTINUOUS
 62
     7
 10
1099.9625568096
 20
816.6814217315
 30
0.0
 11
1103.9625500147
 21
816.6814217315
 31
0.0
  0
LINE
  5
18B
  8
0
  6
CONTINUOUS
 62
     7
 10
1099.9625568096
 20
-360.3186314954
 30
0.0
 11
1103.9625500147
 21
-360.3186314954
 31
0.0
  0
LINE
  5
18C
  8
0
  6
CONTINUOUS
 62
     7
 10
1099.9625568096
 20
-358.8186303182
 30
0.0
 11
1103.9625500147
 21
-358.8186303182
 31
0.0
  0
POLYLINE
  5
18D
  8
0
  6
CONTINUOUS
 62
     7
 66
     1
 10
0.0
 20
0.0
 30
0.0
  0
VERTEX
  5
739
  8
0
  6
CONTINUOUS
 62
     7
 10
1096.9625507299
 20
813.6814007507
 30
0.0
  0
VERTEX
  5
73A
  8
0
  6
CONTINUOUS
 62
     7
 10
1097.1909110252
 20
814.0313992248
 30
0.0
  0
VERTEX
  5
73B
  8
0
  6
CONTINUOUS
 62
     7
 10
1097.8412424032
 20
814.3813976989
 30
0.0
  0
VERTEX
  5
73C
  8
0
  6
CONTINUOUS
 62
     7
 10
1098.8145117466
 20
814.7313961731
 30
0.0
  0
VERTEX
  5
73D
  8
0
  6
CONTINUOUS
 62
     7
 10
1099.9625568096
 20
815.0813946472
 30
0.0
  0
SEQEND
  5
73E
  8
0
  6
CONTINUOUS
 62
     7
  0
POLYLINE
  5
18E
  8
0
  6
CONTINUOUS
 62
     7
 66
     1
 10
0.0
 20
0.0
 30
0.0
  0
VERTEX
  5
73F
  8
0
  6
CONTINUOUS
 62
     7
 10
1099.9625568096
 20
-358.7186304881
 30
0.0
  0
VERTEX
  5
740
  8
0
  6
CONTINUOUS
 62
     7
 10
1098.9282672111
 20
-358.4049163415
 30
0.0
  0
VERTEX
  5
741
  8
0
  6
CONTINUOUS
 62
     7
 10
1098.0206672851
 20
-358.0911537661
 30
0.0
  0
VERTEX
  5
742
  8
0
  6
CONTINUOUS
 62
     7
 10
1097.3512624208
 20
-357.7773893281
 30
0.0
  0
VERTEX
  5
743
  8
0
  6
CONTINUOUS
 62
     7
 10
1097.0021729175
 20
-357.46362489
 30
0.0
  0
VERTEX
  5
744
  8
0
  6
CONTINUOUS
 62
     7
 10
1096.9625507299
 20
-357.3186310037
 30
0.0
  0
SEQEND
  5
745
  8
0
  6
CONTINUOUS
 62
     7
  0
LINE
  5
18F
  8
0
  6
CONTINUOUS
 62
     7
 10
1096.9625507299
 20
-357.3186310037
 30
0.0
 11
1096.9625507299
 21
813.6814007507
 31
0.0
  0
LINE
  5
190
  8
0
  6
CONTINUOUS
 62
     7
 10
1099.9625568096
 20
815.0813946472
 30
0.0
 11
1103.9625500147
 21
815.0813946472
 31
0.0
  0
LINE
  5
191
  8
0
  6
CONTINUOUS
 62
     7
 10
1099.9625568096
 20
-358.7186304881
 30
0.0
 11
1103.9625500147
 21
-358.7186304881
 31
0.0
  0
ARC
  5
192
  8
0
  6
CONTINUOUS
 62
     7
 10
1484.6625557606
 20
800.6813692794
 30
0.0
 40
1.500000000000109
 50
227.6307431317
 51
247.0978156072
  0
LINE
  5
193
  8
0
  6
CONTINUOUS
 62
     7
 10
1485.1625506584
 20
815.6813750015
 30
0.0
 11
1483.1625615064
 21
815.6813750015
 31
0.0
  0
LINE
  5
194
  8
0
  6
CONTINUOUS
 62
     7
 10
1487.1625547115
 20
815.6813750015
 30
0.0
 11
1487.1625547115
 21
810.1562628494
 31
0.0
  0
LINE
  5
195
  8
0
  6
CONTINUOUS
 62
     7
 10
1485.1625506584
 20
815.6813750015
 30
0.0
 11
1487.1625547115
 21
815.6813750015
 31
0.0
  0
ARC
  5
196
  8
0
  6
CONTINUOUS
 62
     7
 10
1490.1625557606
 20
810.1562227297
 30
0.0
 40
3.0
 50
180.0
 51
254.5339816124
  0
LINE
  5
197
  8
0
  6
CONTINUOUS
 62
     7
 10
1485.0800727312
 20
797.7105746017
 30
0.0
 11
1483.1625615064
 21
797.441042398
 31
0.0
  0
LINE
  5
198
  8
0
  6
CONTINUOUS
 62
     7
 10
1485.1625506584
 20
-356.0186313494
 30
0.0
 11
1483.1625615064
 21
-356.0186313494
 31
0.0
  0
LINE
  5
199
  8
0
  6
CONTINUOUS
 62
     7
 10
1487.1625547115
 20
-350.493483807
 30
0.0
 11
1487.1625547115
 21
-356.0186313494
 31
0.0
  0
LINE
  5
19A
  8
0
  6
CONTINUOUS
 62
     7
 10
1487.1625547115
 20
-356.0186313494
 30
0.0
 11
1485.1625506584
 21
-356.0186313494
 31
0.0
  0
ARC
  5
19B
  8
0
  6
CONTINUOUS
 62
     7
 10
1490.1625557606
 20
-350.4934841709
 30
0.0
 40
3.000000000000038
 50
105.4660183875
 51
180.0
  0
LINE
  5
19C
  8
0
  6
CONTINUOUS
 62
     7
 10
1485.0800727312
 20
-338.0478253617
 30
0.0
 11
1483.1625615064
 21
-337.7783378615
 31
0.0
  0
LINE
  5
19D
  8
0
  6
CONTINUOUS
 62
     7
 10
1501.3625566666
 20
820.1814064727
 30
0.0
 11
1502.0447020237
 21
820.1027283416
 31
0.0
  0
LINE
  5
19E
  8
0
  6
CONTINUOUS
 62
     7
 10
1489.3625621502
 20
-358.8186303182
 30
0.0
 11
1499.8625610773
 21
-358.8186303182
 31
0.0
  0
LINE
  5
19F
  8
0
  6
CONTINUOUS
 62
     7
 10
1489.3625621502
 20
818.6813959823
 30
0.0
 11
1489.3625621502
 21
-358.8186303182
 31
0.0
  0
LINE
  5
1A0
  8
0
  6
CONTINUOUS
 62
     7
 10
1499.8625610773
 20
818.6813959823
 30
0.0
 11
1489.3625621502
 21
818.6813959823
 31
0.0
  0
ARC
  5
1A1
  8
0
  6
CONTINUOUS
 62
     7
 10
1502.8625553349
 20
818.6813692794
 30
0.0
 40
3.000000000000148
 50
180.0
 51
240.0
  0
ARC
  5
1A2
  8
0
  6
CONTINUOUS
 62
     7
 10
1502.8625553349
 20
-358.8186307206
 30
0.0
 40
3.000000000000227
 50
120.0
 51
180.0
  0
LINE
  5
1A3
  8
0
  6
CONTINUOUS
 62
     7
 10
1504.3625627462
 20
-356.2205551221
 30
0.0
 11
1504.3625627462
 21
816.0833487258
 31
0.0
  0
POLYLINE
  5
1A4
  8
0
  6
CONTINUOUS
 62
     7
 66
     1
 10
0.0
 20
0.0
 30
0.0
  0
VERTEX
  5
746
  8
0
  6
CONTINUOUS
 62
     7
 10
1501.3625566666
 20
-356.2205551221
 30
0.0
  0
VERTEX
  5
747
  8
0
  6
CONTINUOUS
 62
     7
 10
1502.0447020237
 20
-356.0391036822
 30
0.0
  0
VERTEX
  5
748
  8
0
  6
CONTINUOUS
 62
     7
 10
1502.631465048
 20
-355.9098472847
 30
0.0
  0
VERTEX
  5
749
  8
0
  6
CONTINUOUS
 62
     7
 10
1503.4834687416
 20
-355.8079158916
 30
0.0
  0
VERTEX
  5
74A
  8
0
  6
CONTINUOUS
 62
     7
 10
1504.0721242134
 20
-355.9122519596
 30
0.0
  0
VERTEX
  5
74B
  8
0
  6
CONTINUOUS
 62
     7
 10
1504.2804126446
 20
-356.0409067227
 30
0.0
  0
VERTEX
  5
74C
  8
0
  6
CONTINUOUS
 62
     7
 10
1504.3625627462
 20
-356.2205551221
 30
0.0
  0
SEQEND
  5
74D
  8
0
  6
CONTINUOUS
 62
     7
  0
POLYLINE
  5
1A5
  8
0
  6
CONTINUOUS
 62
     7
 66
     1
 10
0.0
 20
0.0
 30
0.0
  0
VERTEX
  5
74E
  8
0
  6
CONTINUOUS
 62
     7
 10
1504.3625627462
 20
816.0833487258
 30
0.0
  0
VERTEX
  5
74F
  8
0
  6
CONTINUOUS
 62
     7
 10
1504.2839740221
 20
815.9017929779
 30
0.0
  0
VERTEX
  5
750
  8
0
  6
CONTINUOUS
 62
     7
 10
1504.0809904043
 20
815.772570108
 30
0.0
  0
VERTEX
  5
751
  8
0
  6
CONTINUOUS
 62
     7
 10
1503.4842734043
 20
815.6706461654
 30
0.0
  0
VERTEX
  5
752
  8
0
  6
CONTINUOUS
 62
     7
 10
1502.6503001158
 20
815.7749542938
 30
0.0
  0
VERTEX
  5
753
  8
0
  6
CONTINUOUS
 62
     7
 10
1502.0597521965
 20
815.9037003265
 30
0.0
  0
VERTEX
  5
754
  8
0
  6
CONTINUOUS
 62
     7
 10
1501.3625566666
 20
816.0833487258
 30
0.0
  0
SEQEND
  5
755
  8
0
  6
CONTINUOUS
 62
     7
  0
LINE
  5
1A6
  8
0
  6
CONTINUOUS
 62
     7
 10
1504.3625627462
 20
816.0833487258
 30
0.0
 11
1502.8625522558
 21
816.0833487258
 31
0.0
  0
LINE
  5
1A7
  8
0
  6
CONTINUOUS
 62
     7
 10
1502.8625522558
 20
-356.2205551221
 30
0.0
 11
1504.3625627462
 21
-356.2205551221
 31
0.0
  0
LINE
  5
1A8
  8
0
  6
CONTINUOUS
 62
     7
 10
1499.8625610773
 20
818.6813959823
 30
0.0
 11
1499.8625610773
 21
820.1814064727
 31
0.0
  0
LINE
  5
1A9
  8
0
  6
CONTINUOUS
 62
     7
 10
1501.3625566666
 20
818.6813959823
 30
0.0
 11
1501.3625566666
 21
820.1814064727
 31
0.0
  0
LINE
  5
1AA
  8
0
  6
CONTINUOUS
 62
     7
 10
1501.3625566666
 20
820.1814064727
 30
0.0
 11
1499.8625610773
 21
820.1814064727
 31
0.0
  0
LINE
  5
1AB
  8
0
  6
CONTINUOUS
 62
     7
 10
1501.3625566666
 20
818.6813959823
 30
0.0
 11
1499.8625610773
 21
818.6813959823
 31
0.0
  0
LINE
  5
1AC
  8
0
  6
CONTINUOUS
 62
     7
 10
1499.8625610773
 20
-360.3186314954
 30
0.0
 11
1499.8625610773
 21
-358.8186303182
 31
0.0
  0
LINE
  5
1AD
  8
0
  6
CONTINUOUS
 62
     7
 10
1501.3625566666
 20
-360.3186314954
 30
0.0
 11
1501.3625566666
 21
-358.8186303182
 31
0.0
  0
LINE
  5
1AE
  8
0
  6
CONTINUOUS
 62
     7
 10
1499.8625610773
 20
-360.3186314954
 30
0.0
 11
1501.3625566666
 21
-360.3186314954
 31
0.0
  0
LINE
  5
1AF
  8
0
  6
CONTINUOUS
 62
     7
 10
1501.3625566666
 20
-358.8186303182
 30
0.0
 11
1499.8625610773
 21
-358.8186303182
 31
0.0
  0
LINE
  5
1B0
  8
0
  6
CONTINUOUS
 62
     7
 10
1489.3625621502
 20
820.1814064727
 30
0.0
 11
1489.3625621502
 21
818.6813959823
 31
0.0
  0
LINE
  5
1B1
  8
0
  6
CONTINUOUS
 62
     7
 10
1489.3625621502
 20
820.1814064727
 30
0.0
 11
1499.8625610773
 21
820.1814064727
 31
0.0
  0
LINE
  5
1B2
  8
0
  6
CONTINUOUS
 62
     7
 10
1489.3625621502
 20
-360.3186314954
 30
0.0
 11
1489.3625621502
 21
-358.8186303182
 31
0.0
  0
LINE
  5
1B3
  8
0
  6
CONTINUOUS
 62
     7
 10
1499.8625610773
 20
-360.3186314954
 30
0.0
 11
1489.3625621502
 21
-360.3186314954
 31
0.0
  0
LINE
  5
1B4
  8
0
  6
CONTINUOUS
 62
     7
 10
1502.8625522558
 20
816.0833487258
 30
0.0
 11
1502.8625522558
 21
817.1813854919
 31
0.0
  0
LINE
  5
1B5
  8
0
  6
CONTINUOUS
 62
     7
 10
1502.8625522558
 20
817.1813854919
 30
0.0
 11
1504.3625627462
 21
817.1813854919
 31
0.0
  0
LINE
  5
1B6
  8
0
  6
CONTINUOUS
 62
     7
 10
1504.3625627462
 20
816.0833487258
 30
0.0
 11
1504.3625627462
 21
817.1813854919
 31
0.0
  0
LINE
  5
1B7
  8
0
  6
CONTINUOUS
 62
     7
 10
1504.3625627462
 20
-357.3186310037
 30
0.0
 11
1502.8625522558
 21
-357.3186310037
 31
0.0
  0
LINE
  5
1B8
  8
0
  6
CONTINUOUS
 62
     7
 10
1502.8625522558
 20
-356.2205551221
 30
0.0
 11
1502.8625522558
 21
-357.3186310037
 31
0.0
  0
LINE
  5
1B9
  8
0
  6
CONTINUOUS
 62
     7
 10
1504.3625627462
 20
-357.3186310037
 30
0.0
 11
1504.3625627462
 21
-356.2205551221
 31
0.0
  0
ARC
  5
1BA
  8
0
  6
CONTINUOUS
 62
     7
 10
1501.3623182322
 20
817.1811619599
 30
0.0
 40
3.000244522321712
 50
0.004268799
 51
89.995446611
  0
ARC
  5
1BB
  8
0
  6
CONTINUOUS
 62
     7
 10
1501.3625269059
 20
817.1813706326
 30
0.0
 40
1.500025349966887
 50
0.0005675721
 51
89.9988632466
  0
ARC
  5
1BC
  8
0
  6
CONTINUOUS
 62
     7
 10
1501.3625392972
 20
-357.3186080464
 30
0.0
 40
3.000023449109765
 50
270.0003317275
 51
359.9995615509
  0
ARC
  5
1BD
  8
0
  6
CONTINUOUS
 62
     7
 10
1501.3625515437
 20
-357.3186296062
 30
0.0
 40
1.500000712082732
 50
270.0001956774
 51
359.9999466184
  0
LINE
  5
1BE
  8
0
  6
CONTINUOUS
 62
     7
 10
1106.8542097513
 20
-376.8147126335
 30
0.0
 11
1106.9625560943
 21
-376.8186307075
 31
0.0
  0
LINE
  5
1BF
  8
0
  6
CONTINUOUS
 62
     7
 10
1106.9625560943
 20
-378.3186307206
 30
0.0
 11
1106.9625560943
 21
-376.8186307075
 31
0.0
  0
LINE
  5
1C0
  8
0
  6
CONTINUOUS
 62
     7
 10
1106.7458634083
 20
-378.3107945215
 30
0.0
 11
1106.9625560943
 21
-378.3186307206
 31
0.0
  0
LINE
  5
1C1
  8
0
  6
CONTINUOUS
 62
     7
 10
1106.7458634083
 20
-378.3107945215
 30
0.0
 11
1106.8542097513
 21
-376.8147126335
 31
0.0
  0
ARC
  5
1C2
  8
0
  6
CONTINUOUS
 62
     7
 10
1106.9625586565
 20
-375.3186221921
 30
0.0
 40
3.000008641827888
 50
180.000162384
 51
265.8578303052
  0
LINE
  5
1C3
  8
0
  6
CONTINUOUS
 62
     7
 10
1105.4625605051
 20
-375.3186306945
 30
0.0
 11
1103.9625500147
 21
-375.3186306945
 31
0.0
  0
ARC
  5
1C4
  8
0
  6
CONTINUOUS
 62
     7
 10
1106.9625398039
 20
-375.3186503029
 30
0.0
 40
1.499979298960551
 50
179.9992510048
 51
265.8584340353
  0
LINE
  5
1C5
  8
0
  6
CONTINUOUS
 62
     7
 10
1107.7731643621
 20
-376.8186307075
 30
0.0
 11
1106.9625560943
 21
-376.8186307075
 31
0.0
  0
LINE
  5
1C6
  8
0
  6
CONTINUOUS
 62
     7
 10
1108.4625516836
 20
-378.3186307206
 30
0.0
 11
1106.9625560943
 21
-378.3186307206
 31
0.0
  0
LINE
  5
1C7
  8
0
  6
CONTINUOUS
 62
     7
 10
1103.9625500147
 20
-375.2328442438
 30
0.0
 11
1103.9625500147
 21
-375.3186306945
 31
0.0
  0
LINE
  5
1C8
  8
0
  6
CONTINUOUS
 62
     7
 10
1479.6625618641
 20
-376.8186307075
 30
0.0
 11
1479.6625618641
 21
-378.3186307206
 31
0.0
  0
LINE
  5
1C9
  8
0
  6
CONTINUOUS
 62
     7
 10
1478.0480955545
 20
-378.3186307206
 30
0.0
 11
1479.6625618641
 21
-378.3186307206
 31
0.0
  0
LINE
  5
1CA
  8
0
  6
CONTINUOUS
 62
     7
 10
1479.3314878647
 20
-376.8186307075
 30
0.0
 11
1479.6625618641
 21
-376.8186307075
 31
0.0
  0
LINE
  5
1CB
  8
0
  6
CONTINUOUS
 62
     7
 10
1483.1625615064
 20
-374.8186306125
 30
0.0
 11
1483.1625615064
 21
-373.1854982703
 31
0.0
  0
LINE
  5
1CC
  8
0
  6
CONTINUOUS
 62
     7
 10
1483.1625615064
 20
-374.8186306125
 30
0.0
 11
1482.123563141
 21
-374.8186306125
 31
0.0
  0
LINE
  5
1CD
  8
0
  6
CONTINUOUS
 62
     7
 10
1479.6625618641
 20
-378.3186307206
 30
0.0
 11
1480.1625554268
 21
-378.3186307206
 31
0.0
  0
LINE
  5
1CE
  8
0
  6
CONTINUOUS
 62
     7
 10
1479.6625618641
 20
-376.8186307075
 30
0.0
 11
1480.1625554268
 21
-376.8186307075
 31
0.0
  0
LINE
  5
1CF
  8
0
  6
CONTINUOUS
 62
     7
 10
1481.662551016
 20
-375.3186306945
 30
0.0
 11
1481.662551016
 21
-375.0709205429
 31
0.0
  0
LINE
  5
1D0
  8
0
  6
CONTINUOUS
 62
     7
 10
1483.1625615064
 20
-375.3186306945
 30
0.0
 11
1483.1625615064
 21
-374.8186306125
 31
0.0
  0
ARC
  5
1D1
  8
0
  6
CONTINUOUS
 62
     7
 10
1480.1625557606
 20
-375.3186307206
 30
0.0
 40
3.0
 50
270.0
 51
0.0
  0
ARC
  5
1D2
  8
0
  6
CONTINUOUS
 62
     7
 10
1480.1625557606
 20
-375.3186307206
 30
0.0
 40
1.5
 50
270.0
 51
0.0
  0
LINE
  5
1D3
  8
0
  6
CONTINUOUS
 62
     7
 10
1489.3625621502
 20
-340.1644310011
 30
0.0
 11
1484.871322364
 21
-339.5332289888
 31
0.0
  0
LINE
  5
1D4
  8
0
  6
CONTINUOUS
 62
     7
 10
1484.871322364
 20
-339.5332289888
 30
0.0
 11
1485.0800727312
 21
-338.0478253617
 31
0.0
  0
LINE
  5
1D5
  8
0
  6
CONTINUOUS
 62
     7
 10
1489.3625621502
 20
-338.6496907129
 30
0.0
 11
1485.0800727312
 21
-338.0478253617
 31
0.0
  0
ARC
  5
1D6
  8
0
  6
CONTINUOUS
 62
     7
 10
1484.6625520107
 20
-341.0186199988
 30
0.0
 40
1.49999050431459
 50
81.9995362234
 51
180.0003396461
  0
ARC
  5
1D7
  8
0
  6
CONTINUOUS
 62
     7
 10
1484.6196644041
 20
-340.750238152
 30
0.0
 40
2.741351987073622
 50
80.3313878119
 51
122.1086936403
  0
ARC
  5
1D8
  8
0
  6
CONTINUOUS
 62
     7
 10
1106.9627200034
 20
818.6812469752
 30
0.0
 40
3.000169992384369
 50
90.0031302541
 51
179.9971543358
  0
LINE
  5
1D9
  8
0
  6
CONTINUOUS
 62
     7
 10
1106.9625560943
 20
821.6814169632
 30
0.0
 11
1106.9625560943
 21
820.1814064727
 31
0.0
  0
POLYLINE
  5
1DA
  8
0
  6
CONTINUOUS
 62
     7
 66
     1
 10
0.0
 20
0.0
 30
0.0
  0
VERTEX
  5
756
  8
0
  6
CONTINUOUS
 62
     7
 10
1106.9625560943
 20
820.1814064727
 30
0.0
  0
VERTEX
  5
757
  8
0
  6
CONTINUOUS
 62
     7
 10
1106.3356046383
 20
820.0440773712
 30
0.0
  0
VERTEX
  5
758
  8
0
  6
CONTINUOUS
 62
     7
 10
1106.1745975916
 20
819.9262985931
 30
0.0
  0
SEQEND
  5
759
  8
0
  6
CONTINUOUS
 62
     7
  0
LINE
  5
1DB
  8
0
  6
CONTINUOUS
 62
     7
 10
1104.1658316557
 20
818.6813959823
 30
0.0
 11
1103.9625500147
 21
818.6813959823
 31
0.0
  0
LINE
  5
1DC
  8
0
  6
CONTINUOUS
 62
     7
 10
1480.1625554268
 20
821.6814169632
 30
0.0
 11
1480.1625554268
 21
820.1814064727
 31
0.0
  0
LINE
  5
1DD
  8
0
  6
CONTINUOUS
 62
     7
 10
1480.1625554268
 20
821.6814169632
 30
0.0
 11
1479.6670024101
 21
821.6814169632
 31
0.0
  0
LINE
  5
1DE
  8
0
  6
CONTINUOUS
 62
     7
 10
1106.9625560943
 20
821.6814169632
 30
0.0
 11
1479.6670024101
 21
821.6814169632
 31
0.0
  0
ARC
  5
1DF
  8
0
  6
CONTINUOUS
 62
     7
 10
1480.162449886
 20
818.681284689
 30
0.0
 40
3.000132276030514
 50
14.8686452268
 51
89.9979844091
  0
LINE
  5
1E0
  8
0
  6
CONTINUOUS
 62
     7
 10
1482.2570775453
 20
819.2373881088
 30
0.0
 11
1483.06212768
 21
819.4511303649
 31
0.0
  0
ARC
  5
1E1
  8
0
  6
CONTINUOUS
 62
     7
 10
1480.1971931289
 20
818.8053142559
 30
0.0
 40
1.376528081646362
 50
42.3410614903
 51
91.4418911353
  0
LINE
  5
1E2
  8
0
  6
CONTINUOUS
 62
     7
 10
1483.06212768
 20
819.4511303649
 30
0.0
 11
1483.1625615064
 21
818.6813959823
 31
0.0
  0
LINE
  5
1E3
  8
0
  6
CONTINUOUS
 62
     7
 10
1483.1625615064
 20
818.0486330734
 30
0.0
 11
1483.1625615064
 21
818.6813959823
 31
0.0
  0
LINE
  5
1E4
  8
0
  6
CONTINUOUS
 62
     7
 10
1103.9625500147
 20
818.6813959823
 30
0.0
 11
1103.9625500147
 21
817.9742464767
 31
0.0
  0
LINE
  5
1E5
  8
0
  6
CONTINUOUS
 62
     7
 10
1489.3625621502
 20
799.8271355377
 30
0.0
 11
1484.871322364
 21
799.1959223495
 31
0.0
  0
LINE
  5
1E6
  8
0
  6
CONTINUOUS
 62
     7
 10
1485.0800727312
 20
797.7105746017
 30
0.0
 11
1489.3625621502
 21
798.3124623046
 31
0.0
  0
LINE
  5
1E7
  8
0
  6
CONTINUOUS
 62
     7
 10
1485.0800727312
 20
797.7105746017
 30
0.0
 11
1484.871322364
 21
799.1959223495
 31
0.0
  0
LINE
  5
1E8
  8
0
  6
CONTINUOUS
 62
     7
 10
1483.1625615064
 20
798.9470133529
 30
0.0
 11
1483.6813454334
 21
799.5467552887
 31
0.0
  0
POLYLINE
  5
1E9
  8
0
  6
CONTINUOUS
 62
     7
 66
     1
 10
0.0
 20
0.0
 30
0.0
  0
VERTEX
  5
75A
  8
0
  6
CONTINUOUS
 62
     7
 10
1483.1625615064
 20
800.6813893066
 30
0.0
  0
VERTEX
  5
75B
  8
0
  6
CONTINUOUS
 62
     7
 10
1483.2984004919
 20
800.0575670944
 30
0.0
  0
VERTEX
  5
75C
  8
0
  6
CONTINUOUS
 62
     7
 10
1483.6813454334
 20
799.5467552887
 30
0.0
  0
SEQEND
  5
75D
  8
0
  6
CONTINUOUS
 62
     7
  0
ARC
  5
1EA
  8
0
  6
CONTINUOUS
 62
     7
 10
1484.6201668742
 20
800.4124740483
 30
0.0
 40
2.740761576092628
 50
237.8711580343
 51
279.6600595721
  0
ARC
  5
1EB
  8
0
  6
CONTINUOUS
 62
     7
 10
1484.6628554602
 20
800.6823666332
 30
0.0
 40
1.500991358549738
 50
229.1631111245
 51
277.9833974085
  0
POLYLINE
  5
1EC
  8
0
  6
CONTINUOUS
 62
     7
 66
     1
 10
0.0
 20
0.0
 30
0.0
  0
VERTEX
  5
75E
  8
0
  6
CONTINUOUS
 62
     7
 10
1509.3483422701
 20
154.6165117965
 30
0.0
  0
VERTEX
  5
75F
  8
0
  6
CONTINUOUS
 62
     7
 10
1509.3210880463
 20
154.6212205635
 30
0.0
  0
VERTEX
  5
760
  8
0
  6
CONTINUOUS
 62
     7
 10
1509.2766378824
 20
154.6289095626
 30
0.0
  0
VERTEX
  5
761
  8
0
  6
CONTINUOUS
 62
     7
 10
1509.2160050575
 20
154.6393999801
 30
0.0
  0
VERTEX
  5
762
  8
0
  6
CONTINUOUS
 62
     7
 10
1509.1405753795
 20
154.6524533973
 30
0.0
  0
VERTEX
  5
763
  8
0
  6
CONTINUOUS
 62
     7
 10
1509.0520773832
 20
154.6678313957
 30
0.0
  0
VERTEX
  5
764
  8
0
  6
CONTINUOUS
 62
     7
 10
1508.9525525276
 20
154.685057138
 30
0.0
  0
VERTEX
  5
765
  8
0
  6
CONTINUOUS
 62
     7
 10
1508.844250888
 20
154.7037729965
 30
0.0
  0
VERTEX
  5
766
  8
0
  6
CONTINUOUS
 62
     7
 10
1508.7296758596
 20
154.7236213432
 30
0.0
  0
SEQEND
  5
767
  8
0
  6
CONTINUOUS
 62
     7
  0
POLYLINE
  5
1ED
  8
0
  6
CONTINUOUS
 62
     7
 66
     1
 10
0.0
 20
0.0
 30
0.0
  0
VERTEX
  5
768
  8
0
  6
CONTINUOUS
 62
     7
 10
1512.3860333864
 20
292.2893533454
 30
0.0
  0
VERTEX
  5
769
  8
0
  6
CONTINUOUS
 62
     7
 10
1512.3882238571
 20
292.7619585739
 30
0.0
  0
VERTEX
  5
76A
  8
0
  6
CONTINUOUS
 62
     7
 10
1512.3912040893
 20
293.1467065559
 30
0.0
  0
SEQEND
  5
76B
  8
0
  6
CONTINUOUS
 62
     7
  0
ARC
  5
1EE
  8
0
  6
CONTINUOUS
 62
     7
 10
1667.2208526456
 20
291.7849333999
 30
0.0
 40
154.8356409051071
 50
179.8133428135
 51
187.1951250706
  0
LINE
  5
1EF
  8
0
  6
CONTINUOUS
 62
     7
 10
1513.6044864361
 20
272.3919520126
 30
0.0
 11
1513.9556173984
 21
269.843257402
 31
0.0
  0
ARC
  5
1F0
  8
0
  6
CONTINUOUS
 62
     7
 10
1607.3040083937
 20
283.7009635174
 30
0.0
 40
94.37138401115182
 50
188.4439742437
 51
190.6174351732
  0
LINE
  5
1F1
  8
0
  6
CONTINUOUS
 62
     7
 10
1508.6802338068
 20
308.2704314933
 30
0.0
 11
1509.4507430498
 21
308.4939489112
 31
0.0
  0
LINE
  5
1F2
  8
0
  6
CONTINUOUS
 62
     7
 10
1508.6802338068
 20
151.6923079238
 30
0.0
 11
1509.4507430498
 21
151.4687905059
 31
0.0
  0
POLYLINE
  5
1F3
  8
0
  6
CONTINUOUS
 62
     7
 66
     1
 10
0.0
 20
0.0
 30
0.0
  0
VERTEX
  5
76C
  8
0
  6
CONTINUOUS
 62
     7
 10
1515.0062833731
 20
285.3852877365
 30
0.0
  0
VERTEX
  5
76D
  8
0
  6
CONTINUOUS
 62
     7
 10
1515.0234942142
 20
285.1456770645
 30
0.0
  0
VERTEX
  5
76E
  8
0
  6
CONTINUOUS
 62
     7
 10
1515.0735174124
 20
284.448898767
 30
0.0
  0
VERTEX
  5
76F
  8
0
  6
CONTINUOUS
 62
     7
 10
1515.1517932121
 20
283.3575973259
 30
0.0
  0
VERTEX
  5
770
  8
0
  6
CONTINUOUS
 62
     7
 10
1515.2512584631
 20
281.9689283119
 30
0.0
  0
SEQEND
  5
771
  8
0
  6
CONTINUOUS
 62
     7
  0
LINE
  5
1F4
  8
0
  6
CONTINUOUS
 62
     7
 10
1515.2512584631
 20
281.9689283119
 30
0.0
 11
1515.0153879825
 21
281.974113916
 31
0.0
  0
LINE
  5
1F5
  8
0
  6
CONTINUOUS
 62
     7
 10
1514.9632786219
 20
281.2004456268
 30
0.0
 11
1515.1441489164
 21
278.7197599159
 31
0.0
  0
LINE
  5
1F6
  8
0
  6
CONTINUOUS
 62
     7
 10
1515.3077040617
 20
277.9461512313
 30
0.0
 11
1515.53828463
 21
277.9510388122
 31
0.0
  0
POLYLINE
  5
1F7
  8
0
  6
CONTINUOUS
 62
     7
 66
     1
 10
0.0
 20
0.0
 30
0.0
  0
VERTEX
  5
772
  8
0
  6
CONTINUOUS
 62
     7
 10
1515.53828463
 20
277.9510388122
 30
0.0
  0
VERTEX
  5
773
  8
0
  6
CONTINUOUS
 62
     7
 10
1515.6371836368
 20
276.563085054
 30
0.0
  0
VERTEX
  5
774
  8
0
  6
CONTINUOUS
 62
     7
 10
1515.7148037855
 20
275.4723796592
 30
0.0
  0
VERTEX
  5
775
  8
0
  6
CONTINUOUS
 62
     7
 10
1515.7643352453
 20
274.7759589897
 30
0.0
  0
VERTEX
  5
776
  8
0
  6
CONTINUOUS
 62
     7
 10
1515.7813374702
 20
274.5365271316
 30
0.0
  0
SEQEND
  5
777
  8
0
  6
CONTINUOUS
 62
     7
  0
ARC
  5
1F8
  8
0
  6
CONTINUOUS
 62
     7
 10
1515.1391114794
 20
277.9317395978
 30
0.0
 40
0.3996365432984432
 50
2.7594441145
 51
89.9614241608
  0
ARC
  5
1F9
  8
0
  6
CONTINUOUS
 62
     7
 10
1514.8533559367
 20
281.9310751128
 30
0.0
 40
0.3997046424383611
 50
270.0486722882
 51
5.4428043043
  0
ARC
  5
1FA
  8
0
  6
CONTINUOUS
 62
     7
 10
1515.1391114794
 20
277.9317395978
 30
0.0
 40
0.3996365432984432
 50
2.7594441145
 51
89.9614241608
  0
LINE
  5
1FB
  8
0
  6
CONTINUOUS
 62
     7
 10
1158.8125620787
 20
822.0732578979
 30
0.0
 11
1177.512558252
 21
822.0732578979
 31
0.0
  0
LINE
  5
1FC
  8
0
  6
CONTINUOUS
 62
     7
 10
1408.8125546281
 20
822.0732578979
 30
0.0
 11
1427.5125508015
 21
822.0732578979
 31
0.0
  0
LINE
  5
1FD
  8
0
  6
CONTINUOUS
 62
     7
 10
1485.1625506584
 20
682.681358789
 30
0.0
 11
1485.1625506584
 21
737.6814255462
 31
0.0
  0
LINE
  5
1FE
  8
0
  6
CONTINUOUS
 62
     7
 10
1485.1625506584
 20
682.681358789
 30
0.0
 11
1483.1625615064
 21
682.681358789
 31
0.0
  0
LINE
  5
1FF
  8
0
  6
CONTINUOUS
 62
     7
 10
1485.1625506584
 20
737.6814255462
 30
0.0
 11
1483.1625615064
 21
737.6814255462
 31
0.0
  0
LINE
  5
200
  8
0
  6
CONTINUOUS
 62
     7
 10
1487.4409084026
 20
737.6814255462
 30
0.0
 11
1485.1625506584
 21
737.6814255462
 31
0.0
  0
LINE
  5
201
  8
0
  6
CONTINUOUS
 62
     7
 10
1487.4409084026
 20
682.681358789
 30
0.0
 11
1485.1625506584
 21
682.681358789
 31
0.0
  0
LINE
  5
202
  8
0
  6
CONTINUOUS
 62
     7
 10
1489.3625621502
 20
737.6814255462
 30
0.0
 11
1487.4409084026
 21
737.6814255462
 31
0.0
  0
LINE
  5
203
  8
0
  6
CONTINUOUS
 62
     7
 10
1489.3625621502
 20
682.681358789
 30
0.0
 11
1487.4409084026
 21
682.681358789
 31
0.0
  0
LINE
  5
204
  8
0
  6
CONTINUOUS
 62
     7
 10
1485.1625506584
 20
202.4313578353
 30
0.0
 11
1485.1625506584
 21
257.4313649879
 31
0.0
  0
LINE
  5
205
  8
0
  6
CONTINUOUS
 62
     7
 10
1485.1625506584
 20
202.4313578353
 30
0.0
 11
1483.1625615064
 21
202.4313578353
 31
0.0
  0
LINE
  5
206
  8
0
  6
CONTINUOUS
 62
     7
 10
1485.1625506584
 20
257.4313649879
 30
0.0
 11
1483.1625615064
 21
257.4313649879
 31
0.0
  0
LINE
  5
207
  8
0
  6
CONTINUOUS
 62
     7
 10
1487.4409084026
 20
257.4313649879
 30
0.0
 11
1485.1625506584
 21
257.4313649879
 31
0.0
  0
LINE
  5
208
  8
0
  6
CONTINUOUS
 62
     7
 10
1487.4409084026
 20
202.4313578353
 30
0.0
 11
1485.1625506584
 21
202.4313578353
 31
0.0
  0
LINE
  5
209
  8
0
  6
CONTINUOUS
 62
     7
 10
1489.3625621502
 20
257.4313649879
 30
0.0
 11
1487.4409084026
 21
257.4313649879
 31
0.0
  0
LINE
  5
20A
  8
0
  6
CONTINUOUS
 62
     7
 10
1489.3625621502
 20
202.4313578353
 30
0.0
 11
1487.4409084026
 21
202.4313578353
 31
0.0
  0
LINE
  5
20B
  8
0
  6
CONTINUOUS
 62
     7
 10
1485.1625506584
 20
-277.8186282172
 30
0.0
 11
1485.1625506584
 21
-222.8186359658
 31
0.0
  0
LINE
  5
20C
  8
0
  6
CONTINUOUS
 62
     7
 10
1485.1625506584
 20
-277.8186282172
 30
0.0
 11
1483.1625615064
 21
-277.8186282172
 31
0.0
  0
LINE
  5
20D
  8
0
  6
CONTINUOUS
 62
     7
 10
1485.1625506584
 20
-222.8186359658
 30
0.0
 11
1483.1625615064
 21
-222.8186359658
 31
0.0
  0
LINE
  5
20E
  8
0
  6
CONTINUOUS
 62
     7
 10
1487.4409084026
 20
-222.8186359658
 30
0.0
 11
1485.1625506584
 21
-222.8186359658
 31
0.0
  0
LINE
  5
20F
  8
0
  6
CONTINUOUS
 62
     7
 10
1487.4409084026
 20
-277.8186282172
 30
0.0
 11
1485.1625506584
 21
-277.8186282172
 31
0.0
  0
LINE
  5
210
  8
0
  6
CONTINUOUS
 62
     7
 10
1489.3625621502
 20
-222.8186359658
 30
0.0
 11
1487.4409084026
 21
-222.8186359658
 31
0.0
  0
LINE
  5
211
  8
0
  6
CONTINUOUS
 62
     7
 10
1489.3625621502
 20
-277.8186282172
 30
0.0
 11
1487.4409084026
 21
-277.8186282172
 31
0.0
  0
LINE
  5
212
  8
0
  6
CONTINUOUS
 62
     7
 10
1485.3825514023
 20
207.431353067
 30
0.0
 11
1485.3825514023
 21
212.4313482986
 31
0.0
  0
LINE
  5
213
  8
0
  6
CONTINUOUS
 62
     7
 10
1485.7825581734
 20
207.8735599266
 30
0.0
 11
1485.7825581734
 21
207.8313598381
 31
0.0
  0
LINE
  5
214
  8
0
  6
CONTINUOUS
 62
     7
 10
1485.7825581734
 20
212.0313415275
 30
0.0
 11
1485.7825581734
 21
207.8735599266
 31
0.0
  0
LINE
  5
215
  8
0
  6
CONTINUOUS
 62
     7
 10
1485.7825581734
 20
250.1988181816
 30
0.0
 11
1485.7825581734
 21
247.8313812957
 31
0.0
  0
LINE
  5
216
  8
0
  6
CONTINUOUS
 62
     7
 10
1485.7825581734
 20
252.0313629852
 30
0.0
 11
1485.7825581734
 21
250.1988181816
 31
0.0
  0
LINE
  5
217
  8
0
  6
CONTINUOUS
 62
     7
 10
1485.3825514023
 20
250.2497205482
 30
0.0
 11
1485.3825514023
 21
252.4313697563
 31
0.0
  0
LINE
  5
218
  8
0
  6
CONTINUOUS
 62
     7
 10
1485.3825514023
 20
247.4313745246
 30
0.0
 11
1485.3825514023
 21
250.2497205482
 31
0.0
  0
LINE
  5
219
  8
0
  6
CONTINUOUS
 62
     7
 10
1485.3825514023
 20
-231.6950341715
 30
0.0
 11
1485.3825514023
 21
-227.8186311974
 31
0.0
  0
LINE
  5
21A
  8
0
  6
CONTINUOUS
 62
     7
 10
1485.3825514023
 20
-232.818626429
 30
0.0
 11
1485.3825514023
 21
-231.6950341715
 31
0.0
  0
LINE
  5
21B
  8
0
  6
CONTINUOUS
 62
     7
 10
1485.7825581734
 20
-231.4748099102
 30
0.0
 11
1485.7825581734
 21
-232.4186345591
 31
0.0
  0
LINE
  5
21C
  8
0
  6
CONTINUOUS
 62
     7
 10
1485.7825581734
 20
-228.2186379685
 30
0.0
 11
1485.7825581734
 21
-231.4748099102
 31
0.0
  0
LINE
  5
21D
  8
0
  6
CONTINUOUS
 62
     7
 10
1485.7825581734
 20
-268.2186296238
 30
0.0
 11
1485.7825581734
 21
-272.418633665
 31
0.0
  0
LINE
  5
21E
  8
0
  6
CONTINUOUS
 62
     7
 10
1485.3825514023
 20
-272.8186329855
 30
0.0
 11
1485.3825514023
 21
-267.8186303033
 31
0.0
  0
LINE
  5
21F
  8
0
  6
CONTINUOUS
 62
     7
 10
1485.7825581734
 20
692.2814020858
 30
0.0
 11
1485.7825581734
 21
688.0814203964
 31
0.0
  0
LINE
  5
220
  8
0
  6
CONTINUOUS
 62
     7
 10
1485.3825514023
 20
687.6813540206
 30
0.0
 11
1485.3825514023
 21
692.6813492523
 31
0.0
  0
LINE
  5
221
  8
0
  6
CONTINUOUS
 62
     7
 10
1485.7825581734
 20
728.3472189651
 30
0.0
 11
1485.7825581734
 21
728.0813822494
 31
0.0
  0
LINE
  5
222
  8
0
  6
CONTINUOUS
 62
     7
 10
1485.7825581734
 20
732.2813639389
 30
0.0
 11
1485.7825581734
 21
728.3472189651
 31
0.0
  0
LINE
  5
223
  8
0
  6
CONTINUOUS
 62
     7
 10
1485.3825514023
 20
727.9979357467
 30
0.0
 11
1485.3825514023
 21
732.6813111053
 31
0.0
  0
LINE
  5
224
  8
0
  6
CONTINUOUS
 62
     7
 10
1485.3825514023
 20
727.6813158737
 30
0.0
 11
1485.3825514023
 21
727.9979357467
 31
0.0
  0
ARC
  5
225
  8
0
  6
CONTINUOUS
 62
     7
 10
1479.6670031497
 20
-370.3186307206
 30
0.0
 40
4.999999999973059
 50
270.0
 51
275.6879527016
  0
LINE
  5
226
  8
0
  6
CONTINUOUS
 62
     7
 10
1107.4173991386
 20
-375.3186306945
 30
0.0
 11
1106.9625560943
 21
-375.3186306945
 31
0.0
  0
LINE
  5
227
  8
0
  6
CONTINUOUS
 62
     7
 10
1106.9625560943
 20
820.1814064727
 30
0.0
 11
1479.6670024101
 21
820.1814064727
 31
0.0
  0
LINE
  5
228
  8
0
  6
CONTINUOUS
 62
     7
 10
1480.1625554268
 20
819.9935326324
 30
0.0
 11
1479.6670024101
 21
820.1814064727
 31
0.0
  0
ARC
  5
229
  8
0
  6
CONTINUOUS
 62
     7
 10
1463.1737206611
 20
-372.4228229115
 30
0.0
 40
16.74556793808089
 50
340.6516984265
 51
350.0417920457
  0
POLYLINE
  5
22A
  8
0
  6
CONTINUOUS
 62
     7
 66
     1
 10
0.0
 20
0.0
 30
0.0
  0
VERTEX
  5
778
  8
0
  6
CONTINUOUS
 62
     7
 10
1478.9735321705
 20
-377.9707962327
 30
0.0
  0
VERTEX
  5
779
  8
0
  6
CONTINUOUS
 62
     7
 10
1478.5108213131
 20
-378.2303737476
 30
0.0
  0
VERTEX
  5
77A
  8
0
  6
CONTINUOUS
 62
     7
 10
1478.0480955545
 20
-378.3186307206
 30
0.0
  0
SEQEND
  5
77B
  8
0
  6
CONTINUOUS
 62
     7
  0
LINE
  5
22B
  8
0
  6
CONTINUOUS
 62
     7
 10
1478.0480955545
 20
-378.3186307206
 30
0.0
 11
1108.4625516836
 21
-378.3186307206
 31
0.0
  0
ARC
  5
22C
  8
0
  6
CONTINUOUS
 62
     7
 10
1113.1552162958
 20
-375.0017232955
 30
0.0
 40
5.746562105195918
 50
183.1613114461
 51
215.2537451831
  0
POLYLINE
  5
22D
  8
0
  6
CONTINUOUS
 62
     7
 66
     1
 10
0.0
 20
0.0
 30
0.0
  0
VERTEX
  5
77C
  8
0
  6
CONTINUOUS
 62
     7
 10
1103.9625500147
 20
817.9742464767
 30
0.0
  0
VERTEX
  5
77D
  8
0
  6
CONTINUOUS
 62
     7
 10
1104.1658316557
 20
818.6813959823
 30
0.0
  0
VERTEX
  5
77E
  8
0
  6
CONTINUOUS
 62
     7
 10
1104.7481243317
 20
819.3884262786
 30
0.0
  0
SEQEND
  5
77F
  8
0
  6
CONTINUOUS
 62
     7
  0
ARC
  5
22E
  8
0
  6
CONTINUOUS
 62
     7
 10
1112.6721650403
 20
800.7486358599
 30
0.0
 40
20.25418988770696
 50
106.373496312
 51
113.0310368182
  0
ARC
  5
22F
  8
0
  6
CONTINUOUS
 62
     7
 10
1107.0565361237
 20
-319.5331480292
 30
0.0
 40
55.78556182782469
 50
266.8206225916
 51
269.9034757129
  0
LINE
  5
230
  8
0
  6
CONTINUOUS
 62
     7
 10
1103.9625500147
 20
817.9742464767
 30
0.0
 11
1103.9625500147
 21
-375.2328442438
 31
0.0
  0
LINE
  5
231
  8
0
  6
CONTINUOUS
 62
     7
 10
1483.1625615064
 20
818.0486330734
 30
0.0
 11
1483.1625615064
 21
-373.1854982703
 31
0.0
  0
ARC
  5
232
  8
0
  6
CONTINUOUS
 62
     7
 10
1480.5305060272
 20
-372.7245154272
 30
0.0
 40
2.672119238997514
 50
299.9873866888
 51
350.0658734886
  0
POLYLINE
  5
233
  8
0
  6
CONTINUOUS
 62
     7
 66
     1
 10
0.0
 20
0.0
 30
0.0
  0
VERTEX
  5
780
  8
0
  6
CONTINUOUS
 62
     7
 10
1482.5009350483
 20
819.3463453994
 30
0.0
  0
VERTEX
  5
781
  8
0
  6
CONTINUOUS
 62
     7
 10
1482.9923157398
 20
818.6974892364
 30
0.0
  0
VERTEX
  5
782
  8
0
  6
CONTINUOUS
 62
     7
 10
1483.1625615064
 20
818.0486330734
 30
0.0
  0
SEQEND
  5
783
  8
0
  6
CONTINUOUS
 62
     7
  0
ARC
  5
234
  8
0
  6
CONTINUOUS
 62
     7
 10
1475.4769644705
 20
798.5157824805
 30
0.0
 40
21.98291414251355
 50
71.3661289051
 51
77.6931647839
  0
POLYLINE
  5
235
  8
0
  6
CONTINUOUS
 62
     7
 66
     1
 10
0.0
 20
0.0
 30
0.0
  0
VERTEX
  5
784
  8
0
  6
CONTINUOUS
 62
     7
 10
1481.8660561745
 20
-375.0389333377
 30
0.0
  0
VERTEX
  5
785
  8
0
  6
CONTINUOUS
 62
     7
 10
1481.0546581451
 20
-375.1664730749
 30
0.0
  0
VERTEX
  5
786
  8
0
  6
CONTINUOUS
 62
     7
 10
1480.1625554268
 20
-375.294012812
 30
0.0
  0
SEQEND
  5
787
  8
0
  6
CONTINUOUS
 62
     7
  0
LINE
  5
236
  8
0
  6
CONTINUOUS
 62
     7
 10
1489.3625621502
 20
797.8220352874
 30
0.0
 11
1484.871322364
 21
797.1846232162
 31
0.0
  0
LINE
  5
237
  8
0
  6
CONTINUOUS
 62
     7
 10
1484.871322364
 20
-337.5239042594
 30
0.0
 11
1489.3625621502
 21
-338.16130888
 31
0.0
  0
ARC
  5
238
  8
0
  6
CONTINUOUS
 62
     7
 10
1497.7030645041
 20
636.6141923168
 30
0.0
 40
161.0648817300115
 50
94.6440284958
 51
95.1591912464
  0
ARC
  5
239
  8
0
  6
CONTINUOUS
 62
     7
 10
1485.0561702609
 20
792.7610702636
 30
0.0
 40
4.427413406207078
 50
92.3928381421
 51
115.3217425254
  0
ARC
  5
23A
  8
0
  6
CONTINUOUS
 62
     7
 10
1485.0562186803
 20
-333.1011097851
 30
0.0
 40
4.426657611478457
 50
244.6729353171
 51
267.6061258171
  0
ARC
  5
23B
  8
0
  6
CONTINUOUS
 62
     7
 10
1493.3092342087
 20
-228.5316731489
 30
0.0
 40
109.3003919362698
 50
264.6733969521
 51
265.4625830674
  0
ARC
  5
23C
  8
0
  6
CONTINUOUS
 62
     7
 10
-645.62890313
 20
257.7717620445
 30
0.0
 40
279.9999999999777
 50
169.6893026751
 51
172.7420376961
  0
ARC
  5
23D
  8
0
  6
CONTINUOUS
 62
     7
 10
-645.62890313
 20
202.1909765145
 30
0.0
 40
280.0000000002275
 50
183.0
 51
190.3096605428
  0
ARC
  5
23E
  8
0
  6
CONTINUOUS
 62
     7
 10
-115.3566201753
 20
229.9813692795
 30
0.0
 40
811.000000000495
 50
177.4323496779
 51
183.0
  0
ARC
  5
23F
  8
0
  6
CONTINUOUS
 62
     7
 10
-911.3566201753
 20
276.8246905712
 30
0.0
 40
33.00000000000004
 50
96.9620626911
 51
106.0038114363
  0
ARC
  5
240
  8
0
  6
CONTINUOUS
 62
     7
 10
-911.3566201753
 20
183.1380479878
 30
0.0
 40
33.00000000000011
 50
253.9885793286
 51
263.0379373089
  0
ARC
  5
241
  8
0
  6
CONTINUOUS
 62
     7
 10
-925.1478864814
 20
267.008841599
 30
0.0
 40
0.8000000000003781
 50
193.3050835815
 51
240.4801028819
  0
ARC
  5
242
  8
0
  6
CONTINUOUS
 62
     7
 10
-923.3760720482
 20
292.3469684756
 30
0.0
 40
0.8000000000003196
 50
90.63381958
 51
158.6949164179
  0
ARC
  5
243
  8
0
  6
CONTINUOUS
 62
     7
 10
-920.3188038799
 20
307.7525934843
 30
0.0
 40
0.8000415142642551
 50
104.5519388826
 51
170.0602751556
  0
ARC
  5
244
  8
0
  6
CONTINUOUS
 62
     7
 10
-920.3188197916
 20
152.2101312531
 30
0.0
 40
0.8000233075588201
 50
189.938885996
 51
255.4488999658
  0
ARC
  5
245
  8
0
  6
CONTINUOUS
 62
     7
 10
-895.0494856102
 20
274.1266218438
 30
0.0
 40
31.72857142862248
 50
179.2551359542
 51
193.3050835818
  0
ARC
  5
246
  8
0
  6
CONTINUOUS
 62
     7
 10
-894.561190294
 20
281.1095701956
 30
0.0
 40
31.72857142857151
 50
158.6949164178
 51
172.2587626394
  0
LINE
  5
247
  8
0
  6
CONTINUOUS
 62
     7
 10
-588.5066230924
 20
822.0732578979
 30
0.0
 11
-588.5066230924
 21
821.6814169632
 31
0.0
  0
LINE
  5
248
  8
0
  6
CONTINUOUS
 62
     7
 10
-569.806626919
 20
821.6814169632
 30
0.0
 11
-569.806626919
 21
822.0732578979
 31
0.0
  0
ARC
  5
249
  8
0
  6
CONTINUOUS
 62
     7
 10
-579.156620601
 20
783.1813692794
 30
0.0
 40
40.0
 50
76.4820489901
 51
103.5179510099
  0
ARC
  5
24A
  8
0
  6
CONTINUOUS
 62
     7
 10
-829.156620601
 20
783.1813692794
 30
0.0
 40
40.0
 50
76.4820489901
 51
103.5179510099
  0
LINE
  5
24B
  8
0
  6
CONTINUOUS
 62
     7
 10
-838.5066156418
 20
822.0732578979
 30
0.0
 11
-838.5066156418
 21
821.6814169632
 31
0.0
  0
LINE
  5
24C
  8
0
  6
CONTINUOUS
 62
     7
 10
-819.8066194685
 20
821.6814169632
 30
0.0
 11
-819.8066194685
 21
822.0732578979
 31
0.0
  0
LINE
  5
24D
  8
0
  6
CONTINUOUS
 62
     7
 10
-896.3766162427
 20
-267.8186303033
 30
0.0
 11
-896.7766230137
 21
-268.2186296238
 31
0.0
  0
LINE
  5
24E
  8
0
  6
CONTINUOUS
 62
     7
 10
-896.7766230137
 20
-272.418633665
 30
0.0
 11
-896.3766162427
 21
-272.8186329855
 31
0.0
  0
LINE
  5
24F
  8
0
  6
CONTINUOUS
 62
     7
 10
-896.1566154988
 20
-267.8186303033
 30
0.0
 11
-896.3766162427
 21
-267.8186303033
 31
0.0
  0
LINE
  5
250
  8
0
  6
CONTINUOUS
 62
     7
 10
-896.3766162427
 20
-272.8186329855
 30
0.0
 11
-896.1566154988
 21
-272.8186329855
 31
0.0
  0
LINE
  5
251
  8
0
  6
CONTINUOUS
 62
     7
 10
-896.1566154988
 20
732.6813111053
 30
0.0
 11
-896.3766162427
 21
732.6813111053
 31
0.0
  0
LINE
  5
252
  8
0
  6
CONTINUOUS
 62
     7
 10
-896.3766162427
 20
727.6813158737
 30
0.0
 11
-896.1566154988
 21
727.6813158737
 31
0.0
  0
LINE
  5
253
  8
0
  6
CONTINUOUS
 62
     7
 10
-896.3766162427
 20
732.6813111053
 30
0.0
 11
-896.7766230137
 21
732.2813639389
 31
0.0
  0
LINE
  5
254
  8
0
  6
CONTINUOUS
 62
     7
 10
-896.7766230137
 20
728.0813822494
 30
0.0
 11
-896.3766162427
 21
727.6813158737
 31
0.0
  0
LINE
  5
255
  8
0
  6
CONTINUOUS
 62
     7
 10
-896.3766162427
 20
-227.8186311974
 30
0.0
 11
-896.7766230137
 21
-228.2186379685
 31
0.0
  0
LINE
  5
256
  8
0
  6
CONTINUOUS
 62
     7
 10
-896.7766230137
 20
-232.4186345591
 30
0.0
 11
-896.3766162427
 21
-232.818626429
 31
0.0
  0
LINE
  5
257
  8
0
  6
CONTINUOUS
 62
     7
 10
-896.1566154988
 20
-227.8186311974
 30
0.0
 11
-896.3766162427
 21
-227.8186311974
 31
0.0
  0
LINE
  5
258
  8
0
  6
CONTINUOUS
 62
     7
 10
-896.3766162427
 20
-232.818626429
 30
0.0
 11
-896.1566154988
 21
-232.818626429
 31
0.0
  0
LINE
  5
259
  8
0
  6
CONTINUOUS
 62
     7
 10
-896.1566154988
 20
212.4313482986
 30
0.0
 11
-896.3766162427
 21
212.4313482986
 31
0.0
  0
LINE
  5
25A
  8
0
  6
CONTINUOUS
 62
     7
 10
-896.3766162427
 20
207.431353067
 30
0.0
 11
-896.1566154988
 21
207.431353067
 31
0.0
  0
LINE
  5
25B
  8
0
  6
CONTINUOUS
 62
     7
 10
-896.3766162427
 20
212.4313482986
 30
0.0
 11
-896.7766230137
 21
212.0313415275
 31
0.0
  0
LINE
  5
25C
  8
0
  6
CONTINUOUS
 62
     7
 10
-896.7766230137
 20
207.8313598381
 30
0.0
 11
-896.3766162427
 21
207.431353067
 31
0.0
  0
LINE
  5
25D
  8
0
  6
CONTINUOUS
 62
     7
 10
-896.3766162427
 20
252.4313697563
 30
0.0
 11
-896.7766230137
 21
252.0313629852
 31
0.0
  0
LINE
  5
25E
  8
0
  6
CONTINUOUS
 62
     7
 10
-896.7766230137
 20
247.8313812957
 30
0.0
 11
-896.3766162427
 21
247.4313745246
 31
0.0
  0
LINE
  5
25F
  8
0
  6
CONTINUOUS
 62
     7
 10
-896.1566154988
 20
252.4313697563
 30
0.0
 11
-896.3766162427
 21
252.4313697563
 31
0.0
  0
LINE
  5
260
  8
0
  6
CONTINUOUS
 62
     7
 10
-896.3766162427
 20
247.4313745246
 30
0.0
 11
-896.1566154988
 21
247.4313745246
 31
0.0
  0
LINE
  5
261
  8
0
  6
CONTINUOUS
 62
     7
 10
-896.1566154988
 20
692.6813492523
 30
0.0
 11
-896.3766162427
 21
692.6813492523
 31
0.0
  0
LINE
  5
262
  8
0
  6
CONTINUOUS
 62
     7
 10
-896.3766162427
 20
687.6813540206
 30
0.0
 11
-896.1566154988
 21
687.6813540206
 31
0.0
  0
LINE
  5
263
  8
0
  6
CONTINUOUS
 62
     7
 10
-896.3766162427
 20
692.6813492523
 30
0.0
 11
-896.7766230137
 21
692.2814020858
 31
0.0
  0
LINE
  5
264
  8
0
  6
CONTINUOUS
 62
     7
 10
-896.7766230137
 20
688.0814203964
 30
0.0
 11
-896.3766162427
 21
687.6813540206
 31
0.0
  0
POLYLINE
  5
265
  8
0
  6
CONTINUOUS
 62
     7
 66
     1
 10
0.0
 20
0.0
 30
0.0
  0
VERTEX
  5
788
  8
0
  6
CONTINUOUS
 62
     7
 10
-510.0420479806
 20
814.8025641189
 30
0.0
  0
VERTEX
  5
789
  8
0
  6
CONTINUOUS
 62
     7
 10
-510.27097452
 20
815.0154719101
 30
0.0
  0
VERTEX
  5
78A
  8
0
  6
CONTINUOUS
 62
     7
 10
-510.95662165
 20
815.1814112411
 30
0.0
  0
SEQEND
  5
78B
  8
0
  6
CONTINUOUS
 62
     7
  0
LINE
  5
266
  8
0
  6
CONTINUOUS
 62
     7
 10
-510.95662165
 20
816.6814217315
 30
0.0
 11
-510.95662165
 21
815.1814112411
 31
0.0
  0
ARC
  5
267
  8
0
  6
CONTINUOUS
 62
     7
 10
-510.9567320252
 20
813.6813052772
 30
0.0
 40
3.000116456381114
 50
0.0018233391
 51
89.997892071
  0
LINE
  5
268
  8
0
  6
CONTINUOUS
 62
     7
 10
-510.95662165
 20
816.6814217315
 30
0.0
 11
-514.9566148551
 21
816.6814217315
 31
0.0
  0
LINE
  5
269
  8
0
  6
CONTINUOUS
 62
     7
 10
-510.95662165
 20
815.1814112411
 30
0.0
 11
-514.9566148551
 21
815.1814112411
 31
0.0
  0
LINE
  5
26A
  8
0
  6
CONTINUOUS
 62
     7
 10
-510.95662165
 20
-360.3186314954
 30
0.0
 11
-510.95662165
 21
-358.8186303182
 31
0.0
  0
LINE
  5
26B
  8
0
  6
CONTINUOUS
 62
     7
 10
-510.95662165
 20
-360.3186314954
 30
0.0
 11
-514.9566148551
 21
-360.3186314954
 31
0.0
  0
LINE
  5
26C
  8
0
  6
CONTINUOUS
 62
     7
 10
-510.95662165
 20
-358.8186303182
 30
0.0
 11
-514.9566148551
 21
-358.8186303182
 31
0.0
  0
LINE
  5
26D
  8
0
  6
CONTINUOUS
 62
     7
 10
-510.95662165
 20
815.0813946472
 30
0.0
 11
-514.9566148551
 21
815.0813946472
 31
0.0
  0
LINE
  5
26E
  8
0
  6
CONTINUOUS
 62
     7
 10
-510.95662165
 20
-358.7186304881
 30
0.0
 11
-514.9566148551
 21
-358.7186304881
 31
0.0
  0
POLYLINE
  5
26F
  8
0
  6
CONTINUOUS
 62
     7
 66
     1
 10
0.0
 20
0.0
 30
0.0
  0
VERTEX
  5
78C
  8
0
  6
CONTINUOUS
 62
     7
 10
-510.95662165
 20
-358.8186303182
 30
0.0
  0
VERTEX
  5
78D
  8
0
  6
CONTINUOUS
 62
     7
 10
-510.3621547253
 20
-358.6958037718
 30
0.0
  0
VERTEX
  5
78E
  8
0
  6
CONTINUOUS
 62
     7
 10
-509.9546526702
 20
-358.4102379187
 30
0.0
  0
SEQEND
  5
78F
  8
0
  6
CONTINUOUS
 62
     7
  0
ARC
  5
270
  8
0
  6
CONTINUOUS
 62
     7
 10
-510.9566336852
 20
-357.3186133806
 30
0.0
 40
3.000018114883722
 50
270.0002298532
 51
359.9996634252
  0
LINE
  5
271
  8
0
  6
CONTINUOUS
 62
     7
 10
-507.9566155703
 20
813.6814007507
 30
0.0
 11
-507.9566155703
 21
-357.3186310037
 31
0.0
  0
POLYLINE
  5
272
  8
0
  6
CONTINUOUS
 62
     7
 66
     1
 10
0.0
 20
0.0
 30
0.0
  0
VERTEX
  5
790
  8
0
  6
CONTINUOUS
 62
     7
 10
-507.9566155703
 20
-357.3186310037
 30
0.0
  0
VERTEX
  5
791
  8
0
  6
CONTINUOUS
 62
     7
 10
-508.1405555041
 20
-357.6323451503
 30
0.0
  0
VERTEX
  5
792
  8
0
  6
CONTINUOUS
 62
     7
 10
-508.6699043543
 20
-357.9461077257
 30
0.0
  0
VERTEX
  5
793
  8
0
  6
CONTINUOUS
 62
     7
 10
-509.4797377617
 20
-358.2598703011
 30
0.0
  0
VERTEX
  5
794
  8
0
  6
CONTINUOUS
 62
     7
 10
-510.4707245858
 20
-358.5736347391
 30
0.0
  0
VERTEX
  5
795
  8
0
  6
CONTINUOUS
 62
     7
 10
-510.95662165
 20
-358.7186304881
 30
0.0
  0
SEQEND
  5
796
  8
0
  6
CONTINUOUS
 62
     7
  0
POLYLINE
  5
273
  8
0
  6
CONTINUOUS
 62
     7
 66
     1
 10
0.0
 20
0.0
 30
0.0
  0
VERTEX
  5
797
  8
0
  6
CONTINUOUS
 62
     7
 10
-510.95662165
 20
815.0813946472
 30
0.0
  0
VERTEX
  5
798
  8
0
  6
CONTINUOUS
 62
     7
 10
-509.808576587
 20
814.7313961731
 30
0.0
  0
VERTEX
  5
799
  8
0
  6
CONTINUOUS
 62
     7
 10
-508.8353072436
 20
814.3813976989
 30
0.0
  0
VERTEX
  5
79A
  8
0
  6
CONTINUOUS
 62
     7
 10
-508.1849758656
 20
814.0313992248
 30
0.0
  0
VERTEX
  5
79B
  8
0
  6
CONTINUOUS
 62
     7
 10
-507.9566155703
 20
813.6814007507
 30
0.0
  0
SEQEND
  5
79C
  8
0
  6
CONTINUOUS
 62
     7
  0
ARC
  5
274
  8
0
  6
CONTINUOUS
 62
     7
 10
-895.656620601
 20
800.6813692794
 30
0.0
 40
1.500000000000109
 50
292.9021843928
 51
312.3692568683
  0
LINE
  5
275
  8
0
  6
CONTINUOUS
 62
     7
 10
-896.1566154988
 20
815.6813750015
 30
0.0
 11
-894.1566263468
 21
815.6813750015
 31
0.0
  0
LINE
  5
276
  8
0
  6
CONTINUOUS
 62
     7
 10
-898.1566195519
 20
810.1562628494
 30
0.0
 11
-898.1566195519
 21
815.6813750015
 31
0.0
  0
LINE
  5
277
  8
0
  6
CONTINUOUS
 62
     7
 10
-898.1566195519
 20
815.6813750015
 30
0.0
 11
-896.1566154988
 21
815.6813750015
 31
0.0
  0
ARC
  5
278
  8
0
  6
CONTINUOUS
 62
     7
 10
-901.156620601
 20
810.1562227297
 30
0.0
 40
2.999999999999997
 50
285.4660183878
 51
0.0
  0
LINE
  5
279
  8
0
  6
CONTINUOUS
 62
     7
 10
-896.0741375716
 20
797.7105746017
 30
0.0
 11
-894.1566263468
 21
797.441042398
 31
0.0
  0
LINE
  5
27A
  8
0
  6
CONTINUOUS
 62
     7
 10
-896.1566154988
 20
-356.0186313494
 30
0.0
 11
-894.1566263468
 21
-356.0186313494
 31
0.0
  0
ARC
  5
27B
  8
0
  6
CONTINUOUS
 62
     7
 10
-901.156620601
 20
-350.4934841709
 30
0.0
 40
3.000000000000042
 50
0.0
 51
74.5339816122
  0
LINE
  5
27C
  8
0
  6
CONTINUOUS
 62
     7
 10
-898.1566195519
 20
-356.0186313494
 30
0.0
 11
-898.1566195519
 21
-350.493483807
 31
0.0
  0
LINE
  5
27D
  8
0
  6
CONTINUOUS
 62
     7
 10
-896.1566154988
 20
-356.0186313494
 30
0.0
 11
-898.1566195519
 21
-356.0186313494
 31
0.0
  0
LINE
  5
27E
  8
0
  6
CONTINUOUS
 62
     7
 10
-896.0741375716
 20
-338.0478253617
 30
0.0
 11
-894.1566263468
 21
-337.7783378615
 31
0.0
  0
LINE
  5
27F
  8
0
  6
CONTINUOUS
 62
     7
 10
-900.3566269906
 20
818.6813959823
 30
0.0
 11
-910.8566259177
 21
818.6813959823
 31
0.0
  0
LINE
  5
280
  8
0
  6
CONTINUOUS
 62
     7
 10
-900.3566269906
 20
-358.8186303182
 30
0.0
 11
-900.3566269906
 21
818.6813959823
 31
0.0
  0
LINE
  5
281
  8
0
  6
CONTINUOUS
 62
     7
 10
-910.8566259177
 20
-358.8186303182
 30
0.0
 11
-900.3566269906
 21
-358.8186303182
 31
0.0
  0
ARC
  5
282
  8
0
  6
CONTINUOUS
 62
     7
 10
-913.8566201753
 20
-358.8186307205
 30
0.0
 40
3.000000000000042
 50
0.0
 51
60.0
  0
ARC
  5
283
  8
0
  6
CONTINUOUS
 62
     7
 10
-913.8566201753
 20
818.6813692795
 30
0.0
 40
3.0
 50
300.0
 51
0.0
  0
POLYLINE
  5
284
  8
0
  6
CONTINUOUS
 62
     7
 66
     1
 10
0.0
 20
0.0
 30
0.0
  0
VERTEX
  5
79D
  8
0
  6
CONTINUOUS
 62
     7
 10
-915.3566275866
 20
-356.2205551221
 30
0.0
  0
VERTEX
  5
79E
  8
0
  6
CONTINUOUS
 62
     7
 10
-915.2780388625
 20
-356.0391036822
 30
0.0
  0
VERTEX
  5
79F
  8
0
  6
CONTINUOUS
 62
     7
 10
-915.0750552447
 20
-355.9098472847
 30
0.0
  0
VERTEX
  5
7A0
  8
0
  6
CONTINUOUS
 62
     7
 10
-914.4783382447
 20
-355.8079158916
 30
0.0
  0
VERTEX
  5
7A1
  8
0
  6
CONTINUOUS
 62
     7
 10
-913.6443649562
 20
-355.9122519596
 30
0.0
  0
VERTEX
  5
7A2
  8
0
  6
CONTINUOUS
 62
     7
 10
-913.0538170369
 20
-356.0409067227
 30
0.0
  0
VERTEX
  5
7A3
  8
0
  6
CONTINUOUS
 62
     7
 10
-912.3566215069
 20
-356.2205551221
 30
0.0
  0
SEQEND
  5
7A4
  8
0
  6
CONTINUOUS
 62
     7
  0
LINE
  5
285
  8
0
  6
CONTINUOUS
 62
     7
 10
-915.3566275866
 20
-356.2205551221
 30
0.0
 11
-913.8566170962
 21
-356.2205551221
 31
0.0
  0
LINE
  5
286
  8
0
  6
CONTINUOUS
 62
     7
 10
-915.3566275866
 20
816.0833487258
 30
0.0
 11
-915.3566275866
 21
-356.2205551221
 31
0.0
  0
POLYLINE
  5
287
  8
0
  6
CONTINUOUS
 62
     7
 66
     1
 10
0.0
 20
0.0
 30
0.0
  0
VERTEX
  5
7A5
  8
0
  6
CONTINUOUS
 62
     7
 10
-912.3566215069
 20
816.0833487258
 30
0.0
  0
VERTEX
  5
7A6
  8
0
  6
CONTINUOUS
 62
     7
 10
-913.0387668641
 20
815.9017929779
 30
0.0
  0
VERTEX
  5
7A7
  8
0
  6
CONTINUOUS
 62
     7
 10
-913.6255298884
 20
815.772570108
 30
0.0
  0
VERTEX
  5
7A8
  8
0
  6
CONTINUOUS
 62
     7
 10
-914.477533582
 20
815.6706461654
 30
0.0
  0
VERTEX
  5
7A9
  8
0
  6
CONTINUOUS
 62
     7
 10
-915.0661890538
 20
815.7749542938
 30
0.0
  0
VERTEX
  5
7AA
  8
0
  6
CONTINUOUS
 62
     7
 10
-915.274477485
 20
815.9037003265
 30
0.0
  0
VERTEX
  5
7AB
  8
0
  6
CONTINUOUS
 62
     7
 10
-915.3566275866
 20
816.0833487258
 30
0.0
  0
SEQEND
  5
7AC
  8
0
  6
CONTINUOUS
 62
     7
  0
LINE
  5
288
  8
0
  6
CONTINUOUS
 62
     7
 10
-913.8566170962
 20
816.0833487258
 30
0.0
 11
-915.3566275866
 21
816.0833487258
 31
0.0
  0
LINE
  5
289
  8
0
  6
CONTINUOUS
 62
     7
 10
-910.8566259177
 20
-358.8186303182
 30
0.0
 11
-910.8566259177
 21
-360.3186314954
 31
0.0
  0
LINE
  5
28A
  8
0
  6
CONTINUOUS
 62
     7
 10
-912.3566215069
 20
-358.8186303182
 30
0.0
 11
-912.3566215069
 21
-360.3186314954
 31
0.0
  0
LINE
  5
28B
  8
0
  6
CONTINUOUS
 62
     7
 10
-912.3566215069
 20
-360.3186314954
 30
0.0
 11
-910.8566259177
 21
-360.3186314954
 31
0.0
  0
LINE
  5
28C
  8
0
  6
CONTINUOUS
 62
     7
 10
-912.3566215069
 20
-358.8186303182
 30
0.0
 11
-910.8566259177
 21
-358.8186303182
 31
0.0
  0
LINE
  5
28D
  8
0
  6
CONTINUOUS
 62
     7
 10
-910.8566259177
 20
820.1814064727
 30
0.0
 11
-910.8566259177
 21
818.6813959823
 31
0.0
  0
LINE
  5
28E
  8
0
  6
CONTINUOUS
 62
     7
 10
-912.3566215069
 20
820.1814064727
 30
0.0
 11
-912.3566215069
 21
818.6813959823
 31
0.0
  0
LINE
  5
28F
  8
0
  6
CONTINUOUS
 62
     7
 10
-910.8566259177
 20
820.1814064727
 30
0.0
 11
-912.3566215069
 21
820.1814064727
 31
0.0
  0
LINE
  5
290
  8
0
  6
CONTINUOUS
 62
     7
 10
-912.3566215069
 20
818.6813959823
 30
0.0
 11
-910.8566259177
 21
818.6813959823
 31
0.0
  0
LINE
  5
291
  8
0
  6
CONTINUOUS
 62
     7
 10
-900.3566269906
 20
-360.3186314954
 30
0.0
 11
-900.3566269906
 21
-358.8186303182
 31
0.0
  0
LINE
  5
292
  8
0
  6
CONTINUOUS
 62
     7
 10
-900.3566269906
 20
-360.3186314954
 30
0.0
 11
-910.8566259177
 21
-360.3186314954
 31
0.0
  0
LINE
  5
293
  8
0
  6
CONTINUOUS
 62
     7
 10
-900.3566269906
 20
820.1814064727
 30
0.0
 11
-900.3566269906
 21
818.6813959823
 31
0.0
  0
LINE
  5
294
  8
0
  6
CONTINUOUS
 62
     7
 10
-910.8566259177
 20
820.1814064727
 30
0.0
 11
-900.3566269906
 21
820.1814064727
 31
0.0
  0
LINE
  5
295
  8
0
  6
CONTINUOUS
 62
     7
 10
-913.8566170962
 20
-356.2205551221
 30
0.0
 11
-913.8566170962
 21
-357.3186310037
 31
0.0
  0
LINE
  5
296
  8
0
  6
CONTINUOUS
 62
     7
 10
-913.8566170962
 20
-357.3186310037
 30
0.0
 11
-915.3566275866
 21
-357.3186310037
 31
0.0
  0
LINE
  5
297
  8
0
  6
CONTINUOUS
 62
     7
 10
-915.3566275866
 20
-356.2205551221
 30
0.0
 11
-915.3566275866
 21
-357.3186310037
 31
0.0
  0
LINE
  5
298
  8
0
  6
CONTINUOUS
 62
     7
 10
-915.3566275866
 20
817.1813854919
 30
0.0
 11
-913.8566170962
 21
817.1813854919
 31
0.0
  0
LINE
  5
299
  8
0
  6
CONTINUOUS
 62
     7
 10
-915.3566275866
 20
817.1813854919
 30
0.0
 11
-915.3566275866
 21
816.0833487258
 31
0.0
  0
LINE
  5
29A
  8
0
  6
CONTINUOUS
 62
     7
 10
-913.8566170962
 20
816.0833487258
 30
0.0
 11
-913.8566170962
 21
817.1813854919
 31
0.0
  0
ARC
  5
29B
  8
0
  6
CONTINUOUS
 62
     7
 10
-912.3566005459
 20
-357.3186044547
 30
0.0
 40
3.00002704082798
 50
180.0005070443
 51
269.9995996773
  0
ARC
  5
29C
  8
0
  6
CONTINUOUS
 62
     7
 10
-912.3566229867
 20
-357.3186362087
 30
0.0
 40
1.499994109510276
 50
179.9998011814
 51
270.0000565227
  0
ARC
  5
29D
  8
0
  6
CONTINUOUS
 62
     7
 10
-912.3566307398
 20
817.1814096258
 30
0.0
 40
1.49998635655365
 50
89.9996473261
 51
180.0009218552
  0
ARC
  5
29E
  8
0
  6
CONTINUOUS
 62
     7
 10
-912.3565452769
 20
817.1813241634
 30
0.0
 40
3.000082310346762
 50
90.0014558467
 51
179.9988287432
  0
ARC
  5
29F
  8
0
  6
CONTINUOUS
 62
     7
 10
-912.3566307398
 20
817.1814096258
 30
0.0
 40
1.49998635655365
 50
89.9996473261
 51
180.0009218552
  0
LINE
  5
2A0
  8
0
  6
CONTINUOUS
 62
     7
 10
-517.9566209347
 20
-376.8186307075
 30
0.0
 11
-517.8482745917
 21
-376.8147126335
 31
0.0
  0
LINE
  5
2A1
  8
0
  6
CONTINUOUS
 62
     7
 10
-517.7399282487
 20
-378.3107945215
 30
0.0
 11
-517.8482745917
 21
-376.8147126335
 31
0.0
  0
LINE
  5
2A2
  8
0
  6
CONTINUOUS
 62
     7
 10
-517.9566209347
 20
-378.3186307206
 30
0.0
 11
-517.7399282487
 21
-378.3107945588
 31
0.0
  0
LINE
  5
2A3
  8
0
  6
CONTINUOUS
 62
     7
 10
-517.9566209347
 20
-376.8186307075
 30
0.0
 11
-517.9566209347
 21
-378.3186307206
 31
0.0
  0
LINE
  5
2A4
  8
0
  6
CONTINUOUS
 62
     7
 10
-516.4566253455
 20
-375.3186306945
 30
0.0
 11
-514.9566148551
 21
-375.3186306945
 31
0.0
  0
ARC
  5
2A5
  8
0
  6
CONTINUOUS
 62
     7
 10
-517.9566235801
 20
-375.3186221528
 30
0.0
 40
3.000008725096707
 50
274.1421711741
 51
359.9998368662
  0
ARC
  5
2A6
  8
0
  6
CONTINUOUS
 62
     7
 10
-517.9566046443
 20
-375.3186503029
 30
0.0
 40
1.499979298960437
 50
274.1415659647
 51
0.0007489952
  0
LINE
  5
2A7
  8
0
  6
CONTINUOUS
 62
     7
 10
-517.9566209347
 20
-378.3186307206
 30
0.0
 11
-519.456616524
 21
-378.3186307206
 31
0.0
  0
LINE
  5
2A8
  8
0
  6
CONTINUOUS
 62
     7
 10
-517.9566209347
 20
-376.8186307075
 30
0.0
 11
-518.7672292025
 21
-376.8186307075
 31
0.0
  0
LINE
  5
2A9
  8
0
  6
CONTINUOUS
 62
     7
 10
-514.9566148551
 20
-375.3186306945
 30
0.0
 11
-514.9566148551
 21
-375.2328442438
 31
0.0
  0
LINE
  5
2AA
  8
0
  6
CONTINUOUS
 62
     7
 10
-890.6566267045
 20
-376.8186307075
 30
0.0
 11
-890.6566267045
 21
-378.3186307206
 31
0.0
  0
LINE
  5
2AB
  8
0
  6
CONTINUOUS
 62
     7
 10
-890.6566267045
 20
-376.8186307075
 30
0.0
 11
-890.3253738911
 21
-376.8186307075
 31
0.0
  0
LINE
  5
2AC
  8
0
  6
CONTINUOUS
 62
     7
 10
-890.6566267045
 20
-378.3186307206
 30
0.0
 11
-888.9495198758
 21
-378.3186307206
 31
0.0
  0
LINE
  5
2AD
  8
0
  6
CONTINUOUS
 62
     7
 10
-891.1566202672
 20
-376.8186307075
 30
0.0
 11
-890.6566267045
 21
-376.8186307075
 31
0.0
  0
LINE
  5
2AE
  8
0
  6
CONTINUOUS
 62
     7
 10
-891.1566202672
 20
-378.3186307206
 30
0.0
 11
-890.6566267045
 21
-378.3186307206
 31
0.0
  0
LINE
  5
2AF
  8
0
  6
CONTINUOUS
 62
     7
 10
-894.1566263468
 20
-374.8186306125
 30
0.0
 11
-893.0204873116
 21
-374.8186306125
 31
0.0
  0
LINE
  5
2B0
  8
0
  6
CONTINUOUS
 62
     7
 10
-894.1566263468
 20
-374.8186306125
 30
0.0
 11
-894.1566263468
 21
-375.3186306945
 31
0.0
  0
LINE
  5
2B1
  8
0
  6
CONTINUOUS
 62
     7
 10
-892.6566158564
 20
-374.9740869767
 30
0.0
 11
-892.6566158564
 21
-375.3186306945
 31
0.0
  0
LINE
  5
2B2
  8
0
  6
CONTINUOUS
 62
     7
 10
-894.1566263468
 20
-373.1115237838
 30
0.0
 11
-894.1566263468
 21
-374.8186306125
 31
0.0
  0
ARC
  5
2B3
  8
0
  6
CONTINUOUS
 62
     7
 10
-891.156620601
 20
-375.3186307206
 30
0.0
 40
1.499999999999943
 50
180.0
 51
270.0
  0
ARC
  5
2B4
  8
0
  6
CONTINUOUS
 62
     7
 10
-891.156620601
 20
-375.3186307206
 30
0.0
 40
3.0
 50
180.0
 51
270.0
  0
LINE
  5
2B5
  8
0
  6
CONTINUOUS
 62
     7
 10
-896.0741375716
 20
-338.0478253617
 30
0.0
 11
-900.3566269906
 21
-338.6496907129
 31
0.0
  0
LINE
  5
2B6
  8
0
  6
CONTINUOUS
 62
     7
 10
-895.8653872044
 20
-339.5332289888
 30
0.0
 11
-896.0741375716
 21
-338.0478253617
 31
0.0
  0
LINE
  5
2B7
  8
0
  6
CONTINUOUS
 62
     7
 10
-895.8653872044
 20
-339.5332289888
 30
0.0
 11
-900.3566269906
 21
-340.1644310011
 31
0.0
  0
ARC
  5
2B8
  8
0
  6
CONTINUOUS
 62
     7
 10
-895.6137292445
 20
-340.750238152
 30
0.0
 40
2.74135198707367
 50
57.8913063597
 51
99.6686121881
  0
ARC
  5
2B9
  8
0
  6
CONTINUOUS
 62
     7
 10
-895.6566168511
 20
-341.0186199988
 30
0.0
 40
1.49999050431457
 50
359.9996603539
 51
98.0004637766
  0
LINE
  5
2BA
  8
0
  6
CONTINUOUS
 62
     7
 10
-517.9566209347
 20
821.6814169632
 30
0.0
 11
-517.9566209347
 21
820.1814064727
 31
0.0
  0
LINE
  5
2BB
  8
0
  6
CONTINUOUS
 62
     7
 10
-515.1598964961
 20
818.6813959823
 30
0.0
 11
-514.9566148551
 21
818.6813959823
 31
0.0
  0
POLYLINE
  5
2BC
  8
0
  6
CONTINUOUS
 62
     7
 66
     1
 10
0.0
 20
0.0
 30
0.0
  0
VERTEX
  5
7AD
  8
0
  6
CONTINUOUS
 62
     7
 10
-517.1812241109
 20
819.9304709182
 30
0.0
  0
VERTEX
  5
7AE
  8
0
  6
CONTINUOUS
 62
     7
 10
-517.4583708079
 20
820.0961718307
 30
0.0
  0
VERTEX
  5
7AF
  8
0
  6
CONTINUOUS
 62
     7
 10
-517.9566209347
 20
820.1814064727
 30
0.0
  0
SEQEND
  5
7B0
  8
0
  6
CONTINUOUS
 62
     7
  0
ARC
  5
2BD
  8
0
  6
CONTINUOUS
 62
     7
 10
-517.9567879604
 20
818.6812438586
 30
0.0
 40
3.000173109180071
 50
0.0029051809
 51
89.9968102291
  0
LINE
  5
2BE
  8
0
  6
CONTINUOUS
 62
     7
 10
-891.1566202672
 20
820.1814064727
 30
0.0
 11
-891.1566202672
 21
821.6814169632
 31
0.0
  0
LINE
  5
2BF
  8
0
  6
CONTINUOUS
 62
     7
 10
-891.1566202672
 20
821.6814169632
 30
0.0
 11
-890.6610672505
 21
821.6814169632
 31
0.0
  0
LINE
  5
2C0
  8
0
  6
CONTINUOUS
 62
     7
 10
-890.6610672505
 20
821.6814169632
 30
0.0
 11
-517.9566209347
 21
821.6814169632
 31
0.0
  0
ARC
  5
2C1
  8
0
  6
CONTINUOUS
 62
     7
 10
-891.1912579693
 20
818.8053142559
 30
0.0
 40
1.376528081646246
 50
88.5581088647
 51
137.6589385097
  0
LINE
  5
2C2
  8
0
  6
CONTINUOUS
 62
     7
 10
-893.2511423857
 20
819.2373881088
 30
0.0
 11
-894.0561925204
 21
819.4511303649
 31
0.0
  0
ARC
  5
2C3
  8
0
  6
CONTINUOUS
 62
     7
 10
-891.1565154199
 20
818.6812855905
 30
0.0
 40
3.000131374460481
 50
90.0020023482
 51
165.1313680159
  0
LINE
  5
2C4
  8
0
  6
CONTINUOUS
 62
     7
 10
-894.1566263468
 20
818.6813959823
 30
0.0
 11
-894.0561925204
 21
819.4511303649
 31
0.0
  0
LINE
  5
2C5
  8
0
  6
CONTINUOUS
 62
     7
 10
-894.1566263468
 20
818.6813959823
 30
0.0
 11
-894.1566263468
 21
818.0486330734
 31
0.0
  0
LINE
  5
2C6
  8
0
  6
CONTINUOUS
 62
     7
 10
-514.9566148551
 20
817.9742464767
 30
0.0
 11
-514.9566148551
 21
818.6813959823
 31
0.0
  0
LINE
  5
2C7
  8
0
  6
CONTINUOUS
 62
     7
 10
-900.3566269906
 20
798.3124623046
 30
0.0
 11
-896.0741375716
 21
797.7105746017
 31
0.0
  0
LINE
  5
2C8
  8
0
  6
CONTINUOUS
 62
     7
 10
-900.3566269906
 20
799.8271355377
 30
0.0
 11
-895.8653872044
 21
799.1959223495
 31
0.0
  0
LINE
  5
2C9
  8
0
  6
CONTINUOUS
 62
     7
 10
-895.8653872044
 20
799.1959223495
 30
0.0
 11
-896.0741375716
 21
797.7105746017
 31
0.0
  0
POLYLINE
  5
2CA
  8
0
  6
CONTINUOUS
 62
     7
 66
     1
 10
0.0
 20
0.0
 30
0.0
  0
VERTEX
  5
7B1
  8
0
  6
CONTINUOUS
 62
     7
 10
-894.6754102738
 20
799.5467552887
 30
0.0
  0
VERTEX
  5
7B2
  8
0
  6
CONTINUOUS
 62
     7
 10
-894.2924653323
 20
800.0575670944
 30
0.0
  0
VERTEX
  5
7B3
  8
0
  6
CONTINUOUS
 62
     7
 10
-894.1566263468
 20
800.6813893066
 30
0.0
  0
SEQEND
  5
7B4
  8
0
  6
CONTINUOUS
 62
     7
  0
LINE
  5
2CB
  8
0
  6
CONTINUOUS
 62
     7
 10
-894.1566263468
 20
798.9470133529
 30
0.0
 11
-894.6754102738
 21
799.5467552887
 31
0.0
  0
ARC
  5
2CC
  8
0
  6
CONTINUOUS
 62
     7
 10
-895.6569203006
 20
800.6823666332
 30
0.0
 40
1.500991358549589
 50
262.0166025915
 51
310.8368888755
  0
ARC
  5
2CD
  8
0
  6
CONTINUOUS
 62
     7
 10
-895.6142317146
 20
800.4124740483
 30
0.0
 40
2.740761576092628
 50
260.3399404279
 51
302.1288419657
  0
POLYLINE
  5
2CE
  8
0
  6
CONTINUOUS
 62
     7
 66
     1
 10
0.0
 20
0.0
 30
0.0
  0
VERTEX
  5
7B5
  8
0
  6
CONTINUOUS
 62
     7
 10
-920.3424071105
 20
305.3462276207
 30
0.0
  0
VERTEX
  5
7B6
  8
0
  6
CONTINUOUS
 62
     7
 10
-920.3151528866
 20
305.3415188537
 30
0.0
  0
VERTEX
  5
7B7
  8
0
  6
CONTINUOUS
 62
     7
 10
-920.2707027228
 20
305.3338298545
 30
0.0
  0
VERTEX
  5
7B8
  8
0
  6
CONTINUOUS
 62
     7
 10
-920.2100698979
 20
305.3233394371
 30
0.0
  0
VERTEX
  5
7B9
  8
0
  6
CONTINUOUS
 62
     7
 10
-920.1346402199
 20
305.3102860199
 30
0.0
  0
VERTEX
  5
7BA
  8
0
  6
CONTINUOUS
 62
     7
 10
-920.0461422236
 20
305.2949080215
 30
0.0
  0
VERTEX
  5
7BB
  8
0
  6
CONTINUOUS
 62
     7
 10
-919.946617368
 20
305.2776822792
 30
0.0
  0
VERTEX
  5
7BC
  8
0
  6
CONTINUOUS
 62
     7
 10
-919.8383157284
 20
305.2589664207
 30
0.0
  0
VERTEX
  5
7BD
  8
0
  6
CONTINUOUS
 62
     7
 10
-919.7237407
 20
305.239118074
 30
0.0
  0
SEQEND
  5
7BE
  8
0
  6
CONTINUOUS
 62
     7
  0
ARC
  5
2CF
  8
0
  6
CONTINUOUS
 62
     7
 10
-1078.0738380937
 20
291.7762941503
 30
0.0
 40
154.6945906738697
 50
352.8015049127
 51
0.1900272032
  0
POLYLINE
  5
2D0
  8
0
  6
CONTINUOUS
 62
     7
 66
     1
 10
0.0
 20
0.0
 30
0.0
  0
VERTEX
  5
7BF
  8
0
  6
CONTINUOUS
 62
     7
 10
-923.3852689297
 20
293.1465873466
 30
0.0
  0
VERTEX
  5
7C0
  8
0
  6
CONTINUOUS
 62
     7
 10
-923.3852689297
 20
293.1469449745
 30
0.0
  0
VERTEX
  5
7C1
  8
0
  6
CONTINUOUS
 62
     7
 10
-923.3844344647
 20
293.05205438
 30
0.0
  0
VERTEX
  5
7C2
  8
0
  6
CONTINUOUS
 62
     7
 10
-923.3800982268
 20
292.2893533454
 30
0.0
  0
SEQEND
  5
7C3
  8
0
  6
CONTINUOUS
 62
     7
  0
POLYLINE
  5
2D1
  8
0
  6
CONTINUOUS
 62
     7
 66
     1
 10
0.0
 20
0.0
 30
0.0
  0
VERTEX
  5
7C4
  8
0
  6
CONTINUOUS
 62
     7
 10
-925.5423163207
 20
266.3134107338
 30
0.0
  0
VERTEX
  5
7C5
  8
0
  6
CONTINUOUS
 62
     7
 10
-925.5424206288
 20
266.3128742919
 30
0.0
  0
VERTEX
  5
7C6
  8
0
  6
CONTINUOUS
 62
     7
 10
-925.5255674155
 20
266.402638887
 30
0.0
  0
VERTEX
  5
7C7
  8
0
  6
CONTINUOUS
 62
     7
 10
-925.4448627265
 20
266.8404946075
 30
0.0
  0
VERTEX
  5
7C8
  8
0
  6
CONTINUOUS
 62
     7
 10
-925.2983694108
 20
267.6691779838
 30
0.0
  0
VERTEX
  5
7C9
  8
0
  6
CONTINUOUS
 62
     7
 10
-924.9496822388
 20
269.843257402
 30
0.0
  0
SEQEND
  5
7CA
  8
0
  6
CONTINUOUS
 62
     7
  0
LINE
  5
2D2
  8
0
  6
CONTINUOUS
 62
     7
 10
-924.9496822388
 20
269.843257402
 30
0.0
 11
-924.5985512765
 21
272.3919520126
 31
0.0
  0
LINE
  5
2D3
  8
0
  6
CONTINUOUS
 62
     7
 10
-919.6742986472
 20
308.2704314933
 30
0.0
 11
-920.4448078902
 21
308.4939489112
 31
0.0
  0
LINE
  5
2D4
  8
0
  6
CONTINUOUS
 62
     7
 10
-919.6742986472
 20
151.6923079238
 30
0.0
 11
-920.4448078902
 21
151.4687905059
 31
0.0
  0
LINE
  5
2D5
  8
0
  6
CONTINUOUS
 62
     7
 10
-926.0094528229
 20
281.974113916
 30
0.0
 11
-926.2453233035
 21
281.9689283119
 31
0.0
  0
POLYLINE
  5
2D6
  8
0
  6
CONTINUOUS
 62
     7
 66
     1
 10
0.0
 20
0.0
 30
0.0
  0
VERTEX
  5
7CB
  8
0
  6
CONTINUOUS
 62
     7
 10
-926.2453233035
 20
281.9689283119
 30
0.0
  0
VERTEX
  5
7CC
  8
0
  6
CONTINUOUS
 62
     7
 10
-926.145813349
 20
283.3581337677
 30
0.0
  0
VERTEX
  5
7CD
  8
0
  6
CONTINUOUS
 62
     7
 10
-926.0675375493
 20
284.4494948135
 30
0.0
  0
VERTEX
  5
7CE
  8
0
  6
CONTINUOUS
 62
     7
 10
-926.0175441535
 20
285.1459750877
 30
0.0
  0
VERTEX
  5
7CF
  8
0
  6
CONTINUOUS
 62
     7
 10
-926.0003482134
 20
285.3852877365
 30
0.0
  0
SEQEND
  5
7D0
  8
0
  6
CONTINUOUS
 62
     7
  0
POLYLINE
  5
2D7
  8
0
  6
CONTINUOUS
 62
     7
 66
     1
 10
0.0
 20
0.0
 30
0.0
  0
VERTEX
  5
7D1
  8
0
  6
CONTINUOUS
 62
     7
 10
-926.0175590546
 20
285.1456770645
 30
0.0
  0
VERTEX
  5
7D2
  8
0
  6
CONTINUOUS
 62
     7
 10
-926.0675822528
 20
284.448898767
 30
0.0
  0
VERTEX
  5
7D3
  8
0
  6
CONTINUOUS
 62
     7
 10
-926.1458580525
 20
283.3575973259
 30
0.0
  0
VERTEX
  5
7D4
  8
0
  6
CONTINUOUS
 62
     7
 10
-926.2453233035
 20
281.9689283119
 30
0.0
  0
SEQEND
  5
7D5
  8
0
  6
CONTINUOUS
 62
     7
  0
POLYLINE
  5
2D8
  8
0
  6
CONTINUOUS
 62
     7
 66
     1
 10
0.0
 20
0.0
 30
0.0
  0
VERTEX
  5
7D6
  8
0
  6
CONTINUOUS
 62
     7
 10
-926.7754023106
 20
274.5365271316
 30
0.0
  0
VERTEX
  5
7D7
  8
0
  6
CONTINUOUS
 62
     7
 10
-926.7583851845
 20
274.7759589897
 30
0.0
  0
VERTEX
  5
7D8
  8
0
  6
CONTINUOUS
 62
     7
 10
-926.7088686259
 20
275.4723200546
 30
0.0
  0
VERTEX
  5
7D9
  8
0
  6
CONTINUOUS
 62
     7
 10
-926.6312484772
 20
276.5629658447
 30
0.0
  0
VERTEX
  5
7DA
  8
0
  6
CONTINUOUS
 62
     7
 10
-926.5323494704
 20
277.9509792076
 30
0.0
  0
SEQEND
  5
7DB
  8
0
  6
CONTINUOUS
 62
     7
  0
LINE
  5
2D9
  8
0
  6
CONTINUOUS
 62
     7
 10
-926.5323494704
 20
277.9509792076
 30
0.0
 11
-926.3017689021
 21
277.9461512313
 31
0.0
  0
LINE
  5
2DA
  8
0
  6
CONTINUOUS
 62
     7
 10
-926.1382137568
 20
278.7197599159
 30
0.0
 11
-925.9573434622
 21
281.2004456268
 31
0.0
  0
ARC
  5
2DB
  8
0
  6
CONTINUOUS
 62
     7
 10
-925.8473844037
 20
281.931108157
 30
0.0
 40
0.399737719215871
 50
174.5624051993
 51
269.9461182081
  0
ARC
  5
2DC
  8
0
  6
CONTINUOUS
 62
     7
 10
-926.1331763198
 20
277.9317395978
 30
0.0
 40
0.3996365432984432
 50
90.0385758392
 51
177.2405558855
  0
ARC
  5
2DD
  8
0
  6
CONTINUOUS
 62
     7
 10
-926.1331763198
 20
277.9317395978
 30
0.0
 40
0.399636543298531
 50
90.0385758392
 51
177.2405558855
  0
LINE
  5
2DE
  8
0
  6
CONTINUOUS
 62
     7
 10
-588.5066230924
 20
822.0732578979
 30
0.0
 11
-569.806626919
 21
822.0732578979
 31
0.0
  0
LINE
  5
2DF
  8
0
  6
CONTINUOUS
 62
     7
 10
-838.5066156418
 20
822.0732578979
 30
0.0
 11
-819.8066194685
 21
822.0732578979
 31
0.0
  0
LINE
  5
2E0
  8
0
  6
CONTINUOUS
 62
     7
 10
-896.1566154988
 20
737.6814255462
 30
0.0
 11
-896.1566154988
 21
682.681358789
 31
0.0
  0
LINE
  5
2E1
  8
0
  6
CONTINUOUS
 62
     7
 10
-896.1566154988
 20
737.6814255462
 30
0.0
 11
-894.1566263468
 21
737.6814255462
 31
0.0
  0
LINE
  5
2E2
  8
0
  6
CONTINUOUS
 62
     7
 10
-896.1566154988
 20
682.681358789
 30
0.0
 11
-894.1566263468
 21
682.681358789
 31
0.0
  0
LINE
  5
2E3
  8
0
  6
CONTINUOUS
 62
     7
 10
-898.434973243
 20
682.681358789
 30
0.0
 11
-896.1566154988
 21
682.681358789
 31
0.0
  0
LINE
  5
2E4
  8
0
  6
CONTINUOUS
 62
     7
 10
-898.434973243
 20
737.6814255462
 30
0.0
 11
-896.1566154988
 21
737.6814255462
 31
0.0
  0
LINE
  5
2E5
  8
0
  6
CONTINUOUS
 62
     7
 10
-900.3566269906
 20
682.681358789
 30
0.0
 11
-898.434973243
 21
682.681358789
 31
0.0
  0
LINE
  5
2E6
  8
0
  6
CONTINUOUS
 62
     7
 10
-900.3566269906
 20
737.6814255462
 30
0.0
 11
-898.434973243
 21
737.6814255462
 31
0.0
  0
LINE
  5
2E7
  8
0
  6
CONTINUOUS
 62
     7
 10
-896.1566154988
 20
257.4313649879
 30
0.0
 11
-896.1566154988
 21
202.4313578353
 31
0.0
  0
LINE
  5
2E8
  8
0
  6
CONTINUOUS
 62
     7
 10
-896.1566154988
 20
257.4313649879
 30
0.0
 11
-894.1566263468
 21
257.4313649879
 31
0.0
  0
LINE
  5
2E9
  8
0
  6
CONTINUOUS
 62
     7
 10
-896.1566154988
 20
202.4313578353
 30
0.0
 11
-894.1566263468
 21
202.4313578353
 31
0.0
  0
LINE
  5
2EA
  8
0
  6
CONTINUOUS
 62
     7
 10
-898.434973243
 20
202.4313578353
 30
0.0
 11
-896.1566154988
 21
202.4313578353
 31
0.0
  0
LINE
  5
2EB
  8
0
  6
CONTINUOUS
 62
     7
 10
-898.434973243
 20
257.4313649879
 30
0.0
 11
-896.1566154988
 21
257.4313649879
 31
0.0
  0
LINE
  5
2EC
  8
0
  6
CONTINUOUS
 62
     7
 10
-900.3566269906
 20
202.4313578353
 30
0.0
 11
-898.434973243
 21
202.4313578353
 31
0.0
  0
LINE
  5
2ED
  8
0
  6
CONTINUOUS
 62
     7
 10
-900.3566269906
 20
257.4313649879
 30
0.0
 11
-898.434973243
 21
257.4313649879
 31
0.0
  0
LINE
  5
2EE
  8
0
  6
CONTINUOUS
 62
     7
 10
-896.1566154988
 20
-222.8186359658
 30
0.0
 11
-896.1566154988
 21
-277.8186282172
 31
0.0
  0
LINE
  5
2EF
  8
0
  6
CONTINUOUS
 62
     7
 10
-896.1566154988
 20
-222.8186359658
 30
0.0
 11
-894.1566263468
 21
-222.8186359658
 31
0.0
  0
LINE
  5
2F0
  8
0
  6
CONTINUOUS
 62
     7
 10
-896.1566154988
 20
-277.8186282172
 30
0.0
 11
-894.1566263468
 21
-277.8186282172
 31
0.0
  0
LINE
  5
2F1
  8
0
  6
CONTINUOUS
 62
     7
 10
-898.434973243
 20
-277.8186282172
 30
0.0
 11
-896.1566154988
 21
-277.8186282172
 31
0.0
  0
LINE
  5
2F2
  8
0
  6
CONTINUOUS
 62
     7
 10
-898.434973243
 20
-222.8186359658
 30
0.0
 11
-896.1566154988
 21
-222.8186359658
 31
0.0
  0
LINE
  5
2F3
  8
0
  6
CONTINUOUS
 62
     7
 10
-900.3566269906
 20
-277.8186282172
 30
0.0
 11
-898.434973243
 21
-277.8186282172
 31
0.0
  0
LINE
  5
2F4
  8
0
  6
CONTINUOUS
 62
     7
 10
-900.3566269906
 20
-222.8186359658
 30
0.0
 11
-898.434973243
 21
-222.8186359658
 31
0.0
  0
LINE
  5
2F5
  8
0
  6
CONTINUOUS
 62
     7
 10
-896.7766230137
 20
-272.418633665
 30
0.0
 11
-896.7766230137
 21
-268.2186296238
 31
0.0
  0
LINE
  5
2F6
  8
0
  6
CONTINUOUS
 62
     7
 10
-896.3766162427
 20
-267.8186303033
 30
0.0
 11
-896.3766162427
 21
-272.8186329855
 31
0.0
  0
LINE
  5
2F7
  8
0
  6
CONTINUOUS
 62
     7
 10
-896.3766162427
 20
732.6813111053
 30
0.0
 11
-896.3766162427
 21
727.6813158737
 31
0.0
  0
LINE
  5
2F8
  8
0
  6
CONTINUOUS
 62
     7
 10
-896.7766230137
 20
728.0813822494
 30
0.0
 11
-896.7766230137
 21
732.2813639389
 31
0.0
  0
LINE
  5
2F9
  8
0
  6
CONTINUOUS
 62
     7
 10
-896.7766230137
 20
-232.4186345591
 30
0.0
 11
-896.7766230137
 21
-228.2186379685
 31
0.0
  0
LINE
  5
2FA
  8
0
  6
CONTINUOUS
 62
     7
 10
-896.3766162427
 20
-227.8186311974
 30
0.0
 11
-896.3766162427
 21
-232.818626429
 31
0.0
  0
LINE
  5
2FB
  8
0
  6
CONTINUOUS
 62
     7
 10
-896.3766162427
 20
212.4313482986
 30
0.0
 11
-896.3766162427
 21
207.431353067
 31
0.0
  0
LINE
  5
2FC
  8
0
  6
CONTINUOUS
 62
     7
 10
-896.7766230137
 20
207.8313598381
 30
0.0
 11
-896.7766230137
 21
212.0313415275
 31
0.0
  0
LINE
  5
2FD
  8
0
  6
CONTINUOUS
 62
     7
 10
-896.7766230137
 20
247.8313812957
 30
0.0
 11
-896.7766230137
 21
252.0313629852
 31
0.0
  0
LINE
  5
2FE
  8
0
  6
CONTINUOUS
 62
     7
 10
-896.3766162427
 20
252.4313697563
 30
0.0
 11
-896.3766162427
 21
247.4313745246
 31
0.0
  0
LINE
  5
2FF
  8
0
  6
CONTINUOUS
 62
     7
 10
-896.3766162427
 20
692.6813492523
 30
0.0
 11
-896.3766162427
 21
687.6813540206
 31
0.0
  0
LINE
  5
300
  8
0
  6
CONTINUOUS
 62
     7
 10
-896.7766230137
 20
688.0814203964
 30
0.0
 11
-896.7766230137
 21
692.2814020858
 31
0.0
  0
LINE
  5
301
  8
0
  6
CONTINUOUS
 62
     7
 10
-892.6566158564
 20
-375.0389333377
 30
0.0
 11
-892.008370641
 21
-375.0389333377
 31
0.0
  0
LINE
  5
302
  8
0
  6
CONTINUOUS
 62
     7
 10
-517.9566209347
 20
820.1814064727
 30
0.0
 11
-890.6610672505
 21
820.1814064727
 31
0.0
  0
LINE
  5
303
  8
0
  6
CONTINUOUS
 62
     7
 10
-518.411463979
 20
-375.3186306945
 30
0.0
 11
-517.9566209347
 21
-375.3186306945
 31
0.0
  0
ARC
  5
304
  8
0
  6
CONTINUOUS
 62
     7
 10
-890.6610679901
 20
-370.3186307206
 30
0.0
 40
4.999999999973056
 50
264.3120472984
 51
270.0
  0
LINE
  5
305
  8
0
  6
CONTINUOUS
 62
     7
 10
-890.6610672505
 20
820.1814064727
 30
0.0
 11
-891.1566202672
 21
819.9935326324
 31
0.0
  0
ARC
  5
306
  8
0
  6
CONTINUOUS
 62
     7
 10
-524.1492811362
 20
-375.0017232956
 30
0.0
 40
5.746562105194533
 50
324.7462548169
 51
356.8386885539
  0
LINE
  5
307
  8
0
  6
CONTINUOUS
 62
     7
 10
-519.456616524
 20
-378.3186307206
 30
0.0
 11
-888.9495198758
 21
-378.3186307206
 31
0.0
  0
POLYLINE
  5
308
  8
0
  6
CONTINUOUS
 62
     7
 66
     1
 10
0.0
 20
0.0
 30
0.0
  0
VERTEX
  5
7DC
  8
0
  6
CONTINUOUS
 62
     7
 10
-890.012538913
 20
-377.8658025054
 30
0.0
  0
VERTEX
  5
7DD
  8
0
  6
CONTINUOUS
 62
     7
 10
-889.4810293944
 20
-378.2032030736
 30
0.0
  0
VERTEX
  5
7DE
  8
0
  6
CONTINUOUS
 62
     7
 10
-888.9495198758
 20
-378.3186307206
 30
0.0
  0
SEQEND
  5
7DF
  8
0
  6
CONTINUOUS
 62
     7
  0
ARC
  5
309
  8
0
  6
CONTINUOUS
 62
     7
 10
-871.7698596709
 20
-371.8649387261
 30
0.0
 40
19.20431493253412
 50
190.3604039162
 51
198.2084347312
  0
ARC
  5
30A
  8
0
  6
CONTINUOUS
 62
     7
 10
-518.050600964
 20
-319.5331480292
 30
0.0
 40
55.78556182782469
 50
270.0965242871
 51
273.1793774084
  0
POLYLINE
  5
30B
  8
0
  6
CONTINUOUS
 62
     7
 66
     1
 10
0.0
 20
0.0
 30
0.0
  0
VERTEX
  5
7E0
  8
0
  6
CONTINUOUS
 62
     7
 10
-514.9566148551
 20
817.9742464767
 30
0.0
  0
VERTEX
  5
7E1
  8
0
  6
CONTINUOUS
 62
     7
 10
-515.1598964961
 20
818.6813959823
 30
0.0
  0
VERTEX
  5
7E2
  8
0
  6
CONTINUOUS
 62
     7
 10
-515.742189172
 20
819.3884262786
 30
0.0
  0
SEQEND
  5
7E3
  8
0
  6
CONTINUOUS
 62
     7
  0
LINE
  5
30C
  8
0
  6
CONTINUOUS
 62
     7
 10
-514.9566148551
 20
817.9742464767
 30
0.0
 11
-514.9566148551
 21
-375.2328442438
 31
0.0
  0
ARC
  5
30D
  8
0
  6
CONTINUOUS
 62
     7
 10
-523.6662298807
 20
800.7486358599
 30
0.0
 40
20.25418988770688
 50
66.9689631818
 51
73.626503688
  0
ARC
  5
30E
  8
0
  6
CONTINUOUS
 62
     7
 10
-886.4710293109
 20
798.5157824805
 30
0.0
 40
21.98291414251355
 50
102.3068352161
 51
108.6338710949
  0
POLYLINE
  5
30F
  8
0
  6
CONTINUOUS
 62
     7
 66
     1
 10
0.0
 20
0.0
 30
0.0
  0
VERTEX
  5
7E4
  8
0
  6
CONTINUOUS
 62
     7
 10
-892.699844125
 20
-375.0795979081
 30
0.0
  0
VERTEX
  5
7E5
  8
0
  6
CONTINUOUS
 62
     7
 10
-891.9572745593
 20
-375.1868054765
 30
0.0
  0
VERTEX
  5
7E6
  8
0
  6
CONTINUOUS
 62
     7
 10
-891.1566202672
 20
-375.294012812
 30
0.0
  0
SEQEND
  5
7E7
  8
0
  6
CONTINUOUS
 62
     7
  0
ARC
  5
310
  8
0
  6
CONTINUOUS
 62
     7
 10
-891.3457478284
 20
-372.5540891123
 30
0.0
 40
2.865618861323842
 50
191.2169800697
 51
241.8012270946
  0
LINE
  5
311
  8
0
  6
CONTINUOUS
 62
     7
 10
-894.1566263468
 20
-373.1115237838
 30
0.0
 11
-894.1566263468
 21
818.0486330734
 31
0.0
  0
POLYLINE
  5
312
  8
0
  6
CONTINUOUS
 62
     7
 66
     1
 10
0.0
 20
0.0
 30
0.0
  0
VERTEX
  5
7E8
  8
0
  6
CONTINUOUS
 62
     7
 10
-893.4949998887
 20
819.3463453994
 30
0.0
  0
VERTEX
  5
7E9
  8
0
  6
CONTINUOUS
 62
     7
 10
-893.9863805802
 20
818.6974892364
 30
0.0
  0
VERTEX
  5
7EA
  8
0
  6
CONTINUOUS
 62
     7
 10
-894.1566263468
 20
818.0486330734
 30
0.0
  0
SEQEND
  5
7EB
  8
0
  6
CONTINUOUS
 62
     7
  0
LINE
  5
313
  8
0
  6
CONTINUOUS
 62
     7
 10
-900.3566269906
 20
-338.16130888
 30
0.0
 11
-895.8653872044
 21
-337.5239042594
 31
0.0
  0
LINE
  5
314
  8
0
  6
CONTINUOUS
 62
     7
 10
-895.8653872044
 20
797.1846232162
 30
0.0
 11
-900.3566269906
 21
797.8220352874
 31
0.0
  0
ARC
  5
315
  8
0
  6
CONTINUOUS
 62
     7
 10
-904.3032990491
 20
-228.5316731489
 30
0.0
 40
109.3003919362698
 50
274.5374169326
 51
275.3266030479
  0
ARC
  5
316
  8
0
  6
CONTINUOUS
 62
     7
 10
-904.6121749063
 20
684.638953131
 30
0.0
 40
112.8671992482322
 50
84.6847363233
 51
85.4489836573
  0
ARC
  5
317
  8
0
  6
CONTINUOUS
 62
     7
 10
-896.0502351013
 20
792.7610702636
 30
0.0
 40
4.427413406207074
 50
64.6782574746
 51
87.6071618579
  0
ARC
  5
318
  8
0
  6
CONTINUOUS
 62
     7
 10
-896.0502835207
 20
-333.1011097851
 30
0.0
 40
4.426657611478464
 50
272.3938741829
 51
295.3270646829
  0
LINE
  5
319
  8
0
  6
CONTINUOUS
 62
     7
 10
297.7735611216
 20
1432.327030808
 30
0.0
 11
295.2110794444
 21
1432.327030808
 31
0.0
  0
LINE
  5
31A
  8
0
  6
CONTINUOUS
 62
     7
 10
293.5927957019
 20
1432.327030808
 30
0.0
 11
287.2550433108
 21
1432.327030808
 31
0.0
  0
LINE
  5
31B
  8
0
  6
CONTINUOUS
 62
     7
 10
770.4418219232
 20
1414.7353308501
 30
0.0
 11
770.4418219232
 21
1414.7815989556
 31
0.0
  0
LINE
  5
31C
  8
0
  6
CONTINUOUS
 62
     7
 10
-184.5949374533
 20
1414.7815989556
 30
0.0
 11
-184.5949374533
 21
1414.7353308501
 31
0.0
  0
ARC
  5
31D
  8
0
  6
CONTINUOUS
 62
     7
 10
349.4734420152
 20
1345.5270308358
 30
0.0
 40
100.0000000000041
 50
81.1241878669
 51
98.8758121331
  0
ARC
  5
31E
  8
0
  6
CONTINUOUS
 62
     7
 10
334.1675468713
 20
1443.5391197522
 30
0.0
 40
0.800000000242391
 50
98.8758094368
 51
168.2772923332
  0
ARC
  5
31F
  8
0
  6
CONTINUOUS
 62
     7
 10
364.7793371592
 20
1443.5391197522
 30
0.0
 40
0.8000000002461273
 50
11.7227076668
 51
81.1241905629
  0
ARC
  5
320
  8
0
  6
CONTINUOUS
 62
     7
 10
387.2370663499
 20
1432.5270308352
 30
0.0
 40
55.00000000001661
 50
168.2773094144
 51
177.9136198395
  0
ARC
  5
321
  8
0
  6
CONTINUOUS
 62
     7
 10
311.7098176806
 20
1432.5270308352
 30
0.0
 40
55.00000000002018
 50
2.0863170139
 51
11.7226905855
  0
LINE
  5
322
  8
0
  6
CONTINUOUS
 62
     7
 10
350.1362308466
 20
1445.9413277211
 30
0.0
 11
349.4734420978
 21
1445.9484653773
 31
0.0
  0
ARC
  5
323
  8
0
  6
CONTINUOUS
 62
     7
 10
350.540723588
 20
1401.5255966421
 30
0.0
 40
44.41757289251532
 50
76.5535000818
 51
90.5217765347
  0
ARC
  5
324
  8
0
  6
CONTINUOUS
 62
     7
 10
348.2455999704
 20
1402.9069802671
 30
0.0
 40
43.03803686839615
 50
89.2482585316
 51
103.3699181788
  0
LINE
  5
325
  8
0
  6
CONTINUOUS
 62
     7
 10
349.4734420978
 20
1445.9484653773
 30
0.0
 11
348.8102584683
 21
1445.9413128199
 31
0.0
  0
LINE
  5
326
  8
0
  6
CONTINUOUS
 62
     7
 10
781.6734529638
 20
1415.3270261588
 30
0.0
 11
781.6734529638
 21
1415.5470269027
 31
0.0
  0
LINE
  5
327
  8
0
  6
CONTINUOUS
 62
     7
 10
776.6734279298
 20
1415.5470269027
 30
0.0
 11
776.6734279298
 21
1415.3270261588
 31
0.0
  0
LINE
  5
328
  8
0
  6
CONTINUOUS
 62
     7
 10
781.6734529638
 20
1415.5470269027
 30
0.0
 11
781.2734461927
 21
1415.9470336738
 31
0.0
  0
LINE
  5
329
  8
0
  6
CONTINUOUS
 62
     7
 10
777.0734347009
 20
1415.9470336738
 30
0.0
 11
776.6734279298
 21
1415.5470269027
 31
0.0
  0
LINE
  5
32A
  8
0
  6
CONTINUOUS
 62
     7
 10
-190.82654346
 20
1415.3270261588
 30
0.0
 11
-190.82654346
 21
1415.5470269027
 31
0.0
  0
LINE
  5
32B
  8
0
  6
CONTINUOUS
 62
     7
 10
-195.8265684939
 20
1415.5470269027
 30
0.0
 11
-195.8265684939
 21
1415.3270261588
 31
0.0
  0
LINE
  5
32C
  8
0
  6
CONTINUOUS
 62
     7
 10
-190.82654346
 20
1415.5470269027
 30
0.0
 11
-191.226550231
 21
1415.9470336738
 31
0.0
  0
LINE
  5
32D
  8
0
  6
CONTINUOUS
 62
     7
 10
-195.4265617228
 20
1415.9470336738
 30
0.0
 11
-195.8265684939
 21
1415.5470269027
 31
0.0
  0
LINE
  5
32E
  8
0
  6
CONTINUOUS
 62
     7
 10
-195.0765632487
 20
1399.8270320001
 30
0.0
 11
-195.6603907443
 21
1399.8270320001
 31
0.0
  0
LINE
  5
32F
  8
0
  6
CONTINUOUS
 62
     7
 10
781.6305376195
 20
1399.8270320001
 30
0.0
 11
780.9234477186
 21
1399.8270320001
 31
0.0
  0
LINE
  5
330
  8
0
  6
CONTINUOUS
 62
     7
 10
746.9234384202
 20
1049.3246900143
 30
0.0
 11
746.9234384202
 21
1051.7270254197
 31
0.0
  0
LINE
  5
331
  8
0
  6
CONTINUOUS
 62
     7
 10
738.9234520101
 20
1051.7270254197
 30
0.0
 11
738.9234520101
 21
1049.3246900143
 31
0.0
  0
LINE
  5
332
  8
0
  6
CONTINUOUS
 62
     7
 10
-153.0765675402
 20
1049.3246900143
 30
0.0
 11
-153.0765675402
 21
1051.7270254197
 31
0.0
  0
LINE
  5
333
  8
0
  6
CONTINUOUS
 62
     7
 10
-161.0765539504
 20
1051.7270254197
 30
0.0
 11
-161.0765539504
 21
1049.3246900143
 31
0.0
  0
ARC
  5
334
  8
0
  6
CONTINUOUS
 62
     7
 10
-197.5538037272
 20
1031.6497774729
 30
0.0
 40
4.772221710128148
 50
198.6076087106
 51
251.392106698
  0
ARC
  5
335
  8
0
  6
CONTINUOUS
 62
     7
 10
783.4006881971
 20
1031.6497774729
 30
0.0
 40
4.772221710128256
 50
288.607893302
 51
341.3923912894
  0
LINE
  5
336
  8
0
  6
CONTINUOUS
 62
     7
 10
784.9234558248
 20
1027.1270262303
 30
0.0
 11
-199.0765713549
 21
1027.1270262303
 31
0.0
  0
LINE
  5
337
  8
0
  6
CONTINUOUS
 62
     7
 10
-202.0765625334
 20
1030.12703231
 30
0.0
 11
-202.0765625334
 21
1034.1270255151
 31
0.0
  0
LINE
  5
338
  8
0
  6
CONTINUOUS
 62
     7
 10
787.9234470033
 20
1030.12703231
 30
0.0
 11
787.9234470033
 21
1034.1270255151
 31
0.0
  0
ARC
  5
339
  8
0
  6
CONTINUOUS
 62
     7
 10
315.9234422349
 20
1415.327031261
 30
0.0
 40
2.0
 50
0.0
 51
90.0
  0
ARC
  5
33A
  8
0
  6
CONTINUOUS
 62
     7
 10
269.9234422349
 20
1415.327031261
 30
0.0
 40
2.0
 50
90.0
 51
180.0
  0
LINE
  5
33B
  8
0
  6
CONTINUOUS
 62
     7
 10
315.9234422796
 20
1417.3270302119
 30
0.0
 11
269.9234421902
 21
1417.3270302119
 31
0.0
  0
LINE
  5
33C
  8
0
  6
CONTINUOUS
 62
     7
 10
267.9234418624
 20
1415.3270261588
 30
0.0
 11
267.9234418624
 21
1413.3270370068
 31
0.0
  0
LINE
  5
33D
  8
0
  6
CONTINUOUS
 62
     7
 10
317.9234426075
 20
1415.3270261588
 30
0.0
 11
317.9234426075
 21
1413.3270370068
 31
0.0
  0
LINE
  5
33E
  8
0
  6
CONTINUOUS
 62
     7
 10
317.9234426075
 20
1419.1174196305
 30
0.0
 11
317.9234426075
 21
1415.3270261588
 31
0.0
  0
LINE
  5
33F
  8
0
  6
CONTINUOUS
 62
     7
 10
267.9234418624
 20
1415.3270261588
 30
0.0
 11
267.9234418624
 21
1419.1174196305
 31
0.0
  0
LINE
  5
340
  8
0
  6
CONTINUOUS
 62
     7
 10
267.9234418624
 20
1419.1174196305
 30
0.0
 11
267.9234418624
 21
1419.5270376506
 31
0.0
  0
LINE
  5
341
  8
0
  6
CONTINUOUS
 62
     7
 10
317.9234426075
 20
1419.5270376506
 30
0.0
 11
317.9234426075
 21
1419.1174196305
 31
0.0
  0
LINE
  5
342
  8
0
  6
CONTINUOUS
 62
     7
 10
790.4734529161
 20
1419.5270376506
 30
0.0
 11
790.4734529161
 21
1430.0270365777
 31
0.0
  0
LINE
  5
343
  8
0
  6
CONTINUOUS
 62
     7
 10
294.9734420122
 20
1419.5270376506
 30
0.0
 11
790.4734529161
 21
1419.5270376506
 31
0.0
  0
LINE
  5
344
  8
0
  6
CONTINUOUS
 62
     7
 10
294.9734420122
 20
1430.0270365777
 30
0.0
 11
294.9734420122
 21
1419.5270376506
 31
0.0
  0
ARC
  5
345
  8
0
  6
CONTINUOUS
 62
     7
 10
294.9734420152
 20
1433.0270308353
 30
0.0
 40
3.0
 50
270.0
 51
330.0
  0
ARC
  5
346
  8
0
  6
CONTINUOUS
 62
     7
 10
790.4734420152
 20
1433.0270308353
 30
0.0
 40
3.000000000000227
 50
210.0
 51
270.0
  0
LINE
  5
347
  8
0
  6
CONTINUOUS
 62
     7
 10
787.8753758573
 20
1434.5270382466
 30
0.0
 11
297.5715181396
 21
1434.5270382466
 31
0.0
  0
POLYLINE
  5
348
  8
0
  6
CONTINUOUS
 62
     7
 66
     1
 10
0.0
 20
0.0
 30
0.0
  0
VERTEX
  5
7EC
  8
0
  6
CONTINUOUS
 62
     7
 10
787.8753758573
 20
1431.5270321669
 30
0.0
  0
VERTEX
  5
7ED
  8
0
  6
CONTINUOUS
 62
     7
 10
787.6939095163
 20
1432.2091775241
 30
0.0
  0
VERTEX
  5
7EE
  8
0
  6
CONTINUOUS
 62
     7
 10
787.5646568441
 20
1432.7959405484
 30
0.0
  0
VERTEX
  5
7EF
  8
0
  6
CONTINUOUS
 62
     7
 10
787.4627329015
 20
1433.647944242
 30
0.0
  0
VERTEX
  5
7F0
  8
0
  6
CONTINUOUS
 62
     7
 10
787.5670708322
 20
1434.2365997138
 30
0.0
  0
VERTEX
  5
7F1
  8
0
  6
CONTINUOUS
 62
     7
 10
787.6957274579
 20
1434.444888145
 30
0.0
  0
VERTEX
  5
7F2
  8
0
  6
CONTINUOUS
 62
     7
 10
787.8753758573
 20
1434.5270382466
 30
0.0
  0
SEQEND
  5
7F3
  8
0
  6
CONTINUOUS
 62
     7
  0
POLYLINE
  5
349
  8
0
  6
CONTINUOUS
 62
     7
 66
     1
 10
0.0
 20
0.0
 30
0.0
  0
VERTEX
  5
7F4
  8
0
  6
CONTINUOUS
 62
     7
 10
297.5715181396
 20
1434.5270382466
 30
0.0
  0
VERTEX
  5
7F5
  8
0
  6
CONTINUOUS
 62
     7
 10
297.7529691138
 20
1434.4484495225
 30
0.0
  0
VERTEX
  5
7F6
  8
0
  6
CONTINUOUS
 62
     7
 10
297.882225977
 20
1434.2454659047
 30
0.0
  0
VERTEX
  5
7F7
  8
0
  6
CONTINUOUS
 62
     7
 10
297.9841559731
 20
1433.6487489047
 30
0.0
  0
VERTEX
  5
7F8
  8
0
  6
CONTINUOUS
 62
     7
 10
297.8798208364
 20
1432.8147756162
 30
0.0
  0
VERTEX
  5
7F9
  8
0
  6
CONTINUOUS
 62
     7
 10
297.7511656077
 20
1432.2242276969
 30
0.0
  0
VERTEX
  5
7FA
  8
0
  6
CONTINUOUS
 62
     7
 10
297.5715181396
 20
1431.5270321669
 30
0.0
  0
SEQEND
  5
7FB
  8
0
  6
CONTINUOUS
 62
     7
  0
LINE
  5
34A
  8
0
  6
CONTINUOUS
 62
     7
 10
297.5715181396
 20
1434.5270382466
 30
0.0
 11
297.5715181396
 21
1433.0270277562
 31
0.0
  0
LINE
  5
34B
  8
0
  6
CONTINUOUS
 62
     7
 10
787.8753758573
 20
1433.0270277562
 30
0.0
 11
787.8753758573
 21
1434.5270382466
 31
0.0
  0
LINE
  5
34C
  8
0
  6
CONTINUOUS
 62
     7
 10
294.9734420122
 20
1430.0270365777
 30
0.0
 11
293.4734419991
 21
1430.0270365777
 31
0.0
  0
LINE
  5
34D
  8
0
  6
CONTINUOUS
 62
     7
 10
294.9734420122
 20
1431.5270321669
 30
0.0
 11
293.4734419991
 21
1431.5270321669
 31
0.0
  0
LINE
  5
34E
  8
0
  6
CONTINUOUS
 62
     7
 10
294.9734420122
 20
1430.0270365777
 30
0.0
 11
294.9734420122
 21
1431.5270321669
 31
0.0
  0
LINE
  5
34F
  8
0
  6
CONTINUOUS
 62
     7
 10
293.4734419991
 20
1431.5270321669
 30
0.0
 11
293.4734419991
 21
1430.0270365777
 31
0.0
  0
LINE
  5
350
  8
0
  6
CONTINUOUS
 62
     7
 10
791.9734336042
 20
1430.0270365777
 30
0.0
 11
790.4734529161
 21
1430.0270365777
 31
0.0
  0
LINE
  5
351
  8
0
  6
CONTINUOUS
 62
     7
 10
791.9734336042
 20
1431.5270321669
 30
0.0
 11
790.4734529161
 21
1431.5270321669
 31
0.0
  0
LINE
  5
352
  8
0
  6
CONTINUOUS
 62
     7
 10
790.4734529161
 20
1430.0270365777
 30
0.0
 11
790.4734529161
 21
1431.5270321669
 31
0.0
  0
LINE
  5
353
  8
0
  6
CONTINUOUS
 62
     7
 10
791.9734336042
 20
1430.0270365777
 30
0.0
 11
791.9734336042
 21
1431.5270321669
 31
0.0
  0
LINE
  5
354
  8
0
  6
CONTINUOUS
 62
     7
 10
293.4734419991
 20
1419.5270376506
 30
0.0
 11
294.9734420122
 21
1419.5270376506
 31
0.0
  0
LINE
  5
355
  8
0
  6
CONTINUOUS
 62
     7
 10
293.4734419991
 20
1419.5270376506
 30
0.0
 11
293.4734419991
 21
1430.0270365777
 31
0.0
  0
LINE
  5
356
  8
0
  6
CONTINUOUS
 62
     7
 10
791.9734336042
 20
1419.5270376506
 30
0.0
 11
790.4734529161
 21
1419.5270376506
 31
0.0
  0
LINE
  5
357
  8
0
  6
CONTINUOUS
 62
     7
 10
791.9734336042
 20
1430.0270365777
 30
0.0
 11
791.9734336042
 21
1419.5270376506
 31
0.0
  0
LINE
  5
358
  8
0
  6
CONTINUOUS
 62
     7
 10
297.5715181396
 20
1434.5270382466
 30
0.0
 11
296.4734420252
 21
1434.5270382466
 31
0.0
  0
LINE
  5
359
  8
0
  6
CONTINUOUS
 62
     7
 10
296.4734420252
 20
1433.0270277562
 30
0.0
 11
296.4734420252
 21
1434.5270382466
 31
0.0
  0
LINE
  5
35A
  8
0
  6
CONTINUOUS
 62
     7
 10
296.4734420252
 20
1433.0270277562
 30
0.0
 11
297.5715181396
 21
1433.0270277562
 31
0.0
  0
LINE
  5
35B
  8
0
  6
CONTINUOUS
 62
     7
 10
788.9734424257
 20
1434.5270382466
 30
0.0
 11
788.9734424257
 21
1433.0270277562
 31
0.0
  0
LINE
  5
35C
  8
0
  6
CONTINUOUS
 62
     7
 10
788.9734424257
 20
1434.5270382466
 30
0.0
 11
787.8753758573
 21
1434.5270382466
 31
0.0
  0
LINE
  5
35D
  8
0
  6
CONTINUOUS
 62
     7
 10
788.9734424257
 20
1433.0270277562
 30
0.0
 11
787.8753758573
 21
1433.0270277562
 31
0.0
  0
ARC
  5
35E
  8
0
  6
CONTINUOUS
 62
     7
 10
296.4734361953
 20
1431.527033573
 30
0.0
 40
1.499994183184487
 50
89.9997773151
 51
180.0000537086
  0
ARC
  5
35F
  8
0
  6
CONTINUOUS
 62
     7
 10
296.4734686276
 20
1431.5270116182
 30
0.0
 40
3.000026628582813
 50
90.0005080646
 51
179.9996075505
  0
ARC
  5
360
  8
0
  6
CONTINUOUS
 62
     7
 10
788.9734246197
 20
1431.5270292622
 30
0.0
 40
3.000008984488068
 50
0.0000554767
 51
89.999659932
  0
ARC
  5
361
  8
0
  6
CONTINUOUS
 62
     7
 10
788.9734353828
 20
1431.5270102228
 30
0.0
 40
1.500017533406371
 50
0.0008381944
 51
89.9997309869
  0
LINE
  5
362
  8
0
  6
CONTINUOUS
 62
     7
 10
285.8734425695
 20
1431.5270321669
 30
0.0
 11
285.8734425695
 21
1433.0270277562
 31
0.0
  0
LINE
  5
363
  8
0
  6
CONTINUOUS
 62
     7
 10
285.8734425695
 20
1419.5270376506
 30
0.0
 11
285.8734425695
 21
1430.0270365777
 31
0.0
  0
LINE
  5
364
  8
0
  6
CONTINUOUS
 62
     7
 10
-204.6265684462
 20
1419.5270376506
 30
0.0
 11
285.8734425695
 21
1419.5270376506
 31
0.0
  0
LINE
  5
365
  8
0
  6
CONTINUOUS
 62
     7
 10
-204.6265684462
 20
1430.0270365777
 30
0.0
 11
-204.6265684462
 21
1419.5270376506
 31
0.0
  0
ARC
  5
366
  8
0
  6
CONTINUOUS
 62
     7
 10
-204.6265575457
 20
1433.0270308353
 30
0.0
 40
3.000000000000227
 50
270.0
 51
330.0
  0
ARC
  5
367
  8
0
  6
CONTINUOUS
 62
     7
 10
285.8734424543
 20
1433.0270308353
 30
0.0
 40
2.999999999999818
 50
210.0
 51
270.0
  0
POLYLINE
  5
368
  8
0
  6
CONTINUOUS
 62
     7
 66
     1
 10
0.0
 20
0.0
 30
0.0
  0
VERTEX
  5
7FC
  8
0
  6
CONTINUOUS
 62
     7
 10
-202.0284913874
 20
1434.5270382466
 30
0.0
  0
VERTEX
  5
7FD
  8
0
  6
CONTINUOUS
 62
     7
 10
-201.8470250464
 20
1434.4484495225
 30
0.0
  0
VERTEX
  5
7FE
  8
0
  6
CONTINUOUS
 62
     7
 10
-201.7177723742
 20
1434.2454659047
 30
0.0
  0
VERTEX
  5
7FF
  8
0
  6
CONTINUOUS
 62
     7
 10
-201.6158484317
 20
1433.6487489047
 30
0.0
  0
VERTEX
  5
800
  8
0
  6
CONTINUOUS
 62
     7
 10
-201.7201863623
 20
1432.8147756162
 30
0.0
  0
VERTEX
  5
801
  8
0
  6
CONTINUOUS
 62
     7
 10
-201.8488429881
 20
1432.2242276969
 30
0.0
  0
VERTEX
  5
802
  8
0
  6
CONTINUOUS
 62
     7
 10
-202.0284913874
 20
1431.5270321669
 30
0.0
  0
SEQEND
  5
803
  8
0
  6
CONTINUOUS
 62
     7
  0
LINE
  5
369
  8
0
  6
CONTINUOUS
 62
     7
 10
-202.0284913874
 20
1434.5270382466
 30
0.0
 11
-202.0284913874
 21
1433.0270277562
 31
0.0
  0
LINE
  5
36A
  8
0
  6
CONTINUOUS
 62
     7
 10
283.2753659763
 20
1434.5270382466
 30
0.0
 11
-202.0284913874
 21
1434.5270382466
 31
0.0
  0
POLYLINE
  5
36B
  8
0
  6
CONTINUOUS
 62
     7
 66
     1
 10
0.0
 20
0.0
 30
0.0
  0
VERTEX
  5
804
  8
0
  6
CONTINUOUS
 62
     7
 10
283.2753659763
 20
1431.5270321669
 30
0.0
  0
VERTEX
  5
805
  8
0
  6
CONTINUOUS
 62
     7
 10
283.0939154678
 20
1432.2091775241
 30
0.0
  0
VERTEX
  5
806
  8
0
  6
CONTINUOUS
 62
     7
 10
282.964658139
 20
1432.7959405484
 30
0.0
  0
VERTEX
  5
807
  8
0
  6
CONTINUOUS
 62
     7
 10
282.8627286085
 20
1433.647944242
 30
0.0
  0
VERTEX
  5
808
  8
0
  6
CONTINUOUS
 62
     7
 10
282.9670637452
 20
1434.2365997138
 30
0.0
  0
VERTEX
  5
809
  8
0
  6
CONTINUOUS
 62
     7
 10
283.0957194396
 20
1434.444888145
 30
0.0
  0
VERTEX
  5
80A
  8
0
  6
CONTINUOUS
 62
     7
 10
283.2753659763
 20
1434.5270382466
 30
0.0
  0
SEQEND
  5
80B
  8
0
  6
CONTINUOUS
 62
     7
  0
LINE
  5
36C
  8
0
  6
CONTINUOUS
 62
     7
 10
283.2753659763
 20
1433.0270277562
 30
0.0
 11
283.2753659763
 21
1434.5270382466
 31
0.0
  0
LINE
  5
36D
  8
0
  6
CONTINUOUS
 62
     7
 10
287.3734423497
 20
1430.0270365777
 30
0.0
 11
285.8734425695
 21
1430.0270365777
 31
0.0
  0
LINE
  5
36E
  8
0
  6
CONTINUOUS
 62
     7
 10
287.3734423497
 20
1431.5270321669
 30
0.0
 11
285.8734425695
 21
1431.5270321669
 31
0.0
  0
LINE
  5
36F
  8
0
  6
CONTINUOUS
 62
     7
 10
285.8734425695
 20
1431.5270321669
 30
0.0
 11
285.8734425695
 21
1430.0270365777
 31
0.0
  0
LINE
  5
370
  8
0
  6
CONTINUOUS
 62
     7
 10
287.3734423497
 20
1430.0270365777
 30
0.0
 11
287.3734423497
 21
1431.5270321669
 31
0.0
  0
LINE
  5
371
  8
0
  6
CONTINUOUS
 62
     7
 10
-204.6265684462
 20
1430.0270365777
 30
0.0
 11
-206.1265491343
 21
1430.0270365777
 31
0.0
  0
LINE
  5
372
  8
0
  6
CONTINUOUS
 62
     7
 10
-204.6265684462
 20
1431.5270321669
 30
0.0
 11
-206.1265491343
 21
1431.5270321669
 31
0.0
  0
LINE
  5
373
  8
0
  6
CONTINUOUS
 62
     7
 10
-204.6265684462
 20
1430.0270365777
 30
0.0
 11
-204.6265684462
 21
1431.5270321669
 31
0.0
  0
LINE
  5
374
  8
0
  6
CONTINUOUS
 62
     7
 10
-206.1265491343
 20
1431.5270321669
 30
0.0
 11
-206.1265491343
 21
1430.0270365777
 31
0.0
  0
LINE
  5
375
  8
0
  6
CONTINUOUS
 62
     7
 10
-206.1265491343
 20
1419.5270376506
 30
0.0
 11
-204.6265684462
 21
1419.5270376506
 31
0.0
  0
LINE
  5
376
  8
0
  6
CONTINUOUS
 62
     7
 10
-206.1265491343
 20
1419.5270376506
 30
0.0
 11
-206.1265491343
 21
1430.0270365777
 31
0.0
  0
LINE
  5
377
  8
0
  6
CONTINUOUS
 62
     7
 10
287.3734423497
 20
1419.5270376506
 30
0.0
 11
285.8734425695
 21
1419.5270376506
 31
0.0
  0
LINE
  5
378
  8
0
  6
CONTINUOUS
 62
     7
 10
287.3734423497
 20
1430.0270365777
 30
0.0
 11
287.3734423497
 21
1419.5270376506
 31
0.0
  0
LINE
  5
379
  8
0
  6
CONTINUOUS
 62
     7
 10
-202.0284913874
 20
1434.5270382466
 30
0.0
 11
-203.1265579558
 21
1434.5270382466
 31
0.0
  0
LINE
  5
37A
  8
0
  6
CONTINUOUS
 62
     7
 10
-203.1265579558
 20
1433.0270277562
 30
0.0
 11
-203.1265579558
 21
1434.5270382466
 31
0.0
  0
LINE
  5
37B
  8
0
  6
CONTINUOUS
 62
     7
 10
-203.1265579558
 20
1433.0270277562
 30
0.0
 11
-202.0284913874
 21
1433.0270277562
 31
0.0
  0
LINE
  5
37C
  8
0
  6
CONTINUOUS
 62
     7
 10
284.3734427893
 20
1434.5270382466
 30
0.0
 11
283.2753659763
 21
1434.5270382466
 31
0.0
  0
LINE
  5
37D
  8
0
  6
CONTINUOUS
 62
     7
 10
284.3734427893
 20
1434.5270382466
 30
0.0
 11
284.3734427893
 21
1433.0270277562
 31
0.0
  0
LINE
  5
37E
  8
0
  6
CONTINUOUS
 62
     7
 10
283.2753659763
 20
1433.0270277562
 30
0.0
 11
284.3734427893
 21
1433.0270277562
 31
0.0
  0
ARC
  5
37F
  8
0
  6
CONTINUOUS
 62
     7
 10
284.3734226063
 20
1431.5270185033
 30
0.0
 40
3.000019743415939
 50
0.0002609552
 51
89.9996145362
  0
ARC
  5
380
  8
0
  6
CONTINUOUS
 62
     7
 10
284.3734408859
 20
1431.5270260726
 30
0.0
 40
1.500001683610506
 50
0.0002327869
 51
89.9999272959
  0
ARC
  5
381
  8
0
  6
CONTINUOUS
 62
     7
 10
-203.1265166053
 20
1431.5270057178
 30
0.0
 40
3.000032529088304
 50
90.000789727
 51
179.9994948643
  0
ARC
  5
382
  8
0
  6
CONTINUOUS
 62
     7
 10
-203.1265728855
 20
1431.5270321955
 30
0.0
 40
1.49999556074312
 50
89.9994297267
 51
180.000001092
  0
LINE
  5
383
  8
0
  6
CONTINUOUS
 62
     7
 10
-152.326562295
 20
1050.0650095048
 30
0.0
 11
-152.326562295
 21
1051.7270254197
 31
0.0
  0
LINE
  5
384
  8
0
  6
CONTINUOUS
 62
     7
 10
-152.326562295
 20
1051.7270254197
 30
0.0
 11
-151.305713544
 21
1051.7270254197
 31
0.0
  0
LINE
  5
385
  8
0
  6
CONTINUOUS
 62
     7
 10
738.1734467649
 20
1050.0650095048
 30
0.0
 11
738.1734467649
 21
1051.7270254197
 31
0.0
  0
LINE
  5
386
  8
0
  6
CONTINUOUS
 62
     7
 10
737.1525980138
 20
1051.7270254197
 30
0.0
 11
738.1734467649
 21
1051.7270254197
 31
0.0
  0
LINE
  5
387
  8
0
  6
CONTINUOUS
 62
     7
 10
747.6734436654
 20
1050.0650095048
 30
0.0
 11
747.6734436654
 21
1051.7270254197
 31
0.0
  0
LINE
  5
388
  8
0
  6
CONTINUOUS
 62
     7
 10
747.8438831472
 20
1051.7270254197
 30
0.0
 11
748.6942626142
 21
1051.7270254197
 31
0.0
  0
LINE
  5
389
  8
0
  6
CONTINUOUS
 62
     7
 10
-161.8265591956
 20
1050.0650095048
 30
0.0
 11
-161.8265591956
 21
1051.7270254197
 31
0.0
  0
LINE
  5
38A
  8
0
  6
CONTINUOUS
 62
     7
 10
-161.9969986773
 20
1051.7270254197
 30
0.0
 11
-162.8473781443
 21
1051.7270254197
 31
0.0
  0
LINE
  5
38B
  8
0
  6
CONTINUOUS
 62
     7
 10
790.7163418435
 20
1037.1270315947
 30
0.0
 11
790.8544160032
 21
1036.9103389087
 31
0.0
  0
POLYLINE
  5
38C
  8
0
  6
CONTINUOUS
 62
     7
 66
     1
 10
0.0
 20
0.0
 30
0.0
  0
VERTEX
  5
80C
  8
0
  6
CONTINUOUS
 62
     7
 10
790.8544160032
 20
1036.9103389087
 30
0.0
  0
VERTEX
  5
80D
  8
0
  6
CONTINUOUS
 62
     7
 10
790.4966689252
 20
1035.8304666581
 30
0.0
  0
VERTEX
  5
80E
  8
0
  6
CONTINUOUS
 62
     7
 10
790.1389218473
 20
1034.930436522
 30
0.0
  0
VERTEX
  5
80F
  8
0
  6
CONTINUOUS
 62
     7
 10
789.7811747693
 20
1034.3350904288
 30
0.0
  0
VERTEX
  5
810
  8
0
  6
CONTINUOUS
 62
     7
 10
789.4234276914
 20
1034.1270255151
 30
0.0
  0
SEQEND
  5
811
  8
0
  6
CONTINUOUS
 62
     7
  0
LINE
  5
38D
  8
0
  6
CONTINUOUS
 62
     7
 10
789.4234276914
 20
1034.1270255151
 30
0.0
 11
-203.5765432215
 21
1034.1270255151
 31
0.0
  0
POLYLINE
  5
38E
  8
0
  6
CONTINUOUS
 62
     7
 66
     1
 10
0.0
 20
0.0
 30
0.0
  0
VERTEX
  5
812
  8
0
  6
CONTINUOUS
 62
     7
 10
-203.5765432215
 20
1034.1270255151
 30
0.0
  0
VERTEX
  5
813
  8
0
  6
CONTINUOUS
 62
     7
 10
-203.9342902995
 20
1034.3350904288
 30
0.0
  0
VERTEX
  5
814
  8
0
  6
CONTINUOUS
 62
     7
 10
-204.2920373774
 20
1034.930436522
 30
0.0
  0
VERTEX
  5
815
  8
0
  6
CONTINUOUS
 62
     7
 10
-204.6497844554
 20
1035.8304666581
 30
0.0
  0
VERTEX
  5
816
  8
0
  6
CONTINUOUS
 62
     7
 10
-205.0075315333
 20
1036.9103389087
 30
0.0
  0
SEQEND
  5
817
  8
0
  6
CONTINUOUS
 62
     7
  0
LINE
  5
38F
  8
0
  6
CONTINUOUS
 62
     7
 10
-205.0075315333
 20
1036.9103389087
 30
0.0
 11
-204.8694573737
 21
1037.1270315947
 31
0.0
  0
LINE
  5
390
  8
0
  6
CONTINUOUS
 62
     7
 10
-205.0075315333
 20
1037.0186852517
 30
0.0
 11
-204.8694573737
 21
1037.1270315947
 31
0.0
  0
LINE
  5
391
  8
0
  6
CONTINUOUS
 62
     7
 10
-205.0075315333
 20
1036.9103389087
 30
0.0
 11
-205.0075315333
 21
1037.0186852517
 31
0.0
  0
LINE
  5
392
  8
0
  6
CONTINUOUS
 62
     7
 10
790.7163418435
 20
1037.1270315947
 30
0.0
 11
762.0163477563
 21
1065.827025682
 31
0.0
  0
LINE
  5
393
  8
0
  6
CONTINUOUS
 62
     7
 10
-176.1694632865
 20
1065.827025682
 30
0.0
 11
-204.8694573737
 21
1037.1270315947
 31
0.0
  0
LINE
  5
394
  8
0
  6
CONTINUOUS
 62
     7
 10
-99.0765475131
 20
1065.827025682
 30
0.0
 11
-176.1694632865
 21
1065.827025682
 31
0.0
  0
LINE
  5
395
  8
0
  6
CONTINUOUS
 62
     7
 10
-99.0765475131
 20
1095.7270251813
 30
0.0
 11
-99.0765475131
 21
1065.827025682
 31
0.0
  0
LINE
  5
396
  8
0
  6
CONTINUOUS
 62
     7
 10
684.9234319829
 20
1065.827025682
 30
0.0
 11
684.9234319829
 21
1095.7270251813
 31
0.0
  0
LINE
  5
397
  8
0
  6
CONTINUOUS
 62
     7
 10
762.0163477563
 20
1065.827025682
 30
0.0
 11
684.9234319829
 21
1065.827025682
 31
0.0
  0
CIRCLE
  5
398
  8
0
  6
CONTINUOUS
 62
     7
 10
742.9234422349
 20
1054.1270312609
 30
0.0
 40
6.25
  0
CIRCLE
  5
399
  8
0
  6
CONTINUOUS
 62
     7
 10
-157.0765577651
 20
1054.127031261
 30
0.0
 40
6.25
  0
LINE
  5
39A
  8
0
  6
CONTINUOUS
 62
     7
 10
790.7163418435
 20
1037.1270315947
 30
0.0
 11
790.8544160032
 21
1037.0186852517
 31
0.0
  0
LINE
  5
39B
  8
0
  6
CONTINUOUS
 62
     7
 10
790.8544160032
 20
1036.9103389087
 30
0.0
 11
790.8544160032
 21
1037.0186852517
 31
0.0
  0
LINE
  5
39C
  8
0
  6
CONTINUOUS
 62
     7
 10
-99.0765475131
 20
1098.727031261
 30
0.0
 11
684.9234319829
 21
1098.727031261
 31
0.0
  0
LINE
  5
39D
  8
0
  6
CONTINUOUS
 62
     7
 10
684.9234319829
 20
1098.727031261
 30
0.0
 11
684.9234319829
 21
1095.7270251813
 31
0.0
  0
LINE
  5
39E
  8
0
  6
CONTINUOUS
 62
     7
 10
-99.0765475131
 20
1095.7270251813
 30
0.0
 11
-99.0765475131
 21
1098.727031261
 31
0.0
  0
LINE
  5
39F
  8
0
  6
CONTINUOUS
 62
     7
 10
685.4234553479
 20
1348.727031261
 30
0.0
 11
-99.5765708781
 21
1348.727031261
 31
0.0
  0
LINE
  5
3A0
  8
0
  6
CONTINUOUS
 62
     7
 10
-99.5765708781
 20
1348.727031261
 30
0.0
 11
-99.5765708781
 21
1351.7270373406
 31
0.0
  0
LINE
  5
3A1
  8
0
  6
CONTINUOUS
 62
     7
 10
685.4234553479
 20
1351.7270373406
 30
0.0
 11
685.4234553479
 21
1348.727031261
 31
0.0
  0
LINE
  5
3A2
  8
0
  6
CONTINUOUS
 62
     7
 10
790.9234381818
 20
1410.3270309272
 30
0.0
 11
790.9234381818
 21
1409.8270373645
 31
0.0
  0
LINE
  5
3A3
  8
0
  6
CONTINUOUS
 62
     7
 10
790.9234381818
 20
1409.8270373645
 30
0.0
 11
762.2234440946
 21
1381.1270283761
 31
0.0
  0
LINE
  5
3A4
  8
0
  6
CONTINUOUS
 62
     7
 10
762.2234440946
 20
1381.1270283761
 30
0.0
 11
685.4234553479
 21
1381.1270283761
 31
0.0
  0
LINE
  5
3A5
  8
0
  6
CONTINUOUS
 62
     7
 10
685.4234553479
 20
1381.1270283761
 30
0.0
 11
685.4234553479
 21
1351.7270373406
 31
0.0
  0
LINE
  5
3A6
  8
0
  6
CONTINUOUS
 62
     7
 10
-99.5765708781
 20
1351.7270373406
 30
0.0
 11
-99.5765708781
 21
1381.1270283761
 31
0.0
  0
LINE
  5
3A7
  8
0
  6
CONTINUOUS
 62
     7
 10
-99.5765708781
 20
1381.1270283761
 30
0.0
 11
-176.3765596247
 21
1381.1270283761
 31
0.0
  0
LINE
  5
3A8
  8
0
  6
CONTINUOUS
 62
     7
 10
-176.3765596247
 20
1381.1270283761
 30
0.0
 11
-205.076553712
 21
1409.8270373645
 31
0.0
  0
LINE
  5
3A9
  8
0
  6
CONTINUOUS
 62
     7
 10
-205.076553712
 20
1409.8270373645
 30
0.0
 11
-205.076553712
 21
1410.3270309272
 31
0.0
  0
CIRCLE
  5
3AA
  8
0
  6
CONTINUOUS
 62
     7
 10
-157.0765577651
 20
1393.327031261
 30
0.0
 40
6.250000000000227
  0
CIRCLE
  5
3AB
  8
0
  6
CONTINUOUS
 62
     7
 10
742.9234422349
 20
1393.327031261
 30
0.0
 40
6.25
  0
LINE
  5
3AC
  8
0
  6
CONTINUOUS
 62
     7
 10
790.9234381818
 20
1413.3270370068
 30
0.0
 11
-205.076553712
 21
1413.3270370068
 31
0.0
  0
LINE
  5
3AD
  8
0
  6
CONTINUOUS
 62
     7
 10
-205.076553712
 20
1410.3270309272
 30
0.0
 11
-205.076553712
 21
1413.3270370068
 31
0.0
  0
LINE
  5
3AE
  8
0
  6
CONTINUOUS
 62
     7
 10
790.9234381818
 20
1413.3270370068
 30
0.0
 11
790.9234381818
 21
1410.3270309272
 31
0.0
  0
ARC
  5
3AF
  8
0
  6
CONTINUOUS
 62
     7
 10
595.5638771527
 20
1422.7337923816
 30
0.0
 40
175.0607647827018
 50
356.9197719073
 51
357.3814704356
  0
ARC
  5
3B0
  8
0
  6
CONTINUOUS
 62
     7
 10
763.3398378718
 20
1415.1756451388
 30
0.0
 40
7.127496023238286
 50
344.9677369679
 51
358.8757380184
  0
ARC
  5
3B1
  8
0
  6
CONTINUOUS
 62
     7
 10
-9.7169926828
 20
1422.7337923816
 30
0.0
 40
175.0607647827017
 50
182.6185295644
 51
183.0802280927
  0
ARC
  5
3B2
  8
0
  6
CONTINUOUS
 62
     7
 10
-177.492953402
 20
1415.1756451388
 30
0.0
 40
7.127496023238286
 50
181.1242619816
 51
195.0322630321
  0
LINE
  5
3B3
  8
0
  6
CONTINUOUS
 62
     7
 10
-185.2564596034
 20
1419.5270376506
 30
0.0
 11
-184.6190773345
 21
1415.0357978644
 31
0.0
  0
LINE
  5
3B4
  8
0
  6
CONTINUOUS
 62
     7
 10
770.4659618043
 20
1415.0357978644
 30
0.0
 11
771.1033440732
 21
1419.5270376506
 31
0.0
  0
LINE
  5
3B5
  8
0
  6
CONTINUOUS
 62
     7
 10
-184.7518466807
 20
1414.8240374627
 30
0.0
 11
-184.7867452002
 21
1415.0357978644
 31
0.0
  0
LINE
  5
3B6
  8
0
  6
CONTINUOUS
 62
     7
 10
-184.7867452002
 20
1415.2445482316
 30
0.0
 11
-184.7867452002
 21
1415.0357978644
 31
0.0
  0
ARC
  5
3B7
  8
0
  6
CONTINUOUS
 62
     7
 10
-48.8540820324
 20
1425.8943680181
 30
0.0
 40
136.3492118693257
 50
184.4797608846
 51
185.2884681403
  0
LINE
  5
3B8
  8
0
  6
CONTINUOUS
 62
     7
 10
770.6336296701
 20
1415.0357978644
 30
0.0
 11
770.5987311506
 21
1414.8240374627
 31
0.0
  0
ARC
  5
3B9
  8
0
  6
CONTINUOUS
 62
     7
 10
634.7009665022
 20
1425.8943680181
 30
0.0
 40
136.3492118693258
 50
354.7115318597
 51
355.5202391154
  0
LINE
  5
3BA
  8
0
  6
CONTINUOUS
 62
     7
 10
770.6336296701
 20
1415.0357978644
 30
0.0
 11
770.6336296701
 21
1415.2445482316
 31
0.0
  0
LINE
  5
3BB
  8
0
  6
CONTINUOUS
 62
     7
 10
771.2414182329
 20
1419.5270376506
 30
0.0
 11
770.6336296701
 21
1415.2445482316
 31
0.0
  0
LINE
  5
3BC
  8
0
  6
CONTINUOUS
 62
     7
 10
-184.7867452002
 20
1415.2445482316
 30
0.0
 11
-185.394533763
 21
1419.5270376506
 31
0.0
  0
LINE
  5
3BD
  8
0
  6
CONTINUOUS
 62
     7
 10
-185.4241572715
 20
1419.5270376506
 30
0.0
 11
-184.7867452002
 21
1415.0357978644
 31
0.0
  0
LINE
  5
3BE
  8
0
  6
CONTINUOUS
 62
     7
 10
771.2710417413
 20
1419.5270376506
 30
0.0
 11
770.6336296701
 21
1415.0357978644
 31
0.0
  0
POLYLINE
  5
3BF
  8
0
  6
CONTINUOUS
 62
     7
 66
     1
 10
0.0
 20
0.0
 30
0.0
  0
VERTEX
  5
818
  8
0
  6
CONTINUOUS
 62
     7
 10
770.4234338903
 20
1413.8458209338
 30
0.0
  0
VERTEX
  5
819
  8
0
  6
CONTINUOUS
 62
     7
 10
771.1756743097
 20
1413.4628759923
 30
0.0
  0
VERTEX
  5
81A
  8
0
  6
CONTINUOUS
 62
     7
 10
771.9278849267
 20
1413.3270370068
 30
0.0
  0
SEQEND
  5
81B
  8
0
  6
CONTINUOUS
 62
     7
  0
POLYLINE
  5
3C0
  8
0
  6
CONTINUOUS
 62
     7
 66
     1
 10
0.0
 20
0.0
 30
0.0
  0
VERTEX
  5
81C
  8
0
  6
CONTINUOUS
 62
     7
 10
-186.0810004569
 20
1413.3270370068
 30
0.0
  0
VERTEX
  5
81D
  8
0
  6
CONTINUOUS
 62
     7
 10
-185.3287898398
 20
1413.4628759923
 30
0.0
  0
VERTEX
  5
81E
  8
0
  6
CONTINUOUS
 62
     7
 10
-184.5765494204
 20
1413.8458209338
 30
0.0
  0
SEQEND
  5
81F
  8
0
  6
CONTINUOUS
 62
     7
  0
LINE
  5
3C1
  8
0
  6
CONTINUOUS
 62
     7
 10
-205.5199228621
 20
1036.9528221192
 30
0.0
 11
-205.3213797904
 21
1036.3419639172
 31
0.0
  0
POLYLINE
  5
3C2
  8
0
  6
CONTINUOUS
 62
     7
 66
     1
 10
0.0
 20
0.0
 30
0.0
  0
VERTEX
  5
820
  8
0
  6
CONTINUOUS
 62
     7
 10
791.1646283769
 20
1036.3365249934
 30
0.0
  0
VERTEX
  5
821
  8
0
  6
CONTINUOUS
 62
     7
 10
791.2761784696
 20
1036.666228086
 30
0.0
  0
VERTEX
  5
822
  8
0
  6
CONTINUOUS
 62
     7
 10
791.3679100179
 20
1036.9532244506
 30
0.0
  0
SEQEND
  5
823
  8
0
  6
CONTINUOUS
 62
     7
  0
ARC
  5
3C3
  8
0
  6
CONTINUOUS
 62
     7
 10
-203.5917956831
 20
1410.1572211911
 30
0.0
 40
1.967476573600429
 50
138.9948782716
 51
175.0487333626
  0
ARC
  5
3C4
  8
0
  6
CONTINUOUS
 62
     7
 10
789.438680153
 20
1410.1572211911
 30
0.0
 40
1.967476573600157
 50
4.9512666373
 51
41.0051217284
  0
POLYLINE
  5
3C5
  8
0
  6
CONTINUOUS
 62
     7
 66
     1
 10
0.0
 20
0.0
 30
0.0
  0
VERTEX
  5
824
  8
0
  6
CONTINUOUS
 62
     7
 10
-205.5519305564
 20
1410.3270309272
 30
0.0
  0
VERTEX
  5
825
  8
0
  6
CONTINUOUS
 62
     7
 10
-205.4796301223
 20
1410.9786289039
 30
0.0
  0
VERTEX
  5
826
  8
0
  6
CONTINUOUS
 62
     7
 10
-205.438473115
 20
1411.2698124947
 30
0.0
  0
SEQEND
  5
827
  8
0
  6
CONTINUOUS
 62
     7
  0
LINE
  5
3C6
  8
0
  6
CONTINUOUS
 62
     7
 10
791.3493133687
 20
1410.7733505072
 30
0.0
 11
791.3988150262
 21
1410.3270309272
 31
0.0
  0
ARC
  5
3C7
  8
0
  6
CONTINUOUS
 62
     7
 10
786.4234422349
 20
1409.8314786501
 30
0.0
 40
5.00000000000648
 50
0.0
 51
5.6879527015
  0
ARC
  5
3C8
  8
0
  6
CONTINUOUS
 62
     7
 10
-200.5765577651
 20
1409.8314786501
 30
0.0
 40
5.000000000006471
 50
174.3120472985
 51
180.0
  0
ARC
  5
3C9
  8
0
  6
CONTINUOUS
 62
     7
 10
349.4734402352
 20
1338.3950011476
 30
0.0
 40
101.3167166396263
 50
82.4990039079
 51
97.5009960921
  0
LINE
  5
3CA
  8
0
  6
CONTINUOUS
 62
     7
 10
333.3842336737
 20
1438.89415136
 30
0.0
 11
333.0779887342
 21
1436.9842546286
 31
0.0
  0
LINE
  5
3CB
  8
0
  6
CONTINUOUS
 62
     7
 10
365.8688954615
 20
1436.9842546286
 30
0.0
 11
365.5626467966
 21
1438.89415136
 31
0.0
  0
ARC
  5
3CC
  8
0
  6
CONTINUOUS
 62
     7
 10
334.1613311552
 20
1438.726539007
 30
0.0
 40
0.7949681733206706
 50
98.479188395
 51
167.8283239316
  0
LINE
  5
3CD
  8
0
  6
CONTINUOUS
 62
     7
 10
365.5626542472
 20
1442.5927089753
 30
0.0
 11
365.5626542472
 21
1438.89415136
 31
0.0
  0
LINE
  5
3CE
  8
0
  6
CONTINUOUS
 62
     7
 10
788.2373846673
 20
1431.0270237031
 30
0.0
 11
788.473448863
 21
1431.0270237031
 31
0.0
  0
ARC
  5
3CF
  8
0
  6
CONTINUOUS
 62
     7
 10
787.9734420152
 20
1430.5270308353
 30
0.0
 40
2.500000000000227
 50
78.4630409672
 51
90.0
  0
LINE
  5
3D0
  8
0
  6
CONTINUOUS
 62
     7
 10
788.473448863
 20
1431.0270237031
 30
0.0
 11
788.473448863
 21
1432.9765277209
 31
0.0
  0
ARC
  5
3D1
  8
0
  6
CONTINUOUS
 62
     7
 10
787.9734420152
 20
1430.5270308353
 30
0.0
 40
2.499999999999891
 50
0.0
 51
78.4630409672
  0
LINE
  5
3D2
  8
0
  6
CONTINUOUS
 62
     7
 10
-202.3905001975
 20
1431.0270237031
 30
0.0
 11
-202.6265643931
 21
1431.0270237031
 31
0.0
  0
ARC
  5
3D3
  8
0
  6
CONTINUOUS
 62
     7
 10
-202.1265575457
 20
1430.5270308353
 30
0.0
 40
2.500000000000091
 50
90.0
 51
101.5369590328
  0
LINE
  5
3D4
  8
0
  6
CONTINUOUS
 62
     7
 10
-202.6265643931
 20
1431.0270237031
 30
0.0
 11
-202.6265643931
 21
1432.9765277209
 31
0.0
  0
ARC
  5
3D5
  8
0
  6
CONTINUOUS
 62
     7
 10
-202.1265575457
 20
1430.5270308353
 30
0.0
 40
2.500000000000057
 50
101.5369590328
 51
180.0000000001
  0
LINE
  5
3D6
  8
0
  6
CONTINUOUS
 62
     7
 10
-150.953509698
 20
1053.5985069575
 30
0.0
 11
-152.0739876128
 21
1053.3270376029
 31
0.0
  0
POLYLINE
  5
3D7
  8
0
  6
CONTINUOUS
 62
     7
 66
     1
 10
0.0
 20
0.0
 30
0.0
  0
VERTEX
  5
828
  8
0
  6
CONTINUOUS
 62
     7
 10
-152.0739876128
 20
1053.3270376029
 30
0.0
  0
VERTEX
  5
829
  8
0
  6
CONTINUOUS
 62
     7
 10
-152.2443376876
 20
1053.3301966491
 30
0.0
  0
VERTEX
  5
82A
  8
0
  6
CONTINUOUS
 62
     7
 10
-154.4700943328
 20
1053.907586843
 30
0.0
  0
SEQEND
  5
82B
  8
0
  6
CONTINUOUS
 62
     7
  0
LINE
  5
3D8
  8
0
  6
CONTINUOUS
 62
     7
 10
-154.4700943328
 20
1053.907586843
 30
0.0
 11
-154.4700943328
 21
1059.2464791837
 31
0.0
  0
LINE
  5
3D9
  8
0
  6
CONTINUOUS
 62
     7
 10
-153.9353214598
 20
1059.3852089944
 30
0.0
 11
-154.4700943328
 21
1059.2464791837
 31
0.0
  0
POLYLINE
  5
3DA
  8
0
  6
CONTINUOUS
 62
     7
 66
     1
 10
0.0
 20
0.0
 30
0.0
  0
VERTEX
  5
82C
  8
0
  6
CONTINUOUS
 62
     7
 10
-154.4700943328
 20
1053.907586843
 30
0.0
  0
VERTEX
  5
82D
  8
0
  6
CONTINUOUS
 62
     7
 10
-155.4049335814
 20
1053.6614345612
 30
0.0
  0
VERTEX
  5
82E
  8
0
  6
CONTINUOUS
 62
     7
 10
-158.1694566107
 20
1053.3270376029
 30
0.0
  0
SEQEND
  5
82F
  8
0
  6
CONTINUOUS
 62
     7
  0
POLYLINE
  5
3DB
  8
0
  6
CONTINUOUS
 62
     7
 66
     1
 10
0.0
 20
0.0
 30
0.0
  0
VERTEX
  5
830
  8
0
  6
CONTINUOUS
 62
     7
 10
-154.4700943328
 20
1059.2464791837
 30
0.0
  0
VERTEX
  5
831
  8
0
  6
CONTINUOUS
 62
     7
 10
-155.4049335814
 20
1059.4926314654
 30
0.0
  0
VERTEX
  5
832
  8
0
  6
CONTINUOUS
 62
     7
 10
-158.1694566107
 20
1059.8270284238
 30
0.0
  0
SEQEND
  5
833
  8
0
  6
CONTINUOUS
 62
     7
  0
LINE
  5
3DC
  8
0
  6
CONTINUOUS
 62
     7
 10
-158.1694566107
 20
1059.8270284238
 30
0.0
 11
-154.5128606654
 21
1059.8270284238
 31
0.0
  0
POLYLINE
  5
3DD
  8
0
  6
CONTINUOUS
 62
     7
 66
     1
 10
0.0
 20
0.0
 30
0.0
  0
VERTEX
  5
834
  8
0
  6
CONTINUOUS
 62
     7
 10
-158.1694566107
 20
1053.3270376029
 30
0.0
  0
VERTEX
  5
835
  8
0
  6
CONTINUOUS
 62
     7
 10
-159.1762088633
 20
1053.3730672898
 30
0.0
  0
VERTEX
  5
836
  8
0
  6
CONTINUOUS
 62
     7
 10
-161.8688188887
 20
1053.907586843
 30
0.0
  0
SEQEND
  5
837
  8
0
  6
CONTINUOUS
 62
     7
  0
LINE
  5
3DE
  8
0
  6
CONTINUOUS
 62
     7
 10
-161.8688188887
 20
1053.907586843
 30
0.0
 11
-161.8688188887
 21
1058.1391142907
 31
0.0
  0
POLYLINE
  5
3DF
  8
0
  6
CONTINUOUS
 62
     7
 66
     1
 10
0.0
 20
0.0
 30
0.0
  0
VERTEX
  5
838
  8
0
  6
CONTINUOUS
 62
     7
 10
-158.1694566107
 20
1059.8270284238
 30
0.0
  0
VERTEX
  5
839
  8
0
  6
CONTINUOUS
 62
     7
 10
-159.1762088633
 20
1059.7809987368
 30
0.0
  0
VERTEX
  5
83A
  8
0
  6
CONTINUOUS
 62
     7
 10
-160.0006603099
 20
1059.6173243823
 30
0.0
  0
SEQEND
  5
83B
  8
0
  6
CONTINUOUS
 62
     7
  0
LINE
  5
3E0
  8
0
  6
CONTINUOUS
 62
     7
 10
-161.8688188887
 20
1053.907586843
 30
0.0
 11
-163.1720446444
 21
1053.3270376029
 31
0.0
  0
LINE
  5
3E1
  8
0
  6
CONTINUOUS
 62
     7
 10
-159.6402608252
 20
1059.8270284238
 30
0.0
 11
-158.1694566107
 21
1059.8270284238
 31
0.0
  0
LINE
  5
3E2
  8
0
  6
CONTINUOUS
 62
     7
 10
745.6167555951
 20
1053.907586843
 30
0.0
 11
741.9098831319
 21
1053.3270376029
 31
0.0
  0
POLYLINE
  5
3E3
  8
0
  6
CONTINUOUS
 62
     7
 66
     1
 10
0.0
 20
0.0
 30
0.0
  0
VERTEX
  5
83C
  8
0
  6
CONTINUOUS
 62
     7
 10
741.9098831319
 20
1053.3270376029
 30
0.0
  0
VERTEX
  5
83D
  8
0
  6
CONTINUOUS
 62
     7
 10
741.646341195
 20
1053.3301966491
 30
0.0
  0
VERTEX
  5
83E
  8
0
  6
CONTINUOUS
 62
     7
 10
738.2030106687
 20
1053.907586843
 30
0.0
  0
SEQEND
  5
83F
  8
0
  6
CONTINUOUS
 62
     7
  0
LINE
  5
3E4
  8
0
  6
CONTINUOUS
 62
     7
 10
738.2030106687
 20
1053.907586843
 30
0.0
 11
738.2030106687
 21
1058.2233803573
 31
0.0
  0
POLYLINE
  5
3E5
  8
0
  6
CONTINUOUS
 62
     7
 66
     1
 10
0.0
 20
0.0
 30
0.0
  0
VERTEX
  5
840
  8
0
  6
CONTINUOUS
 62
     7
 10
741.9098831319
 20
1059.8270284238
 30
0.0
  0
VERTEX
  5
841
  8
0
  6
CONTINUOUS
 62
     7
 10
741.646341195
 20
1059.8238693776
 30
0.0
  0
VERTEX
  5
842
  8
0
  6
CONTINUOUS
 62
     7
 10
739.9976767206
 20
1059.547408134
 30
0.0
  0
SEQEND
  5
843
  8
0
  6
CONTINUOUS
 62
     7
  0
LINE
  5
3E6
  8
0
  6
CONTINUOUS
 62
     7
 10
745.6167555951
 20
1059.2464791837
 30
0.0
 11
741.9098831319
 21
1059.8270284238
 31
0.0
  0
LINE
  5
3E7
  8
0
  6
CONTINUOUS
 62
     7
 10
745.6167555951
 20
1053.907586843
 30
0.0
 11
745.6167555951
 21
1059.2464791837
 31
0.0
  0
POLYLINE
  5
3E8
  8
0
  6
CONTINUOUS
 62
     7
 66
     1
 10
0.0
 20
0.0
 30
0.0
  0
VERTEX
  5
844
  8
0
  6
CONTINUOUS
 62
     7
 10
747.976980319
 20
1053.3270376029
 30
0.0
  0
VERTEX
  5
845
  8
0
  6
CONTINUOUS
 62
     7
 10
747.3346806669
 20
1053.3730672898
 30
0.0
  0
VERTEX
  5
846
  8
0
  6
CONTINUOUS
 62
     7
 10
745.6167555951
 20
1053.907586843
 30
0.0
  0
SEQEND
  5
847
  8
0
  6
CONTINUOUS
 62
     7
  0
LINE
  5
3E9
  8
0
  6
CONTINUOUS
 62
     7
 10
746.0815526151
 20
1059.391094953
 30
0.0
 11
745.6167555951
 21
1059.2464791837
 31
0.0
  0
LINE
  5
3EA
  8
0
  6
CONTINUOUS
 62
     7
 10
741.9098831319
 20
1059.8270284238
 30
0.0
 11
745.4871452951
 21
1059.8270284238
 31
0.0
  0
LINE
  5
3EB
  8
0
  6
CONTINUOUS
 62
     7
 10
740.3597451352
 20
1059.8270284238
 30
0.0
 11
741.9098831319
 21
1059.8270284238
 31
0.0
  0
LINE
  5
3EC
  8
0
  6
CONTINUOUS
 62
     7
 10
738.2030106687
 20
1053.907586843
 30
0.0
 11
736.8563629293
 21
1053.3270376029
 31
0.0
  0
LINE
  5
3ED
  8
0
  6
CONTINUOUS
 62
     7
 10
749.0188695096
 20
1053.5245673957
 30
0.0
 11
747.976980319
 21
1053.3270376029
 31
0.0
  0
LINE
  5
3EE
  8
0
  6
CONTINUOUS
 62
     7
 10
749.1220451497
 20
1053.3270376029
 30
0.0
 11
736.7248452806
 21
1053.3270376029
 31
0.0
  0
LINE
  5
3EF
  8
0
  6
CONTINUOUS
 62
     7
 10
747.8438831472
 20
1051.7270254197
 30
0.0
 11
738.1734467649
 21
1051.7270254197
 31
0.0
  0
LINE
  5
3F0
  8
0
  6
CONTINUOUS
 62
     7
 10
-161.0765539504
 20
1049.2270278039
 30
0.0
 11
-153.0765675402
 21
1049.2270278039
 31
0.0
  0
LINE
  5
3F1
  8
0
  6
CONTINUOUS
 62
     7
 10
-161.9969986773
 20
1051.7270254197
 30
0.0
 11
-152.326562295
 21
1051.7270254197
 31
0.0
  0
LINE
  5
3F2
  8
0
  6
CONTINUOUS
 62
     7
 10
-163.2751606799
 20
1053.3270376029
 30
0.0
 11
-150.8779608107
 21
1053.3270376029
 31
0.0
  0
LINE
  5
3F3
  8
0
  6
CONTINUOUS
 62
     7
 10
738.9234520101
 20
1049.2270278039
 30
0.0
 11
746.9234384202
 21
1049.2270278039
 31
0.0
  0
LINE
  5
3F4
  8
0
  6
CONTINUOUS
 62
     7
 10
773.4240509176
 20
1419.5270376506
 30
0.0
 11
773.1539822721
 21
1417.605383903
 31
0.0
  0
ARC
  5
3F5
  8
0
  6
CONTINUOUS
 62
     7
 10
775.1345145666
 20
1417.3270312609
 30
0.0
 40
2.000000082123506
 50
172.0000011903
 51
269.9999999999
  0
LINE
  5
3F6
  8
0
  6
CONTINUOUS
 62
     7
 10
775.1345254087
 20
1415.3270261588
 30
0.0
 11
784.1734505796
 21
1415.3270261588
 31
0.0
  0
ARC
  5
3F7
  8
0
  6
CONTINUOUS
 62
     7
 10
775.1345145666
 20
1417.3270312609
 30
0.0
 40
4.0
 50
172.0000011904
 51
270.0000000001
  0
LINE
  5
3F8
  8
0
  6
CONTINUOUS
 62
     7
 10
771.1734391355
 20
1417.883722693
 30
0.0
 11
771.404407134
 21
1419.5270376506
 31
0.0
  0
LINE
  5
3F9
  8
0
  6
CONTINUOUS
 62
     7
 10
784.1734505796
 20
1415.3270261588
 30
0.0
 11
784.1734505796
 21
1413.3270370068
 31
0.0
  0
LINE
  5
3FA
  8
0
  6
CONTINUOUS
 62
     7
 10
-185.3265546656
 20
1417.883722693
 30
0.0
 11
-185.5575226641
 21
1419.5270376506
 31
0.0
  0
ARC
  5
3FB
  8
0
  6
CONTINUOUS
 62
     7
 10
-189.2876300968
 20
1417.327031261
 30
0.0
 40
4.000000000000227
 50
269.9999999999
 51
7.9999988096
  0
LINE
  5
3FC
  8
0
  6
CONTINUOUS
 62
     7
 10
-198.3265661097
 20
1415.3270261588
 30
0.0
 11
-198.3265661097
 21
1413.3270370068
 31
0.0
  0
LINE
  5
3FD
  8
0
  6
CONTINUOUS
 62
     7
 10
-189.2876409388
 20
1415.3270261588
 30
0.0
 11
-198.3265661097
 21
1415.3270261588
 31
0.0
  0
ARC
  5
3FE
  8
0
  6
CONTINUOUS
 62
     7
 10
-189.2876300968
 20
1417.327031261
 30
0.0
 40
2.000000082123506
 50
269.9999999998
 51
7.9999988096
  0
LINE
  5
3FF
  8
0
  6
CONTINUOUS
 62
     7
 10
-187.5771664477
 20
1419.5270376506
 30
0.0
 11
-187.3070978022
 21
1417.605383903
 31
0.0
  0
LINE
  5
400
  8
0
  6
CONTINUOUS
 62
     7
 10
777.7011908197
 20
1415.5470269027
 30
0.0
 11
776.6734279298
 21
1415.5470269027
 31
0.0
  0
LINE
  5
401
  8
0
  6
CONTINUOUS
 62
     7
 10
781.6734529638
 20
1415.5470269027
 30
0.0
 11
777.7011908197
 21
1415.5470269027
 31
0.0
  0
LINE
  5
402
  8
0
  6
CONTINUOUS
 62
     7
 10
777.9367483758
 20
1415.9470336738
 30
0.0
 11
781.2734461927
 21
1415.9470336738
 31
0.0
  0
LINE
  5
403
  8
0
  6
CONTINUOUS
 62
     7
 10
777.0734347009
 20
1415.9470336738
 30
0.0
 11
777.9367483758
 21
1415.9470336738
 31
0.0
  0
LINE
  5
404
  8
0
  6
CONTINUOUS
 62
     7
 10
-193.0230640269
 20
1415.5470269027
 30
0.0
 11
-195.8265684939
 21
1415.5470269027
 31
0.0
  0
LINE
  5
405
  8
0
  6
CONTINUOUS
 62
     7
 10
-190.82654346
 20
1415.5470269027
 30
0.0
 11
-193.0230640269
 21
1415.5470269027
 31
0.0
  0
LINE
  5
406
  8
0
  6
CONTINUOUS
 62
     7
 10
-193.0716120101
 20
1415.9470336738
 30
0.0
 11
-191.226550231
 21
1415.9470336738
 31
0.0
  0
LINE
  5
407
  8
0
  6
CONTINUOUS
 62
     7
 10
-195.4265617228
 20
1415.9470336738
 30
0.0
 11
-193.0716120101
 21
1415.9470336738
 31
0.0
  0
ARC
  5
408
  8
0
  6
CONTINUOUS
 62
     7
 10
-205.3953194671
 20
1411.5177131315
 30
0.0
 40
2.381165982238282
 50
225.0850199386
 51
267.9931311632
  0
POLYLINE
  5
409
  8
0
  6
CONTINUOUS
 62
     7
 66
     1
 10
0.0
 20
0.0
 30
0.0
  0
VERTEX
  5
848
  8
0
  6
CONTINUOUS
 62
     7
 10
-205.4787062503
 20
1409.1380076709
 30
0.0
  0
VERTEX
  5
849
  8
0
  6
CONTINUOUS
 62
     7
 10
-204.7988854743
 20
1408.6752968135
 30
0.0
  0
VERTEX
  5
84A
  8
0
  6
CONTINUOUS
 62
     7
 10
-204.0765665866
 20
1408.2125710549
 30
0.0
  0
SEQEND
  5
84B
  8
0
  6
CONTINUOUS
 62
     7
  0
ARC
  5
40A
  8
0
  6
CONTINUOUS
 62
     7
 10
-203.7595778403
 20
1032.8890046072
 30
0.0
 40
5.74677169875473
 50
93.1620083073
 51
125.2531533161
  0
LINE
  5
40B
  8
0
  6
CONTINUOUS
 62
     7
 10
-207.0765577651
 20
1409.8314779105
 30
0.0
 11
-207.0765577651
 21
1037.581874639
 31
0.0
  0
CIRCLE
  5
40C
  8
0
  6
CONTINUOUS
 62
     7
 10
-162.0765577651
 20
1078.727031261
 30
0.0
 40
6.250000000705768
  0
CIRCLE
  5
40D
  8
0
  6
CONTINUOUS
 62
     7
 10
-187.0765577651
 20
1083.727031261
 30
0.0
 40
6.250000000705995
  0
CIRCLE
  5
40E
  8
0
  6
CONTINUOUS
 62
     7
 10
-187.0765577651
 20
1363.727031261
 30
0.0
 40
6.249999999999773
  0
CIRCLE
  5
40F
  8
0
  6
CONTINUOUS
 62
     7
 10
-162.0765577651
 20
1368.727031261
 30
0.0
 40
6.250000000000227
  0
LINE
  5
410
  8
0
  6
CONTINUOUS
 62
     7
 10
-100.0765644408
 20
1380.6270348134
 30
0.0
 11
-176.390268693
 21
1380.6270348134
 31
0.0
  0
LINE
  5
411
  8
0
  6
CONTINUOUS
 62
     7
 10
-100.0765644408
 20
1348.2270302477
 30
0.0
 11
-100.0765644408
 21
1380.6270348134
 31
0.0
  0
LINE
  5
412
  8
0
  6
CONTINUOUS
 62
     7
 10
-101.0765515662
 20
1348.2270302477
 30
0.0
 11
-100.0765644408
 21
1348.2270302477
 31
0.0
  0
LINE
  5
413
  8
0
  6
CONTINUOUS
 62
     7
 10
-99.5765708781
 20
1099.2270322742
 30
0.0
 11
-101.0765515662
 21
1099.2270322742
 31
0.0
  0
LINE
  5
414
  8
0
  6
CONTINUOUS
 62
     7
 10
-99.5765708781
 20
1066.3270341458
 30
0.0
 11
-99.5765708781
 21
1099.2270322742
 31
0.0
  0
LINE
  5
415
  8
0
  6
CONTINUOUS
 62
     7
 10
-176.3765596247
 20
1066.3270341458
 30
0.0
 11
-99.5765708781
 21
1066.3270341458
 31
0.0
  0
LINE
  5
416
  8
0
  6
CONTINUOUS
 62
     7
 10
-204.0765665866
 20
1038.627027184
 30
0.0
 11
-176.3765596247
 21
1066.3270341458
 31
0.0
  0
LINE
  5
417
  8
0
  6
CONTINUOUS
 62
     7
 10
-176.390268693
 20
1380.6270348134
 30
0.0
 11
-204.0765665866
 21
1408.2125710549
 31
0.0
  0
ARC
  5
418
  8
0
  6
CONTINUOUS
 62
     7
 10
-203.5814577688
 20
1036.3175110944
 30
0.0
 40
2.361990116280249
 50
102.099797662
 51
147.6360214653
  0
LINE
  5
419
  8
0
  6
CONTINUOUS
 62
     7
 10
-207.0765577651
 20
1037.581874639
 30
0.0
 11
-205.5765472747
 21
1037.581874639
 31
0.0
  0
LINE
  5
41A
  8
0
  6
CONTINUOUS
 62
     7
 10
-204.7776364184
 20
1409.1380076709
 30
0.0
 11
-204.0765665866
 21
1408.2125710549
 31
0.0
  0
LINE
  5
41B
  8
0
  6
CONTINUOUS
 62
     7
 10
-205.4787062503
 20
1409.1380076709
 30
0.0
 11
-204.7776364184
 21
1409.1380076709
 31
0.0
  0
LINE
  5
41C
  8
0
  6
CONTINUOUS
 62
     7
 10
-100.0765644408
 20
1348.2270302477
 30
0.0
 11
-98.0765603877
 21
1348.2270302477
 31
0.0
  0
LINE
  5
41D
  8
0
  6
CONTINUOUS
 62
     7
 10
-98.0765603877
 20
1099.2270322742
 30
0.0
 11
-98.0765603877
 21
1348.2270302477
 31
0.0
  0
LINE
  5
41E
  8
0
  6
CONTINUOUS
 62
     7
 10
-98.0765603877
 20
1099.2270322742
 30
0.0
 11
-99.5765708781
 21
1099.2270322742
 31
0.0
  0
LINE
  5
41F
  8
0
  6
CONTINUOUS
 62
     7
 10
-207.0765577651
 20
1409.8314779105
 30
0.0
 11
-205.5765472747
 21
1409.8314779105
 31
0.0
  0
ARC
  5
420
  8
0
  6
CONTINUOUS
 62
     7
 10
-204.4898385546
 20
1410.276491426
 30
0.0
 40
1.174296756001204
 50
202.2693838729
 51
255.8133773356
  0
ARC
  5
421
  8
0
  6
CONTINUOUS
 62
     7
 10
-204.1980999321
 20
1037.0506796608
 30
0.0
 40
1.380560282638008
 50
176.8296373676
 51
252.5892712895
  0
LINE
  5
422
  8
0
  6
CONTINUOUS
 62
     7
 10
-204.0765665866
 20
1034.1270255151
 30
0.0
 11
-204.0765665866
 21
1034.5718400779
 31
0.0
  0
LINE
  5
423
  8
0
  6
CONTINUOUS
 62
     7
 10
-207.0765577651
 20
1037.1270315947
 30
0.0
 11
-205.5765472747
 21
1037.1270315947
 31
0.0
  0
ARC
  5
424
  8
0
  6
CONTINUOUS
 62
     7
 10
-204.0765281288
 20
1037.1270551512
 30
0.0
 40
3.000029636413415
 50
180.0004498914
 51
269.9992655172
  0
LINE
  5
425
  8
0
  6
CONTINUOUS
 62
     7
 10
-207.0765577651
 20
1037.581874639
 30
0.0
 11
-207.0765577651
 21
1037.1270315947
 31
0.0
  0
LINE
  5
426
  8
0
  6
CONTINUOUS
 62
     7
 10
-205.5765472747
 20
1037.581874639
 30
0.0
 11
-205.5765472747
 21
1037.1270315947
 31
0.0
  0
LINE
  5
427
  8
0
  6
CONTINUOUS
 62
     7
 10
-207.0765577651
 20
1410.3270309272
 30
0.0
 11
-205.5765472747
 21
1410.3270309272
 31
0.0
  0
LINE
  5
428
  8
0
  6
CONTINUOUS
 62
     7
 10
-207.0765577651
 20
1410.3270309272
 30
0.0
 11
-207.0765577651
 21
1409.8314779105
 31
0.0
  0
LINE
  5
429
  8
0
  6
CONTINUOUS
 62
     7
 10
-205.5765472747
 20
1409.8314779105
 30
0.0
 11
-205.5765472747
 21
1410.3270309272
 31
0.0
  0
POLYLINE
  5
42A
  8
0
  6
CONTINUOUS
 62
     7
 66
     1
 10
0.0
 20
0.0
 30
0.0
  0
VERTEX
  5
84C
  8
0
  6
CONTINUOUS
 62
     7
 10
-205.3112768031
 20
1411.178781301
 30
0.0
  0
VERTEX
  5
84D
  8
0
  6
CONTINUOUS
 62
     7
 10
-205.5086873866
 20
1410.7730822863
 30
0.0
  0
VERTEX
  5
84E
  8
0
  6
CONTINUOUS
 62
     7
 10
-205.5765472747
 20
1410.3270309272
 30
0.0
  0
SEQEND
  5
84F
  8
0
  6
CONTINUOUS
 62
     7
  0
LINE
  5
42B
  8
0
  6
CONTINUOUS
 62
     7
 10
-206.5459870196
 20
1412.0305316748
 30
0.0
 11
-205.3112768031
 21
1411.178781301
 31
0.0
  0
POLYLINE
  5
42C
  8
0
  6
CONTINUOUS
 62
     7
 66
     1
 10
0.0
 20
0.0
 30
0.0
  0
VERTEX
  5
850
  8
0
  6
CONTINUOUS
 62
     7
 10
-206.5459870196
 20
1412.0305316748
 30
0.0
  0
VERTEX
  5
851
  8
0
  6
CONTINUOUS
 62
     7
 10
-206.9408379889
 20
1411.2191336455
 30
0.0
  0
VERTEX
  5
852
  8
0
  6
CONTINUOUS
 62
     7
 10
-207.0765577651
 20
1410.3270309272
 30
0.0
  0
SEQEND
  5
853
  8
0
  6
CONTINUOUS
 62
     7
  0
LINE
  5
42D
  8
0
  6
CONTINUOUS
 62
     7
 10
-203.5765432215
 20
1034.1270255151
 30
0.0
 11
-204.0765665866
 21
1034.1270255151
 31
0.0
  0
LINE
  5
42E
  8
0
  6
CONTINUOUS
 62
     7
 10
-205.076553712
 20
1411.3868164124
 30
0.0
 11
-205.3112768031
 21
1411.178781301
 31
0.0
  0
ARC
  5
42F
  8
0
  6
CONTINUOUS
 62
     7
 10
-204.2820904276
 20
1410.5432927959
 30
0.0
 40
2.708709519687913
 50
107.0555989468
 51
146.6975819278
  0
LINE
  5
430
  8
0
  6
CONTINUOUS
 62
     7
 10
-98.0765603877
 20
1348.2270302477
 30
0.0
 11
-96.5765498973
 21
1348.2270302477
 31
0.0
  0
LINE
  5
431
  8
0
  6
CONTINUOUS
 62
     7
 10
-96.5765498973
 20
1099.2270322742
 30
0.0
 11
-98.0765603877
 21
1099.2270322742
 31
0.0
  0
LINE
  5
432
  8
0
  6
CONTINUOUS
 62
     7
 10
-83.5765682555
 20
1348.2270302477
 30
0.0
 11
-83.5765682555
 21
1099.2270322742
 31
0.0
  0
LINE
  5
433
  8
0
  6
CONTINUOUS
 62
     7
 10
-96.5765498973
 20
1348.2270302477
 30
0.0
 11
-83.5765682555
 21
1348.2270302477
 31
0.0
  0
CIRCLE
  5
434
  8
0
  6
CONTINUOUS
 62
     7
 10
-90.0765577651
 20
1223.727031261
 30
0.0
 40
2.099999999999909
  0
CIRCLE
  5
435
  8
0
  6
CONTINUOUS
 62
     7
 10
-90.0765577651
 20
1328.727031261
 30
0.0
 40
2.099999999999909
  0
CIRCLE
  5
436
  8
0
  6
CONTINUOUS
 62
     7
 10
-90.0765577651
 20
1118.727031261
 30
0.0
 40
2.099999999999909
  0
LINE
  5
437
  8
0
  6
CONTINUOUS
 62
     7
 10
-83.5765682555
 20
1099.2270322742
 30
0.0
 11
-96.5765498973
 21
1099.2270322742
 31
0.0
  0
ARC
  5
438
  8
0
  6
CONTINUOUS
 62
     7
 10
-186.0765516993
 20
1414.8270345792
 30
0.0
 40
1.499997572389269
 50
269.9996863432
 51
8.0001531964
  0
LINE
  5
439
  8
0
  6
CONTINUOUS
 62
     7
 10
-194.076546321
 20
1398.2489543261
 30
0.0
 11
-194.076546321
 21
1398.8270299735
 31
0.0
  0
LINE
  5
43A
  8
0
  6
CONTINUOUS
 62
     7
 10
-193.5765527583
 20
1397.7507787051
 30
0.0
 11
-193.5765527583
 21
1398.3270364108
 31
0.0
  0
LINE
  5
43B
  8
0
  6
CONTINUOUS
 62
     7
 10
779.9234307908
 20
1398.8270299735
 30
0.0
 11
779.9234307908
 21
1398.1199251714
 31
0.0
  0
LINE
  5
43C
  8
0
  6
CONTINUOUS
 62
     7
 10
779.4234372281
 20
1398.3270364108
 30
0.0
 11
779.4234372281
 21
1397.6199316087
 31
0.0
  0
ARC
  5
43D
  8
0
  6
CONTINUOUS
 62
     7
 10
789.6064623101
 20
1032.8890046072
 30
0.0
 40
5.74677169875473
 50
54.7468466839
 51
86.8379916927
  0
POLYLINE
  5
43E
  8
0
  6
CONTINUOUS
 62
     7
 66
     1
 10
0.0
 20
0.0
 30
0.0
  0
VERTEX
  5
854
  8
0
  6
CONTINUOUS
 62
     7
 10
791.508338561
 20
1409.182949573
 30
0.0
  0
VERTEX
  5
855
  8
0
  6
CONTINUOUS
 62
     7
 10
790.7476044797
 20
1408.6514400544
 30
0.0
  0
VERTEX
  5
856
  8
0
  6
CONTINUOUS
 62
     7
 10
789.9234510564
 20
1408.1199305358
 30
0.0
  0
SEQEND
  5
857
  8
0
  6
CONTINUOUS
 62
     7
  0
ARC
  5
43F
  8
0
  6
CONTINUOUS
 62
     7
 10
791.4304816812
 20
1411.2209935358
 30
0.0
 40
2.039530555812248
 50
272.1877361682
 51
317.0553215136
  0
LINE
  5
440
  8
0
  6
CONTINUOUS
 62
     7
 10
792.9234422349
 20
1409.8314779105
 30
0.0
 11
792.9234422349
 21
1037.581874639
 31
0.0
  0
LINE
  5
441
  8
0
  6
CONTINUOUS
 62
     7
 10
791.4234317445
 20
1037.581874639
 30
0.0
 11
792.9234422349
 21
1037.581874639
 31
0.0
  0
ARC
  5
442
  8
0
  6
CONTINUOUS
 62
     7
 10
789.4283422386
 20
1036.3175110944
 30
0.0
 40
2.361990116280243
 50
32.3639785347
 51
77.900202338
  0
CIRCLE
  5
443
  8
0
  6
CONTINUOUS
 62
     7
 10
772.9234422349
 20
1083.727031261
 30
0.0
 40
6.249999999999886
  0
CIRCLE
  5
444
  8
0
  6
CONTINUOUS
 62
     7
 10
747.9234422349
 20
1078.727031261
 30
0.0
 40
6.25
  0
CIRCLE
  5
445
  8
0
  6
CONTINUOUS
 62
     7
 10
747.9234422349
 20
1368.727031261
 30
0.0
 40
6.249999999999886
  0
CIRCLE
  5
446
  8
0
  6
CONTINUOUS
 62
     7
 10
772.9234422349
 20
1363.727031261
 30
0.0
 40
6.25
  0
LINE
  5
447
  8
0
  6
CONTINUOUS
 62
     7
 10
762.4305404329
 20
1380.6270348134
 30
0.0
 11
685.9234489106
 21
1380.6270348134
 31
0.0
  0
LINE
  5
448
  8
0
  6
CONTINUOUS
 62
     7
 10
789.9234510564
 20
1408.1199305358
 30
0.0
 11
762.4305404329
 21
1380.6270348134
 31
0.0
  0
LINE
  5
449
  8
0
  6
CONTINUOUS
 62
     7
 10
685.4234553479
 20
1066.3270341458
 30
0.0
 11
762.2234440946
 21
1066.3270341458
 31
0.0
  0
LINE
  5
44A
  8
0
  6
CONTINUOUS
 62
     7
 10
685.4234553479
 20
1099.2270322742
 30
0.0
 11
685.4234553479
 21
1066.3270341458
 31
0.0
  0
LINE
  5
44B
  8
0
  6
CONTINUOUS
 62
     7
 10
686.923436036
 20
1099.2270322742
 30
0.0
 11
685.4234553479
 21
1099.2270322742
 31
0.0
  0
LINE
  5
44C
  8
0
  6
CONTINUOUS
 62
     7
 10
685.9234489106
 20
1348.2270302477
 30
0.0
 11
686.923436036
 21
1348.2270302477
 31
0.0
  0
LINE
  5
44D
  8
0
  6
CONTINUOUS
 62
     7
 10
685.9234489106
 20
1380.6270348134
 30
0.0
 11
685.9234489106
 21
1348.2270302477
 31
0.0
  0
LINE
  5
44E
  8
0
  6
CONTINUOUS
 62
     7
 10
762.2234440946
 20
1066.3270341458
 30
0.0
 11
789.9234510564
 21
1038.627027184
 31
0.0
  0
LINE
  5
44F
  8
0
  6
CONTINUOUS
 62
     7
 10
790.7158948087
 20
1409.182949573
 30
0.0
 11
789.9234510564
 21
1408.1199305358
 31
0.0
  0
LINE
  5
450
  8
0
  6
CONTINUOUS
 62
     7
 10
790.7158948087
 20
1409.182949573
 30
0.0
 11
791.508338561
 21
1409.182949573
 31
0.0
  0
LINE
  5
451
  8
0
  6
CONTINUOUS
 62
     7
 10
683.9234448575
 20
1099.2270322742
 30
0.0
 11
685.4234553479
 21
1099.2270322742
 31
0.0
  0
LINE
  5
452
  8
0
  6
CONTINUOUS
 62
     7
 10
683.9234448575
 20
1099.2270322742
 30
0.0
 11
683.9234448575
 21
1348.2270302477
 31
0.0
  0
LINE
  5
453
  8
0
  6
CONTINUOUS
 62
     7
 10
685.9234489106
 20
1348.2270302477
 30
0.0
 11
683.9234448575
 21
1348.2270302477
 31
0.0
  0
LINE
  5
454
  8
0
  6
CONTINUOUS
 62
     7
 10
791.4234317445
 20
1409.8314779105
 30
0.0
 11
792.9234422349
 21
1409.8314779105
 31
0.0
  0
ARC
  5
455
  8
0
  6
CONTINUOUS
 62
     7
 10
790.4367548182
 20
1410.1977095697
 30
0.0
 40
1.052452842227459
 50
285.3805026161
 51
339.6362385869
  0
LINE
  5
456
  8
0
  6
CONTINUOUS
 62
     7
 10
789.9234510564
 20
1034.5718400779
 30
0.0
 11
789.9234510564
 21
1034.1270255151
 31
0.0
  0
ARC
  5
457
  8
0
  6
CONTINUOUS
 62
     7
 10
790.044984402
 20
1037.0506796608
 30
0.0
 40
1.380560282637894
 50
287.4107287105
 51
3.1703626324
  0
LINE
  5
458
  8
0
  6
CONTINUOUS
 62
     7
 10
791.4234317445
 20
1037.1270315947
 30
0.0
 11
792.9234422349
 21
1037.1270315947
 31
0.0
  0
ARC
  5
459
  8
0
  6
CONTINUOUS
 62
     7
 10
789.9234125986
 20
1037.1270551512
 30
0.0
 40
3.00002963641333
 50
270.0007344828
 51
359.9995501086
  0
LINE
  5
45A
  8
0
  6
CONTINUOUS
 62
     7
 10
792.9234422349
 20
1037.581874639
 30
0.0
 11
792.9234422349
 21
1037.1270315947
 31
0.0
  0
LINE
  5
45B
  8
0
  6
CONTINUOUS
 62
     7
 10
791.4234317445
 20
1037.581874639
 30
0.0
 11
791.4234317445
 21
1037.1270315947
 31
0.0
  0
LINE
  5
45C
  8
0
  6
CONTINUOUS
 62
     7
 10
791.4234317445
 20
1410.3270309272
 30
0.0
 11
792.9234422349
 21
1410.3270309272
 31
0.0
  0
LINE
  5
45D
  8
0
  6
CONTINUOUS
 62
     7
 10
791.4234317445
 20
1410.3270309272
 30
0.0
 11
791.4234317445
 21
1409.8314779105
 31
0.0
  0
LINE
  5
45E
  8
0
  6
CONTINUOUS
 62
     7
 10
792.9234422349
 20
1409.8314779105
 30
0.0
 11
792.9234422349
 21
1410.3270309272
 31
0.0
  0
LINE
  5
45F
  8
0
  6
CONTINUOUS
 62
     7
 10
791.209749093
 20
1411.0986428561
 30
0.0
 11
792.4960769319
 21
1411.870254785
 31
0.0
  0
POLYLINE
  5
460
  8
0
  6
CONTINUOUS
 62
     7
 66
     1
 10
0.0
 20
0.0
 30
0.0
  0
VERTEX
  5
858
  8
0
  6
CONTINUOUS
 62
     7
 10
792.4960769319
 20
1411.870254785
 30
0.0
  0
VERTEX
  5
859
  8
0
  6
CONTINUOUS
 62
     7
 10
792.8146339559
 20
1411.1276852193
 30
0.0
  0
VERTEX
  5
85A
  8
0
  6
CONTINUOUS
 62
     7
 10
792.9234422349
 20
1410.3270309272
 30
0.0
  0
SEQEND
  5
85B
  8
0
  6
CONTINUOUS
 62
     7
  0
POLYLINE
  5
461
  8
0
  6
CONTINUOUS
 62
     7
 66
     1
 10
0.0
 20
0.0
 30
0.0
  0
VERTEX
  5
85C
  8
0
  6
CONTINUOUS
 62
     7
 10
791.209749093
 20
1411.0986428561
 30
0.0
  0
VERTEX
  5
85D
  8
0
  6
CONTINUOUS
 62
     7
 10
791.3690425062
 20
1410.7273506226
 30
0.0
  0
VERTEX
  5
85E
  8
0
  6
CONTINUOUS
 62
     7
 10
791.4234317445
 20
1410.3270309272
 30
0.0
  0
SEQEND
  5
85F
  8
0
  6
CONTINUOUS
 62
     7
  0
LINE
  5
462
  8
0
  6
CONTINUOUS
 62
     7
 10
789.4234276914
 20
1034.1270255151
 30
0.0
 11
789.9234510564
 21
1034.1270255151
 31
0.0
  0
ARC
  5
463
  8
0
  6
CONTINUOUS
 62
     7
 10
790.0983461639
 20
1410.4929675528
 30
0.0
 40
2.765146100241752
 50
29.8736107904
 51
72.6390699858
  0
LINE
  5
464
  8
0
  6
CONTINUOUS
 62
     7
 10
790.9234381818
 20
1411.3778757157
 30
0.0
 11
791.209749093
 21
1411.0986428561
 31
0.0
  0
LINE
  5
465
  8
0
  6
CONTINUOUS
 62
     7
 10
683.9234448575
 20
1348.2270302477
 30
0.0
 11
682.4234343671
 21
1348.2270302477
 31
0.0
  0
LINE
  5
466
  8
0
  6
CONTINUOUS
 62
     7
 10
682.4234343671
 20
1099.2270322742
 30
0.0
 11
683.9234448575
 21
1099.2270322742
 31
0.0
  0
LINE
  5
467
  8
0
  6
CONTINUOUS
 62
     7
 10
682.4234343671
 20
1348.2270302477
 30
0.0
 11
669.4234527253
 21
1348.2270302477
 31
0.0
  0
CIRCLE
  5
468
  8
0
  6
CONTINUOUS
 62
     7
 10
675.9234422349
 20
1118.727031261
 30
0.0
 40
2.099999999999909
  0
CIRCLE
  5
469
  8
0
  6
CONTINUOUS
 62
     7
 10
675.9234422349
 20
1223.727031261
 30
0.0
 40
2.099999999999909
  0
CIRCLE
  5
46A
  8
0
  6
CONTINUOUS
 62
     7
 10
675.9234422349
 20
1328.727031261
 30
0.0
 40
2.100000000000136
  0
LINE
  5
46B
  8
0
  6
CONTINUOUS
 62
     7
 10
669.4234527253
 20
1348.2270302477
 30
0.0
 11
669.4234527253
 21
1099.2270322742
 31
0.0
  0
LINE
  5
46C
  8
0
  6
CONTINUOUS
 62
     7
 10
669.4234527253
 20
1099.2270322742
 30
0.0
 11
682.4234343671
 21
1099.2270322742
 31
0.0
  0
ARC
  5
46D
  8
0
  6
CONTINUOUS
 62
     7
 10
771.9234361692
 20
1414.8270345792
 30
0.0
 40
1.499997572389297
 50
171.9998468036
 51
270.0003136568
  0
LINE
  5
46E
  8
0
  6
CONTINUOUS
 62
     7
 10
287.2540887051
 20
-975.0610423992
 30
0.0
 11
293.5918413291
 21
-975.0610423992
 31
0.0
  0
LINE
  5
46F
  8
0
  6
CONTINUOUS
 62
     7
 10
295.2112976068
 20
-975.0610423992
 30
0.0
 11
297.7789311276
 21
-975.0610423992
 31
0.0
  0
ARC
  5
470
  8
0
  6
CONTINUOUS
 62
     7
 10
362.2781214465
 20
-986.2624175458
 30
0.0
 40
0.6802274156953222
 50
304.7657630676
 51
10.2851606778
  0
LINE
  5
471
  8
0
  6
CONTINUOUS
 62
     7
 10
348.8106570744
 20
-988.6753393123
 30
0.0
 11
349.4734420978
 21
-988.6824769685
 31
0.0
  0
ARC
  5
472
  8
0
  6
CONTINUOUS
 62
     7
 10
348.1406315859
 20
-947.4287874838
 30
0.0
 40
41.25199355060912
 50
254.3923533809
 51
270.9306537087
  0
ARC
  5
473
  8
0
  6
CONTINUOUS
 62
     7
 10
350.734899142
 20
-946.731547409
 30
0.0
 40
41.94804352796911
 50
269.1828107459
 51
285.4539271365
  0
LINE
  5
474
  8
0
  6
CONTINUOUS
 62
     7
 10
349.4734420978
 20
-988.6824769685
 30
0.0
 11
350.1366294526
 21
-988.6753244111
 31
0.0
  0
LINE
  5
475
  8
0
  6
CONTINUOUS
 62
     7
 10
362.9734433793
 20
-986.1664009998
 30
0.0
 11
362.9734433793
 21
-985.7617748687
 31
0.0
  0
LINE
  5
476
  8
0
  6
CONTINUOUS
 62
     7
 10
335.9734408163
 20
-985.763190479
 30
0.0
 11
335.9734408163
 21
-986.1664009998
 31
0.0
  0
ARC
  5
477
  8
0
  6
CONTINUOUS
 62
     7
 10
311.7098176806
 20
-975.2610424264
 30
0.0
 40
55.00000000002021
 50
348.2773094145
 51
357.9136198395
  0
ARC
  5
478
  8
0
  6
CONTINUOUS
 62
     7
 10
387.2370663499
 20
-975.2610424264
 30
0.0
 40
55.00000000001661
 50
182.0863170139
 51
191.7226905856
  0
POLYLINE
  5
479
  8
0
  6
CONTINUOUS
 62
     7
 66
     1
 10
0.0
 20
0.0
 30
0.0
  0
VERTEX
  5
860
  8
0
  6
CONTINUOUS
 62
     7
 10
334.0441129708
 20
-987.0635552118
 30
0.0
  0
VERTEX
  5
861
  8
0
  6
CONTINUOUS
 62
     7
 10
337.8811508023
 20
-987.5868690917
 30
0.0
  0
VERTEX
  5
862
  8
0
  6
CONTINUOUS
 62
     7
 10
338.0626655721
 20
-987.607879729
 30
0.0
  0
SEQEND
  5
863
  8
0
  6
CONTINUOUS
 62
     7
  0
POLYLINE
  5
47A
  8
0
  6
CONTINUOUS
 62
     7
 66
     1
 10
0.0
 20
0.0
 30
0.0
  0
VERTEX
  5
864
  8
0
  6
CONTINUOUS
 62
     7
 10
360.6692246699
 20
-987.6323325345
 30
0.0
  0
VERTEX
  5
865
  8
0
  6
CONTINUOUS
 62
     7
 10
361.0657296681
 20
-987.5868690917
 30
0.0
  0
VERTEX
  5
866
  8
0
  6
CONTINUOUS
 62
     7
 10
364.9027712249
 20
-987.0635552118
 30
0.0
  0
SEQEND
  5
867
  8
0
  6
CONTINUOUS
 62
     7
  0
ARC
  5
47B
  8
0
  6
CONTINUOUS
 62
     7
 10
334.1675468713
 20
-986.2731313434
 30
0.0
 40
0.800000000242391
 50
191.7227076668
 51
261.1241905632
  0
ARC
  5
47C
  8
0
  6
CONTINUOUS
 62
     7
 10
364.7793371592
 20
-986.2731313434
 30
0.0
 40
0.8000000002459026
 50
278.8758094371
 51
348.2772923332
  0
LINE
  5
47D
  8
0
  6
CONTINUOUS
 62
     7
 10
776.6734279298
 20
-958.2810384939
 30
0.0
 11
777.0734347009
 21
-958.681045265
 31
0.0
  0
LINE
  5
47E
  8
0
  6
CONTINUOUS
 62
     7
 10
781.2734461927
 20
-958.681045265
 30
0.0
 11
781.6734529638
 21
-958.2810384939
 31
0.0
  0
LINE
  5
47F
  8
0
  6
CONTINUOUS
 62
     7
 10
776.6734279298
 20
-958.06103775
 30
0.0
 11
776.6734279298
 21
-958.2810384939
 31
0.0
  0
LINE
  5
480
  8
0
  6
CONTINUOUS
 62
     7
 10
781.6734529638
 20
-958.2810384939
 30
0.0
 11
781.6734529638
 21
-958.06103775
 31
0.0
  0
LINE
  5
481
  8
0
  6
CONTINUOUS
 62
     7
 10
-195.8265684939
 20
-958.06103775
 30
0.0
 11
-195.8265684939
 21
-958.2810384939
 31
0.0
  0
LINE
  5
482
  8
0
  6
CONTINUOUS
 62
     7
 10
-190.82654346
 20
-958.2810384939
 30
0.0
 11
-190.82654346
 21
-958.06103775
 31
0.0
  0
LINE
  5
483
  8
0
  6
CONTINUOUS
 62
     7
 10
-195.8265684939
 20
-958.2810384939
 30
0.0
 11
-195.4265617228
 21
-958.681045265
 31
0.0
  0
LINE
  5
484
  8
0
  6
CONTINUOUS
 62
     7
 10
-191.226550231
 20
-958.681045265
 30
0.0
 11
-190.82654346
 21
-958.2810384939
 31
0.0
  0
LINE
  5
485
  8
0
  6
CONTINUOUS
 62
     7
 10
787.9234470033
 20
-572.8610439012
 30
0.0
 11
787.9234470033
 21
-576.8610371063
 31
0.0
  0
LINE
  5
486
  8
0
  6
CONTINUOUS
 62
     7
 10
-202.0765625334
 20
-572.8610439012
 30
0.0
 11
-202.0765625334
 21
-576.8610371063
 31
0.0
  0
LINE
  5
487
  8
0
  6
CONTINUOUS
 62
     7
 10
-199.0765713549
 20
-569.8610378215
 30
0.0
 11
784.9234558248
 21
-569.8610378215
 31
0.0
  0
ARC
  5
488
  8
0
  6
CONTINUOUS
 62
     7
 10
-197.439374379
 20
-574.498217844
 30
0.0
 40
4.917708053423608
 50
109.4460248115
 51
160.5542597799
  0
POLYLINE
  5
489
  8
0
  6
CONTINUOUS
 62
     7
 66
     1
 10
0.0
 20
0.0
 30
0.0
  0
VERTEX
  5
868
  8
0
  6
CONTINUOUS
 62
     7
 10
784.9234558248
 20
-569.8610378215
 30
0.0
  0
VERTEX
  5
869
  8
0
  6
CONTINUOUS
 62
     7
 10
785.6874979638
 20
-570.0979364822
 30
0.0
  0
VERTEX
  5
86A
  8
0
  6
CONTINUOUS
 62
     7
 10
786.4523149633
 20
-570.7720352123
 30
0.0
  0
VERTEX
  5
86B
  8
0
  6
CONTINUOUS
 62
     7
 10
787.2171319627
 20
-571.7766715
 30
0.0
  0
VERTEX
  5
86C
  8
0
  6
CONTINUOUS
 62
     7
 10
787.9234470033
 20
-572.8610439012
 30
0.0
  0
SEQEND
  5
86D
  8
0
  6
CONTINUOUS
 62
     7
  0
LINE
  5
48A
  8
0
  6
CONTINUOUS
 62
     7
 10
267.9234418624
 20
-958.06103775
 30
0.0
 11
267.9234418624
 21
-956.061048598
 31
0.0
  0
ARC
  5
48B
  8
0
  6
CONTINUOUS
 62
     7
 10
315.9234422349
 20
-958.0610428522
 30
0.0
 40
2.0
 50
270.0
 51
0.0
  0
LINE
  5
48C
  8
0
  6
CONTINUOUS
 62
     7
 10
317.9234426075
 20
-958.06103775
 30
0.0
 11
317.9234426075
 21
-956.061048598
 31
0.0
  0
LINE
  5
48D
  8
0
  6
CONTINUOUS
 62
     7
 10
269.9234421902
 20
-960.0610418031
 30
0.0
 11
315.9234422796
 21
-960.0610418031
 31
0.0
  0
ARC
  5
48E
  8
0
  6
CONTINUOUS
 62
     7
 10
269.9234422349
 20
-958.0610428522
 30
0.0
 40
2.0
 50
180.0
 51
270.0
  0
LINE
  5
48F
  8
0
  6
CONTINUOUS
 62
     7
 10
317.9234426075
 20
-958.06103775
 30
0.0
 11
317.9234426075
 21
-961.8514312217
 31
0.0
  0
LINE
  5
490
  8
0
  6
CONTINUOUS
 62
     7
 10
267.9234418624
 20
-961.8514312217
 30
0.0
 11
267.9234418624
 21
-958.06103775
 31
0.0
  0
LINE
  5
491
  8
0
  6
CONTINUOUS
 62
     7
 10
267.9234418624
 20
-962.2610492418
 30
0.0
 11
267.9234418624
 21
-961.8514312217
 31
0.0
  0
LINE
  5
492
  8
0
  6
CONTINUOUS
 62
     7
 10
317.9234426075
 20
-961.8514312217
 30
0.0
 11
317.9234426075
 21
-962.2610492418
 31
0.0
  0
POLYLINE
  5
493
  8
0
  6
CONTINUOUS
 62
     7
 66
     1
 10
0.0
 20
0.0
 30
0.0
  0
VERTEX
  5
86E
  8
0
  6
CONTINUOUS
 62
     7
 10
297.5715181396
 20
-974.2610437582
 30
0.0
  0
VERTEX
  5
86F
  8
0
  6
CONTINUOUS
 62
     7
 10
297.7529691138
 20
-974.9431891153
 30
0.0
  0
VERTEX
  5
870
  8
0
  6
CONTINUOUS
 62
     7
 10
297.882225977
 20
-975.5299521396
 30
0.0
  0
VERTEX
  5
871
  8
0
  6
CONTINUOUS
 62
     7
 10
297.9841559731
 20
-976.3819558332
 30
0.0
  0
VERTEX
  5
872
  8
0
  6
CONTINUOUS
 62
     7
 10
297.8798208364
 20
-976.970611305
 30
0.0
  0
VERTEX
  5
873
  8
0
  6
CONTINUOUS
 62
     7
 10
297.7511656077
 20
-977.1788997362
 30
0.0
  0
VERTEX
  5
874
  8
0
  6
CONTINUOUS
 62
     7
 10
297.5715181396
 20
-977.2610498378
 30
0.0
  0
SEQEND
  5
875
  8
0
  6
CONTINUOUS
 62
     7
  0
LINE
  5
494
  8
0
  6
CONTINUOUS
 62
     7
 10
297.5715181396
 20
-975.7610393474
 30
0.0
 11
297.5715181396
 21
-977.2610498378
 31
0.0
  0
POLYLINE
  5
495
  8
0
  6
CONTINUOUS
 62
     7
 66
     1
 10
0.0
 20
0.0
 30
0.0
  0
VERTEX
  5
876
  8
0
  6
CONTINUOUS
 62
     7
 10
787.8753758573
 20
-977.2610498378
 30
0.0
  0
VERTEX
  5
877
  8
0
  6
CONTINUOUS
 62
     7
 10
787.6939095163
 20
-977.1824611137
 30
0.0
  0
VERTEX
  5
878
  8
0
  6
CONTINUOUS
 62
     7
 10
787.5646568441
 20
-976.9794774959
 30
0.0
  0
VERTEX
  5
879
  8
0
  6
CONTINUOUS
 62
     7
 10
787.4627329015
 20
-976.3827604959
 30
0.0
  0
VERTEX
  5
87A
  8
0
  6
CONTINUOUS
 62
     7
 10
787.5670708322
 20
-975.5487872074
 30
0.0
  0
VERTEX
  5
87B
  8
0
  6
CONTINUOUS
 62
     7
 10
787.6957274579
 20
-974.9582392881
 30
0.0
  0
VERTEX
  5
87C
  8
0
  6
CONTINUOUS
 62
     7
 10
787.8753758573
 20
-974.2610437582
 30
0.0
  0
SEQEND
  5
87D
  8
0
  6
CONTINUOUS
 62
     7
  0
LINE
  5
496
  8
0
  6
CONTINUOUS
 62
     7
 10
787.8753758573
 20
-977.2610498378
 30
0.0
 11
787.8753758573
 21
-975.7610393474
 31
0.0
  0
LINE
  5
497
  8
0
  6
CONTINUOUS
 62
     7
 10
294.9734420122
 20
-962.2610492418
 30
0.0
 11
294.9734420122
 21
-972.7610481689
 31
0.0
  0
LINE
  5
498
  8
0
  6
CONTINUOUS
 62
     7
 10
790.4734529161
 20
-962.2610492418
 30
0.0
 11
294.9734420122
 21
-962.2610492418
 31
0.0
  0
LINE
  5
499
  8
0
  6
CONTINUOUS
 62
     7
 10
790.4734529161
 20
-972.7610481689
 30
0.0
 11
790.4734529161
 21
-962.2610492418
 31
0.0
  0
ARC
  5
49A
  8
0
  6
CONTINUOUS
 62
     7
 10
790.4734420152
 20
-975.7610424265
 30
0.0
 40
3.000000000000034
 50
90.0
 51
150.0
  0
ARC
  5
49B
  8
0
  6
CONTINUOUS
 62
     7
 10
294.9734420152
 20
-975.7610424265
 30
0.0
 40
3.0
 50
30.0
 51
90.0
  0
LINE
  5
49C
  8
0
  6
CONTINUOUS
 62
     7
 10
297.5715181396
 20
-977.2610498378
 30
0.0
 11
787.8753758573
 21
-977.2610498378
 31
0.0
  0
LINE
  5
49D
  8
0
  6
CONTINUOUS
 62
     7
 10
790.4734529161
 20
-972.7610481689
 30
0.0
 11
791.9734336042
 21
-972.7610481689
 31
0.0
  0
LINE
  5
49E
  8
0
  6
CONTINUOUS
 62
     7
 10
791.9734336042
 20
-974.2610437582
 30
0.0
 11
791.9734336042
 21
-972.7610481689
 31
0.0
  0
LINE
  5
49F
  8
0
  6
CONTINUOUS
 62
     7
 10
790.4734529161
 20
-974.2610437582
 30
0.0
 11
791.9734336042
 21
-974.2610437582
 31
0.0
  0
LINE
  5
4A0
  8
0
  6
CONTINUOUS
 62
     7
 10
790.4734529161
 20
-972.7610481689
 30
0.0
 11
790.4734529161
 21
-974.2610437582
 31
0.0
  0
LINE
  5
4A1
  8
0
  6
CONTINUOUS
 62
     7
 10
293.4734419991
 20
-972.7610481689
 30
0.0
 11
294.9734420122
 21
-972.7610481689
 31
0.0
  0
LINE
  5
4A2
  8
0
  6
CONTINUOUS
 62
     7
 10
293.4734419991
 20
-974.2610437582
 30
0.0
 11
294.9734420122
 21
-974.2610437582
 31
0.0
  0
LINE
  5
4A3
  8
0
  6
CONTINUOUS
 62
     7
 10
293.4734419991
 20
-972.7610481689
 30
0.0
 11
293.4734419991
 21
-974.2610437582
 31
0.0
  0
LINE
  5
4A4
  8
0
  6
CONTINUOUS
 62
     7
 10
294.9734420122
 20
-974.2610437582
 30
0.0
 11
294.9734420122
 21
-972.7610481689
 31
0.0
  0
LINE
  5
4A5
  8
0
  6
CONTINUOUS
 62
     7
 10
791.9734336042
 20
-962.2610492418
 30
0.0
 11
790.4734529161
 21
-962.2610492418
 31
0.0
  0
LINE
  5
4A6
  8
0
  6
CONTINUOUS
 62
     7
 10
791.9734336042
 20
-962.2610492418
 30
0.0
 11
791.9734336042
 21
-972.7610481689
 31
0.0
  0
LINE
  5
4A7
  8
0
  6
CONTINUOUS
 62
     7
 10
293.4734419991
 20
-962.2610492418
 30
0.0
 11
294.9734420122
 21
-962.2610492418
 31
0.0
  0
LINE
  5
4A8
  8
0
  6
CONTINUOUS
 62
     7
 10
293.4734419991
 20
-972.7610481689
 30
0.0
 11
293.4734419991
 21
-962.2610492418
 31
0.0
  0
LINE
  5
4A9
  8
0
  6
CONTINUOUS
 62
     7
 10
787.8753758573
 20
-977.2610498378
 30
0.0
 11
788.9734424257
 21
-977.2610498378
 31
0.0
  0
LINE
  5
4AA
  8
0
  6
CONTINUOUS
 62
     7
 10
788.9734424257
 20
-975.7610393474
 30
0.0
 11
787.8753758573
 21
-975.7610393474
 31
0.0
  0
LINE
  5
4AB
  8
0
  6
CONTINUOUS
 62
     7
 10
788.9734424257
 20
-975.7610393474
 30
0.0
 11
788.9734424257
 21
-977.2610498378
 31
0.0
  0
LINE
  5
4AC
  8
0
  6
CONTINUOUS
 62
     7
 10
296.4734420252
 20
-977.2610498378
 30
0.0
 11
296.4734420252
 21
-975.7610393474
 31
0.0
  0
LINE
  5
4AD
  8
0
  6
CONTINUOUS
 62
     7
 10
296.4734420252
 20
-977.2610498378
 30
0.0
 11
297.5715181396
 21
-977.2610498378
 31
0.0
  0
LINE
  5
4AE
  8
0
  6
CONTINUOUS
 62
     7
 10
297.5715181396
 20
-975.7610393474
 30
0.0
 11
296.4734420252
 21
-975.7610393474
 31
0.0
  0
ARC
  5
4AF
  8
0
  6
CONTINUOUS
 62
     7
 10
788.9734573553
 20
-974.2610437867
 30
0.0
 40
1.499995560742832
 50
269.9994297267
 51
0.000001092
  0
ARC
  5
4B0
  8
0
  6
CONTINUOUS
 62
     7
 10
788.9734010752
 20
-974.261017309
 30
0.0
 40
3.000032529088292
 50
270.000789727
 51
359.9994948643
  0
ARC
  5
4B1
  8
0
  6
CONTINUOUS
 62
     7
 10
296.4734620401
 20
-974.2610297969
 30
0.0
 40
3.000020041036379
 50
180.0002666393
 51
269.9996177456
  0
ARC
  5
4B2
  8
0
  6
CONTINUOUS
 62
     7
 10
296.4734434635
 20
-974.261037896
 30
0.0
 40
1.500001451400665
 50
180.0002239172
 51
269.9999450591
  0
LINE
  5
4B3
  8
0
  6
CONTINUOUS
 62
     7
 10
285.8734425695
 20
-974.2487801025
 30
0.0
 11
285.8734425695
 21
-975.7610393474
 31
0.0
  0
LINE
  5
4B4
  8
0
  6
CONTINUOUS
 62
     7
 10
-202.0284913874
 20
-977.2610498378
 30
0.0
 11
283.2753659763
 21
-977.2610498378
 31
0.0
  0
POLYLINE
  5
4B5
  8
0
  6
CONTINUOUS
 62
     7
 66
     1
 10
0.0
 20
0.0
 30
0.0
  0
VERTEX
  5
87E
  8
0
  6
CONTINUOUS
 62
     7
 10
-202.0284913874
 20
-974.2610437582
 30
0.0
  0
VERTEX
  5
87F
  8
0
  6
CONTINUOUS
 62
     7
 10
-201.8470250464
 20
-974.9431891153
 30
0.0
  0
VERTEX
  5
880
  8
0
  6
CONTINUOUS
 62
     7
 10
-201.7177723742
 20
-975.5299521396
 30
0.0
  0
VERTEX
  5
881
  8
0
  6
CONTINUOUS
 62
     7
 10
-201.6158484317
 20
-976.3819558332
 30
0.0
  0
VERTEX
  5
882
  8
0
  6
CONTINUOUS
 62
     7
 10
-201.7201863623
 20
-976.970611305
 30
0.0
  0
VERTEX
  5
883
  8
0
  6
CONTINUOUS
 62
     7
 10
-201.8488429881
 20
-977.1788997362
 30
0.0
  0
VERTEX
  5
884
  8
0
  6
CONTINUOUS
 62
     7
 10
-202.0284913874
 20
-977.2610498378
 30
0.0
  0
SEQEND
  5
885
  8
0
  6
CONTINUOUS
 62
     7
  0
POLYLINE
  5
4B6
  8
0
  6
CONTINUOUS
 62
     7
 66
     1
 10
0.0
 20
0.0
 30
0.0
  0
VERTEX
  5
886
  8
0
  6
CONTINUOUS
 62
     7
 10
283.2753659763
 20
-977.2610498378
 30
0.0
  0
VERTEX
  5
887
  8
0
  6
CONTINUOUS
 62
     7
 10
283.0939154678
 20
-977.1824611137
 30
0.0
  0
VERTEX
  5
888
  8
0
  6
CONTINUOUS
 62
     7
 10
282.964658139
 20
-976.9794774959
 30
0.0
  0
VERTEX
  5
889
  8
0
  6
CONTINUOUS
 62
     7
 10
282.8627286085
 20
-976.3827604959
 30
0.0
  0
VERTEX
  5
88A
  8
0
  6
CONTINUOUS
 62
     7
 10
282.9670637452
 20
-975.5487872074
 30
0.0
  0
VERTEX
  5
88B
  8
0
  6
CONTINUOUS
 62
     7
 10
283.0957194396
 20
-974.9582392881
 30
0.0
  0
VERTEX
  5
88C
  8
0
  6
CONTINUOUS
 62
     7
 10
283.2753659763
 20
-974.2610437582
 30
0.0
  0
SEQEND
  5
88D
  8
0
  6
CONTINUOUS
 62
     7
  0
LINE
  5
4B7
  8
0
  6
CONTINUOUS
 62
     7
 10
-204.6265684462
 20
-962.2610492418
 30
0.0
 11
-204.6265684462
 21
-972.7610481689
 31
0.0
  0
LINE
  5
4B8
  8
0
  6
CONTINUOUS
 62
     7
 10
285.8734425695
 20
-962.2610492418
 30
0.0
 11
-204.6265684462
 21
-962.2610492418
 31
0.0
  0
LINE
  5
4B9
  8
0
  6
CONTINUOUS
 62
     7
 10
285.8734425695
 20
-972.7610481689
 30
0.0
 11
285.8734425695
 21
-962.2610492418
 31
0.0
  0
ARC
  5
4BA
  8
0
  6
CONTINUOUS
 62
     7
 10
-204.6265575457
 20
-975.7610424265
 30
0.0
 40
3.0
 50
30.0
 51
90.0
  0
ARC
  5
4BB
  8
0
  6
CONTINUOUS
 62
     7
 10
285.8734424543
 20
-975.7610424265
 30
0.0
 40
3.000000000000114
 50
90.0
 51
150.0
  0
LINE
  5
4BC
  8
0
  6
CONTINUOUS
 62
     7
 10
283.2753659763
 20
-977.2610498378
 30
0.0
 11
283.2753659763
 21
-975.7610393474
 31
0.0
  0
LINE
  5
4BD
  8
0
  6
CONTINUOUS
 62
     7
 10
-202.0284913874
 20
-975.7610393474
 30
0.0
 11
-202.0284913874
 21
-977.2610498378
 31
0.0
  0
LINE
  5
4BE
  8
0
  6
CONTINUOUS
 62
     7
 10
-206.1265491343
 20
-972.7610481689
 30
0.0
 11
-204.6265684462
 21
-972.7610481689
 31
0.0
  0
LINE
  5
4BF
  8
0
  6
CONTINUOUS
 62
     7
 10
-206.1265491343
 20
-974.2610437582
 30
0.0
 11
-204.6265684462
 21
-974.2610437582
 31
0.0
  0
LINE
  5
4C0
  8
0
  6
CONTINUOUS
 62
     7
 10
-206.1265491343
 20
-972.7610481689
 30
0.0
 11
-206.1265491343
 21
-974.2610437582
 31
0.0
  0
LINE
  5
4C1
  8
0
  6
CONTINUOUS
 62
     7
 10
-204.6265684462
 20
-972.7610481689
 30
0.0
 11
-204.6265684462
 21
-974.2610437582
 31
0.0
  0
LINE
  5
4C2
  8
0
  6
CONTINUOUS
 62
     7
 10
285.8734425695
 20
-972.7610481689
 30
0.0
 11
287.3734423497
 21
-972.7610481689
 31
0.0
  0
LINE
  5
4C3
  8
0
  6
CONTINUOUS
 62
     7
 10
287.3734423497
 20
-974.2610437582
 30
0.0
 11
287.3734423497
 21
-972.7610481689
 31
0.0
  0
LINE
  5
4C4
  8
0
  6
CONTINUOUS
 62
     7
 10
285.8734425695
 20
-974.2610437582
 30
0.0
 11
287.3734423497
 21
-974.2610437582
 31
0.0
  0
LINE
  5
4C5
  8
0
  6
CONTINUOUS
 62
     7
 10
285.8734425695
 20
-972.7610481689
 30
0.0
 11
285.8734425695
 21
-974.2610437582
 31
0.0
  0
LINE
  5
4C6
  8
0
  6
CONTINUOUS
 62
     7
 10
-206.1265491343
 20
-962.2610492418
 30
0.0
 11
-204.6265684462
 21
-962.2610492418
 31
0.0
  0
LINE
  5
4C7
  8
0
  6
CONTINUOUS
 62
     7
 10
-206.1265491343
 20
-972.7610481689
 30
0.0
 11
-206.1265491343
 21
-962.2610492418
 31
0.0
  0
LINE
  5
4C8
  8
0
  6
CONTINUOUS
 62
     7
 10
287.3734423497
 20
-962.2610492418
 30
0.0
 11
285.8734425695
 21
-962.2610492418
 31
0.0
  0
LINE
  5
4C9
  8
0
  6
CONTINUOUS
 62
     7
 10
287.3734423497
 20
-962.2610492418
 30
0.0
 11
287.3734423497
 21
-972.7610481689
 31
0.0
  0
LINE
  5
4CA
  8
0
  6
CONTINUOUS
 62
     7
 10
-203.1265579558
 20
-975.7610393474
 30
0.0
 11
-202.0284913874
 21
-975.7610393474
 31
0.0
  0
LINE
  5
4CB
  8
0
  6
CONTINUOUS
 62
     7
 10
-203.1265579558
 20
-977.2610498378
 30
0.0
 11
-202.0284913874
 21
-977.2610498378
 31
0.0
  0
LINE
  5
4CC
  8
0
  6
CONTINUOUS
 62
     7
 10
-203.1265579558
 20
-977.2610498378
 30
0.0
 11
-203.1265579558
 21
-975.7610393474
 31
0.0
  0
LINE
  5
4CD
  8
0
  6
CONTINUOUS
 62
     7
 10
283.2753659763
 20
-977.2610498378
 30
0.0
 11
284.3734427893
 21
-977.2610498378
 31
0.0
  0
LINE
  5
4CE
  8
0
  6
CONTINUOUS
 62
     7
 10
284.3734427893
 20
-975.7610393474
 30
0.0
 11
283.2753659763
 21
-975.7610393474
 31
0.0
  0
LINE
  5
4CF
  8
0
  6
CONTINUOUS
 62
     7
 10
284.3734427893
 20
-975.7610393474
 30
0.0
 11
284.3734427893
 21
-977.2610498378
 31
0.0
  0
ARC
  5
4D0
  8
0
  6
CONTINUOUS
 62
     7
 10
284.3734156608
 20
-974.261023149
 30
0.0
 40
3.000026688924341
 50
270.0005181104
 51
359.9996063982
  0
ARC
  5
4D1
  8
0
  6
CONTINUOUS
 62
     7
 10
284.3734482861
 20
-974.261045064
 30
0.0
 40
1.499994283389356
 50
269.9997900362
 51
0.000049881
  0
ARC
  5
4D2
  8
0
  6
CONTINUOUS
 62
     7
 10
-203.1265401498
 20
-974.2610408534
 30
0.0
 40
3.000008984488068
 50
180.0000554767
 51
269.999659932
  0
ARC
  5
4D3
  8
0
  6
CONTINUOUS
 62
     7
 10
-203.126550913
 20
-974.261021814
 30
0.0
 40
1.500017533406167
 50
180.0008381944
 51
269.9997309869
  0
ARC
  5
4D4
  8
0
  6
CONTINUOUS
 62
     7
 10
550.9122202415
 20
-967.6722665478
 30
0.0
 40
219.7665715918991
 50
2.6608177661
 51
2.9045649884
  0
ARC
  5
4D5
  8
0
  6
CONTINUOUS
 62
     7
 10
34.9346642284
 20
-967.6722665478
 30
0.0
 40
219.7665715918993
 50
177.0954350116
 51
177.3391822339
  0
LINE
  5
4D6
  8
0
  6
CONTINUOUS
 62
     7
 10
-184.6190773345
 20
-957.7698094556
 30
0.0
 11
-184.5949672557
 21
-957.5155062387
 31
0.0
  0
LINE
  5
4D7
  8
0
  6
CONTINUOUS
 62
     7
 10
789.9278916025
 20
-956.061048598
 30
0.0
 11
790.9234381818
 21
-956.061048598
 31
0.0
  0
LINE
  5
4D8
  8
0
  6
CONTINUOUS
 62
     7
 10
-205.076553712
 20
-956.061048598
 30
0.0
 11
-204.0810071326
 21
-956.061048598
 31
0.0
  0
LINE
  5
4D9
  8
0
  6
CONTINUOUS
 62
     7
 10
-205.5765472747
 20
-579.8610431859
 30
0.0
 11
-205.5765472747
 21
-952.5654895017
 31
0.0
  0
LINE
  5
4DA
  8
0
  6
CONTINUOUS
 62
     7
 10
791.4234317445
 20
-952.5654895017
 30
0.0
 11
791.4234317445
 21
-579.8610431859
 31
0.0
  0
ARC
  5
4DB
  8
0
  6
CONTINUOUS
 62
     7
 10
786.4234422349
 20
-952.5654902413
 30
0.0
 40
5.00000000000648
 50
354.3120472985
 51
0.0
  0
ARC
  5
4DC
  8
0
  6
CONTINUOUS
 62
     7
 10
-200.5765577651
 20
-952.5654902413
 30
0.0
 40
5.000000000006482
 50
180.0
 51
185.6879527015
  0
LINE
  5
4DD
  8
0
  6
CONTINUOUS
 62
     7
 10
789.9278916025
 20
-956.061048598
 30
0.0
 11
790.4234446191
 21
-955.9606147716
 31
0.0
  0
LINE
  5
4DE
  8
0
  6
CONTINUOUS
 62
     7
 10
-204.0810071326
 20
-956.061048598
 30
0.0
 11
789.9278916025
 21
-956.061048598
 31
0.0
  0
LINE
  5
4DF
  8
0
  6
CONTINUOUS
 62
     7
 10
-204.5765601493
 20
-955.9606147716
 30
0.0
 11
-204.0810071326
 21
-956.061048598
 31
0.0
  0
ARC
  5
4E0
  8
0
  6
CONTINUOUS
 62
     7
 10
786.8304715492
 20
-953.1381595153
 30
0.0
 40
4.568994326429666
 50
321.8486405569
 51
0.9671030318
  0
ARC
  5
4E1
  8
0
  6
CONTINUOUS
 62
     7
 10
-201.325417183
 20
-953.2531457747
 30
0.0
 40
4.230876854319213
 50
177.3975864459
 51
219.7866699655
  0
POLYLINE
  5
4E2
  8
0
  6
CONTINUOUS
 62
     7
 66
     1
 10
0.0
 20
0.0
 30
0.0
  0
VERTEX
  5
88E
  8
0
  6
CONTINUOUS
 62
     7
 10
-205.5765472747
 20
-579.8610431859
 30
0.0
  0
VERTEX
  5
88F
  8
0
  6
CONTINUOUS
 62
     7
 10
-205.2384101248
 20
-578.8208080242
 30
0.0
  0
VERTEX
  5
890
  8
0
  6
CONTINUOUS
 62
     7
 10
-204.9002133704
 20
-577.909497709
 30
0.0
  0
VERTEX
  5
891
  8
0
  6
CONTINUOUS
 62
     7
 10
-204.5620166159
 20
-577.2404355714
 30
0.0
  0
VERTEX
  5
892
  8
0
  6
CONTINUOUS
 62
     7
 10
-204.2238198615
 20
-576.8966359804
 30
0.0
  0
VERTEX
  5
893
  8
0
  6
CONTINUOUS
 62
     7
 10
-204.0765665866
 20
-576.8610371063
 30
0.0
  0
SEQEND
  5
894
  8
0
  6
CONTINUOUS
 62
     7
  0
LINE
  5
4E3
  8
0
  6
CONTINUOUS
 62
     7
 10
-204.0765665866
 20
-576.8610371063
 30
0.0
 11
789.9234510564
 21
-576.8610371063
 31
0.0
  0
POLYLINE
  5
4E4
  8
0
  6
CONTINUOUS
 62
     7
 66
     1
 10
0.0
 20
0.0
 30
0.0
  0
VERTEX
  5
895
  8
0
  6
CONTINUOUS
 62
     7
 10
789.9234510564
 20
-576.8610371063
 30
0.0
  0
VERTEX
  5
896
  8
0
  6
CONTINUOUS
 62
     7
 10
790.2615882062
 20
-577.0471675107
 30
0.0
  0
VERTEX
  5
897
  8
0
  6
CONTINUOUS
 62
     7
 10
790.5997849607
 20
-577.5825662324
 30
0.0
  0
VERTEX
  5
898
  8
0
  6
CONTINUOUS
 62
     7
 10
790.9379817151
 20
-578.4007740924
 30
0.0
  0
VERTEX
  5
899
  8
0
  6
CONTINUOUS
 62
     7
 10
791.2761784696
 20
-579.4002396772
 30
0.0
  0
VERTEX
  5
89A
  8
0
  6
CONTINUOUS
 62
     7
 10
791.4234317445
 20
-579.8610431859
 30
0.0
  0
SEQEND
  5
89B
  8
0
  6
CONTINUOUS
 62
     7
  0
LINE
  5
4E5
  8
0
  6
CONTINUOUS
 62
     7
 10
-185.4241572715
 20
-962.2610492418
 30
0.0
 11
-184.7867452002
 21
-957.7698094556
 31
0.0
  0
LINE
  5
4E6
  8
0
  6
CONTINUOUS
 62
     7
 10
771.2710417413
 20
-962.2610492418
 30
0.0
 11
770.6336296701
 21
-957.7698094556
 31
0.0
  0
ARC
  5
4E7
  8
0
  6
CONTINUOUS
 62
     7
 10
-36.9195982159
 20
-969.5118562182
 30
0.0
 40
148.3150279873761
 50
174.98024738
 51
175.3782204638
  0
ARC
  5
4E8
  8
0
  6
CONTINUOUS
 62
     7
 10
622.7664826858
 20
-969.5118562182
 30
0.0
 40
148.315027987376
 50
4.6217795362
 51
5.01975262
  0
ARC
  5
4E9
  8
0
  6
CONTINUOUS
 62
     7
 10
742.2334240874
 20
-962.1728273155
 30
0.0
 40
28.73948926847969
 50
8.812675494
 51
11.2219474424
  0
ARC
  5
4EA
  8
0
  6
CONTINUOUS
 62
     7
 10
-156.3865396175
 20
-962.1728273155
 30
0.0
 40
28.73948926847966
 50
168.7780525576
 51
171.187324506
  0
POLYLINE
  5
4EB
  8
0
  6
CONTINUOUS
 62
     7
 66
     1
 10
0.0
 20
0.0
 30
0.0
  0
VERTEX
  5
89C
  8
0
  6
CONTINUOUS
 62
     7
 10
-186.0810004569
 20
-956.061048598
 30
0.0
  0
VERTEX
  5
89D
  8
0
  6
CONTINUOUS
 62
     7
 10
-185.3287898398
 20
-956.1968875835
 30
0.0
  0
VERTEX
  5
89E
  8
0
  6
CONTINUOUS
 62
     7
 10
-184.5765494204
 20
-956.579832525
 30
0.0
  0
SEQEND
  5
89F
  8
0
  6
CONTINUOUS
 62
     7
  0
POLYLINE
  5
4EC
  8
0
  6
CONTINUOUS
 62
     7
 66
     1
 10
0.0
 20
0.0
 30
0.0
  0
VERTEX
  5
8A0
  8
0
  6
CONTINUOUS
 62
     7
 10
770.4234338903
 20
-956.579832525
 30
0.0
  0
VERTEX
  5
8A1
  8
0
  6
CONTINUOUS
 62
     7
 10
771.1756743097
 20
-956.1968875835
 30
0.0
  0
VERTEX
  5
8A2
  8
0
  6
CONTINUOUS
 62
     7
 10
771.9278849267
 20
-956.061048598
 30
0.0
  0
SEQEND
  5
8A3
  8
0
  6
CONTINUOUS
 62
     7
  0
ARC
  5
4ED
  8
0
  6
CONTINUOUS
 62
     7
 10
349.4734439605
 20
-881.128948792
 30
0.0
 40
101.3167805254662
 50
262.49900654
 51
277.50099346
  0
LINE
  5
4EE
  8
0
  6
CONTINUOUS
 62
     7
 10
365.5626542472
 20
-981.6281629512
 30
0.0
 11
365.8688656592
 21
-979.7184450338
 31
0.0
  0
LINE
  5
4EF
  8
0
  6
CONTINUOUS
 62
     7
 10
333.0780185365
 20
-979.7184450338
 30
0.0
 11
333.3842336737
 21
-981.6281629512
 31
0.0
  0
ARC
  5
4F0
  8
0
  6
CONTINUOUS
 62
     7
 10
364.7855406266
 20
-981.460532678
 30
0.0
 40
0.7949877281304434
 50
278.4798828629
 51
347.8273066779
  0
POLYLINE
  5
4F1
  8
0
  6
CONTINUOUS
 62
     7
 66
     1
 10
0.0
 20
0.0
 30
0.0
  0
VERTEX
  5
8A4
  8
0
  6
CONTINUOUS
 62
     7
 10
354.2087480032
 20
-985.284520478
 30
0.0
  0
VERTEX
  5
8A5
  8
0
  6
CONTINUOUS
 62
     7
 10
356.2640465402
 20
-985.2846396873
 30
0.0
  0
VERTEX
  5
8A6
  8
0
  6
CONTINUOUS
 62
     7
 10
358.1274590992
 20
-985.2942956397
 30
0.0
  0
VERTEX
  5
8A7
  8
0
  6
CONTINUOUS
 62
     7
 10
359.7432590627
 20
-985.3210134218
 30
0.0
  0
VERTEX
  5
8A8
  8
0
  6
CONTINUOUS
 62
     7
 10
361.0696188711
 20
-985.3721095035
 30
0.0
  0
VERTEX
  5
8A9
  8
0
  6
CONTINUOUS
 62
     7
 10
362.0648599767
 20
-985.4546619365
 30
0.0
  0
VERTEX
  5
8AA
  8
0
  6
CONTINUOUS
 62
     7
 10
362.7047232889
 20
-985.5722768018
 30
0.0
  0
VERTEX
  5
8AB
  8
0
  6
CONTINUOUS
 62
     7
 10
362.9653967523
 20
-985.7266081283
 30
0.0
  0
VERTEX
  5
8AC
  8
0
  6
CONTINUOUS
 62
     7
 10
362.943320682
 20
-985.7616705606
 30
0.0
  0
SEQEND
  5
8AD
  8
0
  6
CONTINUOUS
 62
     7
  0
POLYLINE
  5
4F2
  8
0
  6
CONTINUOUS
 62
     7
 66
     1
 10
0.0
 20
0.0
 30
0.0
  0
VERTEX
  5
8AE
  8
0
  6
CONTINUOUS
 62
     7
 10
344.7381361925
 20
-985.284520478
 30
0.0
  0
VERTEX
  5
8AF
  8
0
  6
CONTINUOUS
 62
     7
 10
346.2697594964
 20
-985.2867109487
 30
0.0
  0
VERTEX
  5
8B0
  8
0
  6
CONTINUOUS
 62
     7
 10
349.4734420978
 20
-985.2896911809
 30
0.0
  0
VERTEX
  5
8B1
  8
0
  6
CONTINUOUS
 62
     7
 10
351.0734431052
 20
-985.2888567159
 30
0.0
  0
VERTEX
  5
8B2
  8
0
  6
CONTINUOUS
 62
     7
 10
354.2087480032
 20
-985.284520478
 30
0.0
  0
SEQEND
  5
8B3
  8
0
  6
CONTINUOUS
 62
     7
  0
POLYLINE
  5
4F3
  8
0
  6
CONTINUOUS
 62
     7
 66
     1
 10
0.0
 20
0.0
 30
0.0
  0
VERTEX
  5
8B4
  8
0
  6
CONTINUOUS
 62
     7
 10
336.0197536253
 20
-985.7632500837
 30
0.0
  0
VERTEX
  5
8B5
  8
0
  6
CONTINUOUS
 62
     7
 10
336.0452308857
 20
-985.6563342521
 30
0.0
  0
VERTEX
  5
8B6
  8
0
  6
CONTINUOUS
 62
     7
 10
336.4684983694
 20
-985.5181706855
 30
0.0
  0
VERTEX
  5
8B7
  8
0
  6
CONTINUOUS
 62
     7
 10
337.2557341658
 20
-985.4158593128
 30
0.0
  0
VERTEX
  5
8B8
  8
0
  6
CONTINUOUS
 62
     7
 10
338.3901409411
 20
-985.347567291
 30
0.0
  0
VERTEX
  5
8B9
  8
0
  6
CONTINUOUS
 62
     7
 10
339.8347004854
 20
-985.3074086616
 30
0.0
  0
VERTEX
  5
8BA
  8
0
  6
CONTINUOUS
 62
     7
 10
341.5586717033
 20
-985.2887375066
 30
0.0
  0
VERTEX
  5
8BB
  8
0
  6
CONTINUOUS
 62
     7
 10
343.5058697664
 20
-985.2838499258
 30
0.0
  0
VERTEX
  5
8BC
  8
0
  6
CONTINUOUS
 62
     7
 10
344.7381361925
 20
-985.284520478
 30
0.0
  0
SEQEND
  5
8BD
  8
0
  6
CONTINUOUS
 62
     7
  0
LINE
  5
4F4
  8
0
  6
CONTINUOUS
 62
     7
 10
333.3842336737
 20
-985.3267205665
 30
0.0
 11
333.3842336737
 21
-981.6281629512
 31
0.0
  0
POLYLINE
  5
4F5
  8
0
  6
CONTINUOUS
 62
     7
 66
     1
 10
0.0
 20
0.0
 30
0.0
  0
VERTEX
  5
8BE
  8
0
  6
CONTINUOUS
 62
     7
 10
361.4955760145
 20
-986.5948093841
 30
0.0
  0
VERTEX
  5
8BF
  8
0
  6
CONTINUOUS
 62
     7
 10
362.3260773324
 20
-986.4545149515
 30
0.0
  0
VERTEX
  5
8C0
  8
0
  6
CONTINUOUS
 62
     7
 10
362.8381780886
 20
-986.2993789623
 30
0.0
  0
VERTEX
  5
8C1
  8
0
  6
CONTINUOUS
 62
     7
 10
362.9683099293
 20
-986.1404282758
 30
0.0
  0
VERTEX
  5
8C2
  8
0
  6
CONTINUOUS
 62
     7
 10
362.7127401137
 20
-985.9822226474
 30
0.0
  0
VERTEX
  5
8C3
  8
0
  6
CONTINUOUS
 62
     7
 10
362.0787776613
 20
-985.8292920301
 30
0.0
  0
VERTEX
  5
8C4
  8
0
  6
CONTINUOUS
 62
     7
 10
361.0845423841
 20
-985.6859875629
 30
0.0
  0
VERTEX
  5
8C5
  8
0
  6
CONTINUOUS
 62
     7
 10
359.7584582471
 20
-985.5564070651
 30
0.0
  0
VERTEX
  5
8C6
  8
0
  6
CONTINUOUS
 62
     7
 10
358.1384114527
 20
-985.444260926
 30
0.0
  0
VERTEX
  5
8C7
  8
0
  6
CONTINUOUS
 62
     7
 10
356.2707148098
 20
-985.3527677963
 30
0.0
  0
VERTEX
  5
8C8
  8
0
  6
CONTINUOUS
 62
     7
 10
354.2087480032
 20
-985.284520478
 30
0.0
  0
SEQEND
  5
8C9
  8
0
  6
CONTINUOUS
 62
     7
  0
POLYLINE
  5
4F6
  8
0
  6
CONTINUOUS
 62
     7
 66
     1
 10
0.0
 20
0.0
 30
0.0
  0
VERTEX
  5
8CA
  8
0
  6
CONTINUOUS
 62
     7
 10
337.4513081812
 20
-986.5948093841
 30
0.0
  0
VERTEX
  5
8CB
  8
0
  6
CONTINUOUS
 62
     7
 10
336.6208068632
 20
-986.4545149515
 30
0.0
  0
VERTEX
  5
8CC
  8
0
  6
CONTINUOUS
 62
     7
 10
336.1087061071
 20
-986.2993789623
 30
0.0
  0
VERTEX
  5
8CD
  8
0
  6
CONTINUOUS
 62
     7
 10
335.9785779917
 20
-986.1404282758
 30
0.0
  0
VERTEX
  5
8CE
  8
0
  6
CONTINUOUS
 62
     7
 10
336.2341478073
 20
-985.9822226474
 30
0.0
  0
VERTEX
  5
8CF
  8
0
  6
CONTINUOUS
 62
     7
 10
336.8681065344
 20
-985.8292920301
 30
0.0
  0
VERTEX
  5
8D0
  8
0
  6
CONTINUOUS
 62
     7
 10
337.8623380863
 20
-985.6859875629
 30
0.0
  0
VERTEX
  5
8D1
  8
0
  6
CONTINUOUS
 62
     7
 10
339.1884259486
 20
-985.5564070651
 30
0.0
  0
VERTEX
  5
8D2
  8
0
  6
CONTINUOUS
 62
     7
 10
340.8084690177
 20
-985.444260926
 30
0.0
  0
VERTEX
  5
8D3
  8
0
  6
CONTINUOUS
 62
     7
 10
342.6761656606
 20
-985.3527677963
 30
0.0
  0
VERTEX
  5
8D4
  8
0
  6
CONTINUOUS
 62
     7
 10
344.7381361925
 20
-985.284520478
 30
0.0
  0
SEQEND
  5
8D5
  8
0
  6
CONTINUOUS
 62
     7
  0
POLYLINE
  5
4F7
  8
0
  6
CONTINUOUS
 62
     7
 66
     1
 10
0.0
 20
0.0
 30
0.0
  0
VERTEX
  5
8D6
  8
0
  6
CONTINUOUS
 62
     7
 10
349.4734420978
 20
-986.0258234451
 30
0.0
  0
VERTEX
  5
8D7
  8
0
  6
CONTINUOUS
 62
     7
 10
347.3439208769
 20
-986.0381318042
 30
0.0
  0
VERTEX
  5
8D8
  8
0
  6
CONTINUOUS
 62
     7
 10
345.2724918329
 20
-986.0747290561
 30
0.0
  0
VERTEX
  5
8D9
  8
0
  6
CONTINUOUS
 62
     7
 10
343.3156489932
 20
-986.1346019218
 30
0.0
  0
VERTEX
  5
8DA
  8
0
  6
CONTINUOUS
 62
     7
 10
341.526779493
 20
-986.2161261747
 30
0.0
  0
VERTEX
  5
8DB
  8
0
  6
CONTINUOUS
 62
     7
 10
339.9546697342
 20
-986.3170815418
 30
0.0
  0
VERTEX
  5
8DC
  8
0
  6
CONTINUOUS
 62
     7
 10
338.6422089838
 20
-986.4347113082
 30
0.0
  0
VERTEX
  5
8DD
  8
0
  6
CONTINUOUS
 62
     7
 10
337.6251972818
 20
-986.5657968233
 30
0.0
  0
VERTEX
  5
8DE
  8
0
  6
CONTINUOUS
 62
     7
 10
336.9313731396
 20
-986.7067767093
 30
0.0
  0
VERTEX
  5
8DF
  8
0
  6
CONTINUOUS
 62
     7
 10
336.5796647572
 20
-986.8538064668
 30
0.0
  0
VERTEX
  5
8E0
  8
0
  6
CONTINUOUS
 62
     7
 10
336.5796647572
 20
-987.0028627822
 30
0.0
  0
VERTEX
  5
8E1
  8
0
  6
CONTINUOUS
 62
     7
 10
336.880984863
 20
-987.1355129192
 30
0.0
  0
SEQEND
  5
8E2
  8
0
  6
CONTINUOUS
 62
     7
  0
POLYLINE
  5
4F8
  8
0
  6
CONTINUOUS
 62
     7
 66
     1
 10
0.0
 20
0.0
 30
0.0
  0
VERTEX
  5
8E3
  8
0
  6
CONTINUOUS
 62
     7
 10
361.7072172069
 20
-987.2220141599
 30
0.0
  0
VERTEX
  5
8E4
  8
0
  6
CONTINUOUS
 62
     7
 10
362.0155147814
 20
-987.1498776386
 30
0.0
  0
VERTEX
  5
8E5
  8
0
  6
CONTINUOUS
 62
     7
 10
362.3672194385
 20
-987.0028627822
 30
0.0
  0
VERTEX
  5
8E6
  8
0
  6
CONTINUOUS
 62
     7
 10
362.3672194385
 20
-986.8538064668
 30
0.0
  0
VERTEX
  5
8E7
  8
0
  6
CONTINUOUS
 62
     7
 10
362.0155147814
 20
-986.7067767093
 30
0.0
  0
VERTEX
  5
8E8
  8
0
  6
CONTINUOUS
 62
     7
 10
361.3216869139
 20
-986.5657968233
 30
0.0
  0
VERTEX
  5
8E9
  8
0
  6
CONTINUOUS
 62
     7
 10
360.3046752118
 20
-986.4347113082
 30
0.0
  0
VERTEX
  5
8EA
  8
0
  6
CONTINUOUS
 62
     7
 10
358.9922107362
 20
-986.3170815418
 30
0.0
  0
VERTEX
  5
8EB
  8
0
  6
CONTINUOUS
 62
     7
 10
357.4201084279
 20
-986.2161261747
 30
0.0
  0
VERTEX
  5
8EC
  8
0
  6
CONTINUOUS
 62
     7
 10
355.6312314772
 20
-986.1346019218
 30
0.0
  0
VERTEX
  5
8ED
  8
0
  6
CONTINUOUS
 62
     7
 10
353.6743923628
 20
-986.0747290561
 30
0.0
  0
VERTEX
  5
8EE
  8
0
  6
CONTINUOUS
 62
     7
 10
351.6029633188
 20
-986.0381318042
 30
0.0
  0
VERTEX
  5
8EF
  8
0
  6
CONTINUOUS
 62
     7
 10
349.4734420978
 20
-986.0258234451
 30
0.0
  0
SEQEND
  5
8F0
  8
0
  6
CONTINUOUS
 62
     7
  0
LINE
  5
4F9
  8
0
  6
CONTINUOUS
 62
     7
 10
356.9953135752
 20
-987.9138750741
 30
0.0
 11
354.512377789
 21
-988.1497455547
 31
0.0
  0
ARC
  5
4FA
  8
0
  6
CONTINUOUS
 62
     7
 10
350.1810718365
 20
-1025.2952745348
 30
0.0
 40
37.3971995537708
 50
83.3491345095
 51
91.0842153364
  0
ARC
  5
4FB
  8
0
  6
CONTINUOUS
 62
     7
 10
348.7655276037
 20
-1025.2894173499
 30
0.0
 40
37.39134880774436
 50
88.9151785759
 51
96.6514715781
  0
LINE
  5
4FC
  8
0
  6
CONTINUOUS
 62
     7
 10
344.4345064067
 20
-988.1497455547
 30
0.0
 11
341.9515743458
 21
-987.9138750741
 31
0.0
  0
ARC
  5
4FD
  8
0
  6
CONTINUOUS
 62
     7
 10
343.0243270297
 20
-979.3499957606
 30
0.0
 40
8.920878666620427
 50
258.8265185583
 51
263.096130482
  0
LINE
  5
4FE
  8
0
  6
CONTINUOUS
 62
     7
 10
341.9520027541
 20
-988.2061911533
 30
0.0
 11
344.4353147947
 21
-988.4367717216
 31
0.0
  0
ARC
  5
4FF
  8
0
  6
CONTINUOUS
 62
     7
 10
349.0586494276
 20
-940.1724910238
 30
0.0
 40
48.50910697933091
 50
266.2789131612
 51
270.489931901
  0
ARC
  5
500
  8
0
  6
CONTINUOUS
 62
     7
 10
349.8878821966
 20
-940.1615673206
 30
0.0
 40
48.52002727044582
 50
269.5105947253
 51
273.7208769849
  0
LINE
  5
501
  8
0
  6
CONTINUOUS
 62
     7
 10
354.5115805768
 20
-988.4367717216
 30
0.0
 11
356.9948814415
 21
-988.2061911533
 31
0.0
  0
ARC
  5
502
  8
0
  6
CONTINUOUS
 62
     7
 10
355.9279928645
 20
-979.3849902883
 30
0.0
 40
8.885484563915794
 50
276.896197349
 51
281.1899357857
  0
LINE
  5
503
  8
0
  6
CONTINUOUS
 62
     7
 10
-202.3905001975
 20
-973.7610352943
 30
0.0
 11
-202.6265643931
 21
-973.7610352943
 31
0.0
  0
ARC
  5
504
  8
0
  6
CONTINUOUS
 62
     7
 10
-202.1265575456
 20
-973.2610424265
 30
0.0
 40
2.500000000000114
 50
258.4630409672
 51
270.0
  0
LINE
  5
505
  8
0
  6
CONTINUOUS
 62
     7
 10
-202.6265643931
 20
-973.7610352943
 30
0.0
 11
-202.6265643931
 21
-975.7105393121
 31
0.0
  0
ARC
  5
506
  8
0
  6
CONTINUOUS
 62
     7
 10
-202.1265575457
 20
-973.2610424265
 30
0.0
 40
2.500000000000014
 50
180.0
 51
258.4630409672
  0
LINE
  5
507
  8
0
  6
CONTINUOUS
 62
     7
 10
788.2373846673
 20
-973.7610352943
 30
0.0
 11
788.473448863
 21
-973.7610352943
 31
0.0
  0
ARC
  5
508
  8
0
  6
CONTINUOUS
 62
     7
 10
787.9734420152
 20
-973.2610424265
 30
0.0
 40
2.500000000000114
 50
270.0
 51
281.5369590328
  0
LINE
  5
509
  8
0
  6
CONTINUOUS
 62
     7
 10
788.473448863
 20
-973.7610352943
 30
0.0
 11
788.473448863
 21
-975.7105393121
 31
0.0
  0
ARC
  5
50A
  8
0
  6
CONTINUOUS
 62
     7
 10
787.9734420152
 20
-973.2610424265
 30
0.0
 40
2.500000000000114
 50
281.5369590328
 51
0.0000000001
  0
CIRCLE
  5
50B
  8
0
  6
CONTINUOUS
 62
     7
 10
764.9234422349
 20
-641.0610428522
 30
0.0
 40
9.350000000000023
  0
CIRCLE
  5
50C
  8
0
  6
CONTINUOUS
 62
     7
 10
-179.0765577651
 20
-641.0610428522
 30
0.0
 40
9.349999999999985
  0
CIRCLE
  5
50D
  8
0
  6
CONTINUOUS
 62
     7
 10
-179.0765577651
 20
-891.0610428522
 30
0.0
 40
9.349999999999985
  0
CIRCLE
  5
50E
  8
0
  6
CONTINUOUS
 62
     7
 10
764.9234422349
 20
-891.0610428522
 30
0.0
 40
9.350000000000023
  0
ARC
  5
50F
  8
0
  6
CONTINUOUS
 62
     7
 10
775.1345145666
 20
-960.0610428522
 30
0.0
 40
4.000000000000114
 50
89.9999999999
 51
187.9999988096
  0
LINE
  5
510
  8
0
  6
CONTINUOUS
 62
     7
 10
784.1734505796
 20
-958.06103775
 30
0.0
 11
784.1734505796
 21
-956.061048598
 31
0.0
  0
LINE
  5
511
  8
0
  6
CONTINUOUS
 62
     7
 10
775.1345254087
 20
-958.06103775
 30
0.0
 11
784.1734505796
 21
-958.06103775
 31
0.0
  0
ARC
  5
512
  8
0
  6
CONTINUOUS
 62
     7
 10
775.1345145666
 20
-960.0610428522
 30
0.0
 40
2.000000082123734
 50
89.9999999998
 51
187.9999988096
  0
LINE
  5
513
  8
0
  6
CONTINUOUS
 62
     7
 10
773.4240509176
 20
-962.2610492418
 30
0.0
 11
773.1539822721
 21
-960.3393954942
 31
0.0
  0
LINE
  5
514
  8
0
  6
CONTINUOUS
 62
     7
 10
771.1734391355
 20
-960.6177342842
 30
0.0
 11
771.404407134
 21
-962.2610492418
 31
0.0
  0
LINE
  5
515
  8
0
  6
CONTINUOUS
 62
     7
 10
-187.5771664477
 20
-962.2610492418
 30
0.0
 11
-187.3070978022
 21
-960.3393954942
 31
0.0
  0
ARC
  5
516
  8
0
  6
CONTINUOUS
 62
     7
 10
-189.2876300968
 20
-960.0610428522
 30
0.0
 40
2.00000008212362
 50
352.0000011903
 51
89.9999999999
  0
LINE
  5
517
  8
0
  6
CONTINUOUS
 62
     7
 10
-189.2876409388
 20
-958.06103775
 30
0.0
 11
-198.3265661097
 21
-958.06103775
 31
0.0
  0
LINE
  5
518
  8
0
  6
CONTINUOUS
 62
     7
 10
-198.3265661097
 20
-958.06103775
 30
0.0
 11
-198.3265661097
 21
-956.061048598
 31
0.0
  0
ARC
  5
519
  8
0
  6
CONTINUOUS
 62
     7
 10
-189.2876300968
 20
-960.0610428522
 30
0.0
 40
4.0
 50
352.0000011904
 51
90.0000000001
  0
LINE
  5
51A
  8
0
  6
CONTINUOUS
 62
     7
 10
-185.3265546656
 20
-960.6177342842
 30
0.0
 11
-185.5575226641
 21
-962.2610492418
 31
0.0
  0
LINE
  5
51B
  8
0
  6
CONTINUOUS
 62
     7
 10
781.2734461927
 20
-958.681045265
 30
0.0
 11
777.0734347009
 21
-958.681045265
 31
0.0
  0
LINE
  5
51C
  8
0
  6
CONTINUOUS
 62
     7
 10
776.6734279298
 20
-958.2810384939
 30
0.0
 11
781.6734529638
 21
-958.2810384939
 31
0.0
  0
LINE
  5
51D
  8
0
  6
CONTINUOUS
 62
     7
 10
-195.8265684939
 20
-958.2810384939
 30
0.0
 11
-190.82654346
 21
-958.2810384939
 31
0.0
  0
LINE
  5
51E
  8
0
  6
CONTINUOUS
 62
     7
 10
-191.226550231
 20
-958.681045265
 30
0.0
 11
-195.4265617228
 21
-958.681045265
 31
0.0
  0
LINE
  5
51F
  8
0
  6
CONTINUOUS
 62
     7
 10
-207.0765577651
 20
-579.8610431859
 30
0.0
 11
-205.5765472747
 21
-579.8610431859
 31
0.0
  0
ARC
  5
520
  8
0
  6
CONTINUOUS
 62
     7
 10
-204.0766464714
 20
-579.8610182482
 30
0.0
 40
2.999911293788714
 50
132.4253070807
 51
180.0004762893
  0
LINE
  5
521
  8
0
  6
CONTINUOUS
 62
     7
 10
-206.1004721022
 20
-577.6466114233
 30
0.0
 11
-205.0885342456
 21
-578.7538273046
 31
0.0
  0
LINE
  5
522
  8
0
  6
CONTINUOUS
 62
     7
 10
-205.5765472747
 20
-952.5654895017
 30
0.0
 11
-207.0765577651
 21
-952.5654895017
 31
0.0
  0
LINE
  5
523
  8
0
  6
CONTINUOUS
 62
     7
 10
-207.0765577651
 20
-579.8610431859
 30
0.0
 11
-207.0765577651
 21
-952.5654895017
 31
0.0
  0
LINE
  5
524
  8
0
  6
CONTINUOUS
 62
     7
 10
-205.5765472747
 20
-953.0610425184
 30
0.0
 11
-207.0765577651
 21
-953.0610425184
 31
0.0
  0
LINE
  5
525
  8
0
  6
CONTINUOUS
 62
     7
 10
-207.0765577651
 20
-953.0610425184
 30
0.0
 11
-207.0765577651
 21
-952.5654895017
 31
0.0
  0
LINE
  5
526
  8
0
  6
CONTINUOUS
 62
     7
 10
-205.9559308387
 20
-955.3994221399
 30
0.0
 11
-205.3212605811
 21
-954.6097649047
 31
0.0
  0
ARC
  5
527
  8
0
  6
CONTINUOUS
 62
     7
 10
-204.0764576564
 20
-953.0610078865
 30
0.0
 40
3.000100108846219
 50
180.000661398
 51
231.2098254923
  0
POLYLINE
  5
528
  8
0
  6
CONTINUOUS
 62
     7
 66
     1
 10
0.0
 20
0.0
 30
0.0
  0
VERTEX
  5
8F1
  8
0
  6
CONTINUOUS
 62
     7
 10
-205.5765472747
 20
-953.0610425184
 30
0.0
  0
VERTEX
  5
8F2
  8
0
  6
CONTINUOUS
 62
     7
 10
-205.5392645693
 20
-953.3934427211
 30
0.0
  0
VERTEX
  5
8F3
  8
0
  6
CONTINUOUS
 62
     7
 10
-205.5037402011
 20
-953.4954113672
 30
0.0
  0
SEQEND
  5
8F4
  8
0
  6
CONTINUOUS
 62
     7
  0
POLYLINE
  5
529
  8
0
  6
CONTINUOUS
 62
     7
 66
     1
 10
0.0
 20
0.0
 30
0.0
  0
VERTEX
  5
8F5
  8
0
  6
CONTINUOUS
 62
     7
 10
-204.0765665866
 20
-576.8610371063
 30
0.0
  0
VERTEX
  5
8F6
  8
0
  6
CONTINUOUS
 62
     7
 10
-205.1620863772
 20
-577.0643187473
 30
0.0
  0
VERTEX
  5
8F7
  8
0
  6
CONTINUOUS
 62
     7
 10
-206.1004721022
 20
-577.6466114233
 30
0.0
  0
SEQEND
  5
8F8
  8
0
  6
CONTINUOUS
 62
     7
  0
POLYLINE
  5
52A
  8
0
  6
CONTINUOUS
 62
     7
 66
     1
 10
0.0
 20
0.0
 30
0.0
  0
VERTEX
  5
8F9
  8
0
  6
CONTINUOUS
 62
     7
 10
-205.9559308387
 20
-955.3994221399
 30
0.0
  0
VERTEX
  5
8FA
  8
0
  6
CONTINUOUS
 62
     7
 10
-205.072768817
 20
-955.8908028314
 30
0.0
  0
VERTEX
  5
8FB
  8
0
  6
CONTINUOUS
 62
     7
 10
-204.0765665866
 20
-956.061048598
 30
0.0
  0
SEQEND
  5
8FC
  8
0
  6
CONTINUOUS
 62
     7
  0
ARC
  5
52B
  8
0
  6
CONTINUOUS
 62
     7
 10
-186.0765516993
 20
-957.5610461704
 30
0.0
 40
1.499997572389265
 50
351.9998468036
 51
90.0003136568
  0
LINE
  5
52C
  8
0
  6
CONTINUOUS
 62
     7
 10
792.9234422349
 20
-579.8610431859
 30
0.0
 11
792.9234422349
 21
-952.5654895017
 31
0.0
  0
LINE
  5
52D
  8
0
  6
CONTINUOUS
 62
     7
 10
792.9234422349
 20
-952.5654895017
 30
0.0
 11
791.4234317445
 21
-952.5654895017
 31
0.0
  0
LINE
  5
52E
  8
0
  6
CONTINUOUS
 62
     7
 10
791.4234317445
 20
-579.8610431859
 30
0.0
 11
792.9234422349
 21
-579.8610431859
 31
0.0
  0
ARC
  5
52F
  8
0
  6
CONTINUOUS
 62
     7
 10
789.9235309412
 20
-579.8610182482
 30
0.0
 40
2.999911293788714
 50
359.9995237107
 51
47.5746929193
  0
LINE
  5
530
  8
0
  6
CONTINUOUS
 62
     7
 10
790.9354187154
 20
-578.7538273046
 30
0.0
 11
791.9473565721
 21
-577.6466114233
 31
0.0
  0
LINE
  5
531
  8
0
  6
CONTINUOUS
 62
     7
 10
792.9234422349
 20
-953.0610425184
 30
0.0
 11
791.4234317445
 21
-953.0610425184
 31
0.0
  0
LINE
  5
532
  8
0
  6
CONTINUOUS
 62
     7
 10
792.9234422349
 20
-952.5654895017
 30
0.0
 11
792.9234422349
 21
-953.0610425184
 31
0.0
  0
ARC
  5
533
  8
0
  6
CONTINUOUS
 62
     7
 10
789.9233421263
 20
-953.0610078865
 30
0.0
 40
3.000100108846219
 50
308.7901745077
 51
359.999338602
  0
LINE
  5
534
  8
0
  6
CONTINUOUS
 62
     7
 10
791.1681450509
 20
-954.6097649047
 30
0.0
 11
791.8028153085
 21
-955.3994221399
 31
0.0
  0
POLYLINE
  5
535
  8
0
  6
CONTINUOUS
 62
     7
 66
     1
 10
0.0
 20
0.0
 30
0.0
  0
VERTEX
  5
8FD
  8
0
  6
CONTINUOUS
 62
     7
 10
791.4234317445
 20
-953.0610425184
 30
0.0
  0
VERTEX
  5
8FE
  8
0
  6
CONTINUOUS
 62
     7
 10
791.3861490392
 20
-953.3934427211
 30
0.0
  0
VERTEX
  5
8FF
  8
0
  6
CONTINUOUS
 62
     7
 10
791.3506246709
 20
-953.4954113672
 30
0.0
  0
SEQEND
  5
900
  8
0
  6
CONTINUOUS
 62
     7
  0
POLYLINE
  5
536
  8
0
  6
CONTINUOUS
 62
     7
 66
     1
 10
0.0
 20
0.0
 30
0.0
  0
VERTEX
  5
901
  8
0
  6
CONTINUOUS
 62
     7
 10
789.9234510564
 20
-576.8610371063
 30
0.0
  0
VERTEX
  5
902
  8
0
  6
CONTINUOUS
 62
     7
 10
791.0089708471
 20
-577.0643187473
 30
0.0
  0
VERTEX
  5
903
  8
0
  6
CONTINUOUS
 62
     7
 10
791.9473565721
 20
-577.6466114233
 30
0.0
  0
SEQEND
  5
904
  8
0
  6
CONTINUOUS
 62
     7
  0
POLYLINE
  5
537
  8
0
  6
CONTINUOUS
 62
     7
 66
     1
 10
0.0
 20
0.0
 30
0.0
  0
VERTEX
  5
905
  8
0
  6
CONTINUOUS
 62
     7
 10
791.8028153085
 20
-955.3994221399
 30
0.0
  0
VERTEX
  5
906
  8
0
  6
CONTINUOUS
 62
     7
 10
790.9196532869
 20
-955.8908028314
 30
0.0
  0
VERTEX
  5
907
  8
0
  6
CONTINUOUS
 62
     7
 10
789.9234510564
 20
-956.061048598
 30
0.0
  0
SEQEND
  5
908
  8
0
  6
CONTINUOUS
 62
     7
  0
ARC
  5
538
  8
0
  6
CONTINUOUS
 62
     7
 10
771.9234361692
 20
-957.5610461704
 30
0.0
 40
1.499997572389265
 50
89.9996863432
 51
188.0001531964
  0
LINE
  5
539
  8
0
  6
CONTINUOUS
 62
     7
 10
-1136.1636913908
 20
475.1755530013
 30
0.0
 11
-1834.116240301
 21
878.0949831059
 31
0.0
  0
POLYLINE
  5
53A
  8
0
  6
CONTINUOUS
 62
     7
 66
     1
 10
0.0
 20
0.0
 30
0.0
  0
VERTEX
  5
909
  8
0
  6
CONTINUOUS
 62
     7
 10
-1136.6032619473
 20
473.5251020616
 30
0.0
  0
VERTEX
  5
90A
  8
0
  6
CONTINUOUS
 62
     7
 10
-1136.5419698929
 20
474.1938099224
 30
0.0
  0
VERTEX
  5
90B
  8
0
  6
CONTINUOUS
 62
     7
 10
-1136.4642511042
 20
474.5239635729
 30
0.0
  0
VERTEX
  5
90C
  8
0
  6
CONTINUOUS
 62
     7
 10
-1136.3856577684
 20
474.7587600923
 30
0.0
  0
VERTEX
  5
90D
  8
0
  6
CONTINUOUS
 62
     7
 10
-1136.3438270213
 20
474.8638175897
 30
0.0
  0
VERTEX
  5
90E
  8
0
  6
CONTINUOUS
 62
     7
 10
-1136.3483578075
 20
474.858227694
 30
0.0
  0
SEQEND
  5
90F
  8
0
  6
CONTINUOUS
 62
     7
  0
LINE
  5
53B
  8
0
  6
CONTINUOUS
 62
     7
 10
-1135.7245949863
 20
-483.5506876818
 30
0.0
 11
-1135.7245949863
 21
473.7615286444
 31
0.0
  0
LINE
  5
53C
  8
0
  6
CONTINUOUS
 62
     7
 10
-1773.9081731632
 20
498.7871110202
 30
0.0
 11
-1770.9435530553
 21
497.0756722609
 31
0.0
  0
LINE
  5
53D
  8
0
  6
CONTINUOUS
 62
     7
 10
-1773.9081731632
 20
-432.6159110265
 30
0.0
 11
-1770.9435530553
 21
-434.3273497858
 31
0.0
  0
LINE
  5
53E
  8
0
  6
CONTINUOUS
 62
     7
 10
-1770.9435507504
 20
510.3485150726
 30
0.0
 11
-1770.9435507504
 21
-446.2116855842
 31
0.0
  0
LINE
  5
53F
  8
0
  6
CONTINUOUS
 62
     7
 10
-1768.3752567215
 20
-450.6599955404
 30
0.0
 11
-1422.2615567045
 21
-650.4671815446
 31
0.0
  0
LINE
  5
540
  8
0
  6
CONTINUOUS
 62
     7
 10
-2124.2141049563
 20
714.2872650572
 30
0.0
 11
-2124.2141049563
 21
-242.2729355995
 31
0.0
  0
LINE
  5
541
  8
0
  6
CONTINUOUS
 62
     7
 10
-2121.6458129853
 20
-246.7212443677
 30
0.0
 11
-1779.0676395512
 21
-444.4874143198
 31
0.0
  0
LINE
  5
542
  8
0
  6
CONTINUOUS
 62
     7
 10
-1774.0567928293
 20
-444.769995558
 30
0.0
 11
-1770.834421282
 21
-446.630231056
 31
0.0
  0
LINE
  5
543
  8
0
  6
CONTINUOUS
 62
     7
 10
-1417.2507178851
 20
-650.7497582208
 30
0.0
 11
-1404.8238249687
 21
-657.9236508008
 31
0.0
  0
LINE
  5
544
  8
0
  6
CONTINUOUS
 62
     7
 10
-1405.5004820849
 20
319.1805322545
 30
0.0
 11
-1404.8541180161
 21
319.4982282674
 31
0.0
  0
LINE
  5
545
  8
0
  6
CONTINUOUS
 62
     7
 10
-1138.1087684495
 20
474.6662660534
 30
0.0
 11
-1842.0336943812
 21
881.0334760245
 31
0.0
  0
POLYLINE
  5
546
  8
0
  6
CONTINUOUS
 62
     7
 66
     1
 10
0.0
 20
0.0
 30
0.0
  0
VERTEX
  5
910
  8
0
  6
CONTINUOUS
 62
     7
 10
-1745.0313896393
 20
58.1929896325
 30
0.0
  0
VERTEX
  5
911
  8
0
  6
CONTINUOUS
 62
     7
 10
-1746.0161059737
 20
57.5468353891
 30
0.0
  0
VERTEX
  5
912
  8
0
  6
CONTINUOUS
 62
     7
 10
-1746.9152773765
 20
56.6130125537
 30
0.0
  0
VERTEX
  5
913
  8
0
  6
CONTINUOUS
 62
     7
 10
-1747.6399634607
 20
55.4732239637
 30
0.0
  0
VERTEX
  5
914
  8
0
  6
CONTINUOUS
 62
     7
 10
-1748.176814212
 20
54.161897925
 30
0.0
  0
VERTEX
  5
915
  8
0
  6
CONTINUOUS
 62
     7
 10
-1748.5214384556
 20
52.7159096418
 30
0.0
  0
VERTEX
  5
916
  8
0
  6
CONTINUOUS
 62
     7
 10
-1748.6765046138
 20
51.172657068
 30
0.0
  0
VERTEX
  5
917
  8
0
  6
CONTINUOUS
 62
     7
 10
-1748.6504473247
 20
49.5756896741
 30
0.0
  0
VERTEX
  5
918
  8
0
  6
CONTINUOUS
 62
     7
 10
-1748.4614871977
 20
47.9847916698
 30
0.0
  0
VERTEX
  5
919
  8
0
  6
CONTINUOUS
 62
     7
 10
-1748.116934077
 20
46.3690198737
 30
0.0
  0
VERTEX
  5
91A
  8
0
  6
CONTINUOUS
 62
     7
 10
-1747.7731580387
 20
45.1944797379
 30
0.0
  0
VERTEX
  5
91B
  8
0
  6
CONTINUOUS
 62
     7
 10
-1747.3668940292
 20
44.0617606562
 30
0.0
  0
VERTEX
  5
91C
  8
0
  6
CONTINUOUS
 62
     7
 10
-1746.6115276735
 20
42.3574654567
 30
0.0
  0
SEQEND
  5
91D
  8
0
  6
CONTINUOUS
 62
     7
  0
ARC
  5
547
  8
0
  6
CONTINUOUS
 62
     7
 10
-1735.5365948533
 20
39.227956674
 30
0.0
 40
5.784204672429855
 50
250.2124376947
 51
311.7220132932
  0
ARC
  5
548
  8
0
  6
CONTINUOUS
 62
     7
 10
-1732.2735797438
 20
48.4722407736
 30
0.0
 40
15.58740607064964
 50
203.0970323234
 51
250.4298726049
  0
ARC
  5
549
  8
0
  6
CONTINUOUS
 62
     7
 10
-1735.0588085805
 20
43.3772543632
 30
0.0
 40
0.7672799641293964
 50
4.2908116878
 51
65.1742476209
  0
LINE
  5
54A
  8
0
  6
CONTINUOUS
 62
     7
 10
-1743.9569215909
 20
79.4282055435
 30
0.0
 11
-1746.6300143349
 21
76.6415408885
 31
0.0
  0
LINE
  5
54B
  8
0
  6
CONTINUOUS
 62
     7
 10
-1736.6597189727
 20
44.9922803084
 30
0.0
 11
-1734.717913563
 21
44.0651309962
 31
0.0
  0
ARC
  5
54C
  8
0
  6
CONTINUOUS
 62
     7
 10
-1744.5583898981
 20
75.0417470537
 30
0.0
 40
2.635176859289927
 50
146.2179179816
 51
174.8301282567
  0
LINE
  5
54D
  8
0
  6
CONTINUOUS
 62
     7
 10
-1742.3140743145
 20
50.194749346
 30
0.0
 11
-1742.5077390834
 21
50.0829490547
 31
0.0
  0
ARC
  5
54E
  8
0
  6
CONTINUOUS
 62
     7
 10
-1479.6237871276
 20
36.2534091807
 30
0.0
 40
270.3700543374822
 50
171.6906241464
 51
177.7460230719
  0
LINE
  5
54F
  8
0
  6
CONTINUOUS
 62
     7
 10
-1744.7647581389
 20
58.3470569257
 30
0.0
 11
-1744.8891334888
 21
58.2852825073
 31
0.0
  0
LINE
  5
550
  8
0
  6
CONTINUOUS
 62
     7
 10
-1734.4158470998
 20
41.440082254
 30
0.0
 11
-1734.4561605604
 21
41.3846528126
 31
0.0
  0
ARC
  5
551
  8
0
  6
CONTINUOUS
 62
     7
 10
-1736.495033504
 20
45.3190108639
 30
0.0
 40
0.3606991658778694
 50
191.0457690733
 51
246.3096672565
  0
LINE
  5
552
  8
0
  6
CONTINUOUS
 62
     7
 10
-1734.5170153413
 20
41.348873072
 30
0.0
 11
-1734.4302560536
 21
41.3989581427
 31
0.0
  0
ARC
  5
553
  8
0
  6
CONTINUOUS
 62
     7
 10
-1741.4052395673
 20
48.0208845719
 30
0.0
 40
2.338429153776402
 50
54.2640153976
 51
117.2078803117
  0
LINE
  5
554
  8
0
  6
CONTINUOUS
 62
     7
 10
-1734.3865023565
 20
43.7315924582
 30
0.0
 11
-1736.861734086
 21
42.3026715962
 31
0.0
  0
LINE
  5
555
  8
0
  6
CONTINUOUS
 62
     7
 10
-1745.3633487549
 20
50.2101995169
 30
0.0
 11
-1743.7626852054
 21
49.0931140175
 31
0.0
  0
LINE
  5
556
  8
0
  6
CONTINUOUS
 62
     7
 10
-1743.3534182329
 20
49.0876744731
 30
0.0
 11
-1741.2026961636
 21
50.3292598959
 31
0.0
  0
POLYLINE
  5
557
  8
0
  6
CONTINUOUS
 62
     7
 66
     1
 10
0.0
 20
0.0
 30
0.0
  0
VERTEX
  5
91E
  8
0
  6
CONTINUOUS
 62
     7
 10
-1749.7936963956
 20
46.8821910971
 30
0.0
  0
VERTEX
  5
91F
  8
0
  6
CONTINUOUS
 62
     7
 10
-1750.2455632952
 20
34.7327808509
 30
0.0
  0
VERTEX
  5
920
  8
0
  6
CONTINUOUS
 62
     7
 10
-1750.5161249892
 20
22.0110779552
 30
0.0
  0
VERTEX
  5
921
  8
0
  6
CONTINUOUS
 62
     7
 10
-1750.5797930722
 20
9.4001916242
 30
0.0
  0
VERTEX
  5
922
  8
0
  6
CONTINUOUS
 62
     7
 10
-1750.4363014923
 20
-3.0950188068
 30
0.0
  0
VERTEX
  5
923
  8
0
  6
CONTINUOUS
 62
     7
 10
-1750.0855001013
 20
-15.4697487469
 30
0.0
  0
VERTEX
  5
924
  8
0
  6
CONTINUOUS
 62
     7
 10
-1749.773239369
 20
-22.3221657391
 30
0.0
  0
SEQEND
  5
925
  8
0
  6
CONTINUOUS
 62
     7
  0
ARC
  5
558
  8
0
  6
CONTINUOUS
 62
     7
 10
-1557.5950968498
 20
-15.4101210672
 30
0.0
 40
192.3032851747685
 50
182.0600156917
 51
189.6856030987
  0
LINE
  5
559
  8
0
  6
CONTINUOUS
 62
     7
 10
-1725.268237147
 20
-62.0003063945
 30
0.0
 11
-1721.5326249863
 21
-61.1110221621
 31
0.0
  0
ARC
  5
55A
  8
0
  6
CONTINUOUS
 62
     7
 10
-1725.5484999727
 20
-59.7185571535
 30
0.0
 40
2.323683027402538
 50
245.2752017136
 51
274.066847125
  0
ARC
  5
55B
  8
0
  6
CONTINUOUS
 62
     7
 10
-1698.7275007795
 20
7.9776992655
 30
0.0
 40
75.13580570377754
 50
231.6937035462
 51
248.3016276523
  0
ARC
  5
55C
  8
0
  6
CONTINUOUS
 62
     7
 10
-1741.5665806724
 20
-46.6483831341
 30
0.0
 40
5.71936138336631
 50
190.994647247
 51
229.5444986871
  0
LINE
  5
55D
  8
0
  6
CONTINUOUS
 62
     7
 10
-1210.4413900615
 20
460.3668063275
 30
0.0
 11
-1210.4413900615
 21
460.0468522125
 31
0.0
  0
LINE
  5
55E
  8
0
  6
CONTINUOUS
 62
     7
 10
-1191.7414128963
 20
460.0468582953
 30
0.0
 11
-1191.7414128963
 21
460.3668124103
 31
0.0
  0
LINE
  5
55F
  8
0
  6
CONTINUOUS
 62
     7
 10
-1877.9501955477
 20
845.7114374436
 30
0.0
 11
-1877.9501955477
 21
845.3914833286
 31
0.0
  0
LINE
  5
560
  8
0
  6
CONTINUOUS
 62
     7
 10
-1859.2502183825
 20
845.3914894113
 30
0.0
 11
-1859.2502183825
 21
845.7114435263
 31
0.0
  0
LINE
  5
561
  8
0
  6
CONTINUOUS
 62
     7
 10
-2054.7268908443
 20
743.6604234658
 30
0.0
 11
-2054.7268908443
 21
743.3404693508
 31
0.0
  0
LINE
  5
562
  8
0
  6
CONTINUOUS
 62
     7
 10
-2036.0269084108
 20
743.3404784749
 30
0.0
 11
-2036.0269084108
 21
743.6604325899
 31
0.0
  0
LINE
  5
563
  8
0
  6
CONTINUOUS
 62
     7
 10
-1387.2180853581
 20
358.3157923497
 30
0.0
 11
-1387.2180853581
 21
357.9958382347
 31
0.0
  0
LINE
  5
564
  8
0
  6
CONTINUOUS
 62
     7
 10
-1368.5181029246
 20
357.9958473588
 30
0.0
 11
-1368.5181029246
 21
358.3158014738
 31
0.0
  0
LINE
  5
565
  8
0
  6
CONTINUOUS
 62
     7
 10
-2109.89517679
 20
726.3942870835
 30
0.0
 11
-2109.89517679
 21
721.2329706876
 31
0.0
  0
LINE
  5
566
  8
0
  6
CONTINUOUS
 62
     7
 10
-1404.7734384114
 20
319.1822986074
 30
0.0
 11
-1405.5062667398
 21
318.6641414026
 31
0.0
  0
LINE
  5
567
  8
0
  6
CONTINUOUS
 62
     7
 10
-1137.1388114146
 20
-502.5786274093
 30
0.0
 11
-1137.1388114146
 21
472.9865675235
 31
0.0
  0
LINE
  5
568
  8
0
  6
CONTINUOUS
 62
     7
 10
-1401.8256351429
 20
-657.1081595243
 30
0.0
 11
-1139.330089289
 21
-505.5727064257
 31
0.0
  0
LINE
  5
569
  8
0
  6
CONTINUOUS
 62
     7
 10
-1136.6032619473
 20
474.4149774858
 30
0.0
 11
-1138.9742855938
 21
473.0462146696
 31
0.0
  0
LINE
  5
56A
  8
0
  6
CONTINUOUS
 62
     7
 10
-1136.6032619473
 20
474.4149774858
 30
0.0
 11
-1136.6032619473
 21
473.5251020616
 31
0.0
  0
LINE
  5
56B
  8
0
  6
CONTINUOUS
 62
     7
 10
-1136.6032619473
 20
473.1901577021
 30
0.0
 11
-1137.1387903412
 21
472.8810037409
 31
0.0
  0
LINE
  5
56C
  8
0
  6
CONTINUOUS
 62
     7
 10
-1836.6389820655
 20
878.536996731
 30
0.0
 11
-1837.1740363073
 21
878.2281164919
 31
0.0
  0
LINE
  5
56D
  8
0
  6
CONTINUOUS
 62
     7
 10
-1136.6032619473
 20
-485.3471354442
 30
0.0
 11
-1137.1387903412
 21
-485.6562894054
 31
0.0
  0
LINE
  5
56E
  8
0
  6
CONTINUOUS
 62
     7
 10
-1136.6032619473
 20
473.1084900713
 30
0.0
 11
-1137.1387903412
 21
472.79933611
 31
0.0
  0
LINE
  5
56F
  8
0
  6
CONTINUOUS
 62
     7
 10
-1136.6032619473
 20
473.1084900713
 30
0.0
 11
-1136.8136168682
 21
473.2299253823
 31
0.0
  0
LINE
  5
570
  8
0
  6
CONTINUOUS
 62
     7
 10
-1136.6032514106
 20
474.4145611347
 30
0.0
 11
-1136.2305046824
 21
474.9599950305
 31
0.0
  0
POLYLINE
  5
571
  8
0
  6
CONTINUOUS
 62
     7
 66
     1
 10
0.0
 20
0.0
 30
0.0
  0
VERTEX
  5
926
  8
0
  6
CONTINUOUS
 62
     7
 10
-1136.1687279392
 20
475.1686545545
 30
0.0
  0
VERTEX
  5
927
  8
0
  6
CONTINUOUS
 62
     7
 10
-1136.1663571789
 20
475.1767433384
 30
0.0
  0
VERTEX
  5
928
  8
0
  6
CONTINUOUS
 62
     7
 10
-1136.3359350239
 20
474.9802719588
 30
0.0
  0
VERTEX
  5
929
  8
0
  6
CONTINUOUS
 62
     7
 10
-1136.6032619473
 20
474.4149774858
 30
0.0
  0
SEQEND
  5
92A
  8
0
  6
CONTINUOUS
 62
     7
  0
ARC
  5
572
  8
0
  6
CONTINUOUS
 62
     7
 10
-1835.887891545
 20
875.5292084951
 30
0.0
 40
3.100149519227756
 50
55.3799441282
 51
104.0208859006
  0
ARC
  5
573
  8
0
  6
CONTINUOUS
 62
     7
 10
-1138.0734740454
 20
-483.5574529417
 30
0.0
 40
2.316136238043477
 50
309.4028734055
 51
0.2117464155
  0
POLYLINE
  5
574
  8
0
  6
CONTINUOUS
 62
     7
 66
     1
 10
0.0
 20
0.0
 30
0.0
  0
VERTEX
  5
92B
  8
0
  6
CONTINUOUS
 62
     7
 10
-1136.6032619473
 20
473.1084900713
 30
0.0
  0
VERTEX
  5
92C
  8
0
  6
CONTINUOUS
 62
     7
 10
-1135.9529571482
 20
473.3845623656
 30
0.0
  0
VERTEX
  5
92D
  8
0
  6
CONTINUOUS
 62
     7
 10
-1135.7245949863
 20
473.7615286444
 30
0.0
  0
VERTEX
  5
92E
  8
0
  6
CONTINUOUS
 62
     7
 10
-1135.9529360748
 20
474.1384949231
 30
0.0
  0
VERTEX
  5
92F
  8
0
  6
CONTINUOUS
 62
     7
 10
-1136.6032514106
 20
474.4145611347
 30
0.0
  0
SEQEND
  5
930
  8
0
  6
CONTINUOUS
 62
     7
  0
LINE
  5
575
  8
0
  6
CONTINUOUS
 62
     7
 10
-1136.6032619473
 20
-485.4287893866
 30
0.0
 11
-1137.1387903412
 21
-485.7379433479
 31
0.0
  0
LINE
  5
576
  8
0
  6
CONTINUOUS
 62
     7
 10
-1136.6032619473
 20
-486.6536015657
 30
0.0
 11
-1136.6032619473
 21
-485.4287893866
 31
0.0
  0
LINE
  5
577
  8
0
  6
CONTINUOUS
 62
     7
 10
-1136.6032619473
 20
-486.6536015657
 30
0.0
 11
-1137.1387903412
 21
-486.962755527
 31
0.0
  0
LINE
  5
578
  8
0
  6
CONTINUOUS
 62
     7
 10
-1136.6032619473
 20
-485.4287893866
 30
0.0
 11
-1136.6281601981
 21
-485.2323765123
 31
0.0
  0
POLYLINE
  5
579
  8
0
  6
CONTINUOUS
 62
     7
 66
     1
 10
0.0
 20
0.0
 30
0.0
  0
VERTEX
  5
931
  8
0
  6
CONTINUOUS
 62
     7
 10
-1136.6032619473
 20
-486.6536015657
 30
0.0
  0
VERTEX
  5
932
  8
0
  6
CONTINUOUS
 62
     7
 10
-1136.2630104393
 20
-485.6787835654
 30
0.0
  0
VERTEX
  5
933
  8
0
  6
CONTINUOUS
 62
     7
 10
-1136.1719837832
 20
-484.8094395873
 30
0.0
  0
SEQEND
  5
934
  8
0
  6
CONTINUOUS
 62
     7
  0
LINE
  5
57A
  8
0
  6
CONTINUOUS
 62
     7
 10
-1739.9067740852
 20
509.0305104472
 30
0.0
 11
-1739.9067740852
 21
507.6432314551
 31
0.0
  0
LINE
  5
57B
  8
0
  6
CONTINUOUS
 62
     7
 10
-1741.1083385894
 20
508.3368620236
 30
0.0
 11
-1739.9067740852
 21
509.0305104472
 31
0.0
  0
LINE
  5
57C
  8
0
  6
CONTINUOUS
 62
     7
 10
-1776.4636781755
 20
528.7470651233
 30
0.0
 11
-1775.2621136713
 21
529.4407135469
 31
0.0
  0
LINE
  5
57D
  8
0
  6
CONTINUOUS
 62
     7
 10
-1775.2621136713
 20
529.4407135469
 30
0.0
 11
-1739.9067740852
 21
509.0305104472
 31
0.0
  0
LINE
  5
57E
  8
0
  6
CONTINUOUS
 62
     7
 10
-1765.8929433336
 20
520.7663797386
 30
0.0
 11
-1762.1457951194
 21
518.6031971192
 31
0.0
  0
ARC
  5
57F
  8
0
  6
CONTINUOUS
 62
     7
 10
-1419.6934735109
 20
310.7300006162
 30
0.0
 40
3.136038631336154
 50
227.4345681671
 51
312.565596124
  0
ARC
  5
580
  8
0
  6
CONTINUOUS
 62
     7
 10
-1419.6934859297
 20
-637.8419732573
 30
0.0
 40
11.17490478739639
 50
259.0572856348
 51
280.9428786563
  0
LINE
  5
581
  8
0
  6
CONTINUOUS
 62
     7
 10
-1420.754121984
 20
309.0326018103
 30
0.0
 11
-1421.8147895736
 21
308.4202914442
 31
0.0
  0
ARC
  5
582
  8
0
  6
CONTINUOUS
 62
     7
 10
-1419.6934576492
 20
309.7348065193
 30
0.0
 40
1.272045708490004
 50
213.5062462625
 51
326.4934251561
  0
LINE
  5
583
  8
0
  6
CONTINUOUS
 62
     7
 10
-1418.6327973414
 20
309.0325957276
 30
0.0
 11
-1417.5721508252
 21
308.4202975269
 31
0.0
  0
ARC
  5
584
  8
0
  6
CONTINUOUS
 62
     7
 10
-1419.5302631757
 20
310.4473673795
 30
0.0
 40
3.13608704853626
 50
107.4351192639
 51
192.5650449075
  0
LINE
  5
585
  8
0
  6
CONTINUOUS
 62
     7
 10
-1420.4699152478
 20
313.4393727203
 30
0.0
 11
-1420.4699152478
 21
312.2145529366
 31
0.0
  0
ARC
  5
586
  8
0
  6
CONTINUOUS
 62
     7
 10
-1420.3920286064
 20
310.9448400369
 30
0.0
 40
1.272099515225396
 50
93.5102353667
 51
206.4900931224
  0
LINE
  5
587
  8
0
  6
CONTINUOUS
 62
     7
 10
-1422.5912398903
 20
309.7651185035
 30
0.0
 11
-1421.5305723007
 21
310.3774288696
 31
0.0
  0
ARC
  5
588
  8
0
  6
CONTINUOUS
 62
     7
 10
-1758.7289415993
 20
506.2621416282
 30
0.0
 40
11.17153740742867
 50
139.0538914071
 51
160.9462727643
  0
LINE
  5
589
  8
0
  6
CONTINUOUS
 62
     7
 10
-1417.5721402885
 20
311.7663116271
 30
0.0
 11
-1416.5114937723
 21
311.1540134264
 31
0.0
  0
ARC
  5
58A
  8
0
  6
CONTINUOUS
 62
     7
 10
-1421.110960353
 20
311.3659442517
 30
0.0
 40
4.604346587863845
 50
320.2265608711
 51
357.3618333596
  0
ARC
  5
58B
  8
0
  6
CONTINUOUS
 62
     7
 10
-1422.1716068692
 20
311.9782424524
 30
0.0
 40
4.604346587861262
 50
320.2265608711
 51
357.3618333596
  0
LINE
  5
58C
  8
0
  6
CONTINUOUS
 62
     7
 10
-1409.0868733285
 20
315.4401555755
 30
0.0
 11
-1416.5114937723
 21
311.1540134264
 31
0.0
  0
LINE
  5
58D
  8
0
  6
CONTINUOUS
 62
     7
 10
-1409.0868733285
 20
-646.0366718954
 30
0.0
 11
-1409.0868733285
 21
315.4401555755
 31
0.0
  0
LINE
  5
58E
  8
0
  6
CONTINUOUS
 62
     7
 10
-1416.5114937723
 20
-650.3228140446
 30
0.0
 11
-1409.0868733285
 21
-646.0366718954
 31
0.0
  0
ARC
  5
58F
  8
0
  6
CONTINUOUS
 62
     7
 10
-1417.8136312802
 20
-650.1106969778
 30
0.0
 40
1.319301231493181
 50
350.7478350526
 51
79.4533147163
  0
LINE
  5
590
  8
0
  6
CONTINUOUS
 62
     7
 10
-1760.5189376329
 20
519.542387715
 30
0.0
 11
-1767.9435580767
 21
515.2562455658
 31
0.0
  0
LINE
  5
591
  8
0
  6
CONTINUOUS
 62
     7
 10
-1410.1475198447
 20
317.2772735599
 30
0.0
 11
-1760.5189376329
 21
519.542387715
 31
0.0
  0
LINE
  5
592
  8
0
  6
CONTINUOUS
 62
     7
 10
-1417.5721402885
 20
312.9911314107
 30
0.0
 11
-1410.1475198447
 21
317.2772735599
 31
0.0
  0
ARC
  5
593
  8
0
  6
CONTINUOUS
 62
     7
 10
-1419.6883566241
 20
308.9011274927
 30
0.0
 40
4.605051968075657
 50
62.6424208214
 51
99.771403365
  0
ARC
  5
594
  8
0
  6
CONTINUOUS
 62
     7
 10
-1768.4106613439
 20
514.0228142057
 30
0.0
 40
1.318915608522547
 50
340.5389343705
 51
69.2582089464
  0
LINE
  5
595
  8
0
  6
CONTINUOUS
 62
     7
 10
-1417.5721402885
 20
312.9911314107
 30
0.0
 11
-1417.5721402885
 21
311.7663116271
 31
0.0
  0
ARC
  5
596
  8
0
  6
CONTINUOUS
 62
     7
 10
-1419.6883566241
 20
307.676307709
 30
0.0
 40
4.605051968075607
 50
62.6424208214
 51
99.771403365
  0
ARC
  5
597
  8
0
  6
CONTINUOUS
 62
     7
 10
-1770.1453292013
 20
510.496622146
 30
0.0
 40
1.038952428072818
 50
274.4410521301
 51
325.5661436234
  0
ARC
  5
598
  8
0
  6
CONTINUOUS
 62
     7
 10
-1417.8159805701
 20
311.6256061679
 30
0.0
 40
5.124891796354561
 50
201.2863740722
 51
218.7145239422
  0
ARC
  5
599
  8
0
  6
CONTINUOUS
 62
     7
 10
-1421.7341229035
 20
-649.8498390025
 30
0.0
 40
1.039284324487032
 50
94.4516336635
 51
145.559959737
  0
ARC
  5
59A
  8
0
  6
CONTINUOUS
 62
     7
 10
-1774.0655987024
 20
-450.9795841983
 30
0.0
 40
5.12705593254921
 50
21.2894409604
 51
38.7105661996
  0
ARC
  5
59B
  8
0
  6
CONTINUOUS
 62
     7
 10
-1416.7553129805
 20
312.237916534
 30
0.0
 40
5.124891796325908
 50
201.2863740722
 51
218.7145239422
  0
LINE
  5
59C
  8
0
  6
CONTINUOUS
 62
     7
 10
-1409.0868733285
 20
315.4401555755
 30
0.0
 11
-1410.1475198447
 21
316.0524537762
 31
0.0
  0
LINE
  5
59D
  8
0
  6
CONTINUOUS
 62
     7
 10
-1410.1475198447
 20
316.0524537762
 30
0.0
 11
-1417.5721402885
 21
311.7663116271
 31
0.0
  0
LINE
  5
59E
  8
0
  6
CONTINUOUS
 62
     7
 10
-1410.1475198447
 20
317.2772735599
 30
0.0
 11
-1410.1475198447
 21
316.0524537762
 31
0.0
  0
LINE
  5
59F
  8
0
  6
CONTINUOUS
 62
     7
 10
-1770.0648795911
 20
509.460789144
 30
0.0
 11
-1769.2886610821
 21
509.9088905511
 31
0.0
  0
LINE
  5
5A0
  8
0
  6
CONTINUOUS
 62
     7
 10
-1767.9435580767
 20
514.0314257822
 30
0.0
 11
-1767.9435580767
 21
515.2562455658
 31
0.0
  0
ARC
  5
5A1
  8
0
  6
CONTINUOUS
 62
     7
 10
-1768.8755459675
 20
512.2969304974
 30
0.0
 40
1.969029030081148
 50
35.8130528479
 51
61.7497448003
  0
POLYLINE
  5
5A2
  8
0
  6
CONTINUOUS
 62
     7
 66
     1
 10
0.0
 20
0.0
 30
0.0
  0
VERTEX
  5
935
  8
0
  6
CONTINUOUS
 62
     7
 10
-1770.0648795911
 20
509.460789144
 30
0.0
  0
VERTEX
  5
936
  8
0
  6
CONTINUOUS
 62
     7
 10
-1770.4916594023
 20
509.6230766788
 30
0.0
  0
VERTEX
  5
937
  8
0
  6
CONTINUOUS
 62
     7
 10
-1770.7630311061
 20
509.8399379538
 30
0.0
  0
VERTEX
  5
938
  8
0
  6
CONTINUOUS
 62
     7
 10
-1770.9435512443
 20
510.3480895518
 30
0.0
  0
VERTEX
  5
939
  8
0
  6
CONTINUOUS
 62
     7
 10
-1770.7700770384
 20
511.013979426
 30
0.0
  0
VERTEX
  5
93A
  8
0
  6
CONTINUOUS
 62
     7
 10
-1770.4997855535
 20
511.4451979749
 30
0.0
  0
VERTEX
  5
93B
  8
0
  6
CONTINUOUS
 62
     7
 10
-1770.0648753106
 20
511.9100159719
 30
0.0
  0
SEQEND
  5
93C
  8
0
  6
CONTINUOUS
 62
     7
  0
LINE
  5
5A3
  8
0
  6
CONTINUOUS
 62
     7
 10
-1770.0648753106
 20
511.9100159719
 30
0.0
 11
-1769.0042151296
 21
511.2977098827
 31
0.0
  0
ARC
  5
5A4
  8
0
  6
CONTINUOUS
 62
     7
 10
-1767.8083184146
 20
510.1679628104
 30
0.0
 40
1.645143580393928
 50
136.6292579948
 51
173.7027631316
  0
ARC
  5
5A5
  8
0
  6
CONTINUOUS
 62
     7
 10
-1768.5975152797
 20
-445.9196647625
 30
0.0
 40
2.364047859863192
 50
187.0954405468
 51
231.6327358132
  0
ARC
  5
5A6
  8
0
  6
CONTINUOUS
 62
     7
 10
-1772.5430246573
 20
514.2433566075
 30
0.0
 40
4.604346587862047
 50
320.2265608711
 51
357.3618333596
  0
LINE
  5
5A7
  8
0
  6
CONTINUOUS
 62
     7
 10
-1769.0042182577
 20
514.6437318714
 30
0.0
 11
-1767.9435580767
 21
514.0314257822
 31
0.0
  0
ARC
  5
5A8
  8
0
  6
CONTINUOUS
 62
     7
 10
-1773.6036848383
 20
514.8556626967
 30
0.0
 40
4.604346587860586
 50
320.2265608711
 51
357.3618333596
  0
LINE
  5
5A9
  8
0
  6
CONTINUOUS
 62
     7
 10
-1769.0042182577
 20
514.6437318714
 30
0.0
 11
-1767.9435506681
 21
515.2560422375
 31
0.0
  0
LINE
  5
5AA
  8
0
  6
CONTINUOUS
 62
     7
 10
-1416.5114937723
 20
-650.3228140446
 30
0.0
 11
-1417.5721402885
 21
-649.7105158439
 31
0.0
  0
ARC
  5
5AB
  8
0
  6
CONTINUOUS
 62
     7
 10
-1419.5409266129
 20
-649.6505104859
 30
0.0
 40
1.969700544222416
 50
358.2542596225
 51
24.1534288259
  0
LINE
  5
5AC
  8
0
  6
CONTINUOUS
 62
     7
 10
-1422.0107302723
 20
-648.9269574565
 30
0.0
 11
-1422.5912398903
 21
-649.2620785256
 31
0.0
  0
POLYLINE
  5
5AD
  8
0
  6
CONTINUOUS
 62
     7
 66
     1
 10
0.0
 20
0.0
 30
0.0
  0
VERTEX
  5
93D
  8
0
  6
CONTINUOUS
 62
     7
 10
-1420.4699152478
 20
-650.4870867133
 30
0.0
  0
VERTEX
  5
93E
  8
0
  6
CONTINUOUS
 62
     7
 10
-1421.0805809358
 20
-650.6272995806
 30
0.0
  0
VERTEX
  5
93F
  8
0
  6
CONTINUOUS
 62
     7
 10
-1421.5868804903
 20
-650.648311233
 30
0.0
  0
VERTEX
  5
940
  8
0
  6
CONTINUOUS
 62
     7
 10
-1422.2614091906
 20
-650.4672591296
 30
0.0
  0
VERTEX
  5
941
  8
0
  6
CONTINUOUS
 62
     7
 10
-1422.6038734081
 20
-650.0691594956
 30
0.0
  0
VERTEX
  5
942
  8
0
  6
CONTINUOUS
 62
     7
 10
-1422.6601815977
 20
-649.7245044825
 30
0.0
  0
VERTEX
  5
943
  8
0
  6
CONTINUOUS
 62
     7
 10
-1422.5912398903
 20
-649.2620785256
 30
0.0
  0
SEQEND
  5
944
  8
0
  6
CONTINUOUS
 62
     7
  0
ARC
  5
5AE
  8
0
  6
CONTINUOUS
 62
     7
 10
-1420.8701811895
 20
-647.8815298662
 30
0.0
 40
1.437591271044747
 50
243.5001771832
 51
286.1664168147
  0
LINE
  5
5AF
  8
0
  6
CONTINUOUS
 62
     7
 10
-1420.4699152478
 20
-649.2622745343
 30
0.0
 11
-1420.4699152478
 21
-650.4870867133
 31
0.0
  0
ARC
  5
5B0
  8
0
  6
CONTINUOUS
 62
     7
 10
-1767.3269156117
 20
-448.9975989818
 30
0.0
 40
1.96520204132362
 50
183.514122385
 51
237.7631832945
  0
ARC
  5
5B1
  8
0
  6
CONTINUOUS
 62
     7
 10
-1419.6883566241
 20
-653.800519762
 30
0.0
 40
4.605051968076263
 50
62.6424208214
 51
99.771403365
  0
LINE
  5
5B2
  8
0
  6
CONTINUOUS
 62
     7
 10
-1417.5721402885
 20
-649.7105158439
 30
0.0
 11
-1417.5721402885
 21
-650.9353280229
 31
0.0
  0
ARC
  5
5B3
  8
0
  6
CONTINUOUS
 62
     7
 10
-1419.6883566241
 20
-655.025331941
 30
0.0
 40
4.605051968075052
 50
62.6424208214
 51
99.771403365
  0
LINE
  5
5B4
  8
0
  6
CONTINUOUS
 62
     7
 10
-1410.1475198447
 20
-646.6491858738
 30
0.0
 11
-1410.1475198447
 21
-646.6489866325
 31
0.0
  0
LINE
  5
5B5
  8
0
  6
CONTINUOUS
 62
     7
 10
-1410.1475198447
 20
-646.6491858738
 30
0.0
 11
-1417.5721402885
 21
-650.9353280229
 31
0.0
  0
ARC
  5
5B6
  8
0
  6
CONTINUOUS
 62
     7
 10
-1776.4995502144
 20
516.7097597621
 30
0.0
 40
3.136036505759018
 50
227.4344127801
 51
312.5656590971
  0
LINE
  5
5B7
  8
0
  6
CONTINUOUS
 62
     7
 10
-1777.5602035136
 20
515.0123682747
 30
0.0
 11
-1778.6208711032
 21
514.4000579086
 31
0.0
  0
ARC
  5
5B8
  8
0
  6
CONTINUOUS
 62
     7
 10
-1776.4995444127
 20
515.7145714206
 30
0.0
 40
1.272040481486582
 50
213.5063176935
 51
326.4935898927
  0
LINE
  5
5B9
  8
0
  6
CONTINUOUS
 62
     7
 10
-1775.4388864443
 20
515.012366564
 30
0.0
 11
-1774.378226428
 21
514.4000605698
 31
0.0
  0
ARC
  5
5BA
  8
0
  6
CONTINUOUS
 62
     7
 10
-1776.4995556476
 20
-431.8621454917
 30
0.0
 40
11.17496721612723
 50
259.0572858385
 51
280.9427860388
  0
ARC
  5
5BB
  8
0
  6
CONTINUOUS
 62
     7
 10
-2111.999005559
 20
710.2006085701
 30
0.0
 40
11.17209366212169
 50
139.0544431426
 51
160.9457210287
  0
ARC
  5
5BC
  8
0
  6
CONTINUOUS
 62
     7
 10
-1776.3363183399
 20
516.4271186215
 30
0.0
 40
3.13611563171975
 50
107.4355988653
 51
192.5645653061
  0
LINE
  5
5BD
  8
0
  6
CONTINUOUS
 62
     7
 10
-1777.2760040214
 20
519.4191433666
 30
0.0
 11
-1777.2760040214
 21
518.194323583
 31
0.0
  0
ARC
  5
5BE
  8
0
  6
CONTINUOUS
 62
     7
 10
-1777.198106085
 20
516.9246041621
 30
0.0
 40
1.272106715738715
 50
93.5107251579
 51
206.4896033312
  0
LINE
  5
5BF
  8
0
  6
CONTINUOUS
 62
     7
 10
-1779.3973286639
 20
515.7448891498
 30
0.0
 11
-1778.3366610743
 21
516.3571995159
 31
0.0
  0
LINE
  5
5C0
  8
0
  6
CONTINUOUS
 62
     7
 10
-1765.8929489312
 20
521.4199186184
 30
0.0
 11
-1773.3175693751
 21
517.1337764693
 31
0.0
  0
LINE
  5
5C1
  8
0
  6
CONTINUOUS
 62
     7
 10
-1765.8929489312
 20
516.4400425846
 30
0.0
 11
-1765.8929489312
 21
521.4199186184
 31
0.0
  0
ARC
  5
5C2
  8
0
  6
CONTINUOUS
 62
     7
 10
-1777.9170359557
 20
517.3457072947
 30
0.0
 40
4.604346587862222
 50
320.2265608711
 51
357.3618333596
  0
LINE
  5
5C3
  8
0
  6
CONTINUOUS
 62
     7
 10
-1774.3782293914
 20
517.7460824635
 30
0.0
 11
-1773.3175693751
 21
517.1337764693
 31
0.0
  0
ARC
  5
5C4
  8
0
  6
CONTINUOUS
 62
     7
 10
-1778.9776959721
 20
517.9580132888
 30
0.0
 40
4.604346587862435
 50
320.2265608711
 51
357.3618333596
  0
LINE
  5
5C5
  8
0
  6
CONTINUOUS
 62
     7
 10
-1774.3782293914
 20
518.9709022471
 30
0.0
 11
-1774.3782293914
 21
517.7460824635
 31
0.0
  0
ARC
  5
5C6
  8
0
  6
CONTINUOUS
 62
     7
 10
-1776.4944552595
 20
513.6560144212
 30
0.0
 40
4.605113301009391
 50
62.6426821163
 51
99.7711474442
  0
ARC
  5
5C7
  8
0
  6
CONTINUOUS
 62
     7
 10
-1776.4944552595
 20
514.8808342049
 30
0.0
 40
4.605113301009291
 50
62.6426821163
 51
99.7711474442
  0
LINE
  5
5C8
  8
0
  6
CONTINUOUS
 62
     7
 10
-2113.7894929089
 20
723.4811383174
 30
0.0
 11
-2121.2141133527
 21
719.1949961683
 31
0.0
  0
LINE
  5
5C9
  8
0
  6
CONTINUOUS
 62
     7
 10
-1766.9536089476
 20
523.2570443963
 30
0.0
 11
-2113.7894929089
 21
723.4811383174
 31
0.0
  0
LINE
  5
5CA
  8
0
  6
CONTINUOUS
 62
     7
 10
-1774.3782293914
 20
518.9709022471
 30
0.0
 11
-1766.9536089476
 21
523.2570443963
 31
0.0
  0
ARC
  5
5CB
  8
0
  6
CONTINUOUS
 62
     7
 10
-2121.6811986501
 20
717.9615725595
 30
0.0
 40
1.318901995535384
 50
340.5383507506
 51
69.2588197362
  0
ARC
  5
5CC
  8
0
  6
CONTINUOUS
 62
     7
 10
-1774.6219192913
 20
517.6054750216
 30
0.0
 40
5.125067264189924
 50
201.2867880947
 51
218.7144185565
  0
ARC
  5
5CD
  8
0
  6
CONTINUOUS
 62
     7
 10
-1773.5612517017
 20
518.2177853877
 30
0.0
 40
5.125067264188292
 50
201.2867880946
 51
218.7144185565
  0
ARC
  5
5CE
  8
0
  6
CONTINUOUS
 62
     7
 10
-2123.415869536
 20
714.4353374201
 30
0.0
 40
1.038920886557826
 50
274.4407705597
 51
325.5672878806
  0
ARC
  5
5CF
  8
0
  6
CONTINUOUS
 62
     7
 10
-1778.5401972274
 20
-443.8701043453
 30
0.0
 40
1.039316595108555
 50
94.4518936056
 51
145.5587739849
  0
ARC
  5
5D0
  8
0
  6
CONTINUOUS
 62
     7
 10
-2127.3360065234
 20
-247.0407384338
 30
0.0
 40
5.126884464469146
 50
21.2890417305
 51
38.7106778362
  0
LINE
  5
5D1
  8
0
  6
CONTINUOUS
 62
     7
 10
-1765.8929489312
 20
521.4199186184
 30
0.0
 11
-1766.9536089476
 21
522.0322246126
 31
0.0
  0
LINE
  5
5D2
  8
0
  6
CONTINUOUS
 62
     7
 10
-1766.9536089476
 20
522.0322246126
 30
0.0
 11
-1774.3782293914
 21
517.7460824635
 31
0.0
  0
LINE
  5
5D3
  8
0
  6
CONTINUOUS
 62
     7
 10
-1766.9536089476
 20
523.2570443963
 30
0.0
 11
-1766.9536089476
 21
522.0322246126
 31
0.0
  0
LINE
  5
5D4
  8
0
  6
CONTINUOUS
 62
     7
 10
-2123.3354274585
 20
713.3995354696
 30
0.0
 11
-2122.5592089495
 21
713.8476368767
 31
0.0
  0
LINE
  5
5D5
  8
0
  6
CONTINUOUS
 62
     7
 10
-2121.2141133527
 20
717.9701763846
 30
0.0
 11
-2121.2141133527
 21
719.1949961683
 31
0.0
  0
ARC
  5
5D6
  8
0
  6
CONTINUOUS
 62
     7
 10
-2122.1333585799
 20
716.2525348741
 30
0.0
 40
1.948154035645344
 50
34.6203055585
 51
61.8452570786
  0
ARC
  5
5D7
  8
0
  6
CONTINUOUS
 62
     7
 10
-2121.8680028329
 20
-241.9808795657
 30
0.0
 40
2.364115773903945
 50
187.0961351016
 51
231.6321744732
  0
POLYLINE
  5
5D8
  8
0
  6
CONTINUOUS
 62
     7
 66
     1
 10
0.0
 20
0.0
 30
0.0
  0
VERTEX
  5
945
  8
0
  6
CONTINUOUS
 62
     7
 10
-2123.3354274585
 20
713.3995354696
 30
0.0
  0
VERTEX
  5
946
  8
0
  6
CONTINUOUS
 62
     7
 10
-2123.7622064465
 20
713.5618225291
 30
0.0
  0
VERTEX
  5
947
  8
0
  6
CONTINUOUS
 62
     7
 10
-2124.0335689307
 20
713.7786784818
 30
0.0
  0
VERTEX
  5
948
  8
0
  6
CONTINUOUS
 62
     7
 10
-2124.2140944196
 20
714.2868331687
 30
0.0
  0
VERTEX
  5
949
  8
0
  6
CONTINUOUS
 62
     7
 10
-2124.0406285278
 20
714.9527278425
 30
0.0
  0
VERTEX
  5
94A
  8
0
  6
CONTINUOUS
 62
     7
 10
-2123.7703302516
 20
715.3839424709
 30
0.0
  0
VERTEX
  5
94B
  8
0
  6
CONTINUOUS
 62
     7
 10
-2123.3354169218
 20
715.8487586858
 30
0.0
  0
SEQEND
  5
94C
  8
0
  6
CONTINUOUS
 62
     7
  0
LINE
  5
5D9
  8
0
  6
CONTINUOUS
 62
     7
 10
-2123.3354169218
 20
715.8487586858
 30
0.0
 11
-2122.2747704056
 21
715.2364604851
 31
0.0
  0
ARC
  5
5DA
  8
0
  6
CONTINUOUS
 62
     7
 10
-2121.0789456038
 20
714.1067711262
 30
0.0
 40
1.645051672212717
 50
136.6289991898
 51
173.7047019472
  0
LINE
  5
5DB
  8
0
  6
CONTINUOUS
 62
     7
 10
-2122.2747598689
 20
718.5824745853
 30
0.0
 11
-2121.2141133527
 21
717.9701763846
 31
0.0
  0
ARC
  5
5DC
  8
0
  6
CONTINUOUS
 62
     7
 10
-2125.8135799333
 20
718.18210721
 30
0.0
 40
4.604346587857343
 50
320.2265608711
 51
357.3618333597
  0
ARC
  5
5DD
  8
0
  6
CONTINUOUS
 62
     7
 10
-2126.8742264495
 20
718.7944054107
 30
0.0
 40
4.60434658786564
 50
320.2265608712
 51
357.3618333596
  0
LINE
  5
5DE
  8
0
  6
CONTINUOUS
 62
     7
 10
-2122.2747598689
 20
718.5824745853
 30
0.0
 11
-2121.2140922793
 21
719.1947849514
 31
0.0
  0
LINE
  5
5DF
  8
0
  6
CONTINUOUS
 62
     7
 10
-1773.3175693751
 20
-444.3430510016
 30
0.0
 11
-1770.9435533023
 21
-442.9725606945
 31
0.0
  0
ARC
  5
5E0
  8
0
  6
CONTINUOUS
 62
     7
 10
-1774.6197068829
 20
-444.1309339349
 30
0.0
 40
1.319301231492993
 50
350.7478350525
 51
79.4533147163
  0
LINE
  5
5E1
  8
0
  6
CONTINUOUS
 62
     7
 10
-1773.3175693751
 20
-444.3430510016
 30
0.0
 11
-1774.3782293914
 21
-443.7307450075
 31
0.0
  0
ARC
  5
5E2
  8
0
  6
CONTINUOUS
 62
     7
 10
-1776.327113396
 20
-443.6683241728
 30
0.0
 40
1.949883387222783
 50
358.1654997695
 51
25.331665635
  0
LINE
  5
5E3
  8
0
  6
CONTINUOUS
 62
     7
 10
-1778.8168190459
 20
-442.9471868101
 30
0.0
 11
-1779.3973286639
 21
-443.2823078793
 31
0.0
  0
POLYLINE
  5
5E4
  8
0
  6
CONTINUOUS
 62
     7
 66
     1
 10
0.0
 20
0.0
 30
0.0
  0
VERTEX
  5
94D
  8
0
  6
CONTINUOUS
 62
     7
 10
-1777.2760040214
 20
-444.507316067
 30
0.0
  0
VERTEX
  5
94E
  8
0
  6
CONTINUOUS
 62
     7
 10
-1777.8866585142
 20
-444.6475353972
 30
0.0
  0
VERTEX
  5
94F
  8
0
  6
CONTINUOUS
 62
     7
 10
-1778.3929613614
 20
-444.6685451487
 30
0.0
  0
VERTEX
  5
950
  8
0
  6
CONTINUOUS
 62
     7
 10
-1779.0674940129
 20
-444.4874907643
 30
0.0
  0
VERTEX
  5
951
  8
0
  6
CONTINUOUS
 62
     7
 10
-1779.4099602061
 20
-444.0893899898
 30
0.0
  0
VERTEX
  5
952
  8
0
  6
CONTINUOUS
 62
     7
 10
-1779.4662690543
 20
-443.7447345966
 30
0.0
  0
VERTEX
  5
953
  8
0
  6
CONTINUOUS
 62
     7
 10
-1779.3973286639
 20
-443.2823078793
 30
0.0
  0
SEQEND
  5
954
  8
0
  6
CONTINUOUS
 62
     7
  0
ARC
  5
5E5
  8
0
  6
CONTINUOUS
 62
     7
 10
-1777.6775867697
 20
-441.9163057844
 30
0.0
 40
1.423996475423782
 50
243.2872011095
 51
286.3802674911
  0
LINE
  5
5E6
  8
0
  6
CONTINUOUS
 62
     7
 10
-1777.2760040214
 20
-443.282503888
 30
0.0
 11
-1777.2760040214
 21
-444.507316067
 31
0.0
  0
ARC
  5
5E7
  8
0
  6
CONTINUOUS
 62
     7
 10
-2120.5996632076
 20
-245.0601477741
 30
0.0
 40
1.962933907741877
 50
183.4802004319
 51
237.797045638
  0
ARC
  5
5E8
  8
0
  6
CONTINUOUS
 62
     7
 10
-1776.4944552595
 20
-447.8208130498
 30
0.0
 40
4.605113301007557
 50
62.6426821163
 51
99.7711474442
  0
LINE
  5
5E9
  8
0
  6
CONTINUOUS
 62
     7
 10
-1774.3782293914
 20
-443.7307450075
 30
0.0
 11
-1774.3782293914
 21
-444.9555571865
 31
0.0
  0
ARC
  5
5EA
  8
0
  6
CONTINUOUS
 62
     7
 10
-1776.4944552595
 20
-449.0456252288
 30
0.0
 40
4.605113301009609
 50
62.6426821163
 51
99.7711474442
  0
LINE
  5
5EB
  8
0
  6
CONTINUOUS
 62
     7
 10
-1770.9435562657
 20
-442.972762596
 30
0.0
 11
-1774.3782293914
 21
-444.9555571865
 31
0.0
  0
LINE
  5
5EC
  8
0
  6
CONTINUOUS
 62
     7
 10
-1410.7312853067
 20
-646.9861864678
 30
0.0
 11
-1405.4452697133
 21
-656.1418473264
 31
0.0
  0
LINE
  5
5ED
  8
0
  6
CONTINUOUS
 62
     7
 10
-1405.4452697133
 20
-656.1418473264
 30
0.0
 11
-1405.4452697133
 21
-656.5501177993
 31
0.0
  0
LINE
  5
5EE
  8
0
  6
CONTINUOUS
 62
     7
 10
-1405.4452697133
 20
-656.1418473264
 30
0.0
 11
-1404.6630768885
 21
-655.6902970202
 31
0.0
  0
ARC
  5
5EF
  8
0
  6
CONTINUOUS
 62
     7
 10
-1404.1520425451
 20
-656.7598932161
 30
0.0
 40
1.310130617163846
 50
170.7862579987
 51
309.2031904868
  0
ARC
  5
5F0
  8
0
  6
CONTINUOUS
 62
     7
 10
-1403.7379950887
 20
-656.0427054416
 30
0.0
 40
0.6550604933290575
 50
170.7852770012
 51
309.2036785844
  0
LINE
  5
5F1
  8
0
  6
CONTINUOUS
 62
     7
 10
-1402.9703962321
 20
-656.346214978
 30
0.0
 11
-1402.9703962321
 21
-657.5710262065
 31
0.0
  0
LINE
  5
5F2
  8
0
  6
CONTINUOUS
 62
     7
 10
-1403.3239450708
 20
-657.7751256067
 30
0.0
 11
-1402.9703962321
 21
-657.5710262065
 31
0.0
  0
LINE
  5
5F3
  8
0
  6
CONTINUOUS
 62
     7
 10
-1406.1492274506
 20
318.8060195266
 30
0.0
 11
-1405.7278011123
 21
319.2732498083
 31
0.0
  0
LINE
  5
5F4
  8
0
  6
CONTINUOUS
 62
     7
 10
-2109.2990517647
 20
725.4362873866
 30
0.0
 11
-2109.0196603059
 21
724.5644836022
 31
0.0
  0
ARC
  5
5F5
  8
0
  6
CONTINUOUS
 62
     7
 10
-2105.7082367317
 20
725.9739890842
 30
0.0
 40
3.63085055000807
 50
127.8964224591
 51
188.5163996909
  0
ARC
  5
5F6
  8
0
  6
CONTINUOUS
 62
     7
 10
-1399.3015154561
 20
315.2614642424
 30
0.0
 40
7.575722458064094
 50
119.116841496
 51
148.0243943707
  0
LINE
  5
5F7
  8
0
  6
CONTINUOUS
 62
     7
 10
-1402.9878028805
 20
320.6550170522
 30
0.0
 11
-1402.9878028805
 21
321.8798368359
 31
0.0
  0
ARC
  5
5F8
  8
0
  6
CONTINUOUS
 62
     7
 10
-1398.647178594
 20
312.0306958089
 30
0.0
 40
9.655047182970142
 50
116.7161303316
 51
128.8425384226
  0
LINE
  5
5F9
  8
0
  6
CONTINUOUS
 62
     7
 10
-1404.7026527793
 20
319.5507469055
 30
0.0
 11
-1405.7278011123
 21
319.2732498083
 31
0.0
  0
ARC
  5
5FA
  8
0
  6
CONTINUOUS
 62
     7
 10
-1405.1394106195
 20
326.4445751904
 30
0.0
 40
5.046409823559062
 50
295.2370340241
 51
299.9504344814
  0
ARC
  5
5FB
  8
0
  6
CONTINUOUS
 62
     7
 10
-1405.1394106195
 20
325.2197554067
 30
0.0
 40
5.046409823559062
 50
295.2370340241
 51
299.9504344814
  0
LINE
  5
5FC
  8
0
  6
CONTINUOUS
 62
     7
 10
-1844.0635919726
 20
881.1909767644
 30
0.0
 11
-2107.6054333408
 21
729.0515101221
 31
0.0
  0
LINE
  5
5FD
  8
0
  6
CONTINUOUS
 62
     7
 10
-1402.6199873335
 20
322.072074943
 30
0.0
 11
-1139.0781459653
 21
474.2115415853
 31
0.0
  0
ARC
  5
5FE
  8
0
  6
CONTINUOUS
 62
     7
 10
-2105.4361257436
 20
725.2821304657
 30
0.0
 40
4.349036496276062
 50
119.9207648801
 51
125.1256236439
  0
LINE
  5
5FF
  8
0
  6
CONTINUOUS
 62
     7
 10
-1406.1492274506
 20
318.8060195266
 30
0.0
 11
-1405.088559861
 21
319.4183298927
 31
0.0
  0
LINE
  5
600
  8
0
  6
CONTINUOUS
 62
     7
 10
-1404.8963280849
 20
319.4842919542
 30
0.0
 11
-1404.7026527793
 21
319.5507469055
 31
0.0
  0
LINE
  5
601
  8
0
  6
CONTINUOUS
 62
     7
 10
-1139.0781459653
 20
474.2115415853
 30
0.0
 11
-1139.0781459653
 21
472.9867218016
 31
0.0
  0
LINE
  5
602
  8
0
  6
CONTINUOUS
 62
     7
 10
-1402.6199873335
 20
320.8472551593
 30
0.0
 11
-1139.0781459653
 21
472.9867218016
 31
0.0
  0
LINE
  5
603
  8
0
  6
CONTINUOUS
 62
     7
 10
-1406.1492274506
 20
318.8060195266
 30
0.0
 11
-1410.1475303814
 21
316.497098029
 31
0.0
  0
LINE
  5
604
  8
0
  6
CONTINUOUS
 62
     7
 10
-1417.990995669
 20
311.9676169403
 30
0.0
 11
-1418.8771542324
 21
311.4559551931
 31
0.0
  0
LINE
  5
605
  8
0
  6
CONTINUOUS
 62
     7
 10
-1410.147509308
 20
316.4968868121
 30
0.0
 11
-1405.4995759276
 21
319.1809782341
 31
0.0
  0
LINE
  5
606
  8
0
  6
CONTINUOUS
 62
     7
 10
-1417.8164866428
 20
312.0682655592
 30
0.0
 11
-1418.8771542324
 21
311.4559551931
 31
0.0
  0
LINE
  5
607
  8
0
  6
CONTINUOUS
 62
     7
 10
-2105.6969713567
 20
718.8094175413
 30
0.0
 11
-2109.0196603059
 21
724.5644836022
 31
0.0
  0
LINE
  5
608
  8
0
  6
CONTINUOUS
 62
     7
 10
-1421.3123675292
 20
309.8932825523
 30
0.0
 11
-1421.0006072908
 21
310.0738079304
 31
0.0
  0
LINE
  5
609
  8
0
  6
CONTINUOUS
 62
     7
 10
-1421.0006072908
 20
310.0738079304
 30
0.0
 11
-1421.0629003329
 21
309.5260371458
 31
0.0
  0
ARC
  5
60A
  8
0
  6
CONTINUOUS
 62
     7
 10
-1422.1363665105
 20
311.6995892283
 30
0.0
 40
1.983207965279797
 50
304.9378752118
 51
337.2240755383
  0
POLYLINE
  5
60B
  8
0
  6
CONTINUOUS
 62
     7
 66
     1
 10
0.0
 20
0.0
 30
0.0
  0
VERTEX
  5
955
  8
0
  6
CONTINUOUS
 62
     7
 10
-1420.307797395
 20
310.9318335228
 30
0.0
  0
VERTEX
  5
956
  8
0
  6
CONTINUOUS
 62
     7
 10
-1419.5051001284
 20
311.1981842974
 30
0.0
  0
VERTEX
  5
957
  8
0
  6
CONTINUOUS
 62
     7
 10
-1418.8771542324
 20
311.4559551931
 30
0.0
  0
SEQEND
  5
958
  8
0
  6
CONTINUOUS
 62
     7
  0
LINE
  5
60C
  8
0
  6
CONTINUOUS
 62
     7
 10
-1419.6139654381
 20
310.4059965428
 30
0.0
 11
-1420.307797395
 21
310.9318335228
 31
0.0
  0
ARC
  5
60D
  8
0
  6
CONTINUOUS
 62
     7
 10
-1422.5881420155
 20
315.5091171414
 30
0.0
 40
5.882869589501085
 50
305.3105426823
 51
324.2045405976
  0
ARC
  5
60E
  8
0
  6
CONTINUOUS
 62
     7
 10
-1423.0564841655
 20
312.0939513003
 30
0.0
 40
3.834067610460906
 50
306.8217644103
 51
333.8799575046
  0
POLYLINE
  5
60F
  8
0
  6
CONTINUOUS
 62
     7
 66
     1
 10
0.0
 20
0.0
 30
0.0
  0
VERTEX
  5
959
  8
0
  6
CONTINUOUS
 62
     7
 10
-1138.0174678389
 20
473.598814868
 30
0.0
  0
VERTEX
  5
95A
  8
0
  6
CONTINUOUS
 62
     7
 10
-1137.9099828385
 20
474.2341890222
 30
0.0
  0
VERTEX
  5
95B
  8
0
  6
CONTINUOUS
 62
     7
 10
-1138.0494256868
 20
474.6217423724
 30
0.0
  0
VERTEX
  5
95C
  8
0
  6
CONTINUOUS
 62
     7
 10
-1138.3888447946
 20
474.6959611899
 30
0.0
  0
VERTEX
  5
95D
  8
0
  6
CONTINUOUS
 62
     7
 10
-1138.8564324687
 20
474.4306483948
 30
0.0
  0
VERTEX
  5
95E
  8
0
  6
CONTINUOUS
 62
     7
 10
-1139.0781459653
 20
474.2115415853
 30
0.0
  0
SEQEND
  5
95F
  8
0
  6
CONTINUOUS
 62
     7
  0
LINE
  5
610
  8
0
  6
CONTINUOUS
 62
     7
 10
-1138.9742855938
 20
473.0464557354
 30
0.0
 11
-1138.0174678389
 21
473.598814868
 31
0.0
  0
LINE
  5
611
  8
0
  6
CONTINUOUS
 62
     7
 10
-1139.0781354286
 20
472.9865045019
 30
0.0
 11
-1138.8840702646
 21
473.2742879219
 31
0.0
  0
POLYLINE
  5
612
  8
0
  6
CONTINUOUS
 62
     7
 66
     1
 10
0.0
 20
0.0
 30
0.0
  0
VERTEX
  5
960
  8
0
  6
CONTINUOUS
 62
     7
 10
-1138.8651568663
 20
473.3569417019
 30
0.0
  0
VERTEX
  5
961
  8
0
  6
CONTINUOUS
 62
     7
 10
-1138.8627334225
 20
473.3676910999
 30
0.0
  0
VERTEX
  5
962
  8
0
  6
CONTINUOUS
 62
     7
 10
-1138.9544555016
 20
473.2524946983
 30
0.0
  0
VERTEX
  5
963
  8
0
  6
CONTINUOUS
 62
     7
 10
-1139.0781459653
 20
472.9867218016
 30
0.0
  0
SEQEND
  5
964
  8
0
  6
CONTINUOUS
 62
     7
  0
ARC
  5
613
  8
0
  6
CONTINUOUS
 62
     7
 10
-1843.2228579259
 20
879.2894443248
 30
0.0
 40
2.079100612362986
 50
55.6977875039
 51
113.8518991551
  0
LINE
  5
614
  8
0
  6
CONTINUOUS
 62
     7
 10
-1138.9742645204
 20
473.0462640076
 30
0.0
 11
-1138.0174678389
 21
473.598814868
 31
0.0
  0
POLYLINE
  5
615
  8
0
  6
CONTINUOUS
 62
     7
 66
     1
 10
0.0
 20
0.0
 30
0.0
  0
VERTEX
  5
965
  8
0
  6
CONTINUOUS
 62
     7
 10
-1734.9133037186
 20
54.9186155679
 30
0.0
  0
VERTEX
  5
966
  8
0
  6
CONTINUOUS
 62
     7
 10
-1733.4600724794
 20
53.2806738123
 30
0.0
  0
VERTEX
  5
967
  8
0
  6
CONTINUOUS
 62
     7
 10
-1732.1492686122
 20
51.4485600933
 30
0.0
  0
VERTEX
  5
968
  8
0
  6
CONTINUOUS
 62
     7
 10
-1731.0256178258
 20
49.469156792
 30
0.0
  0
VERTEX
  5
969
  8
0
  6
CONTINUOUS
 62
     7
 10
-1730.1238701969
 20
47.3969959332
 30
0.0
  0
VERTEX
  5
96A
  8
0
  6
CONTINUOUS
 62
     7
 10
-1729.4785018474
 20
45.2861106726
 30
0.0
  0
VERTEX
  5
96B
  8
0
  6
CONTINUOUS
 62
     7
 10
-1729.1092164291
 20
43.1951587053
 30
0.0
  0
VERTEX
  5
96C
  8
0
  6
CONTINUOUS
 62
     7
 10
-1729.034021183
 20
41.1882790432
 30
0.0
  0
VERTEX
  5
96D
  8
0
  6
CONTINUOUS
 62
     7
 10
-1729.2505716906
 20
39.3146977769
 30
0.0
  0
VERTEX
  5
96E
  8
0
  6
CONTINUOUS
 62
     7
 10
-1729.7550273205
 20
37.6332651959
 30
0.0
  0
VERTEX
  5
96F
  8
0
  6
CONTINUOUS
 62
     7
 10
-1730.5263041115
 20
36.1858073969
 30
0.0
  0
VERTEX
  5
970
  8
0
  6
CONTINUOUS
 62
     7
 10
-1731.0895282532
 20
35.4694017856
 30
0.0
  0
SEQEND
  5
971
  8
0
  6
CONTINUOUS
 62
     7
  0
ARC
  5
616
  8
0
  6
CONTINUOUS
 62
     7
 10
-1744.1244535219
 20
46.6958484155
 30
0.0
 40
12.34743618495589
 50
41.7551985282
 51
78.2501780045
  0
ARC
  5
617
  8
0
  6
CONTINUOUS
 62
     7
 10
-1742.4889998022
 20
53.9683724726
 30
0.0
 40
4.895734366207327
 50
79.6572456612
 51
117.4815823921
  0
LINE
  5
618
  8
0
  6
CONTINUOUS
 62
     7
 10
-1720.7162826775
 20
64.4303011318
 30
0.0
 11
-1720.4620002037
 21
36.483952529
 31
0.0
  0
ARC
  5
619
  8
0
  6
CONTINUOUS
 62
     7
 10
-1725.5725848644
 20
64.1650288504
 30
0.0
 40
4.863536856914696
 50
3.1266757595
 51
55.0843574503
  0
ARC
  5
61A
  8
0
  6
CONTINUOUS
 62
     7
 10
-1724.5804996101
 20
63.8848791881
 30
0.0
 40
1.559950453463822
 50
246.4604639965
 51
280.3796215803
  0
ARC
  5
61B
  8
0
  6
CONTINUOUS
 62
     7
 10
-1668.885643619
 20
187.0501826113
 30
0.0
 40
133.9580898563093
 50
235.3788349725
 51
244.6265415602
  0
ARC
  5
61C
  8
0
  6
CONTINUOUS
 62
     7
 10
-1817.1698040993
 20
-72.7053053806
 30
0.0
 40
169.5548829270626
 50
56.1762798505
 51
63.8290966822
  0
POLYLINE
  5
61D
  8
0
  6
CONTINUOUS
 62
     7
 66
     1
 10
0.0
 20
0.0
 30
0.0
  0
VERTEX
  5
972
  8
0
  6
CONTINUOUS
 62
     7
 10
-1742.3875968575
 20
79.4672274091
 30
0.0
  0
VERTEX
  5
973
  8
0
  6
CONTINUOUS
 62
     7
 10
-1743.121431442
 20
79.6790022196
 30
0.0
  0
VERTEX
  5
974
  8
0
  6
CONTINUOUS
 62
     7
 10
-1743.7530230404
 20
79.5625130449
 30
0.0
  0
VERTEX
  5
975
  8
0
  6
CONTINUOUS
 62
     7
 10
-1743.9538922862
 20
79.37243779
 30
0.0
  0
SEQEND
  5
976
  8
0
  6
CONTINUOUS
 62
     7
  0
ARC
  5
61E
  8
0
  6
CONTINUOUS
 62
     7
 10
-1722.0209998037
 20
-59.84644179
 30
0.0
 40
1.321293884779283
 50
289.5425441977
 51
9.0868208998
  0
LINE
  5
61F
  8
0
  6
CONTINUOUS
 62
     7
 10
-1720.7162826775
 20
-59.6377716468
 30
0.0
 11
-1720.4620002037
 21
-31.9850113391
 31
0.0
  0
LINE
  5
620
  8
0
  6
CONTINUOUS
 62
     7
 10
-1720.4620002037
 20
36.483952529
 30
0.0
 11
-1720.4620002037
 21
-31.9850113391
 31
0.0
  0
LINE
  5
621
  8
0
  6
CONTINUOUS
 62
     7
 10
-1734.8021387714
 20
44.2850010102
 30
0.0
 11
-1736.7246251194
 21
45.1980279245
 31
0.0
  0
ARC
  5
622
  8
0
  6
CONTINUOUS
 62
     7
 10
-1744.4238363811
 20
43.5565452923
 30
0.0
 40
7.872249950541412
 50
12.0353448658
 51
56.8103095712
  0
LINE
  5
623
  8
0
  6
CONTINUOUS
 62
     7
 10
-1743.8507563137
 20
49.3118558977
 30
0.0
 11
-1745.439668795
 21
50.4259163798
 31
0.0
  0
LINE
  5
624
  8
0
  6
CONTINUOUS
 62
     7
 10
-1745.6460645463
 20
47.0174209718
 30
0.0
 11
-1744.0531428461
 21
45.9135899108
 31
0.0
  0
LINE
  5
625
  8
0
  6
CONTINUOUS
 62
     7
 10
-1736.9281469825
 20
41.8003686805
 30
0.0
 11
-1735.0091430179
 21
40.8768568791
 31
0.0
  0
ARC
  5
626
  8
0
  6
CONTINUOUS
 62
     7
 10
-1735.5123211229
 20
39.3018269559
 30
0.0
 40
5.827426745742108
 50
252.5030031489
 51
297.1828196314
  0
LINE
  5
627
  8
0
  6
CONTINUOUS
 62
     7
 10
-1745.0252967855
 20
58.2151186089
 30
0.0
 11
-1744.8891334888
 21
58.2852825073
 31
0.0
  0
LINE
  5
628
  8
0
  6
CONTINUOUS
 62
     7
 10
-1734.1897081841
 20
43.3381377146
 30
0.0
 11
-1734.3014394795
 21
41.5873314424
 31
0.0
  0
ARC
  5
629
  8
0
  6
CONTINUOUS
 62
     7
 10
-1743.7847298659
 20
43.9000889194
 30
0.0
 40
7.213559582364335
 50
11.7551789132
 51
56.7938415357
  0
LINE
  5
62A
  8
0
  6
CONTINUOUS
 62
     7
 10
-1746.6121993889
 20
76.6253059675
 30
0.0
 11
-1746.7186043763
 21
76.4951819433
 31
0.0
  0
ARC
  5
62B
  8
0
  6
CONTINUOUS
 62
     7
 10
-1734.241640548
 20
41.4253188861
 30
0.0
 40
0.1726962089833448
 50
110.2591337607
 51
175.5163255766
  0
ARC
  5
62C
  8
0
  6
CONTINUOUS
 62
     7
 10
-1736.5278214439
 20
45.1502038891
 30
0.0
 40
0.2025658970032672
 50
166.3263347063
 51
235.5149316589
  0
POLYLINE
  5
62D
  8
0
  6
CONTINUOUS
 62
     7
 66
     1
 10
0.0
 20
0.0
 30
0.0
  0
VERTEX
  5
977
  8
0
  6
CONTINUOUS
 62
     7
 10
-1749.7842792091
 20
46.9523378083
 30
0.0
  0
VERTEX
  5
978
  8
0
  6
CONTINUOUS
 62
     7
 10
-1749.7927638966
 20
46.9237204581
 30
0.0
  0
VERTEX
  5
979
  8
0
  6
CONTINUOUS
 62
     7
 10
-1749.798393135
 20
46.8872990407
 30
0.0
  0
SEQEND
  5
97A
  8
0
  6
CONTINUOUS
 62
     7
  0
ARC
  5
62E
  8
0
  6
CONTINUOUS
 62
     7
 10
-1743.4687790436
 20
49.6160992969
 30
0.0
 40
0.4882953728958701
 50
218.5353745132
 51
291.3923485697
  0
POLYLINE
  5
62F
  8
0
  6
CONTINUOUS
 62
     7
 66
     1
 10
0.0
 20
0.0
 30
0.0
  0
VERTEX
  5
97B
  8
0
  6
CONTINUOUS
 62
     7
 10
-1737.0356240804
 20
42.0875333549
 30
0.0
  0
VERTEX
  5
97C
  8
0
  6
CONTINUOUS
 62
     7
 10
-1737.5665979805
 20
41.4122814217
 30
0.0
  0
VERTEX
  5
97D
  8
0
  6
CONTINUOUS
 62
     7
 10
-1737.773188661
 20
41.3139321551
 30
0.0
  0
SEQEND
  5
97E
  8
0
  6
CONTINUOUS
 62
     7
  0
ARC
  5
630
  8
0
  6
CONTINUOUS
 62
     7
 10
-1733.4289855489
 20
49.4566653168
 30
0.0
 40
6.460882291100933
 50
191.4448613503
 51
253.8911455516
  0
ARC
  5
631
  8
0
  6
CONTINUOUS
 62
     7
 10
-1740.3630471833
 20
48.0075083318
 30
0.0
 40
0.6244361826559053
 50
15.5270752071
 51
57.1282593413
  0
LINE
  5
632
  8
0
  6
CONTINUOUS
 62
     7
 10
-1741.7589897829
 20
49.5334789499
 30
0.0
 11
-1740.0241280336
 21
48.5319645799
 31
0.0
  0
ARC
  5
633
  8
0
  6
CONTINUOUS
 62
     7
 10
-1741.3556647219
 20
50.1679823022
 30
0.0
 40
0.7518414785808557
 50
205.1742957603
 51
237.5577267313
  0
ARC
  5
634
  8
0
  6
CONTINUOUS
 62
     7
 10
-1743.4313365099
 20
49.2175181724
 30
0.0
 40
0.1514286767416003
 50
300.9676685032
 51
338.2663391165
  0
ARC
  5
635
  8
0
  6
CONTINUOUS
 62
     7
 10
-1743.6489232545
 20
49.2658029534
 30
0.0
 40
0.2070080067809499
 50
167.1355229361
 51
233.121324339
  0
ARC
  5
636
  8
0
  6
CONTINUOUS
 62
     7
 10
-1745.2170447146
 20
50.3842945059
 30
0.0
 40
0.2264948578042531
 50
169.417503179
 51
229.9610244095
  0
POLYLINE
  5
637
  8
0
  6
CONTINUOUS
 62
     7
 66
     1
 10
0.0
 20
0.0
 30
0.0
  0
VERTEX
  5
97F
  8
0
  6
CONTINUOUS
 62
     7
 10
-1745.3286039466
 20
50.2511499856
 30
0.0
  0
VERTEX
  5
980
  8
0
  6
CONTINUOUS
 62
     7
 10
-1745.3917978776
 20
50.1913134187
 30
0.0
  0
VERTEX
  5
981
  8
0
  6
CONTINUOUS
 62
     7
 10
-1745.4374771588
 20
50.0779426747
 30
0.0
  0
SEQEND
  5
982
  8
0
  6
CONTINUOUS
 62
     7
  0
ARC
  5
638
  8
0
  6
CONTINUOUS
 62
     7
 10
-1749.4351200916
 20
-22.3091171656
 30
0.0
 40
0.364233961870172
 50
182.2093759132
 51
234.8015687823
  0
ARC
  5
639
  8
0
  6
CONTINUOUS
 62
     7
 10
-1746.7880192273
 20
-47.7123032477
 30
0.0
 40
0.3921513430869644
 50
181.6144479894
 51
233.0255886433
  0
LINE
  5
63A
  8
0
  6
CONTINUOUS
 62
     7
 10
-1725.3807639642
 20
-62.0222213026
 30
0.0
 11
-1725.2699019476
 21
-61.9935173575
 31
0.0
  0
POLYLINE
  5
63B
  8
0
  6
CONTINUOUS
 62
     7
 66
     1
 10
0.0
 20
0.0
 30
0.0
  0
VERTEX
  5
983
  8
0
  6
CONTINUOUS
 62
     7
 10
-1741.2309213812
 20
50.3129720331
 30
0.0
  0
VERTEX
  5
984
  8
0
  6
CONTINUOUS
 62
     7
 10
-1741.1887297516
 20
50.0453645379
 30
0.0
  0
VERTEX
  5
985
  8
0
  6
CONTINUOUS
 62
     7
 10
-1740.9763096351
 20
49.0816285549
 30
0.0
  0
SEQEND
  5
986
  8
0
  6
CONTINUOUS
 62
     7
  0
LINE
  5
63C
  8
0
  6
CONTINUOUS
 62
     7
 10
-1740.7906527674
 20
50.2432195816
 30
0.0
 11
-1740.7906527674
 21
49.995004494
 31
0.0
  0
LINE
  5
63D
  8
0
  6
CONTINUOUS
 62
     7
 10
-1740.7906527674
 20
49.995004494
 30
0.0
 11
-1739.0368143996
 21
48.9825351552
 31
0.0
  0
ARC
  5
63E
  8
0
  6
CONTINUOUS
 62
     7
 10
-1731.0064845216
 20
50.9474338993
 30
0.0
 40
8.26722595703163
 50
193.7492562931
 51
225.5146520351
  0
ARC
  5
63F
  8
0
  6
CONTINUOUS
 62
     7
 10
-1733.5137024252
 20
48.1157476658
 30
0.0
 40
4.486973049822581
 50
225.1939902774
 51
258.4972579163
  0
LINE
  5
640
  8
0
  6
CONTINUOUS
 62
     7
 10
-1739.0368143996
 20
48.9825351552
 30
0.0
 11
-1738.8372701453
 21
49.0977296012
 31
0.0
  0
LINE
  5
641
  8
0
  6
CONTINUOUS
 62
     7
 10
-1740.7906527674
 20
49.995004494
 30
0.0
 11
-1740.5326508343
 21
50.1439458397
 31
0.0
  0
POLYLINE
  5
642
  8
0
  6
CONTINUOUS
 62
     7
 66
     1
 10
0.0
 20
0.0
 30
0.0
  0
VERTEX
  5
987
  8
0
  6
CONTINUOUS
 62
     7
 10
-1207.7028511643
 20
456.5501007065
 30
0.0
  0
VERTEX
  5
988
  8
0
  6
CONTINUOUS
 62
     7
 10
-1206.2859900212
 20
455.8788427548
 30
0.0
  0
VERTEX
  5
989
  8
0
  6
CONTINUOUS
 62
     7
 10
-1204.669484525
 20
455.3800388814
 30
0.0
  0
VERTEX
  5
98A
  8
0
  6
CONTINUOUS
 62
     7
 10
-1202.9155012774
 20
455.0728861332
 30
0.0
  0
VERTEX
  5
98B
  8
0
  6
CONTINUOUS
 62
     7
 10
-1201.0914067473
 20
454.969175852
 30
0.0
  0
VERTEX
  5
98C
  8
0
  6
CONTINUOUS
 62
     7
 10
-1199.2673122171
 20
455.0728861332
 30
0.0
  0
VERTEX
  5
98D
  8
0
  6
CONTINUOUS
 62
     7
 10
-1197.5133184328
 20
455.3800449641
 30
0.0
  0
VERTEX
  5
98E
  8
0
  6
CONTINUOUS
 62
     7
 10
-1195.8968129366
 20
455.8788305893
 30
0.0
  0
VERTEX
  5
98F
  8
0
  6
CONTINUOUS
 62
     7
 10
-1194.4799465252
 20
456.5501037478
 30
0.0
  0
VERTEX
  5
990
  8
0
  6
CONTINUOUS
 62
     7
 10
-1193.3171571216
 20
457.3680341928
 30
0.0
  0
VERTEX
  5
991
  8
0
  6
CONTINUOUS
 62
     7
 10
-1192.4531361904
 20
458.3012259936
 30
0.0
  0
VERTEX
  5
992
  8
0
  6
CONTINUOUS
 62
     7
 10
-1191.9210638381
 20
459.3137850523
 30
0.0
  0
VERTEX
  5
993
  8
0
  6
CONTINUOUS
 62
     7
 10
-1191.7414128963
 20
460.3668124103
 30
0.0
  0
VERTEX
  5
994
  8
0
  6
CONTINUOUS
 62
     7
 10
-1191.9210638381
 20
461.4198397682
 30
0.0
  0
VERTEX
  5
995
  8
0
  6
CONTINUOUS
 62
     7
 10
-1192.4531256537
 20
462.4323927442
 30
0.0
  0
VERTEX
  5
996
  8
0
  6
CONTINUOUS
 62
     7
 10
-1193.3171676583
 20
463.365584545
 30
0.0
  0
VERTEX
  5
997
  8
0
  6
CONTINUOUS
 62
     7
 10
-1194.4799570619
 20
464.18351499
 30
0.0
  0
VERTEX
  5
998
  8
0
  6
CONTINUOUS
 62
     7
 10
-1195.8968287417
 20
464.8547911898
 30
0.0
  0
VERTEX
  5
999
  8
0
  6
CONTINUOUS
 62
     7
 10
-1197.5133184328
 20
465.3535798564
 30
0.0
  0
VERTEX
  5
99A
  8
0
  6
CONTINUOUS
 62
     7
 10
-1199.2673016804
 20
465.6607326046
 30
0.0
  0
VERTEX
  5
99B
  8
0
  6
CONTINUOUS
 62
     7
 10
-1201.0913962105
 20
465.7644428858
 30
0.0
  0
VERTEX
  5
99C
  8
0
  6
CONTINUOUS
 62
     7
 10
-1202.9154907407
 20
465.6607326046
 30
0.0
  0
VERTEX
  5
99D
  8
0
  6
CONTINUOUS
 62
     7
 10
-1204.669484525
 20
465.3535737737
 30
0.0
  0
VERTEX
  5
99E
  8
0
  6
CONTINUOUS
 62
     7
 10
-1206.2859952895
 20
464.8547851071
 30
0.0
  0
VERTEX
  5
99F
  8
0
  6
CONTINUOUS
 62
     7
 10
-1207.7028458959
 20
464.1835210727
 30
0.0
  0
VERTEX
  5
9A0
  8
0
  6
CONTINUOUS
 62
     7
 10
-1208.8656511045
 20
463.3655815037
 30
0.0
  0
VERTEX
  5
9A1
  8
0
  6
CONTINUOUS
 62
     7
 10
-1209.7296667674
 20
462.4323927442
 30
0.0
  0
VERTEX
  5
9A2
  8
0
  6
CONTINUOUS
 62
     7
 10
-1210.2617391197
 20
461.4198336855
 30
0.0
  0
VERTEX
  5
9A3
  8
0
  6
CONTINUOUS
 62
     7
 10
-1210.4413900615
 20
460.3668063275
 30
0.0
  0
VERTEX
  5
9A4
  8
0
  6
CONTINUOUS
 62
     7
 10
-1210.2617391197
 20
459.3137789696
 30
0.0
  0
VERTEX
  5
9A5
  8
0
  6
CONTINUOUS
 62
     7
 10
-1209.7296773041
 20
458.3012259936
 30
0.0
  0
VERTEX
  5
9A6
  8
0
  6
CONTINUOUS
 62
     7
 10
-1208.8656511045
 20
457.3680493995
 30
0.0
  0
VERTEX
  5
9A7
  8
0
  6
CONTINUOUS
 62
     7
 10
-1207.7028511643
 20
456.5501007065
 30
0.0
  0
SEQEND
  5
9A8
  8
0
  6
CONTINUOUS
 62
     7
  0
POLYLINE
  5
643
  8
0
  6
CONTINUOUS
 62
     7
 66
     1
 10
0.0
 20
0.0
 30
0.0
  0
VERTEX
  5
9A9
  8
0
  6
CONTINUOUS
 62
     7
 10
-1207.7028511643
 20
456.2301465915
 30
0.0
  0
VERTEX
  5
9AA
  8
0
  6
CONTINUOUS
 62
     7
 10
-1206.2859900212
 20
455.5588886398
 30
0.0
  0
VERTEX
  5
9AB
  8
0
  6
CONTINUOUS
 62
     7
 10
-1204.669484525
 20
455.0600847664
 30
0.0
  0
VERTEX
  5
9AC
  8
0
  6
CONTINUOUS
 62
     7
 10
-1202.9155012774
 20
454.7529320182
 30
0.0
  0
VERTEX
  5
9AD
  8
0
  6
CONTINUOUS
 62
     7
 10
-1201.0914067473
 20
454.6492217371
 30
0.0
  0
VERTEX
  5
9AE
  8
0
  6
CONTINUOUS
 62
     7
 10
-1199.2673122171
 20
454.7529320182
 30
0.0
  0
VERTEX
  5
9AF
  8
0
  6
CONTINUOUS
 62
     7
 10
-1197.5133184328
 20
455.0600908491
 30
0.0
  0
VERTEX
  5
9B0
  8
0
  6
CONTINUOUS
 62
     7
 10
-1195.8968129366
 20
455.5588764743
 30
0.0
  0
VERTEX
  5
9B1
  8
0
  6
CONTINUOUS
 62
     7
 10
-1194.4799465252
 20
456.2301496328
 30
0.0
  0
VERTEX
  5
9B2
  8
0
  6
CONTINUOUS
 62
     7
 10
-1193.3171571216
 20
457.0480800778
 30
0.0
  0
VERTEX
  5
9B3
  8
0
  6
CONTINUOUS
 62
     7
 10
-1192.4531361904
 20
457.9812718786
 30
0.0
  0
VERTEX
  5
9B4
  8
0
  6
CONTINUOUS
 62
     7
 10
-1191.9210638381
 20
458.9938309373
 30
0.0
  0
VERTEX
  5
9B5
  8
0
  6
CONTINUOUS
 62
     7
 10
-1191.7414128963
 20
460.0468582953
 30
0.0
  0
SEQEND
  5
9B6
  8
0
  6
CONTINUOUS
 62
     7
  0
ARC
  5
644
  8
0
  6
CONTINUOUS
 62
     7
 10
-1205.7621506319
 20
460.513448492
 30
0.0
 40
4.702445504967365
 50
185.6944968321
 51
245.6254251716
  0
POLYLINE
  5
645
  8
0
  6
CONTINUOUS
 62
     7
 66
     1
 10
0.0
 20
0.0
 30
0.0
  0
VERTEX
  5
9B7
  8
0
  6
CONTINUOUS
 62
     7
 10
-1860.9397064152
 20
842.6166618269
 30
0.0
  0
VERTEX
  5
9B8
  8
0
  6
CONTINUOUS
 62
     7
 10
-1860.0410513113
 20
843.5388743281
 30
0.0
  0
VERTEX
  5
9B9
  8
0
  6
CONTINUOUS
 62
     7
 10
-1859.4712891397
 20
844.5445781677
 30
0.0
  0
VERTEX
  5
9BA
  8
0
  6
CONTINUOUS
 62
     7
 10
-1859.2523889452
 20
845.5951298609
 30
0.0
  0
VERTEX
  5
9BB
  8
0
  6
CONTINUOUS
 62
     7
 10
-1859.3926852672
 20
846.6501462664
 30
0.0
  0
VERTEX
  5
9BC
  8
0
  6
CONTINUOUS
 62
     7
 10
-1859.8868359926
 20
847.6690860926
 30
0.0
  0
VERTEX
  5
9BD
  8
0
  6
CONTINUOUS
 62
     7
 10
-1860.7158328927
 20
848.6128009894
 30
0.0
  0
VERTEX
  5
9BE
  8
0
  6
CONTINUOUS
 62
     7
 10
-1861.84781295
 20
849.4450136478
 30
0.0
  0
VERTEX
  5
9BF
  8
0
  6
CONTINUOUS
 62
     7
 10
-1863.239312227
 20
850.1337594036
 30
0.0
  0
VERTEX
  5
9C0
  8
0
  6
CONTINUOUS
 62
     7
 10
-1864.8368042261
 20
850.6525419525
 30
0.0
  0
VERTEX
  5
9C1
  8
0
  6
CONTINUOUS
 62
     7
 10
-1866.5789125991
 20
850.9814404048
 30
0.0
  0
VERTEX
  5
9C2
  8
0
  6
CONTINUOUS
 62
     7
 10
-1868.3987186874
 20
851.1078209627
 30
0.0
  0
VERTEX
  5
9C3
  8
0
  6
CONTINUOUS
 62
     7
 10
-1870.2262797959
 20
851.0268296199
 30
0.0
  0
VERTEX
  5
9C4
  8
0
  6
CONTINUOUS
 62
     7
 10
-1871.9913265912
 20
850.7415624783
 30
0.0
  0
VERTEX
  5
9C5
  8
0
  6
CONTINUOUS
 62
     7
 10
-1873.626055331
 20
850.2629866718
 30
0.0
  0
VERTEX
  5
9C6
  8
0
  6
CONTINUOUS
 62
     7
 10
-1875.0676461374
 20
849.6095084944
 30
0.0
  0
VERTEX
  5
9C7
  8
0
  6
CONTINUOUS
 62
     7
 10
-1876.2607022466
 20
848.8062221844
 30
0.0
  0
VERTEX
  5
9C8
  8
0
  6
CONTINUOUS
 62
     7
 10
-1877.1593678873
 20
847.8840036005
 30
0.0
  0
VERTEX
  5
9C9
  8
0
  6
CONTINUOUS
 62
     7
 10
-1877.7291195221
 20
846.8783058436
 30
0.0
  0
VERTEX
  5
9CA
  8
0
  6
CONTINUOUS
 62
     7
 10
-1877.9480302533
 20
845.8277480677
 30
0.0
  0
VERTEX
  5
9CB
  8
0
  6
CONTINUOUS
 62
     7
 10
-1877.807728663
 20
844.7727347035
 30
0.0
  0
VERTEX
  5
9CC
  8
0
  6
CONTINUOUS
 62
     7
 10
-1877.313583206
 20
843.753791836
 30
0.0
  0
VERTEX
  5
9CD
  8
0
  6
CONTINUOUS
 62
     7
 10
-1876.4845810375
 20
842.8100799806
 30
0.0
  0
VERTEX
  5
9CE
  8
0
  6
CONTINUOUS
 62
     7
 10
-1875.3525746385
 20
841.9778581981
 30
0.0
  0
VERTEX
  5
9CF
  8
0
  6
CONTINUOUS
 62
     7
 10
-1873.9610964349
 20
841.2891246078
 30
0.0
  0
VERTEX
  5
9D0
  8
0
  6
CONTINUOUS
 62
     7
 10
-1872.3636097041
 20
840.7703390175
 30
0.0
  0
VERTEX
  5
9D1
  8
0
  6
CONTINUOUS
 62
     7
 10
-1870.6214749893
 20
840.4414314411
 30
0.0
  0
VERTEX
  5
9D2
  8
0
  6
CONTINUOUS
 62
     7
 10
-1868.8016741693
 20
840.3150478419
 30
0.0
  0
VERTEX
  5
9D3
  8
0
  6
CONTINUOUS
 62
     7
 10
-1866.9741394027
 20
840.3960483087
 30
0.0
  0
VERTEX
  5
9D4
  8
0
  6
CONTINUOUS
 62
     7
 10
-1865.209087339
 20
840.6813184917
 30
0.0
  0
VERTEX
  5
9D5
  8
0
  6
CONTINUOUS
 62
     7
 10
-1863.5743585992
 20
841.1598942982
 30
0.0
  0
VERTEX
  5
9D6
  8
0
  6
CONTINUOUS
 62
     7
 10
-1862.1327677927
 20
841.8133724756
 30
0.0
  0
VERTEX
  5
9D7
  8
0
  6
CONTINUOUS
 62
     7
 10
-1860.9397064152
 20
842.6166618269
 30
0.0
  0
SEQEND
  5
9D8
  8
0
  6
CONTINUOUS
 62
     7
  0
ARC
  5
646
  8
0
  6
CONTINUOUS
 62
     7
 10
-1863.2225794596
 20
845.5515119135
 30
0.0
 40
3.975582941870787
 50
305.0452696603
 51
357.6931454511
  0
POLYLINE
  5
647
  8
0
  6
CONTINUOUS
 62
     7
 66
     1
 10
0.0
 20
0.0
 30
0.0
  0
VERTEX
  5
9D9
  8
0
  6
CONTINUOUS
 62
     7
 10
-1877.9501955477
 20
845.3914833286
 30
0.0
  0
VERTEX
  5
9DA
  8
0
  6
CONTINUOUS
 62
     7
 10
-1877.807728663
 20
844.4527805886
 30
0.0
  0
VERTEX
  5
9DB
  8
0
  6
CONTINUOUS
 62
     7
 10
-1877.313583206
 20
843.433837721
 30
0.0
  0
VERTEX
  5
9DC
  8
0
  6
CONTINUOUS
 62
     7
 10
-1876.4845810375
 20
842.4901258656
 30
0.0
  0
VERTEX
  5
9DD
  8
0
  6
CONTINUOUS
 62
     7
 10
-1875.3525746385
 20
841.6579040831
 30
0.0
  0
VERTEX
  5
9DE
  8
0
  6
CONTINUOUS
 62
     7
 10
-1873.9610964349
 20
840.9691704928
 30
0.0
  0
VERTEX
  5
9DF
  8
0
  6
CONTINUOUS
 62
     7
 10
-1872.3636097041
 20
840.4503849025
 30
0.0
  0
VERTEX
  5
9E0
  8
0
  6
CONTINUOUS
 62
     7
 10
-1870.6214749893
 20
840.1214773261
 30
0.0
  0
VERTEX
  5
9E1
  8
0
  6
CONTINUOUS
 62
     7
 10
-1868.8016741693
 20
839.9950937269
 30
0.0
  0
VERTEX
  5
9E2
  8
0
  6
CONTINUOUS
 62
     7
 10
-1866.9741394027
 20
840.0760941937
 30
0.0
  0
VERTEX
  5
9E3
  8
0
  6
CONTINUOUS
 62
     7
 10
-1865.209087339
 20
840.3613643767
 30
0.0
  0
VERTEX
  5
9E4
  8
0
  6
CONTINUOUS
 62
     7
 10
-1863.5743585992
 20
840.8399401832
 30
0.0
  0
VERTEX
  5
9E5
  8
0
  6
CONTINUOUS
 62
     7
 10
-1862.1327677927
 20
841.4934183606
 30
0.0
  0
VERTEX
  5
9E6
  8
0
  6
CONTINUOUS
 62
     7
 10
-1860.9397064152
 20
842.2967077119
 30
0.0
  0
SEQEND
  5
9E7
  8
0
  6
CONTINUOUS
 62
     7
  0
POLYLINE
  5
648
  8
0
  6
CONTINUOUS
 62
     7
 66
     1
 10
0.0
 20
0.0
 30
0.0
  0
VERTEX
  5
9E8
  8
0
  6
CONTINUOUS
 62
     7
 10
-2037.7164069802
 20
740.5656448077
 30
0.0
  0
VERTEX
  5
9E9
  8
0
  6
CONTINUOUS
 62
     7
 10
-2036.8177413396
 20
741.4878633916
 30
0.0
  0
VERTEX
  5
9EA
  8
0
  6
CONTINUOUS
 62
     7
 10
-2036.2479897047
 20
742.4935611485
 30
0.0
  0
VERTEX
  5
9EB
  8
0
  6
CONTINUOUS
 62
     7
 10
-2036.0290789735
 20
743.5441189244
 30
0.0
  0
VERTEX
  5
9EC
  8
0
  6
CONTINUOUS
 62
     7
 10
-2036.1693805639
 20
744.5991322886
 30
0.0
  0
VERTEX
  5
9ED
  8
0
  6
CONTINUOUS
 62
     7
 10
-2036.6635260209
 20
745.6180751562
 30
0.0
  0
VERTEX
  5
9EE
  8
0
  6
CONTINUOUS
 62
     7
 10
-2037.4925281893
 20
746.5617870116
 30
0.0
  0
VERTEX
  5
9EF
  8
0
  6
CONTINUOUS
 62
     7
 10
-2038.624513515
 20
747.3939966286
 30
0.0
  0
VERTEX
  5
9F0
  8
0
  6
CONTINUOUS
 62
     7
 10
-2040.016012792
 20
748.0827423844
 30
0.0
  0
VERTEX
  5
9F1
  8
0
  6
CONTINUOUS
 62
     7
 10
-2041.6134995227
 20
748.6015279746
 30
0.0
  0
VERTEX
  5
9F2
  8
0
  6
CONTINUOUS
 62
     7
 10
-2043.3556078958
 20
748.930426427
 30
0.0
  0
VERTEX
  5
9F3
  8
0
  6
CONTINUOUS
 62
     7
 10
-2045.1754139841
 20
749.0568069848
 30
0.0
  0
VERTEX
  5
9F4
  8
0
  6
CONTINUOUS
 62
     7
 10
-2047.0029698241
 20
748.9758186834
 30
0.0
  0
VERTEX
  5
9F5
  8
0
  6
CONTINUOUS
 62
     7
 10
-2048.7680218879
 20
748.6905485004
 30
0.0
  0
VERTEX
  5
9F6
  8
0
  6
CONTINUOUS
 62
     7
 10
-2050.4027453593
 20
748.2119757353
 30
0.0
  0
VERTEX
  5
9F7
  8
0
  6
CONTINUOUS
 62
     7
 10
-2051.8443467024
 20
747.5584914752
 30
0.0
  0
VERTEX
  5
9F8
  8
0
  6
CONTINUOUS
 62
     7
 10
-2053.0374028116
 20
746.7552051652
 30
0.0
  0
VERTEX
  5
9F9
  8
0
  6
CONTINUOUS
 62
     7
 10
-2053.9360579155
 20
745.832992664
 30
0.0
  0
VERTEX
  5
9FA
  8
0
  6
CONTINUOUS
 62
     7
 10
-2054.5058200871
 20
744.8272888244
 30
0.0
  0
VERTEX
  5
9FB
  8
0
  6
CONTINUOUS
 62
     7
 10
-2054.7247202816
 20
743.7767371313
 30
0.0
  0
VERTEX
  5
9FC
  8
0
  6
CONTINUOUS
 62
     7
 10
-2054.5844239596
 20
742.7217207257
 30
0.0
  0
VERTEX
  5
9FD
  8
0
  6
CONTINUOUS
 62
     7
 10
-2054.0902732342
 20
741.7027808995
 30
0.0
  0
VERTEX
  5
9FE
  8
0
  6
CONTINUOUS
 62
     7
 10
-2053.2612763342
 20
740.7590660027
 30
0.0
  0
VERTEX
  5
9FF
  8
0
  6
CONTINUOUS
 62
     7
 10
-2052.1292752034
 20
739.9268411789
 30
0.0
  0
VERTEX
  5
A00
  8
0
  6
CONTINUOUS
 62
     7
 10
-2050.7377969999
 20
739.2381075886
 30
0.0
  0
VERTEX
  5
A01
  8
0
  6
CONTINUOUS
 62
     7
 10
-2049.1403050007
 20
738.7193250397
 30
0.0
  0
VERTEX
  5
A02
  8
0
  6
CONTINUOUS
 62
     7
 10
-2047.3981755543
 20
738.3904144219
 30
0.0
  0
VERTEX
  5
A03
  8
0
  6
CONTINUOUS
 62
     7
 10
-2045.578369466
 20
738.264033864
 30
0.0
  0
VERTEX
  5
A04
  8
0
  6
CONTINUOUS
 62
     7
 10
-2043.750829431
 20
738.3450373722
 30
0.0
  0
VERTEX
  5
A05
  8
0
  6
CONTINUOUS
 62
     7
 10
-2041.9857826356
 20
738.6303045139
 30
0.0
  0
VERTEX
  5
A06
  8
0
  6
CONTINUOUS
 62
     7
 10
-2040.3510538958
 20
739.1088803204
 30
0.0
  0
VERTEX
  5
A07
  8
0
  6
CONTINUOUS
 62
     7
 10
-2038.909457821
 20
739.7623615391
 30
0.0
  0
VERTEX
  5
A08
  8
0
  6
CONTINUOUS
 62
     7
 10
-2037.7164069802
 20
740.5656448077
 30
0.0
  0
SEQEND
  5
A09
  8
0
  6
CONTINUOUS
 62
     7
  0
ARC
  5
649
  8
0
  6
CONTINUOUS
 62
     7
 10
-2039.9992889955
 20
743.5005130018
 30
0.0
 40
3.975602917745944
 50
305.0452256577
 51
357.6929836092
  0
POLYLINE
  5
64A
  8
0
  6
CONTINUOUS
 62
     7
 66
     1
 10
0.0
 20
0.0
 30
0.0
  0
VERTEX
  5
A0A
  8
0
  6
CONTINUOUS
 62
     7
 10
-2054.7268908443
 20
743.3404693508
 30
0.0
  0
VERTEX
  5
A0B
  8
0
  6
CONTINUOUS
 62
     7
 10
-2054.5844239596
 20
742.4017666107
 30
0.0
  0
VERTEX
  5
A0C
  8
0
  6
CONTINUOUS
 62
     7
 10
-2054.0902732342
 20
741.3828267845
 30
0.0
  0
VERTEX
  5
A0D
  8
0
  6
CONTINUOUS
 62
     7
 10
-2053.2612763342
 20
740.4391118877
 30
0.0
  0
VERTEX
  5
A0E
  8
0
  6
CONTINUOUS
 62
     7
 10
-2052.1292752034
 20
739.6068870639
 30
0.0
  0
VERTEX
  5
A0F
  8
0
  6
CONTINUOUS
 62
     7
 10
-2050.7377969999
 20
738.9181534736
 30
0.0
  0
VERTEX
  5
A10
  8
0
  6
CONTINUOUS
 62
     7
 10
-2049.1403050007
 20
738.3993709247
 30
0.0
  0
VERTEX
  5
A11
  8
0
  6
CONTINUOUS
 62
     7
 10
-2047.3981755543
 20
738.0704603069
 30
0.0
  0
VERTEX
  5
A12
  8
0
  6
CONTINUOUS
 62
     7
 10
-2045.578369466
 20
737.944079749
 30
0.0
  0
VERTEX
  5
A13
  8
0
  6
CONTINUOUS
 62
     7
 10
-2043.750829431
 20
738.0250832572
 30
0.0
  0
VERTEX
  5
A14
  8
0
  6
CONTINUOUS
 62
     7
 10
-2041.9857826356
 20
738.3103503989
 30
0.0
  0
VERTEX
  5
A15
  8
0
  6
CONTINUOUS
 62
     7
 10
-2040.3510538958
 20
738.7889262054
 30
0.0
  0
VERTEX
  5
A16
  8
0
  6
CONTINUOUS
 62
     7
 10
-2038.909457821
 20
739.4424074241
 30
0.0
  0
VERTEX
  5
A17
  8
0
  6
CONTINUOUS
 62
     7
 10
-2037.7164069802
 20
740.2456906927
 30
0.0
  0
SEQEND
  5
A18
  8
0
  6
CONTINUOUS
 62
     7
  0
POLYLINE
  5
64B
  8
0
  6
CONTINUOUS
 62
     7
 66
     1
 10
0.0
 20
0.0
 30
0.0
  0
VERTEX
  5
A19
  8
0
  6
CONTINUOUS
 62
     7
 10
-1384.4795411925
 20
354.49908977
 30
0.0
  0
VERTEX
  5
A1A
  8
0
  6
CONTINUOUS
 62
     7
 10
-1383.0626905861
 20
353.8278257356
 30
0.0
  0
VERTEX
  5
A1B
  8
0
  6
CONTINUOUS
 62
     7
 10
-1381.4461798216
 20
353.3290249036
 30
0.0
  0
VERTEX
  5
A1C
  8
0
  6
CONTINUOUS
 62
     7
 10
-1379.692196574
 20
353.0218721554
 30
0.0
  0
VERTEX
  5
A1D
  8
0
  6
CONTINUOUS
 62
     7
 10
-1377.8681020439
 20
352.9181618742
 30
0.0
  0
VERTEX
  5
A1E
  8
0
  6
CONTINUOUS
 62
     7
 10
-1376.0440075138
 20
353.0218721554
 30
0.0
  0
VERTEX
  5
A1F
  8
0
  6
CONTINUOUS
 62
     7
 10
-1374.2900137294
 20
353.3290309863
 30
0.0
  0
VERTEX
  5
A20
  8
0
  6
CONTINUOUS
 62
     7
 10
-1372.6735029649
 20
353.8278196529
 30
0.0
  0
VERTEX
  5
A21
  8
0
  6
CONTINUOUS
 62
     7
 10
-1371.2566470902
 20
354.4990867286
 30
0.0
  0
VERTEX
  5
A22
  8
0
  6
CONTINUOUS
 62
     7
 10
-1370.0938471499
 20
355.3170232563
 30
0.0
  0
VERTEX
  5
A23
  8
0
  6
CONTINUOUS
 62
     7
 10
-1369.2298314871
 20
356.2502120157
 30
0.0
  0
VERTEX
  5
A24
  8
0
  6
CONTINUOUS
 62
     7
 10
-1368.6977591348
 20
357.2627710745
 30
0.0
  0
VERTEX
  5
A25
  8
0
  6
CONTINUOUS
 62
     7
 10
-1368.5181029246
 20
358.3158014738
 30
0.0
  0
VERTEX
  5
A26
  8
0
  6
CONTINUOUS
 62
     7
 10
-1368.6977591348
 20
359.3688257903
 30
0.0
  0
VERTEX
  5
A27
  8
0
  6
CONTINUOUS
 62
     7
 10
-1369.229815682
 20
360.3813818078
 30
0.0
  0
VERTEX
  5
A28
  8
0
  6
CONTINUOUS
 62
     7
 10
-1370.093862955
 20
361.3145705672
 30
0.0
  0
VERTEX
  5
A29
  8
0
  6
CONTINUOUS
 62
     7
 10
-1371.2566470902
 20
362.1325040535
 30
0.0
  0
VERTEX
  5
A2A
  8
0
  6
CONTINUOUS
 62
     7
 10
-1372.6735240383
 20
362.803777212
 30
0.0
  0
VERTEX
  5
A2B
  8
0
  6
CONTINUOUS
 62
     7
 10
-1374.2900084611
 20
363.3025689199
 30
0.0
  0
VERTEX
  5
A2C
  8
0
  6
CONTINUOUS
 62
     7
 10
-1376.0439969771
 20
363.6097186268
 30
0.0
  0
VERTEX
  5
A2D
  8
0
  6
CONTINUOUS
 62
     7
 10
-1377.8680862388
 20
363.7134319493
 30
0.0
  0
VERTEX
  5
A2E
  8
0
  6
CONTINUOUS
 62
     7
 10
-1379.6921860373
 20
363.6097186268
 30
0.0
  0
VERTEX
  5
A2F
  8
0
  6
CONTINUOUS
 62
     7
 10
-1381.4461798216
 20
363.3025597958
 30
0.0
  0
VERTEX
  5
A30
  8
0
  6
CONTINUOUS
 62
     7
 10
-1383.0626853178
 20
362.8037741706
 30
0.0
  0
VERTEX
  5
A31
  8
0
  6
CONTINUOUS
 62
     7
 10
-1384.4795464609
 20
362.1325040535
 30
0.0
  0
VERTEX
  5
A32
  8
0
  6
CONTINUOUS
 62
     7
 10
-1385.6423411328
 20
361.3145705672
 30
0.0
  0
VERTEX
  5
A33
  8
0
  6
CONTINUOUS
 62
     7
 10
-1386.506362064
 20
360.3813787664
 30
0.0
  0
VERTEX
  5
A34
  8
0
  6
CONTINUOUS
 62
     7
 10
-1387.0384344163
 20
359.3688197076
 30
0.0
  0
VERTEX
  5
A35
  8
0
  6
CONTINUOUS
 62
     7
 10
-1387.2180853581
 20
358.3157923497
 30
0.0
  0
VERTEX
  5
A36
  8
0
  6
CONTINUOUS
 62
     7
 10
-1387.0384344163
 20
357.2627649918
 30
0.0
  0
VERTEX
  5
A37
  8
0
  6
CONTINUOUS
 62
     7
 10
-1386.5063726007
 20
356.2502120157
 30
0.0
  0
VERTEX
  5
A38
  8
0
  6
CONTINUOUS
 62
     7
 10
-1385.6423516695
 20
355.3170323803
 30
0.0
  0
VERTEX
  5
A39
  8
0
  6
CONTINUOUS
 62
     7
 10
-1384.4795411925
 20
354.49908977
 30
0.0
  0
SEQEND
  5
A3A
  8
0
  6
CONTINUOUS
 62
     7
  0
POLYLINE
  5
64C
  8
0
  6
CONTINUOUS
 62
     7
 66
     1
 10
0.0
 20
0.0
 30
0.0
  0
VERTEX
  5
A3B
  8
0
  6
CONTINUOUS
 62
     7
 10
-1384.4795411925
 20
354.179135655
 30
0.0
  0
VERTEX
  5
A3C
  8
0
  6
CONTINUOUS
 62
     7
 10
-1383.0626905861
 20
353.5078716206
 30
0.0
  0
VERTEX
  5
A3D
  8
0
  6
CONTINUOUS
 62
     7
 10
-1381.4461798216
 20
353.0090707886
 30
0.0
  0
VERTEX
  5
A3E
  8
0
  6
CONTINUOUS
 62
     7
 10
-1379.692196574
 20
352.7019180404
 30
0.0
  0
VERTEX
  5
A3F
  8
0
  6
CONTINUOUS
 62
     7
 10
-1377.8681020439
 20
352.5982077592
 30
0.0
  0
VERTEX
  5
A40
  8
0
  6
CONTINUOUS
 62
     7
 10
-1376.0440075138
 20
352.7019180404
 30
0.0
  0
VERTEX
  5
A41
  8
0
  6
CONTINUOUS
 62
     7
 10
-1374.2900137294
 20
353.0090768713
 30
0.0
  0
VERTEX
  5
A42
  8
0
  6
CONTINUOUS
 62
     7
 10
-1372.6735029649
 20
353.5078655379
 30
0.0
  0
VERTEX
  5
A43
  8
0
  6
CONTINUOUS
 62
     7
 10
-1371.2566470902
 20
354.1791326136
 30
0.0
  0
VERTEX
  5
A44
  8
0
  6
CONTINUOUS
 62
     7
 10
-1370.0938471499
 20
354.9970691413
 30
0.0
  0
VERTEX
  5
A45
  8
0
  6
CONTINUOUS
 62
     7
 10
-1369.2298314871
 20
355.9302579007
 30
0.0
  0
VERTEX
  5
A46
  8
0
  6
CONTINUOUS
 62
     7
 10
-1368.6977591348
 20
356.9428169595
 30
0.0
  0
VERTEX
  5
A47
  8
0
  6
CONTINUOUS
 62
     7
 10
-1368.5181029246
 20
357.9958473588
 30
0.0
  0
SEQEND
  5
A48
  8
0
  6
CONTINUOUS
 62
     7
  0
ARC
  5
64D
  8
0
  6
CONTINUOUS
 62
     7
 10
-1382.5388838798
 20
358.4624133755
 30
0.0
 40
4.702405643537863
 50
185.6942864248
 51
245.6257832484
  0
LINE
  5
64E
  8
0
  6
CONTINUOUS
 62
     7
 10
-2106.1516937053
 20
719.0719231656
 30
0.0
 11
-2109.0165203657
 21
724.0459942139
 31
0.0
  0
LINE
  5
64F
  8
0
  6
CONTINUOUS
 62
     7
 10
-2109.0165203657
 20
724.0459942139
 30
0.0
 11
-2108.7943643272
 21
724.1742421651
 31
0.0
  0
ARC
  5
650
  8
0
  6
CONTINUOUS
 62
     7
 10
-2107.7084543643
 20
726.3415759755
 30
0.0
 40
2.178218787962666
 50
126.9068699671
 51
185.2339777036
  0
POLYLINE
  5
651
  8
0
  6
CONTINUOUS
 62
     7
 66
     1
 10
0.0
 20
0.0
 30
0.0
  0
VERTEX
  5
A49
  8
0
  6
CONTINUOUS
 62
     7
 10
-2109.8775910175
 20
726.1428720042
 30
0.0
  0
VERTEX
  5
A4A
  8
0
  6
CONTINUOUS
 62
     7
 10
-2109.6005597822
 20
725.0519605555
 30
0.0
  0
VERTEX
  5
A4B
  8
0
  6
CONTINUOUS
 62
     7
 10
-2109.0165203657
 20
724.0459942139
 30
0.0
  0
SEQEND
  5
A4C
  8
0
  6
CONTINUOUS
 62
     7
  0
LINE
  5
652
  8
0
  6
CONTINUOUS
 62
     7
 10
-2109.8775910175
 20
726.1428720042
 30
0.0
 11
-2109.270528885
 21
726.1810106237
 31
0.0
  0
LINE
  5
653
  8
0
  6
CONTINUOUS
 62
     7
 10
-2109.016509829
 20
728.0833072951
 30
0.0
 11
-2108.6661009305
 21
728.4390007045
 31
0.0
  0
LINE
  5
654
  8
0
  6
CONTINUOUS
 62
     7
 10
-2108.4773462694
 20
728.3300349581
 30
0.0
 11
-2108.6661009305
 21
728.4390007045
 31
0.0
  0
LINE
  5
655
  8
0
  6
CONTINUOUS
 62
     7
 10
-2107.6401834174
 20
729.0312502784
 30
0.0
 11
-2108.6661009305
 21
728.4390007045
 31
0.0
  0
ARC
  5
656
  8
0
  6
CONTINUOUS
 62
     7
 10
-1404.9186025523
 20
323.6258506219
 30
0.0
 40
4.805239646178985
 50
276.7282868713
 51
308.7677622353
  0
POLYLINE
  5
657
  8
0
  6
CONTINUOUS
 62
     7
 66
     1
 10
0.0
 20
0.0
 30
0.0
  0
VERTEX
  5
A4D
  8
0
  6
CONTINUOUS
 62
     7
 10
-1403.3031456011
 20
-656.4022308786
 30
0.0
  0
VERTEX
  5
A4E
  8
0
  6
CONTINUOUS
 62
     7
 10
-1402.5528157937
 20
-656.3166865942
 30
0.0
  0
VERTEX
  5
A4F
  8
0
  6
CONTINUOUS
 62
     7
 10
-1401.9097286424
 20
-656.1218114104
 30
0.0
  0
SEQEND
  5
A50
  8
0
  6
CONTINUOUS
 62
     7
  0
ARC
  5
658
  8
0
  6
CONTINUOUS
 62
     7
 10
-1400.9753407429
 20
-650.1872499648
 30
0.0
 40
6.636615343371199
 50
218.7329858072
 51
249.4666938083
  0
POLYLINE
  5
659
  8
0
  6
CONTINUOUS
 62
     7
 66
     1
 10
0.0
 20
0.0
 30
0.0
  0
VERTEX
  5
A51
  8
0
  6
CONTINUOUS
 62
     7
 10
-1404.3556156286
 20
318.8537050059
 30
0.0
  0
VERTEX
  5
A52
  8
0
  6
CONTINUOUS
 62
     7
 10
-1405.3275641022
 20
318.4838141957
 30
0.0
  0
VERTEX
  5
A53
  8
0
  6
CONTINUOUS
 62
     7
 10
-1406.1523673908
 20
318.2911554361
 30
0.0
  0
SEQEND
  5
A54
  8
0
  6
CONTINUOUS
 62
     7
  0
LINE
  5
65A
  8
0
  6
CONTINUOUS
 62
     7
 10
-1404.1933397252
 20
319.7145611666
 30
0.0
 11
-1404.3556156286
 21
318.8537050059
 31
0.0
  0
ARC
  5
65B
  8
0
  6
CONTINUOUS
 62
     7
 10
-1405.0499798101
 20
322.4137647577
 30
0.0
 40
2.83187786833269
 50
287.6077579169
 51
317.2521435617
  0
LINE
  5
65C
  8
0
  6
CONTINUOUS
 62
     7
 10
-1401.9097286424
 20
319.8792513838
 30
0.0
 11
-1402.9703962321
 21
320.4915617499
 31
0.0
  0
LINE
  5
65D
  8
0
  6
CONTINUOUS
 62
     7
 10
-1405.5062667398
 20
318.6641414026
 30
0.0
 11
-1406.1523673908
 21
318.2911554361
 31
0.0
  0
POLYLINE
  5
65E
  8
0
  6
CONTINUOUS
 62
     7
 66
     1
 10
0.0
 20
0.0
 30
0.0
  0
VERTEX
  5
A55
  8
0
  6
CONTINUOUS
 62
     7
 10
-1404.1933397252
 20
319.7145611666
 30
0.0
  0
VERTEX
  5
A56
  8
0
  6
CONTINUOUS
 62
     7
 10
-1404.6793139619
 20
319.2647069924
 30
0.0
  0
VERTEX
  5
A57
  8
0
  6
CONTINUOUS
 62
     7
 10
-1404.7990847687
 20
319.1597734066
 30
0.0
  0
SEQEND
  5
A58
  8
0
  6
CONTINUOUS
 62
     7
  0
LINE
  5
65F
  8
0
  6
CONTINUOUS
 62
     7
 10
-1138.0174783757
 20
472.3744114355
 30
0.0
 11
-1401.5593197439
 21
320.2349447932
 31
0.0
  0
LINE
  5
660
  8
0
  6
CONTINUOUS
 62
     7
 10
-1138.3391009766
 20
-503.985828298
 30
0.0
 11
-1138.0174783757
 21
-503.8001595225
 31
0.0
  0
ARC
  5
661
  8
0
  6
CONTINUOUS
 62
     7
 10
-1403.7465261548
 20
-652.1609027173
 30
0.0
 40
4.366076359420346
 50
294.8786329031
 51
300.0631816308
  0
LINE
  5
662
  8
0
  6
CONTINUOUS
 62
     7
 10
-1401.5593197439
 20
320.2349447932
 30
0.0
 11
-1401.9097286424
 21
319.8792513838
 31
0.0
  0
LINE
  5
663
  8
0
  6
CONTINUOUS
 62
     7
 10
-1402.6199873335
 20
320.8472551593
 30
0.0
 11
-1402.9703962321
 21
320.4915617499
 31
0.0
  0
LINE
  5
664
  8
0
  6
CONTINUOUS
 62
     7
 10
-1401.5593197439
 20
320.2349447932
 30
0.0
 11
-1402.6199873335
 21
320.8472551593
 31
0.0
  0
LINE
  5
665
  8
0
  6
CONTINUOUS
 62
     7
 10
-1139.0781459653
 20
472.9867218016
 30
0.0
 11
-1138.0174783757
 21
472.3744114355
 31
0.0
  0
LINE
  5
666
  8
0
  6
CONTINUOUS
 62
     7
 10
-1418.8802941726
 20
308.5056630657
 30
0.0
 11
-1419.5874129235
 21
309.0286370075
 31
0.0
  0
LINE
  5
667
  8
0
  6
CONTINUOUS
 62
     7
 10
-1419.5874129235
 20
309.0286370075
 30
0.0
 11
-1419.5874129235
 21
310.4761689953
 31
0.0
  0
LINE
  5
668
  8
0
  6
CONTINUOUS
 62
     7
 10
-1406.1523673908
 20
318.2911554361
 30
0.0
 11
-1410.0740052042
 21
316.0100071533
 31
0.0
  0
LINE
  5
669
  8
0
  6
CONTINUOUS
 62
     7
 10
-1417.5746058792
 20
311.6469353498
 30
0.0
 11
-1419.5874129235
 21
310.4761689953
 31
0.0
  0
LINE
  5
66A
  8
0
  6
CONTINUOUS
 62
     7
 10
-1410.4812702014
 20
-646.8418499653
 30
0.0
 11
-1406.1523673908
 21
-654.3397261301
 31
0.0
  0
ARC
  5
66B
  8
0
  6
CONTINUOUS
 62
     7
 10
-1420.2709984542
 20
305.5318037014
 30
0.0
 40
4.02254679924194
 50
80.2154526259
 51
98.1964715703
  0
POLYLINE
  5
66C
  8
0
  6
CONTINUOUS
 62
     7
 66
     1
 10
0.0
 20
0.0
 30
0.0
  0
VERTEX
  5
A59
  8
0
  6
CONTINUOUS
 62
     7
 10
-1137.141835451
 20
473.0292928975
 30
0.0
  0
VERTEX
  5
A5A
  8
0
  6
CONTINUOUS
 62
     7
 10
-1137.1783978421
 20
472.8329326864
 30
0.0
  0
VERTEX
  5
A5B
  8
0
  6
CONTINUOUS
 62
     7
 10
-1137.3420751283
 20
472.6486162498
 30
0.0
  0
VERTEX
  5
A5C
  8
0
  6
CONTINUOUS
 62
     7
 10
-1137.6258287859
 20
472.4912097418
 30
0.0
  0
VERTEX
  5
A5D
  8
0
  6
CONTINUOUS
 62
     7
 10
-1138.0174783757
 20
472.3744114355
 30
0.0
  0
SEQEND
  5
A5E
  8
0
  6
CONTINUOUS
 62
     7
  0
POLYLINE
  5
66D
  8
0
  6
CONTINUOUS
 62
     7
 66
     1
 10
0.0
 20
0.0
 30
0.0
  0
VERTEX
  5
A5F
  8
0
  6
CONTINUOUS
 62
     7
 10
-1138.6403034295
 20
472.9904000214
 30
0.0
  0
VERTEX
  5
A60
  8
0
  6
CONTINUOUS
 62
     7
 10
-1138.7404338049
 20
472.9619429531
 30
0.0
  0
VERTEX
  5
A61
  8
0
  6
CONTINUOUS
 62
     7
 10
-1139.0781459653
 20
472.9867218016
 30
0.0
  0
SEQEND
  5
A62
  8
0
  6
CONTINUOUS
 62
     7
  0
LINE
  5
66E
  8
0
  6
CONTINUOUS
 62
     7
 10
-1138.6403034295
 20
472.9904000214
 30
0.0
 11
-1137.141835451
 21
473.0292928975
 31
0.0
  0
POLYLINE
  5
66F
  8
0
  6
CONTINUOUS
 62
     7
 66
     1
 10
0.0
 20
0.0
 30
0.0
  0
VERTEX
  5
A63
  8
0
  6
CONTINUOUS
 62
     7
 10
-1138.0174783757
 20
-503.8001595225
 30
0.0
  0
VERTEX
  5
A64
  8
0
  6
CONTINUOUS
 62
     7
 10
-1137.3671735766
 20
-503.2207872505
 30
0.0
  0
VERTEX
  5
A65
  8
0
  6
CONTINUOUS
 62
     7
 10
-1137.1388114146
 20
-502.540520804
 30
0.0
  0
SEQEND
  5
A66
  8
0
  6
CONTINUOUS
 62
     7
  0
POLYLINE
  5
670
  8
0
  6
CONTINUOUS
 62
     7
 66
     1
 10
0.0
 20
0.0
 30
0.0
  0
VERTEX
  5
A67
  8
0
  6
CONTINUOUS
 62
     7
 10
-1138.0174678389
 20
473.0213984366
 30
0.0
  0
VERTEX
  5
A68
  8
0
  6
CONTINUOUS
 62
     7
 10
-1137.3936312607
 20
473.0727208964
 30
0.0
  0
VERTEX
  5
A69
  8
0
  6
CONTINUOUS
 62
     7
 10
-1137.141835451
 20
473.0292928975
 30
0.0
  0
SEQEND
  5
A6A
  8
0
  6
CONTINUOUS
 62
     7
  0
POLYLINE
  5
671
  8
0
  6
CONTINUOUS
 62
     7
 66
     1
 10
0.0
 20
0.0
 30
0.0
  0
VERTEX
  5
A6B
  8
0
  6
CONTINUOUS
 62
     7
 10
-1401.5593197439
 20
-655.9396261648
 30
0.0
  0
VERTEX
  5
A6C
  8
0
  6
CONTINUOUS
 62
     7
 10
-1401.5124945952
 20
-656.4487652058
 30
0.0
  0
VERTEX
  5
A6D
  8
0
  6
CONTINUOUS
 62
     7
 10
-1401.5969884898
 20
-656.8427917097
 30
0.0
  0
VERTEX
  5
A6E
  8
0
  6
CONTINUOUS
 62
     7
 10
-1401.8000414692
 20
-657.0923054572
 30
0.0
  0
VERTEX
  5
A6F
  8
0
  6
CONTINUOUS
 62
     7
 10
-1402.1013703626
 20
-657.1771129463
 30
0.0
  0
SEQEND
  5
A70
  8
0
  6
CONTINUOUS
 62
     7
  0
LINE
  5
672
  8
0
  6
CONTINUOUS
 62
     7
 10
-1402.4658352351
 20
-656.2903182066
 30
0.0
 11
-1402.1013703626
 21
-657.1771129463
 31
0.0
  0
ARC
  5
673
  8
0
  6
CONTINUOUS
 62
     7
 10
-1140.1698428222
 20
-503.9453628284
 30
0.0
 40
1.831189001491003
 50
297.2950156867
 51
358.7337793327
  0
POLYLINE
  5
674
  8
0
  6
CONTINUOUS
 62
     7
 66
     1
 10
0.0
 20
0.0
 30
0.0
  0
VERTEX
  5
A71
  8
0
  6
CONTINUOUS
 62
     7
 10
-1402.1013703626
 20
-657.1771129463
 30
0.0
  0
VERTEX
  5
A72
  8
0
  6
CONTINUOUS
 62
     7
 10
-1402.2634566053
 20
-656.9251152015
 30
0.0
  0
VERTEX
  5
A73
  8
0
  6
CONTINUOUS
 62
     7
 10
-1402.4703870947
 20
-656.4659794747
 30
0.0
  0
SEQEND
  5
A74
  8
0
  6
CONTINUOUS
 62
     7
  0
ENDSEC
  0
EOF
