  0
SECTION
  2
HEADER
  9
$ACADVER
  1
AC1009
  9
$DWGCODEPAGE
  3
ansi_1252
  9
$INSBASE
 10
0.0
 20
0.0
 30
0.0
  9
$EXTMIN
 10
0.0
 20
0.0
 30
0.0
  9
$EXTMAX
 10
594.0
 20
420.0
 30
0.0
  9
$LIMMIN
 10
0.0
 20
0.0
  9
$LIMMAX
 10
594.0
 20
420.0
  9
$ORTHOMODE
 70
     0
  9
$REGENMODE
 70
     1
  9
$FILLMODE
 70
     1
  9
$QTEXTMODE
 70
     0
  9
$MIRRTEXT
 70
     1
  9
$DRAGMODE
 70
     2
  9
$LTSCALE
 40
1.0
  9
$OSMODE
 70
    37
  9
$ATTMODE
 70
     1
  9
$TEXTSIZE
 40
4.2333333333
  9
$TRACEWID
 40
1.0
  9
$TEXTSTYLE
  7
STANDARD
  9
$CLAYER
  8
0
  9
$CELTYPE
  6
BYLAYER
  9
$CECOLOR
 62
   256
  9
$DIMSCALE
 40
1.0
  9
$DIMASZ
 40
2.0
  9
$DIMEXO
 40
1.0
  9
$DIMDLI
 40
3.75
  9
$DIMRND
 40
0.0
  9
$DIMDLE
 40
0.0
  9
$DIMEXE
 40
0.5
  9
$DIMTP
 40
0.0
  9
$DIMTM
 40
0.0
  9
$DIMTXT
 40
3.175
  9
$DIMCEN
 40
2.5
  9
$DIMTSZ
 40
0.0
  9
$DIMTOL
 70
     0
  9
$DIMLIM
 70
     0
  9
$DIMTIH
 70
     1
  9
$DIMTOH
 70
     1
  9
$DIMSE1
 70
     0
  9
$DIMSE2
 70
     0
  9
$DIMTAD
 70
     1
  9
$DIMZIN
 70
     0
  9
$DIMBLK
  1

  9
$DIMASO
 70
     1
  9
$DIMSHO
 70
     1
  9
$DIMPOST
  1

  9
$DIMAPOST
  1

  9
$DIMALT
 70
     0
  9
$DIMALTD
 70
     3
  9
$DIMALTF
 40
0.0393700787
  9
$DIMLFAC
 40
1.0
  9
$DIMTOFL
 70
     1
  9
$DIMTVP
 40
0.0
  9
$DIMTIX
 70
     0
  9
$DIMSOXD
 70
     0
  9
$DIMSAH
 70
     0
  9
$DIMBLK1
  1

  9
$DIMBLK2
  1

  9
$DIMSTYLE
  2
ISO-25
  9
$DIMCLRD
 70
     0
  9
$DIMCLRE
 70
     0
  9
$DIMCLRT
 70
     0
  9
$DIMTFAC
 40
1.0
  9
$DIMGAP
 40
2.0
  9
$LUNITS
 70
     2
  9
$LUPREC
 70
     2
  9
$SKETCHINC
 40
1.0
  9
$FILLETRAD
 40
10.0
  9
$AUNITS
 70
     0
  9
$AUPREC
 70
     2
  9
$MENU
  1
.
  9
$ELEVATION
 40
0.0
  9
$PELEVATION
 40
0.0
  9
$THICKNESS
 40
0.0
  9
$LIMCHECK
 70
     0
  9
$CHAMFERA
 40
10.0
  9
$CHAMFERB
 40
10.0
  9
$SKPOLY
 70
     0
  9
$TDCREATE
 40
2456630.679648426
  9
$TDUPDATE
 40
2456630.679648438
  9
$TDINDWG
 40
0.0000000116
  9
$TDUSRTIMER
 40
0.0000000116
  9
$USRTIMER
 70
     1
  9
$ANGBASE
 50
0.0
  9
$ANGDIR
 70
     0
  9
$PDMODE
 70
     0
  9
$PDSIZE
 40
-1.0
  9
$PLINEWID
 40
0.0
  9
$COORDS
 70
     1
  9
$SPLFRAME
 70
     0
  9
$SPLINETYPE
 70
     6
  9
$SPLINESEGS
 70
     8
  9
$ATTDIA
 70
     0
  9
$ATTREQ
 70
     1
  9
$HANDLING
 70
     1
  9
$HANDSEED
  5
A83
  9
$SURFTAB1
 70
     6
  9
$SURFTAB2
 70
     6
  9
$SURFTYPE
 70
     6
  9
$SURFU
 70
     6
  9
$SURFV
 70
     6
  9
$UCSNAME
  2

  9
$UCSORG
 10
0.0
 20
0.0
 30
0.0
  9
$UCSXDIR
 10
1.0
 20
0.0
 30
0.0
  9
$UCSYDIR
 10
0.0
 20
1.0
 30
0.0
  9
$PUCSNAME
  2

  9
$PUCSORG
 10
0.0
 20
0.0
 30
0.0
  9
$PUCSXDIR
 10
1.0
 20
0.0
 30
0.0
  9
$PUCSYDIR
 10
0.0
 20
1.0
 30
0.0
  9
$USERI1
 70
     0
  9
$USERI2
 70
     0
  9
$USERI3
 70
     0
  9
$USERI4
 70
     0
  9
$USERI5
 70
     0
  9
$USERR1
 40
0.0
  9
$USERR2
 40
0.0
  9
$USERR3
 40
0.0
  9
$USERR4
 40
0.0
  9
$USERR5
 40
0.0
  9
$WORLDVIEW
 70
     1
  9
$SHADEDGE
 70
     3
  9
$SHADEDIF
 70
    70
  9
$TILEMODE
 70
     1
  9
$MAXACTVP
 70
    64
  9
$PLIMCHECK
 70
     0
  9
$PEXTMIN
 10
1.0000000000E+20
 20
1.0000000000E+20
 30
1.0000000000E+20
  9
$PEXTMAX
 10
-1.0000000000E+20
 20
-1.0000000000E+20
 30
-1.0000000000E+20
  9
$PLIMMIN
 10
0.0
 20
0.0
  9
$PLIMMAX
 10
420.0
 20
297.0
  9
$UNITMODE
 70
     0
  9
$VISRETAIN
 70
     1
  9
$PLINEGEN
 70
     0
  9
$PSLTSCALE
 70
     1
  0
ENDSEC
  0
SECTION
  2
TABLES
  0
TABLE
  2
VPORT
 70
     1
  0
VPORT
  2
*ACTIVE
 70
     0
 10
0.0
 20
0.0
 11
1.0
 21
1.0
 12
297.0
 22
210.0
 13
0.0
 23
0.0
 14
10.0
 24
10.0
 15
10.0
 25
10.0
 16
0.0
 26
0.0
 36
1.0
 17
0.0
 27
0.0
 37
0.0
 40
420.0
 41
1.4142857143
 42
50.0
 43
0.0
 44
0.0
 50
0.0
 51
0.0
 71
     0
 72
  2000
 73
     1
 74
     3
 75
     0
 76
     0
 77
     0
 78
     0
  0
ENDTAB
  0
TABLE
  2
LTYPE
 70
     6
  0
LTYPE
  2
CONTINUOUS
 70
     0
  3
Solid line
 72
    65
 73
     0
 40
0.0
  0
LTYPE
  2
HIDDEN
 70
     0
  3
Hidden __ __ __ __ __ __ __ __ __ __ __ __ __ __
 72
    65
 73
     2
 40
1.905
 49
1.27
 49
-0.635
  0
LTYPE
  2
PHANTOM
 70
     0
  3
Phantom ______  __  __  ______  __  __  ______
 72
    65
 73
     6
 40
12.7
 49
6.35
 49
-1.27
 49
1.27
 49
-1.27
 49
1.27
 49
-1.27
  0
LTYPE
  2
CENTER
 70
     0
  3
Center ____ _ ____ _ ____ _ ____ _ ____ _ ____
 72
    65
 73
     4
 40
10.16
 49
6.35
 49
-1.27
 49
1.27
 49
-1.27
  0
LTYPE
  2
CENTERX2
 70
     0
  3
Center (2x) ________  __  ________  __  _____
 72
    65
 73
     4
 40
20.32
 49
12.7
 49
-2.54
 49
2.54
 49
-2.54
  0
LTYPE
  2
DOT2
 70
     0
  3
Dot (.5x) ........................................
 72
    65
 73
     2
 40
0.635
 49
0.0
 49
-0.635
  0
ENDTAB
  0
TABLE
  2
LAYER
 70
     8
  0
LAYER
  2
0
 70
     0
 62
     7
  6
CONTINUOUS
  0
LAYER
  2
SLD-0
 70
     0
 62
     7
  6
CONTINUOUS
  0
LAYER
  2
AM_BOR
 70
     0
 62
     7
  6
CONTINUOUS
  0
LAYER
  2
BIEGLINIE__ZU_
 70
     0
 62
     8
  6
CONTINUOUS
  0
LAYER
  2
BIEGELINIE__WEG_
 70
     0
 62
     8
  6
HIDDEN
  0
LAYER
  2
LAYER0
 70
     0
 62
     7
  6
CONTINUOUS
  0
LAYER
  2
BIEGELINIE__ZU_
 70
     0
 62
     8
  6
CONTINUOUS
  0
LAYER
  2
CK_LEVEL_1
 70
     0
 62
     7
  6
CONTINUOUS
  0
ENDTAB
  0
TABLE
  2
STYLE
 70
     1
  0
STYLE
  2
STANDARD
 70
     0
 40
0.0
 41
1.0
 50
0.0
 71
     0
 42
2.5
  3
txt
  4

  0
ENDTAB
  0
TABLE
  2
VIEW
 70
     0
  0
ENDTAB
  0
TABLE
  2
UCS
 70
     0
  0
ENDTAB
  0
TABLE
  2
APPID
 70
     1
  0
APPID
  2
ACAD
 70
     0
  0
ENDTAB
  0
TABLE
  2
DIMSTYLE
 70
     1
  0
DIMSTYLE
  2
ISO-25
 70
     0
  3

  4

  5

  6

  7

 40
1.0
 41
2.5
 42
0.625
 43
3.75
 44
1.25
 45
0.0
 46
0.0
 47
0.0
 48
0.0
140
2.5
141
2.5
142
0.0
143
0.0393700787
144
1.0
145
0.0
146
1.0
147
0.625
 71
     0
 72
     0
 73
     0
 74
     0
 75
     0
 76
     0
 77
     1
 78
     8
170
     0
171
     3
172
     1
173
     0
174
     0
175
     0
176
     0
177
     0
178
     0
  0
ENDTAB
  0
ENDSEC
  0
SECTION
  2
BLOCKS
  0
BLOCK
  8
0
  2
$MODEL_SPACE
 70
     0
 10
0.0
 20
0.0
 30
0.0
  3
$MODEL_SPACE
  1

  0
ENDBLK
  5
21
  8
0
  0
BLOCK
 67
     1
  8
0
  2
$PAPER_SPACE
 70
     0
 10
0.0
 20
0.0
 30
0.0
  3
$PAPER_SPACE
  1

  0
ENDBLK
  5
1D
 67
     1
  8
0
  0
BLOCK
  8
0
  2
ERDUNG2
 70
     0
 10
0.0
 20
0.0
 30
0.0
  3
ERDUNG2
  1

  0
CIRCLE
  5
4E
  8
CK_LEVEL_1
  6
CONTINUOUS
 62
     7
 10
7.882894401
 20
8.75
 30
0.0
 40
9.354800019675764
  0
LINE
  5
4F
  8
CK_LEVEL_1
  6
CONTINUOUS
 62
     7
 10
8.7487451733
 20
3.8098753807
 30
0.0
 11
9.700327903
 21
3.8098753807
 31
0.0
  0
LINE
  5
50
  8
CK_LEVEL_1
  6
CONTINUOUS
 62
     7
 10
8.7487451733
 20
3.8098753807
 30
0.0
 11
6.6709551936
 21
3.8098753807
 31
0.0
  0
LINE
  5
51
  8
CK_LEVEL_1
  6
CONTINUOUS
 62
     7
 10
7.882894401
 20
8.75
 30
0.0
 11
12.815547
 21
8.75
 31
0.0
  0
LINE
  5
52
  8
CK_LEVEL_1
  6
CONTINUOUS
 62
     7
 10
11.24812514
 20
6.3492067038
 30
0.0
 11
4.4479159892
 21
6.3492067038
 31
0.0
  0
LINE
  5
53
  8
CK_LEVEL_1
  6
CONTINUOUS
 62
     7
 10
7.882894401
 20
8.75
 30
0.0
 11
2.6893228315
 21
8.75
 31
0.0
  0
LINE
  5
54
  8
CK_LEVEL_1
  6
CONTINUOUS
 62
     7
 10
7.882894401
 20
8.75
 30
0.0
 11
7.882894401
 21
15.2853511284
 31
0.0
  0
ENDBLK
  5
4D
  8
0
  0
ENDSEC
  0
SECTION
  2
ENTITIES
  0
ARC
  5
55
  8
0
  6
CONTINUOUS
 62
     7
 10
350.3655039359
 20
283.4409043797
 30
0.0
 40
9.624099524889589
 50
68.6144531621
 51
85.3073217934
  0
POLYLINE
  5
56
  8
0
  6
CONTINUOUS
 62
     7
 66
     1
 10
0.0
 20
0.0
 30
0.0
  0
VERTEX
  5
674
  8
0
  6
CONTINUOUS
 62
     7
 10
346.3642291331
 20
292.7755484329
 30
0.0
  0
VERTEX
  5
675
  8
0
  6
CONTINUOUS
 62
     7
 10
345.1806969547
 20
292.4479017005
 30
0.0
  0
VERTEX
  5
676
  8
0
  6
CONTINUOUS
 62
     7
 10
345.0711696946
 20
292.4043903099
 30
0.0
  0
SEQEND
  5
677
  8
0
  6
CONTINUOUS
 62
     7
  0
ARC
  5
57
  8
0
  6
CONTINUOUS
 62
     7
 10
349.2295697473
 20
281.9882001092
 30
0.0
 40
11.16140944024322
 50
88.7480104079
 51
104.8754399663
  0
ARC
  5
58
  8
0
  6
CONTINUOUS
 62
     7
 10
864.9234422349
 20
783.1813692794
 30
0.0
 40
40.00000000000003
 50
76.4820489901
 51
103.5179510099
  0
LINE
  5
59
  8
0
  6
CONTINUOUS
 62
     7
 10
855.5734671258
 20
822.0732578979
 30
0.0
 11
855.5734671258
 21
821.6814169632
 31
0.0
  0
LINE
  5
5A
  8
0
  6
CONTINUOUS
 62
     7
 10
874.2734707498
 20
821.6814169632
 30
0.0
 11
874.2734707498
 21
822.0732578979
 31
0.0
  0
LINE
  5
5B
  8
0
  6
CONTINUOUS
 62
     7
 10
-288.4265862799
 20
822.0732578979
 30
0.0
 11
-288.4265862799
 21
821.6814169632
 31
0.0
  0
LINE
  5
5C
  8
0
  6
CONTINUOUS
 62
     7
 10
-269.726582656
 20
821.6814169632
 30
0.0
 11
-269.726582656
 21
822.0732578979
 31
0.0
  0
ARC
  5
5D
  8
0
  6
CONTINUOUS
 62
     7
 10
-279.0765577651
 20
783.1813692794
 30
0.0
 40
40.00000000000001
 50
76.4820489901
 51
103.5179510099
  0
POLYLINE
  5
5E
  8
0
  6
CONTINUOUS
 62
     7
 66
     1
 10
0.0
 20
0.0
 30
0.0
  0
VERTEX
  5
678
  8
0
  6
CONTINUOUS
 62
     7
 10
297.5715181396
 20
-357.3186310037
 30
0.0
  0
VERTEX
  5
679
  8
0
  6
CONTINUOUS
 62
     7
 10
297.7529691138
 20
-358.0007763608
 30
0.0
  0
VERTEX
  5
67A
  8
0
  6
CONTINUOUS
 62
     7
 10
297.882225977
 20
-358.5875375225
 30
0.0
  0
VERTEX
  5
67B
  8
0
  6
CONTINUOUS
 62
     7
 10
297.9841559731
 20
-359.4395486667
 30
0.0
  0
VERTEX
  5
67C
  8
0
  6
CONTINUOUS
 62
     7
 10
297.8798208364
 20
-360.0281929626
 30
0.0
  0
VERTEX
  5
67D
  8
0
  6
CONTINUOUS
 62
     7
 10
297.7511656077
 20
-360.236490707
 30
0.0
  0
VERTEX
  5
67E
  8
0
  6
CONTINUOUS
 62
     7
 10
297.5715181396
 20
-360.3186314954
 30
0.0
  0
SEQEND
  5
67F
  8
0
  6
CONTINUOUS
 62
     7
  0
LINE
  5
5F
  8
0
  6
CONTINUOUS
 62
     7
 10
297.5715181396
 20
-360.3186314954
 30
0.0
 11
297.5715181396
 21
-358.8186303182
 31
0.0
  0
POLYLINE
  5
60
  8
0
  6
CONTINUOUS
 62
     7
 66
     1
 10
0.0
 20
0.0
 30
0.0
  0
VERTEX
  5
680
  8
0
  6
CONTINUOUS
 62
     7
 10
891.9734276437
 20
816.0833487258
 30
0.0
  0
VERTEX
  5
681
  8
0
  6
CONTINUOUS
 62
     7
 10
891.8948687219
 20
815.9017929779
 30
0.0
  0
VERTEX
  5
682
  8
0
  6
CONTINUOUS
 62
     7
 10
891.6918553018
 20
815.772570108
 30
0.0
  0
VERTEX
  5
683
  8
0
  6
CONTINUOUS
 62
     7
 10
891.0951532029
 20
815.6706461654
 30
0.0
  0
VERTEX
  5
684
  8
0
  6
CONTINUOUS
 62
     7
 10
890.2611650132
 20
815.7749542938
 30
0.0
  0
VERTEX
  5
685
  8
0
  6
CONTINUOUS
 62
     7
 10
889.6706617975
 20
815.9037003265
 30
0.0
  0
VERTEX
  5
686
  8
0
  6
CONTINUOUS
 62
     7
 10
888.9734662675
 20
816.0833487258
 30
0.0
  0
SEQEND
  5
687
  8
0
  6
CONTINUOUS
 62
     7
  0
LINE
  5
61
  8
0
  6
CONTINUOUS
 62
     7
 10
890.4734171533
 20
816.0833487258
 30
0.0
 11
891.9734276437
 21
816.0833487258
 31
0.0
  0
POLYLINE
  5
62
  8
0
  6
CONTINUOUS
 62
     7
 66
     1
 10
0.0
 20
0.0
 30
0.0
  0
VERTEX
  5
688
  8
0
  6
CONTINUOUS
 62
     7
 10
297.5715181396
 20
820.1814064727
 30
0.0
  0
VERTEX
  5
689
  8
0
  6
CONTINUOUS
 62
     7
 10
297.7529691138
 20
820.1027283416
 30
0.0
  0
VERTEX
  5
68A
  8
0
  6
CONTINUOUS
 62
     7
 10
297.882225977
 20
819.8998341308
 30
0.0
  0
VERTEX
  5
68B
  8
0
  6
CONTINUOUS
 62
     7
 10
297.9841559731
 20
819.3030724273
 30
0.0
  0
VERTEX
  5
68C
  8
0
  6
CONTINUOUS
 62
     7
 10
297.8798208364
 20
818.4690842376
 30
0.0
  0
VERTEX
  5
68D
  8
0
  6
CONTINUOUS
 62
     7
 10
297.7511656077
 20
817.8785214172
 30
0.0
  0
VERTEX
  5
68E
  8
0
  6
CONTINUOUS
 62
     7
 10
297.5715181396
 20
817.1813854919
 30
0.0
  0
SEQEND
  5
68F
  8
0
  6
CONTINUOUS
 62
     7
  0
LINE
  5
63
  8
0
  6
CONTINUOUS
 62
     7
 10
297.5715181396
 20
818.6813959823
 30
0.0
 11
297.5715181396
 21
820.1814064727
 31
0.0
  0
LINE
  5
64
  8
0
  6
CONTINUOUS
 62
     7
 10
891.9734276437
 20
816.0833487258
 30
0.0
 11
891.9734276437
 21
-356.2205551221
 31
0.0
  0
POLYLINE
  5
65
  8
0
  6
CONTINUOUS
 62
     7
 66
     1
 10
0.0
 20
0.0
 30
0.0
  0
VERTEX
  5
690
  8
0
  6
CONTINUOUS
 62
     7
 10
888.9734662675
 20
-356.2205551221
 30
0.0
  0
VERTEX
  5
691
  8
0
  6
CONTINUOUS
 62
     7
 10
889.6555818223
 20
-356.0391036822
 30
0.0
  0
VERTEX
  5
692
  8
0
  6
CONTINUOUS
 62
     7
 10
890.2423299455
 20
-355.9098472847
 30
0.0
  0
VERTEX
  5
693
  8
0
  6
CONTINUOUS
 62
     7
 10
891.0943783426
 20
-355.8079158916
 30
0.0
  0
VERTEX
  5
694
  8
0
  6
CONTINUOUS
 62
     7
 10
891.6830338144
 20
-355.9122519596
 30
0.0
  0
VERTEX
  5
695
  8
0
  6
CONTINUOUS
 62
     7
 10
891.8912924432
 20
-356.0409067227
 30
0.0
  0
VERTEX
  5
696
  8
0
  6
CONTINUOUS
 62
     7
 10
891.9734276437
 20
-356.2205551221
 30
0.0
  0
SEQEND
  5
697
  8
0
  6
CONTINUOUS
 62
     7
  0
POLYLINE
  5
66
  8
0
  6
CONTINUOUS
 62
     7
 66
     1
 10
0.0
 20
0.0
 30
0.0
  0
VERTEX
  5
698
  8
0
  6
CONTINUOUS
 62
     7
 10
293.4734419991
 20
-356.2205551221
 30
0.0
  0
VERTEX
  5
699
  8
0
  6
CONTINUOUS
 62
     7
 10
293.5520251935
 20
-356.0391036822
 30
0.0
  0
VERTEX
  5
69A
  8
0
  6
CONTINUOUS
 62
     7
 10
293.755009859
 20
-355.9098472847
 30
0.0
  0
VERTEX
  5
69B
  8
0
  6
CONTINUOUS
 62
     7
 10
294.3517200488
 20
-355.8079158916
 30
0.0
  0
VERTEX
  5
69C
  8
0
  6
CONTINUOUS
 62
     7
 10
295.1857032326
 20
-355.9122519596
 30
0.0
  0
VERTEX
  5
69D
  8
0
  6
CONTINUOUS
 62
     7
 10
295.7762402088
 20
-356.0409067227
 30
0.0
  0
VERTEX
  5
69E
  8
0
  6
CONTINUOUS
 62
     7
 10
296.4734420252
 20
-356.2205551221
 30
0.0
  0
SEQEND
  5
69F
  8
0
  6
CONTINUOUS
 62
     7
  0
LINE
  5
67
  8
0
  6
CONTINUOUS
 62
     7
 10
294.9734420122
 20
-356.2205551221
 30
0.0
 11
293.4734419991
 21
-356.2205551221
 31
0.0
  0
POLYLINE
  5
68
  8
0
  6
CONTINUOUS
 62
     7
 66
     1
 10
0.0
 20
0.0
 30
0.0
  0
VERTEX
  5
6A0
  8
0
  6
CONTINUOUS
 62
     7
 10
887.8753698968
 20
-360.3186314954
 30
0.0
  0
VERTEX
  5
6A1
  8
0
  6
CONTINUOUS
 62
     7
 10
887.6939333581
 20
-360.2400483592
 30
0.0
  0
VERTEX
  5
6A2
  8
0
  6
CONTINUOUS
 62
     7
 10
887.5646508836
 20
-360.0370628788
 30
0.0
  0
VERTEX
  5
6A3
  8
0
  6
CONTINUOUS
 62
     7
 10
887.462726941
 20
-359.4403533294
 30
0.0
  0
VERTEX
  5
6A4
  8
0
  6
CONTINUOUS
 62
     7
 10
887.5670350694
 20
-358.606368865
 30
0.0
  0
VERTEX
  5
6A5
  8
0
  6
CONTINUOUS
 62
     7
 10
887.6957214975
 20
-358.0158321216
 30
0.0
  0
VERTEX
  5
6A6
  8
0
  6
CONTINUOUS
 62
     7
 10
887.8753698968
 20
-357.3186310037
 30
0.0
  0
SEQEND
  5
6A7
  8
0
  6
CONTINUOUS
 62
     7
  0
LINE
  5
69
  8
0
  6
CONTINUOUS
 62
     7
 10
887.8753698968
 20
-358.8186303182
 30
0.0
 11
887.8753698968
 21
-360.3186314954
 31
0.0
  0
LINE
  5
6A
  8
0
  6
CONTINUOUS
 62
     7
 10
293.4734419991
 20
-337.7903481974
 30
0.0
 11
293.4734419991
 21
797.4530825363
 31
0.0
  0
LINE
  5
6B
  8
0
  6
CONTINUOUS
 62
     7
 10
293.4734419991
 20
802.8788933502
 30
0.0
 11
293.4734419991
 21
816.0833487258
 31
0.0
  0
POLYLINE
  5
6C
  8
0
  6
CONTINUOUS
 62
     7
 66
     1
 10
0.0
 20
0.0
 30
0.0
  0
VERTEX
  5
6A8
  8
0
  6
CONTINUOUS
 62
     7
 10
296.4734420252
 20
816.0833487258
 30
0.0
  0
VERTEX
  5
6A9
  8
0
  6
CONTINUOUS
 62
     7
 10
295.7912955039
 20
815.9017929779
 30
0.0
  0
VERTEX
  5
6AA
  8
0
  6
CONTINUOUS
 62
     7
 10
295.2045343422
 20
815.772570108
 30
0.0
  0
VERTEX
  5
6AB
  8
0
  6
CONTINUOUS
 62
     7
 10
294.3525233145
 20
815.6706461654
 30
0.0
  0
VERTEX
  5
6AC
  8
0
  6
CONTINUOUS
 62
     7
 10
293.7638796006
 20
815.7749542938
 30
0.0
  0
VERTEX
  5
6AD
  8
0
  6
CONTINUOUS
 62
     7
 10
293.5555815652
 20
815.9037003265
 30
0.0
  0
VERTEX
  5
6AE
  8
0
  6
CONTINUOUS
 62
     7
 10
293.4734419991
 20
816.0833487258
 30
0.0
  0
SEQEND
  5
6AF
  8
0
  6
CONTINUOUS
 62
     7
  0
LINE
  5
6D
  8
0
  6
CONTINUOUS
 62
     7
 10
293.4734419991
 20
-356.2205551221
 30
0.0
 11
293.4734419991
 21
-343.2162111654
 31
0.0
  0
LINE
  5
6E
  8
0
  6
CONTINUOUS
 62
     7
 10
891.9734276437
 20
-356.2205551221
 30
0.0
 11
890.4734171533
 21
-356.2205551221
 31
0.0
  0
LINE
  5
6F
  8
0
  6
CONTINUOUS
 62
     7
 10
297.5715181396
 20
820.1814064727
 30
0.0
 11
887.8753698968
 21
820.1814064727
 31
0.0
  0
POLYLINE
  5
70
  8
0
  6
CONTINUOUS
 62
     7
 66
     1
 10
0.0
 20
0.0
 30
0.0
  0
VERTEX
  5
6B0
  8
0
  6
CONTINUOUS
 62
     7
 10
887.8753698968
 20
817.1813854919
 30
0.0
  0
VERTEX
  5
6B1
  8
0
  6
CONTINUOUS
 62
     7
 10
887.6939333581
 20
817.8635010467
 30
0.0
  0
VERTEX
  5
6B2
  8
0
  6
CONTINUOUS
 62
     7
 10
887.5646508836
 20
818.4502491699
 30
0.0
  0
VERTEX
  5
6B3
  8
0
  6
CONTINUOUS
 62
     7
 10
887.462726941
 20
819.3022379623
 30
0.0
  0
VERTEX
  5
6B4
  8
0
  6
CONTINUOUS
 62
     7
 10
887.5670350694
 20
819.8908934341
 30
0.0
  0
VERTEX
  5
6B5
  8
0
  6
CONTINUOUS
 62
     7
 10
887.6957214975
 20
820.0992712722
 30
0.0
  0
VERTEX
  5
6B6
  8
0
  6
CONTINUOUS
 62
     7
 10
887.8753698968
 20
820.1814064727
 30
0.0
  0
SEQEND
  5
6B7
  8
0
  6
CONTINUOUS
 62
     7
  0
LINE
  5
71
  8
0
  6
CONTINUOUS
 62
     7
 10
887.8753698968
 20
820.1814064727
 30
0.0
 11
887.8753698968
 21
818.6813959823
 31
0.0
  0
LINE
  5
72
  8
0
  6
CONTINUOUS
 62
     7
 10
293.4734419991
 20
816.0833487258
 30
0.0
 11
294.9734420122
 21
816.0833487258
 31
0.0
  0
ARC
  5
73
  8
0
  6
CONTINUOUS
 62
     7
 10
294.9734420152
 20
-358.8186307205
 30
0.0
 40
3.0
 50
30.0
 51
60.0
  0
ARC
  5
74
  8
0
  6
CONTINUOUS
 62
     7
 10
890.4734420152
 20
818.6813692795
 30
0.0
 40
2.999999999999853
 50
210.0
 51
240.0
  0
ARC
  5
75
  8
0
  6
CONTINUOUS
 62
     7
 10
294.9734420152
 20
818.6813692795
 30
0.0
 40
3.000000000000049
 50
300.0
 51
330.0
  0
ARC
  5
76
  8
0
  6
CONTINUOUS
 62
     7
 10
890.4734420152
 20
-358.8186307205
 30
0.0
 40
3.000000000000176
 50
120.0
 51
150.0
  0
LINE
  5
77
  8
0
  6
CONTINUOUS
 62
     7
 10
887.8753698968
 20
-360.3186314954
 30
0.0
 11
297.5715181396
 21
-360.3186314954
 31
0.0
  0
LINE
  5
78
  8
0
  6
CONTINUOUS
 62
     7
 10
890.4734171533
 20
820.1814064727
 30
0.0
 11
890.4734171533
 21
818.6813959823
 31
0.0
  0
LINE
  5
79
  8
0
  6
CONTINUOUS
 62
     7
 10
887.8753698968
 20
818.6813959823
 30
0.0
 11
890.4734171533
 21
818.6813959823
 31
0.0
  0
LINE
  5
7A
  8
0
  6
CONTINUOUS
 62
     7
 10
890.4734171533
 20
820.1814064727
 30
0.0
 11
887.8753698968
 21
820.1814064727
 31
0.0
  0
LINE
  5
7B
  8
0
  6
CONTINUOUS
 62
     7
 10
294.9734420122
 20
-360.3186314954
 30
0.0
 11
294.9734420122
 21
-358.8186303182
 31
0.0
  0
LINE
  5
7C
  8
0
  6
CONTINUOUS
 62
     7
 10
297.5715181396
 20
-358.8186303182
 30
0.0
 11
294.9734420122
 21
-358.8186303182
 31
0.0
  0
LINE
  5
7D
  8
0
  6
CONTINUOUS
 62
     7
 10
294.9734420122
 20
-360.3186314954
 30
0.0
 11
297.5715181396
 21
-360.3186314954
 31
0.0
  0
LINE
  5
7E
  8
0
  6
CONTINUOUS
 62
     7
 10
891.9734276437
 20
-358.8186303182
 30
0.0
 11
890.4734171533
 21
-358.8186303182
 31
0.0
  0
LINE
  5
7F
  8
0
  6
CONTINUOUS
 62
     7
 10
890.4734171533
 20
-358.8186303182
 30
0.0
 11
890.4734171533
 21
-356.2205551221
 31
0.0
  0
LINE
  5
80
  8
0
  6
CONTINUOUS
 62
     7
 10
891.9734276437
 20
-358.8186303182
 30
0.0
 11
891.9734276437
 21
-356.2205551221
 31
0.0
  0
LINE
  5
81
  8
0
  6
CONTINUOUS
 62
     7
 10
293.4734419991
 20
818.6813959823
 30
0.0
 11
294.9734420122
 21
818.6813959823
 31
0.0
  0
LINE
  5
82
  8
0
  6
CONTINUOUS
 62
     7
 10
294.9734420122
 20
816.0833487258
 30
0.0
 11
294.9734420122
 21
818.6813959823
 31
0.0
  0
LINE
  5
83
  8
0
  6
CONTINUOUS
 62
     7
 10
293.4734419991
 20
818.6813959823
 30
0.0
 11
293.4734419991
 21
816.0833487258
 31
0.0
  0
LINE
  5
84
  8
0
  6
CONTINUOUS
 62
     7
 10
890.4734171533
 20
818.6813959823
 30
0.0
 11
891.9734276437
 21
818.6813959823
 31
0.0
  0
LINE
  5
85
  8
0
  6
CONTINUOUS
 62
     7
 10
890.4734171533
 20
818.6813959823
 30
0.0
 11
890.4734171533
 21
816.0833487258
 31
0.0
  0
LINE
  5
86
  8
0
  6
CONTINUOUS
 62
     7
 10
891.9734276437
 20
816.0833487258
 30
0.0
 11
891.9734276437
 21
818.6813959823
 31
0.0
  0
LINE
  5
87
  8
0
  6
CONTINUOUS
 62
     7
 10
294.9734420122
 20
-358.8186303182
 30
0.0
 11
293.4734419991
 21
-358.8186303182
 31
0.0
  0
LINE
  5
88
  8
0
  6
CONTINUOUS
 62
     7
 10
294.9734420122
 20
-358.8186303182
 30
0.0
 11
294.9734420122
 21
-356.2205551221
 31
0.0
  0
LINE
  5
89
  8
0
  6
CONTINUOUS
 62
     7
 10
293.4734419991
 20
-356.2205551221
 30
0.0
 11
293.4734419991
 21
-358.8186303182
 31
0.0
  0
LINE
  5
8A
  8
0
  6
CONTINUOUS
 62
     7
 10
890.4734171533
 20
-358.8186303182
 30
0.0
 11
890.4734171533
 21
-360.3186314954
 31
0.0
  0
LINE
  5
8B
  8
0
  6
CONTINUOUS
 62
     7
 10
887.8753698968
 20
-358.8186303182
 30
0.0
 11
890.4734171533
 21
-358.8186303182
 31
0.0
  0
LINE
  5
8C
  8
0
  6
CONTINUOUS
 62
     7
 10
887.8753698968
 20
-360.3186314954
 30
0.0
 11
890.4734171533
 21
-360.3186314954
 31
0.0
  0
LINE
  5
8D
  8
0
  6
CONTINUOUS
 62
     7
 10
294.9734420122
 20
818.6813959823
 30
0.0
 11
294.9734420122
 21
820.1814064727
 31
0.0
  0
LINE
  5
8E
  8
0
  6
CONTINUOUS
 62
     7
 10
294.9734420122
 20
818.6813959823
 30
0.0
 11
297.5715181396
 21
818.6813959823
 31
0.0
  0
LINE
  5
8F
  8
0
  6
CONTINUOUS
 62
     7
 10
297.5715181396
 20
820.1814064727
 30
0.0
 11
294.9734420122
 21
820.1814064727
 31
0.0
  0
POLYLINE
  5
90
  8
0
  6
CONTINUOUS
 62
     7
 66
     1
 10
0.0
 20
0.0
 30
0.0
  0
VERTEX
  5
6B8
  8
0
  6
CONTINUOUS
 62
     7
 10
-302.028485427
 20
-357.3186310037
 30
0.0
  0
VERTEX
  5
6B9
  8
0
  6
CONTINUOUS
 62
     7
 10
-301.8470488883
 20
-358.0007763608
 30
0.0
  0
VERTEX
  5
6BA
  8
0
  6
CONTINUOUS
 62
     7
 10
-301.7177664138
 20
-358.5875375225
 30
0.0
  0
VERTEX
  5
6BB
  8
0
  6
CONTINUOUS
 62
     7
 10
-301.6158424712
 20
-359.4395486667
 30
0.0
  0
VERTEX
  5
6BC
  8
0
  6
CONTINUOUS
 62
     7
 10
-301.7201505995
 20
-360.0281929626
 30
0.0
  0
VERTEX
  5
6BD
  8
0
  6
CONTINUOUS
 62
     7
 10
-301.8488370276
 20
-360.236490707
 30
0.0
  0
VERTEX
  5
6BE
  8
0
  6
CONTINUOUS
 62
     7
 10
-302.028485427
 20
-360.3186314954
 30
0.0
  0
SEQEND
  5
6BF
  8
0
  6
CONTINUOUS
 62
     7
  0
LINE
  5
91
  8
0
  6
CONTINUOUS
 62
     7
 10
-302.028485427
 20
-360.3186314954
 30
0.0
 11
-302.028485427
 21
-358.8186303182
 31
0.0
  0
POLYLINE
  5
92
  8
0
  6
CONTINUOUS
 62
     7
 66
     1
 10
0.0
 20
0.0
 30
0.0
  0
VERTEX
  5
6C0
  8
0
  6
CONTINUOUS
 62
     7
 10
-302.028485427
 20
820.1814064727
 30
0.0
  0
VERTEX
  5
6C1
  8
0
  6
CONTINUOUS
 62
     7
 10
-301.8470488883
 20
820.1027283416
 30
0.0
  0
VERTEX
  5
6C2
  8
0
  6
CONTINUOUS
 62
     7
 10
-301.7177664138
 20
819.8998341308
 30
0.0
  0
VERTEX
  5
6C3
  8
0
  6
CONTINUOUS
 62
     7
 10
-301.6158424712
 20
819.3030724273
 30
0.0
  0
VERTEX
  5
6C4
  8
0
  6
CONTINUOUS
 62
     7
 10
-301.7201505995
 20
818.4690842376
 30
0.0
  0
VERTEX
  5
6C5
  8
0
  6
CONTINUOUS
 62
     7
 10
-301.8488370276
 20
817.8785214172
 30
0.0
  0
VERTEX
  5
6C6
  8
0
  6
CONTINUOUS
 62
     7
 10
-302.028485427
 20
817.1813854919
 30
0.0
  0
SEQEND
  5
6C7
  8
0
  6
CONTINUOUS
 62
     7
  0
LINE
  5
93
  8
0
  6
CONTINUOUS
 62
     7
 10
-302.028485427
 20
820.1814064727
 30
0.0
 11
283.2753659763
 21
820.1814064727
 31
0.0
  0
POLYLINE
  5
94
  8
0
  6
CONTINUOUS
 62
     7
 66
     1
 10
0.0
 20
0.0
 30
0.0
  0
VERTEX
  5
6C8
  8
0
  6
CONTINUOUS
 62
     7
 10
283.2753659763
 20
817.1813854919
 30
0.0
  0
VERTEX
  5
6C9
  8
0
  6
CONTINUOUS
 62
     7
 10
283.0939154678
 20
817.8635010467
 30
0.0
  0
VERTEX
  5
6CA
  8
0
  6
CONTINUOUS
 62
     7
 10
282.964658139
 20
818.4502491699
 30
0.0
  0
VERTEX
  5
6CB
  8
0
  6
CONTINUOUS
 62
     7
 10
282.8627286085
 20
819.3022379623
 30
0.0
  0
VERTEX
  5
6CC
  8
0
  6
CONTINUOUS
 62
     7
 10
282.9670637452
 20
819.8908934341
 30
0.0
  0
VERTEX
  5
6CD
  8
0
  6
CONTINUOUS
 62
     7
 10
283.0957194396
 20
820.0992712722
 30
0.0
  0
VERTEX
  5
6CE
  8
0
  6
CONTINUOUS
 62
     7
 10
283.2753659763
 20
820.1814064727
 30
0.0
  0
SEQEND
  5
6CF
  8
0
  6
CONTINUOUS
 62
     7
  0
POLYLINE
  5
95
  8
0
  6
CONTINUOUS
 62
     7
 66
     1
 10
0.0
 20
0.0
 30
0.0
  0
VERTEX
  5
6D0
  8
0
  6
CONTINUOUS
 62
     7
 10
-306.1265431739
 20
-356.2205551221
 30
0.0
  0
VERTEX
  5
6D1
  8
0
  6
CONTINUOUS
 62
     7
 10
-306.047984252
 20
-356.0391036822
 30
0.0
  0
VERTEX
  5
6D2
  8
0
  6
CONTINUOUS
 62
     7
 10
-305.8449708319
 20
-355.9098472847
 30
0.0
  0
VERTEX
  5
6D3
  8
0
  6
CONTINUOUS
 62
     7
 10
-305.2482687331
 20
-355.8079158916
 30
0.0
  0
VERTEX
  5
6D4
  8
0
  6
CONTINUOUS
 62
     7
 10
-304.4142805434
 20
-355.9122519596
 30
0.0
  0
VERTEX
  5
6D5
  8
0
  6
CONTINUOUS
 62
     7
 10
-303.8237773276
 20
-356.0409067227
 30
0.0
  0
VERTEX
  5
6D6
  8
0
  6
CONTINUOUS
 62
     7
 10
-303.1265817977
 20
-356.2205551221
 30
0.0
  0
SEQEND
  5
6D7
  8
0
  6
CONTINUOUS
 62
     7
  0
LINE
  5
96
  8
0
  6
CONTINUOUS
 62
     7
 10
-306.1265431739
 20
-356.2205551221
 30
0.0
 11
-306.1265431739
 21
816.0833487258
 31
0.0
  0
POLYLINE
  5
97
  8
0
  6
CONTINUOUS
 62
     7
 66
     1
 10
0.0
 20
0.0
 30
0.0
  0
VERTEX
  5
6D8
  8
0
  6
CONTINUOUS
 62
     7
 10
-303.1265817977
 20
816.0833487258
 30
0.0
  0
VERTEX
  5
6D9
  8
0
  6
CONTINUOUS
 62
     7
 10
-303.8086973525
 20
815.9017929779
 30
0.0
  0
VERTEX
  5
6DA
  8
0
  6
CONTINUOUS
 62
     7
 10
-304.3954454756
 20
815.772570108
 30
0.0
  0
VERTEX
  5
6DB
  8
0
  6
CONTINUOUS
 62
     7
 10
-305.2474938727
 20
815.6706461654
 30
0.0
  0
VERTEX
  5
6DC
  8
0
  6
CONTINUOUS
 62
     7
 10
-305.8361493445
 20
815.7749542938
 30
0.0
  0
VERTEX
  5
6DD
  8
0
  6
CONTINUOUS
 62
     7
 10
-306.0444079734
 20
815.9037003265
 30
0.0
  0
VERTEX
  5
6DE
  8
0
  6
CONTINUOUS
 62
     7
 10
-306.1265431739
 20
816.0833487258
 30
0.0
  0
SEQEND
  5
6DF
  8
0
  6
CONTINUOUS
 62
     7
  0
POLYLINE
  5
98
  8
0
  6
CONTINUOUS
 62
     7
 66
     1
 10
0.0
 20
0.0
 30
0.0
  0
VERTEX
  5
6E0
  8
0
  6
CONTINUOUS
 62
     7
 10
287.3734423497
 20
816.0833487258
 30
0.0
  0
VERTEX
  5
6E1
  8
0
  6
CONTINUOUS
 62
     7
 10
287.2948592135
 20
815.9017929779
 30
0.0
  0
VERTEX
  5
6E2
  8
0
  6
CONTINUOUS
 62
     7
 10
287.0918746644
 20
815.772570108
 30
0.0
  0
VERTEX
  5
6E3
  8
0
  6
CONTINUOUS
 62
     7
 10
286.4951641836
 20
815.6706461654
 30
0.0
  0
VERTEX
  5
6E4
  8
0
  6
CONTINUOUS
 62
     7
 10
285.6611652837
 20
815.7749542938
 30
0.0
  0
VERTEX
  5
6E5
  8
0
  6
CONTINUOUS
 62
     7
 10
285.0706317999
 20
815.9037003265
 30
0.0
  0
VERTEX
  5
6E6
  8
0
  6
CONTINUOUS
 62
     7
 10
284.3734427893
 20
816.0833487258
 30
0.0
  0
SEQEND
  5
6E7
  8
0
  6
CONTINUOUS
 62
     7
  0
LINE
  5
99
  8
0
  6
CONTINUOUS
 62
     7
 10
285.8734425695
 20
816.0833487258
 30
0.0
 11
287.3734423497
 21
816.0833487258
 31
0.0
  0
POLYLINE
  5
9A
  8
0
  6
CONTINUOUS
 62
     7
 66
     1
 10
0.0
 20
0.0
 30
0.0
  0
VERTEX
  5
6E8
  8
0
  6
CONTINUOUS
 62
     7
 10
283.2753659763
 20
-360.3186314954
 30
0.0
  0
VERTEX
  5
6E9
  8
0
  6
CONTINUOUS
 62
     7
 10
283.0939154678
 20
-360.2400483592
 30
0.0
  0
VERTEX
  5
6EA
  8
0
  6
CONTINUOUS
 62
     7
 10
282.964658139
 20
-360.0370628788
 30
0.0
  0
VERTEX
  5
6EB
  8
0
  6
CONTINUOUS
 62
     7
 10
282.8627286085
 20
-359.4403533294
 30
0.0
  0
VERTEX
  5
6EC
  8
0
  6
CONTINUOUS
 62
     7
 10
282.9670637452
 20
-358.606368865
 30
0.0
  0
VERTEX
  5
6ED
  8
0
  6
CONTINUOUS
 62
     7
 10
283.0957194396
 20
-358.0158321216
 30
0.0
  0
VERTEX
  5
6EE
  8
0
  6
CONTINUOUS
 62
     7
 10
283.2753659763
 20
-357.3186310037
 30
0.0
  0
SEQEND
  5
6EF
  8
0
  6
CONTINUOUS
 62
     7
  0
LINE
  5
9B
  8
0
  6
CONTINUOUS
 62
     7
 10
283.2753659763
 20
-358.8186303182
 30
0.0
 11
283.2753659763
 21
-360.3186314954
 31
0.0
  0
LINE
  5
9C
  8
0
  6
CONTINUOUS
 62
     7
 10
283.2753659763
 20
820.1814064727
 30
0.0
 11
283.2753659763
 21
818.6813959823
 31
0.0
  0
ARC
  5
9D
  8
0
  6
CONTINUOUS
 62
     7
 10
285.8734424543
 20
818.6813692794
 30
0.0
 40
3.000000000000057
 50
210.0
 51
240.0
  0
ARC
  5
9E
  8
0
  6
CONTINUOUS
 62
     7
 10
-304.6265575457
 20
818.6813692794
 30
0.0
 40
3.000000000000275
 50
300.0
 51
330.0
  0
ARC
  5
9F
  8
0
  6
CONTINUOUS
 62
     7
 10
285.8734424543
 20
-358.8186307206
 30
0.0
 40
2.999999999999684
 50
120.0
 51
150.0
  0
ARC
  5
A0
  8
0
  6
CONTINUOUS
 62
     7
 10
-304.6265575457
 20
-358.8186307206
 30
0.0
 40
3.000000000000078
 50
30.0
 51
60.0
  0
LINE
  5
A1
  8
0
  6
CONTINUOUS
 62
     7
 10
-306.1265431739
 20
816.0833487258
 30
0.0
 11
-304.6265326834
 21
816.0833487258
 31
0.0
  0
LINE
  5
A2
  8
0
  6
CONTINUOUS
 62
     7
 10
283.2753659763
 20
-360.3186314954
 30
0.0
 11
-302.028485427
 21
-360.3186314954
 31
0.0
  0
POLYLINE
  5
A3
  8
0
  6
CONTINUOUS
 62
     7
 66
     1
 10
0.0
 20
0.0
 30
0.0
  0
VERTEX
  5
6F0
  8
0
  6
CONTINUOUS
 62
     7
 10
284.3734427893
 20
-356.2205551221
 30
0.0
  0
VERTEX
  5
6F1
  8
0
  6
CONTINUOUS
 62
     7
 10
285.0555788332
 20
-356.0391036822
 30
0.0
  0
VERTEX
  5
6F2
  8
0
  6
CONTINUOUS
 62
     7
 10
285.6423372009
 20
-355.9098472847
 30
0.0
  0
VERTEX
  5
6F3
  8
0
  6
CONTINUOUS
 62
     7
 10
286.4943609179
 20
-355.8079158916
 30
0.0
  0
VERTEX
  5
6F4
  8
0
  6
CONTINUOUS
 62
     7
 10
287.0830047482
 20
-355.9122519596
 30
0.0
  0
VERTEX
  5
6F5
  8
0
  6
CONTINUOUS
 62
     7
 10
287.2913029582
 20
-356.0409067227
 30
0.0
  0
VERTEX
  5
6F6
  8
0
  6
CONTINUOUS
 62
     7
 10
287.3734423497
 20
-356.2205551221
 30
0.0
  0
SEQEND
  5
6F7
  8
0
  6
CONTINUOUS
 62
     7
  0
LINE
  5
A4
  8
0
  6
CONTINUOUS
 62
     7
 10
287.3734423497
 20
-356.2205551221
 30
0.0
 11
285.8734425695
 21
-356.2205551221
 31
0.0
  0
LINE
  5
A5
  8
0
  6
CONTINUOUS
 62
     7
 10
-304.6265326834
 20
-356.2205551221
 30
0.0
 11
-306.1265431739
 21
-356.2205551221
 31
0.0
  0
LINE
  5
A6
  8
0
  6
CONTINUOUS
 62
     7
 10
287.3734423497
 20
797.4530825363
 30
0.0
 11
287.3734423497
 21
-337.7903481974
 31
0.0
  0
LINE
  5
A7
  8
0
  6
CONTINUOUS
 62
     7
 10
287.3734423497
 20
-343.2162111654
 30
0.0
 11
287.3734423497
 21
-356.2205551221
 31
0.0
  0
LINE
  5
A8
  8
0
  6
CONTINUOUS
 62
     7
 10
287.3734423497
 20
816.0833487258
 30
0.0
 11
287.3734423497
 21
802.8788933502
 31
0.0
  0
LINE
  5
A9
  8
0
  6
CONTINUOUS
 62
     7
 10
-302.028485427
 20
818.6813959823
 30
0.0
 11
-302.028485427
 21
820.1814064727
 31
0.0
  0
LINE
  5
AA
  8
0
  6
CONTINUOUS
 62
     7
 10
-304.6265326834
 20
-360.3186314954
 30
0.0
 11
-304.6265326834
 21
-358.8186303182
 31
0.0
  0
LINE
  5
AB
  8
0
  6
CONTINUOUS
 62
     7
 10
-302.028485427
 20
-358.8186303182
 30
0.0
 11
-304.6265326834
 21
-358.8186303182
 31
0.0
  0
LINE
  5
AC
  8
0
  6
CONTINUOUS
 62
     7
 10
-304.6265326834
 20
-360.3186314954
 30
0.0
 11
-302.028485427
 21
-360.3186314954
 31
0.0
  0
LINE
  5
AD
  8
0
  6
CONTINUOUS
 62
     7
 10
285.8734425695
 20
820.1814064727
 30
0.0
 11
285.8734425695
 21
818.6813959823
 31
0.0
  0
LINE
  5
AE
  8
0
  6
CONTINUOUS
 62
     7
 10
283.2753659763
 20
818.6813959823
 30
0.0
 11
285.8734425695
 21
818.6813959823
 31
0.0
  0
LINE
  5
AF
  8
0
  6
CONTINUOUS
 62
     7
 10
285.8734425695
 20
820.1814064727
 30
0.0
 11
283.2753659763
 21
820.1814064727
 31
0.0
  0
LINE
  5
B0
  8
0
  6
CONTINUOUS
 62
     7
 10
285.8734425695
 20
818.6813959823
 30
0.0
 11
287.3734423497
 21
818.6813959823
 31
0.0
  0
LINE
  5
B1
  8
0
  6
CONTINUOUS
 62
     7
 10
287.3734423497
 20
816.0833487258
 30
0.0
 11
287.3734423497
 21
818.6813959823
 31
0.0
  0
LINE
  5
B2
  8
0
  6
CONTINUOUS
 62
     7
 10
285.8734425695
 20
818.6813959823
 30
0.0
 11
285.8734425695
 21
816.0833487258
 31
0.0
  0
LINE
  5
B3
  8
0
  6
CONTINUOUS
 62
     7
 10
-304.6265326834
 20
-358.8186303182
 30
0.0
 11
-306.1265431739
 21
-358.8186303182
 31
0.0
  0
LINE
  5
B4
  8
0
  6
CONTINUOUS
 62
     7
 10
-304.6265326834
 20
-358.8186303182
 30
0.0
 11
-304.6265326834
 21
-356.2205551221
 31
0.0
  0
LINE
  5
B5
  8
0
  6
CONTINUOUS
 62
     7
 10
-306.1265431739
 20
-356.2205551221
 30
0.0
 11
-306.1265431739
 21
-358.8186303182
 31
0.0
  0
LINE
  5
B6
  8
0
  6
CONTINUOUS
 62
     7
 10
287.3734423497
 20
-358.8186303182
 30
0.0
 11
285.8734425695
 21
-358.8186303182
 31
0.0
  0
LINE
  5
B7
  8
0
  6
CONTINUOUS
 62
     7
 10
285.8734425695
 20
-356.2205551221
 30
0.0
 11
285.8734425695
 21
-358.8186303182
 31
0.0
  0
LINE
  5
B8
  8
0
  6
CONTINUOUS
 62
     7
 10
287.3734423497
 20
-358.8186303182
 30
0.0
 11
287.3734423497
 21
-356.2205551221
 31
0.0
  0
LINE
  5
B9
  8
0
  6
CONTINUOUS
 62
     7
 10
-306.1265431739
 20
818.6813959823
 30
0.0
 11
-304.6265326834
 21
818.6813959823
 31
0.0
  0
LINE
  5
BA
  8
0
  6
CONTINUOUS
 62
     7
 10
-304.6265326834
 20
818.6813959823
 30
0.0
 11
-304.6265326834
 21
816.0833487258
 31
0.0
  0
LINE
  5
BB
  8
0
  6
CONTINUOUS
 62
     7
 10
-306.1265431739
 20
818.6813959823
 30
0.0
 11
-306.1265431739
 21
816.0833487258
 31
0.0
  0
LINE
  5
BC
  8
0
  6
CONTINUOUS
 62
     7
 10
-304.6265326834
 20
818.6813959823
 30
0.0
 11
-304.6265326834
 21
820.1814064727
 31
0.0
  0
LINE
  5
BD
  8
0
  6
CONTINUOUS
 62
     7
 10
-302.028485427
 20
818.6813959823
 30
0.0
 11
-304.6265326834
 21
818.6813959823
 31
0.0
  0
LINE
  5
BE
  8
0
  6
CONTINUOUS
 62
     7
 10
-302.028485427
 20
820.1814064727
 30
0.0
 11
-304.6265326834
 21
820.1814064727
 31
0.0
  0
LINE
  5
BF
  8
0
  6
CONTINUOUS
 62
     7
 10
285.8734425695
 20
-358.8186303182
 30
0.0
 11
285.8734425695
 21
-360.3186314954
 31
0.0
  0
LINE
  5
C0
  8
0
  6
CONTINUOUS
 62
     7
 10
285.8734425695
 20
-358.8186303182
 30
0.0
 11
283.2753659763
 21
-358.8186303182
 31
0.0
  0
LINE
  5
C1
  8
0
  6
CONTINUOUS
 62
     7
 10
283.2753659763
 20
-360.3186314954
 30
0.0
 11
285.8734425695
 21
-360.3186314954
 31
0.0
  0
LINE
  5
C2
  8
0
  6
CONTINUOUS
 62
     7
 10
287.8127821327
 20
-332.3641127004
 30
0.0
 11
288.8734425955
 21
-332.3641127004
 31
0.0
  0
ARC
  5
C3
  8
0
  6
CONTINUOUS
 62
     7
 10
288.1535319966
 20
793.1332482782
 30
0.0
 40
0.9683532712999599
 50
225.6286885948
 51
249.3972912592
  0
LINE
  5
C4
  8
0
  6
CONTINUOUS
 62
     7
 10
288.8734425955
 20
792.2268280731
 30
0.0
 11
287.8127821327
 21
792.2268280731
 31
0.0
  0
ARC
  5
C5
  8
0
  6
CONTINUOUS
 62
     7
 10
287.9705036418
 20
-332.9775974211
 30
0.0
 40
0.6334347455736229
 50
104.4179957045
 51
160.4890066527
  0
LINE
  5
C6
  8
0
  6
CONTINUOUS
 62
     7
 10
293.4734419991
 20
792.2268280731
 30
0.0
 11
288.8734425955
 21
792.2268280731
 31
0.0
  0
LINE
  5
C7
  8
0
  6
CONTINUOUS
 62
     7
 10
288.8734425955
 20
-332.3641127004
 30
0.0
 11
293.4734419991
 21
-332.3641127004
 31
0.0
  0
LINE
  5
C8
  8
0
  6
CONTINUOUS
 62
     7
 10
-305.0765477515
 20
-375.3186306945
 30
0.0
 11
-305.0765477515
 21
-374.8186306125
 31
0.0
  0
LINE
  5
C9
  8
0
  6
CONTINUOUS
 62
     7
 10
-305.0765477515
 20
-374.8186306125
 30
0.0
 11
-290.5765854216
 21
-360.3186314954
 31
0.0
  0
LINE
  5
CA
  8
0
  6
CONTINUOUS
 62
     7
 10
876.4234698915
 20
-360.3186314954
 30
0.0
 11
890.9234322213
 21
-374.8186306125
 31
0.0
  0
LINE
  5
CB
  8
0
  6
CONTINUOUS
 62
     7
 10
890.9234322213
 20
-374.8186306125
 30
0.0
 11
890.9234322213
 21
-375.3186306945
 31
0.0
  0
LINE
  5
CC
  8
0
  6
CONTINUOUS
 62
     7
 10
-305.0765477515
 20
-378.3186307206
 30
0.0
 11
-305.0765477515
 21
-375.3186306945
 31
0.0
  0
LINE
  5
CD
  8
0
  6
CONTINUOUS
 62
     7
 10
890.9234322213
 20
-375.3186306945
 30
0.0
 11
890.9234322213
 21
-378.3186307206
 31
0.0
  0
LINE
  5
CE
  8
0
  6
CONTINUOUS
 62
     7
 10
890.9234322213
 20
-378.3186307206
 30
0.0
 11
-305.0765477515
 21
-378.3186307206
 31
0.0
  0
LINE
  5
CF
  8
0
  6
CONTINUOUS
 62
     7
 10
293.4734419991
 20
-332.7783351793
 30
0.0
 11
287.3734423497
 21
-332.7783351793
 31
0.0
  0
LINE
  5
D0
  8
0
  6
CONTINUOUS
 62
     7
 10
295.6739891392
 20
-356.0186313494
 30
0.0
 11
295.0288086736
 21
-356.0186313494
 31
0.0
  0
LINE
  5
D1
  8
0
  6
CONTINUOUS
 62
     7
 10
293.4734419991
 20
-356.0186313494
 30
0.0
 11
287.3734423497
 21
-356.0186313494
 31
0.0
  0
LINE
  5
D2
  8
0
  6
CONTINUOUS
 62
     7
 10
285.8143394419
 20
-356.0186313494
 30
0.0
 11
285.1485136502
 21
-356.0186313494
 31
0.0
  0
LINE
  5
D3
  8
0
  6
CONTINUOUS
 62
     7
 10
287.3734423497
 20
792.4410471664
 30
0.0
 11
293.4734419991
 21
792.4410471664
 31
0.0
  0
LINE
  5
D4
  8
0
  6
CONTINUOUS
 62
     7
 10
287.3734423497
 20
815.6813750015
 30
0.0
 11
293.4734419991
 21
815.6813750015
 31
0.0
  0
LINE
  5
D5
  8
0
  6
CONTINUOUS
 62
     7
 10
356.9953135752
 20
281.974113916
 30
0.0
 11
354.512377789
 21
281.9689283119
 31
0.0
  0
LINE
  5
D6
  8
0
  6
CONTINUOUS
 62
     7
 10
344.4345064067
 20
281.9689283119
 30
0.0
 11
341.9515743458
 21
281.974113916
 31
0.0
  0
LINE
  5
D7
  8
0
  6
CONTINUOUS
 62
     7
 10
341.9520027541
 20
277.9461512313
 30
0.0
 11
344.4353147947
 21
277.9510388122
 31
0.0
  0
LINE
  5
D8
  8
0
  6
CONTINUOUS
 62
     7
 10
354.5115805768
 20
277.9509792076
 30
0.0
 11
356.9948814415
 21
277.9461512313
 31
0.0
  0
ARC
  5
D9
  8
0
  6
CONTINUOUS
 62
     7
 10
349.4733697247
 20
279.9314244618
 30
0.0
 40
5.00007616373713
 50
270.0008293225
 51
338.2615641916
  0
ARC
  5
DA
  8
0
  6
CONTINUOUS
 62
     7
 10
349.4735292926
 20
279.9314463276
 30
0.0
 40
5.000098029777648
 50
201.7386056448
 51
269.9990008411
  0
ARC
  5
DB
  8
0
  6
CONTINUOUS
 62
     7
 10
354.4894164968
 20
277.9313692795
 30
0.0
 40
0.4000000000008299
 50
89.9999999997
 51
158.2615392082
  0
ARC
  5
DC
  8
0
  6
CONTINUOUS
 62
     7
 10
344.4574675336
 20
277.9313692795
 30
0.0
 40
0.4000000000008299
 50
21.7384607918
 51
90.0000000003
  0
LINE
  5
DD
  8
0
  6
CONTINUOUS
 62
     7
 10
356.942876389
 20
278.3313760505
 30
0.0
 11
354.4894150996
 21
278.3313760505
 31
0.0
  0
LINE
  5
DE
  8
0
  6
CONTINUOUS
 62
     7
 10
344.4574690961
 20
278.3313760505
 30
0.0
 11
342.0040040814
 21
278.3313760505
 31
0.0
  0
ARC
  5
DF
  8
0
  6
CONTINUOUS
 62
     7
 10
349.4734402352
 20
280.0490860378
 30
0.0
 40
13.75555649526929
 50
227.8971299581
 51
312.1028700419
  0
ARC
  5
E0
  8
0
  6
CONTINUOUS
 62
     7
 10
356.9428916161
 20
278.8313646618
 30
0.0
 40
0.4999886115584843
 50
269.9982550628
 51
351.6206327429
  0
ARC
  5
E1
  8
0
  6
CONTINUOUS
 62
     7
 10
342.0040126933
 20
278.8313922703
 30
0.0
 40
0.5000162198677264
 50
188.3820990052
 51
269.9990131891
  0
ARC
  5
E2
  8
0
  6
CONTINUOUS
 62
     7
 10
349.4734945787
 20
279.9313515496
 30
0.0
 40
5.000046817183105
 50
90.000601381
 51
158.2617921331
  0
ARC
  5
E3
  8
0
  6
CONTINUOUS
 62
     7
 10
349.4733951476
 20
279.9313597088
 30
0.0
 40
5.000038657947066
 50
21.7381444917
 51
89.9994619942
  0
LINE
  5
E4
  8
0
  6
CONTINUOUS
 62
     7
 10
342.0040040814
 20
281.5313706146
 30
0.0
 11
344.4574690961
 21
281.5313706146
 31
0.0
  0
ARC
  5
E5
  8
0
  6
CONTINUOUS
 62
     7
 10
344.4574675336
 20
281.9313692795
 30
0.0
 40
0.4000000000005207
 50
296.7075131236
 51
338.2615392082
  0
ARC
  5
E6
  8
0
  6
CONTINUOUS
 62
     7
 10
352.5397479301
 20
281.8529504665
 30
0.0
 40
1.976010038686036
 50
350.6339115325
 51
3.3665229702
  0
LINE
  5
E7
  8
0
  6
CONTINUOUS
 62
     7
 10
354.4894188248
 20
281.5313706146
 30
0.0
 11
356.942876389
 21
281.5313706146
 31
0.0
  0
ARC
  5
E8
  8
0
  6
CONTINUOUS
 62
     7
 10
354.4894164968
 20
281.9313692795
 30
0.0
 40
0.4000000000004151
 50
201.7384607918
 51
270.0000000003
  0
LINE
  5
E9
  8
0
  6
CONTINUOUS
 62
     7
 10
357.4375427865
 20
281.1042437301
 30
0.0
 11
357.4375427865
 21
278.758502935
 31
0.0
  0
ARC
  5
EA
  8
0
  6
CONTINUOUS
 62
     7
 10
356.9428972251
 20
281.0313884992
 30
0.0
 40
0.4999821158249806
 50
8.3787244663
 51
90.0023877281
  0
ARC
  5
EB
  8
0
  6
CONTINUOUS
 62
     7
 10
342.0040178501
 20
281.0313484225
 30
0.0
 40
0.5000221922607008
 50
90.0015777044
 51
171.6173101013
  0
ARC
  5
EC
  8
0
  6
CONTINUOUS
 62
     7
 10
349.5177159086
 20
279.6799640505
 30
0.0
 40
13.45371623399339
 50
313.0169730765
 51
69.5934447358
  0
ARC
  5
ED
  8
0
  6
CONTINUOUS
 62
     7
 10
349.4291737751
 20
279.67996143
 30
0.0
 40
13.45372060354544
 50
110.4065732784
 51
226.9829906219
  0
ARC
  5
EE
  8
0
  6
CONTINUOUS
 62
     7
 10
349.4734420978
 20
279.6517545119
 30
0.0
 40
13.49562989614434
 50
69.4590352936
 51
110.5409647064
  0
LINE
  5
EF
  8
0
  6
CONTINUOUS
 62
     7
 10
332.3243811333
 20
188.055134748
 30
0.0
 11
332.3243811333
 21
271.9076046691
 31
0.0
  0
LINE
  5
F0
  8
0
  6
CONTINUOUS
 62
     7
 10
366.6225067877
 20
271.9076046691
 30
0.0
 11
366.6225067877
 21
188.055134748
 31
0.0
  0
ARC
  5
F1
  8
0
  6
CONTINUOUS
 62
     7
 10
333.9602540651
 20
156.186118058
 30
0.0
 40
1.57184481803361
 50
248.5024549364
 51
273.0582176611
  0
ARC
  5
F2
  8
0
  6
CONTINUOUS
 62
     7
 10
364.9866218921
 20
303.7765505693
 30
0.0
 40
1.571915067698713
 50
68.5029947669
 51
93.05778014
  0
LINE
  5
F3
  8
0
  6
CONTINUOUS
 62
     7
 10
332.3243811333
 20
188.055134748
 30
0.0
 11
332.6839834058
 21
154.0096173034
 31
0.0
  0
LINE
  5
F4
  8
0
  6
CONTINUOUS
 62
     7
 10
366.2628970646
 20
305.9531221138
 30
0.0
 11
366.6225067877
 21
271.9076046691
 31
0.0
  0
LINE
  5
F5
  8
0
  6
CONTINUOUS
 62
     7
 10
366.2628970646
 20
154.0096173034
 30
0.0
 11
366.6225067877
 21
188.055134748
 31
0.0
  0
LINE
  5
F6
  8
0
  6
CONTINUOUS
 62
     7
 10
332.3243811333
 20
271.9076046691
 30
0.0
 11
332.6839871311
 21
305.9531221138
 31
0.0
  0
ARC
  5
F7
  8
0
  6
CONTINUOUS
 62
     7
 10
349.4734439605
 20
-39.216313934
 30
0.0
 40
347.7383665164451
 50
87.8202281714
 51
92.1797718286
  0
ARC
  5
F8
  8
0
  6
CONTINUOUS
 62
     7
 10
349.4734402352
 20
499.178832914
 30
0.0
 40
347.7381460970367
 50
267.8202274033
 51
272.1797725967
  0
ARC
  5
F9
  8
0
  6
CONTINUOUS
 62
     7
 10
349.4734420152
 20
330.3813692795
 30
0.0
 40
180.0000000000179
 50
265.5843621468
 51
274.4156379362
  0
ARC
  5
FA
  8
0
  6
CONTINUOUS
 62
     7
 10
349.4734420152
 20
129.5813692795
 30
0.0
 40
180.0000000000178
 50
85.5843602115
 51
94.415639811
  0
ARC
  5
FB
  8
0
  6
CONTINUOUS
 62
     7
 10
335.8544719144
 20
154.0778142658
 30
0.0
 40
3.171206981816986
 50
181.2322435524
 51
265.6698413317
  0
ARC
  5
FC
  8
0
  6
CONTINUOUS
 62
     7
 10
363.0924553904
 20
305.8849624614
 30
0.0
 40
3.171166804914322
 50
1.2315849041
 51
85.6704999801
  0
ARC
  5
FD
  8
0
  6
CONTINUOUS
 62
     7
 10
363.0927824616
 20
154.0774676833
 30
0.0
 40
3.170833176341884
 50
274.3238944685
 51
358.7738752167
  0
ARC
  5
FE
  8
0
  6
CONTINUOUS
 62
     7
 10
335.8540800674
 20
305.8852928354
 30
0.0
 40
3.170811063107472
 50
94.3236670653
 51
178.7742480506
  0
LINE
  5
FF
  8
0
  6
CONTINUOUS
 62
     7
 10
341.5558404826
 20
278.7860998855
 30
0.0
 11
341.6300072872
 21
278.3564100013
 31
0.0
  0
POLYLINE
  5
100
  8
0
  6
CONTINUOUS
 62
     7
 66
     1
 10
0.0
 20
0.0
 30
0.0
  0
VERTEX
  5
6F8
  8
0
  6
CONTINUOUS
 62
     7
 10
357.3205761217
 20
278.3749470459
 30
0.0
  0
VERTEX
  5
6F9
  8
0
  6
CONTINUOUS
 62
     7
 10
357.4265457296
 20
279.0664205299
 30
0.0
  0
VERTEX
  5
6FA
  8
0
  6
CONTINUOUS
 62
     7
 10
357.4651248359
 20
280.2961239563
 30
0.0
  0
SEQEND
  5
6FB
  8
0
  6
CONTINUOUS
 62
     7
  0
POLYLINE
  5
101
  8
0
  6
CONTINUOUS
 62
     7
 66
     1
 10
0.0
 20
0.0
 30
0.0
  0
VERTEX
  5
6FC
  8
0
  6
CONTINUOUS
 62
     7
 10
357.4519969129
 20
280.5167207466
 30
0.0
  0
VERTEX
  5
6FD
  8
0
  6
CONTINUOUS
 62
     7
 10
357.4265457296
 20
280.7963261352
 30
0.0
  0
VERTEX
  5
6FE
  8
0
  6
CONTINUOUS
 62
     7
 10
357.3188252353
 20
281.4966211067
 30
0.0
  0
SEQEND
  5
6FF
  8
0
  6
CONTINUOUS
 62
     7
  0
LINE
  5
102
  8
0
  6
CONTINUOUS
 62
     7
 10
341.6123717629
 20
281.4157972084
 30
0.0
 11
341.5627806985
 21
281.1236152397
 31
0.0
  0
LINE
  5
103
  8
0
  6
CONTINUOUS
 62
     7
 10
356.7234418892
 20
278.4313926445
 30
0.0
 11
356.7234418892
 21
281.4313540206
 31
0.0
  0
LINE
  5
104
  8
0
  6
CONTINUOUS
 62
     7
 10
354.3457902574
 20
281.4313540206
 30
0.0
 11
354.2431398832
 21
281.4313540206
 31
0.0
  0
LINE
  5
105
  8
0
  6
CONTINUOUS
 62
     7
 10
354.2431398832
 20
281.4313540206
 30
0.0
 11
354.1178620958
 21
281.7832002388
 31
0.0
  0
LINE
  5
106
  8
0
  6
CONTINUOUS
 62
     7
 10
344.8510758185
 20
281.8376192794
 30
0.0
 11
344.7037443125
 21
281.4313540206
 31
0.0
  0
LINE
  5
107
  8
0
  6
CONTINUOUS
 62
     7
 10
344.7037443125
 20
281.4313540206
 30
0.0
 11
344.6010939383
 21
281.4313540206
 31
0.0
  0
LINE
  5
108
  8
0
  6
CONTINUOUS
 62
     7
 10
342.2234423065
 20
281.4313540206
 30
0.0
 11
342.2234423065
 21
278.4313926445
 31
0.0
  0
LINE
  5
109
  8
0
  6
CONTINUOUS
 62
     7
 10
344.7037443125
 20
278.4313926445
 30
0.0
 11
344.8290220999
 21
278.0795464263
 31
0.0
  0
LINE
  5
10A
  8
0
  6
CONTINUOUS
 62
     7
 10
354.1178620958
 20
278.0795464263
 30
0.0
 11
354.2431398832
 21
278.4313926445
 31
0.0
  0
LINE
  5
10B
  8
0
  6
CONTINUOUS
 62
     7
 10
354.2431398832
 20
278.4313926445
 30
0.0
 11
354.3457902574
 21
278.4313926445
 31
0.0
  0
LINE
  5
10C
  8
0
  6
CONTINUOUS
 62
     7
 10
344.6010939383
 20
278.4313926445
 30
0.0
 11
344.7037443125
 21
278.4313926445
 31
0.0
  0
CIRCLE
  5
10D
  8
0
  6
CONTINUOUS
 62
     7
 10
349.4734420152
 20
279.9313692795
 30
0.0
 40
1.5
  0
LINE
  5
10E
  8
0
  6
CONTINUOUS
 62
     7
 10
288.8255023003
 20
-332.3641127004
 30
0.0
 11
289.396175563
 21
-332.7783351793
 31
0.0
  0
LINE
  5
10F
  8
0
  6
CONTINUOUS
 62
     7
 10
288.0138872729
 20
-332.7783351793
 30
0.0
 11
287.8604933225
 21
-332.3641127004
 31
0.0
  0
LINE
  5
110
  8
0
  6
CONTINUOUS
 62
     7
 10
864.9234689378
 20
822.0732578979
 30
0.0
 11
874.2734707498
 21
822.0732578979
 31
0.0
  0
LINE
  5
111
  8
0
  6
CONTINUOUS
 62
     7
 10
855.5734671258
 20
822.0732578979
 30
0.0
 11
864.9234689378
 21
822.0732578979
 31
0.0
  0
LINE
  5
112
  8
0
  6
CONTINUOUS
 62
     7
 10
-288.4265862799
 20
822.0732578979
 30
0.0
 11
-269.726582656
 21
822.0732578979
 31
0.0
  0
ARC
  5
113
  8
0
  6
CONTINUOUS
 62
     7
 10
-297.7756821707
 20
-384.1522454407
 30
0.0
 40
12.64794895659315
 50
119.8792616295
 51
133.9011816879
  0
POLYLINE
  5
114
  8
0
  6
CONTINUOUS
 62
     7
 66
     1
 10
0.0
 20
0.0
 30
0.0
  0
VERTEX
  5
700
  8
0
  6
CONTINUOUS
 62
     7
 10
-306.5459810591
 20
-375.0389333377
 30
0.0
  0
VERTEX
  5
701
  8
0
  6
CONTINUOUS
 62
     7
 10
-306.9408618308
 20
-375.1664730749
 30
0.0
  0
VERTEX
  5
702
  8
0
  6
CONTINUOUS
 62
     7
 10
-307.0765816069
 20
-375.294012812
 30
0.0
  0
SEQEND
  5
703
  8
0
  6
CONTINUOUS
 62
     7
  0
LINE
  5
115
  8
0
  6
CONTINUOUS
 62
     7
 10
-307.0765816069
 20
-375.294012812
 30
0.0
 11
-307.0765816069
 21
819.9935326324
 31
0.0
  0
ARC
  5
116
  8
0
  6
CONTINUOUS
 62
     7
 10
-305.8360912439
 20
820.8476997202
 30
0.0
 40
1.506126739286766
 50
214.5502147351
 51
265.4376260974
  0
POLYLINE
  5
117
  8
0
  6
CONTINUOUS
 62
     7
 66
     1
 10
0.0
 20
0.0
 30
0.0
  0
VERTEX
  5
704
  8
0
  6
CONTINUOUS
 62
     7
 10
-305.9558950759
 20
819.3463453994
 30
0.0
  0
VERTEX
  5
705
  8
0
  6
CONTINUOUS
 62
     7
 10
-305.0727926589
 20
818.6974892364
 30
0.0
  0
VERTEX
  5
706
  8
0
  6
CONTINUOUS
 62
     7
 10
-305.0479971266
 20
818.6813959823
 30
0.0
  0
SEQEND
  5
707
  8
0
  6
CONTINUOUS
 62
     7
  0
LINE
  5
118
  8
0
  6
CONTINUOUS
 62
     7
 10
-304.7557555533
 20
818.4910187469
 30
0.0
 11
-304.0765606261
 21
818.0486330734
 31
0.0
  0
LINE
  5
119
  8
0
  6
CONTINUOUS
 62
     7
 10
-302.5498472548
 20
816.5163168655
 30
0.0
 11
-304.0765606261
 21
818.0486330734
 31
0.0
  0
LINE
  5
11A
  8
0
  6
CONTINUOUS
 62
     7
 10
-304.0765606261
 20
-373.1854982703
 30
0.0
 11
-291.2564956046
 21
-360.3186314954
 31
0.0
  0
POLYLINE
  5
11B
  8
0
  6
CONTINUOUS
 62
     7
 66
     1
 10
0.0
 20
0.0
 30
0.0
  0
VERTEX
  5
708
  8
0
  6
CONTINUOUS
 62
     7
 10
-304.0765606261
 20
-373.1854982703
 30
0.0
  0
VERTEX
  5
709
  8
0
  6
CONTINUOUS
 62
     7
 10
-304.7738157607
 20
-374.1122159204
 30
0.0
  0
VERTEX
  5
70A
  8
0
  6
CONTINUOUS
 62
     7
 10
-305.3112708426
 20
-375.0389333377
 30
0.0
  0
SEQEND
  5
70B
  8
0
  6
CONTINUOUS
 62
     7
  0
LINE
  5
11C
  8
0
  6
CONTINUOUS
 62
     7
 10
-306.5459810591
 20
-375.0389333377
 30
0.0
 11
-305.3112708426
 21
-375.0389333377
 31
0.0
  0
POLYLINE
  5
11D
  8
0
  6
CONTINUOUS
 62
     7
 66
     1
 10
0.0
 20
0.0
 30
0.0
  0
VERTEX
  5
70C
  8
0
  6
CONTINUOUS
 62
     7
 10
-305.016227851
 20
819.3463453994
 30
0.0
  0
VERTEX
  5
70D
  8
0
  6
CONTINUOUS
 62
     7
 10
-304.5746766425
 20
818.6974892364
 30
0.0
  0
VERTEX
  5
70E
  8
0
  6
CONTINUOUS
 62
     7
 10
-304.0765606261
 20
818.0486330734
 30
0.0
  0
SEQEND
  5
70F
  8
0
  6
CONTINUOUS
 62
     7
  0
LINE
  5
11E
  8
0
  6
CONTINUOUS
 62
     7
 10
-305.9558950759
 20
819.3463453994
 30
0.0
 11
-305.016227851
 21
819.3463453994
 31
0.0
  0
ARC
  5
11F
  8
0
  6
CONTINUOUS
 62
     7
 10
-304.6597143341
 20
820.2211894388
 30
0.0
 40
0.9446978251638201
 50
193.9446082122
 51
247.8282859891
  0
LINE
  5
120
  8
0
  6
CONTINUOUS
 62
     7
 10
-305.5765711165
 20
819.9935326324
 30
0.0
 11
-307.0765816069
 21
819.9935326324
 31
0.0
  0
POLYLINE
  5
121
  8
0
  6
CONTINUOUS
 62
     7
 66
     1
 10
0.0
 20
0.0
 30
0.0
  0
VERTEX
  5
710
  8
0
  6
CONTINUOUS
 62
     7
 10
-305.3112708426
 20
-375.0389333377
 30
0.0
  0
VERTEX
  5
711
  8
0
  6
CONTINUOUS
 62
     7
 10
-305.5086814261
 20
-375.1664730749
 30
0.0
  0
VERTEX
  5
712
  8
0
  6
CONTINUOUS
 62
     7
 10
-305.5765711165
 20
-375.294012812
 30
0.0
  0
SEQEND
  5
713
  8
0
  6
CONTINUOUS
 62
     7
  0
LINE
  5
122
  8
0
  6
CONTINUOUS
 62
     7
 10
-307.0765816069
 20
-375.294012812
 30
0.0
 11
-305.5765711165
 21
-375.294012812
 31
0.0
  0
LINE
  5
123
  8
0
  6
CONTINUOUS
 62
     7
 10
-305.5765711165
 20
820.1814064727
 30
0.0
 11
-307.0765816069
 21
820.1814064727
 31
0.0
  0
LINE
  5
124
  8
0
  6
CONTINUOUS
 62
     7
 10
-307.0765816069
 20
819.9935326324
 30
0.0
 11
-307.0765816069
 21
820.1814064727
 31
0.0
  0
LINE
  5
125
  8
0
  6
CONTINUOUS
 62
     7
 10
-305.5765711165
 20
819.9935326324
 30
0.0
 11
-305.5765711165
 21
820.1814064727
 31
0.0
  0
LINE
  5
126
  8
0
  6
CONTINUOUS
 62
     7
 10
-307.0765816069
 20
-375.3186306945
 30
0.0
 11
-305.5765711165
 21
-375.3186306945
 31
0.0
  0
LINE
  5
127
  8
0
  6
CONTINUOUS
 62
     7
 10
-307.0765816069
 20
-375.294012812
 30
0.0
 11
-307.0765816069
 21
-375.3186306945
 31
0.0
  0
LINE
  5
128
  8
0
  6
CONTINUOUS
 62
     7
 10
-305.5765711165
 20
-375.3186306945
 30
0.0
 11
-305.5765711165
 21
-375.294012812
 31
0.0
  0
ARC
  5
129
  8
0
  6
CONTINUOUS
 62
     7
 10
-304.2048476819
 20
-375.3700727707
 30
0.0
 40
1.372687680486621
 50
177.8523124893
 51
230.5776709425
  0
LINE
  5
12A
  8
0
  6
CONTINUOUS
 62
     7
 10
-305.4787002898
 20
-377.9707956797
 30
0.0
 11
-305.0765477515
 21
-377.2101312439
 31
0.0
  0
ARC
  5
12B
  8
0
  6
CONTINUOUS
 62
     7
 10
-304.0764662019
 20
-375.3185453119
 30
0.0
 40
3.000115406257386
 50
180.0016306253
 51
242.1347720414
  0
LINE
  5
12C
  8
0
  6
CONTINUOUS
 62
     7
 10
-305.4787002898
 20
-377.9707962327
 30
0.0
 11
-305.0765477515
 21
-378.1243486388
 31
0.0
  0
POLYLINE
  5
12D
  8
0
  6
CONTINUOUS
 62
     7
 66
     1
 10
0.0
 20
0.0
 30
0.0
  0
VERTEX
  5
714
  8
0
  6
CONTINUOUS
 62
     7
 10
-305.5765711165
 20
-375.3186306945
 30
0.0
  0
VERTEX
  5
715
  8
0
  6
CONTINUOUS
 62
     7
 10
-305.4623686171
 20
-375.2971841982
 30
0.0
  0
VERTEX
  5
716
  8
0
  6
CONTINUOUS
 62
     7
 10
-305.1409207679
 20
-375.2759800787
 30
0.0
  0
SEQEND
  5
717
  8
0
  6
CONTINUOUS
 62
     7
  0
LINE
  5
12E
  8
0
  6
CONTINUOUS
 62
     7
 10
889.9234450959
 20
818.0486330734
 30
0.0
 11
888.3967317247
 21
816.5163168655
 31
0.0
  0
LINE
  5
12F
  8
0
  6
CONTINUOUS
 62
     7
 10
877.1305597925
 20
-360.3186314954
 30
0.0
 11
889.9234450959
 21
-373.1115237838
 31
0.0
  0
ARC
  5
130
  8
0
  6
CONTINUOUS
 62
     7
 10
884.319110701
 20
-383.1029966436
 30
0.0
 40
11.45591960154218
 50
44.4568110772
 51
60.711421558
  0
LINE
  5
131
  8
0
  6
CONTINUOUS
 62
     7
 10
891.2097729348
 20
-375.0795979081
 30
0.0
 11
892.4961007737
 21
-375.0795979081
 31
0.0
  0
POLYLINE
  5
132
  8
0
  6
CONTINUOUS
 62
     7
 66
     1
 10
0.0
 20
0.0
 30
0.0
  0
VERTEX
  5
718
  8
0
  6
CONTINUOUS
 62
     7
 10
889.9234450959
 20
-373.1115237838
 30
0.0
  0
VERTEX
  5
719
  8
0
  6
CONTINUOUS
 62
     7
 10
890.6625426912
 20
-374.0955610788
 30
0.0
  0
VERTEX
  5
71A
  8
0
  6
CONTINUOUS
 62
     7
 10
891.2097729348
 20
-375.0795979081
 30
0.0
  0
SEQEND
  5
71B
  8
0
  6
CONTINUOUS
 62
     7
  0
ARC
  5
133
  8
0
  6
CONTINUOUS
 62
     7
 10
891.6829757137
 20
820.8476997202
 30
0.0
 40
1.506126739286813
 50
274.5623739026
 51
325.4497852649
  0
LINE
  5
134
  8
0
  6
CONTINUOUS
 62
     7
 10
892.9234660768
 20
819.9935326324
 30
0.0
 11
892.9234660768
 21
-375.294012812
 31
0.0
  0
POLYLINE
  5
135
  8
0
  6
CONTINUOUS
 62
     7
 66
     1
 10
0.0
 20
0.0
 30
0.0
  0
VERTEX
  5
71C
  8
0
  6
CONTINUOUS
 62
     7
 10
892.4961007737
 20
-375.0795979081
 30
0.0
  0
VERTEX
  5
71D
  8
0
  6
CONTINUOUS
 62
     7
 10
892.8146279954
 20
-375.1868054765
 30
0.0
  0
VERTEX
  5
71E
  8
0
  6
CONTINUOUS
 62
     7
 10
892.9234660768
 20
-375.294012812
 30
0.0
  0
SEQEND
  5
71F
  8
0
  6
CONTINUOUS
 62
     7
  0
POLYLINE
  5
136
  8
0
  6
CONTINUOUS
 62
     7
 66
     1
 10
0.0
 20
0.0
 30
0.0
  0
VERTEX
  5
720
  8
0
  6
CONTINUOUS
 62
     7
 10
891.8027795457
 20
819.3463453994
 30
0.0
  0
VERTEX
  5
721
  8
0
  6
CONTINUOUS
 62
     7
 10
890.9196771287
 20
818.6974892364
 30
0.0
  0
VERTEX
  5
722
  8
0
  6
CONTINUOUS
 62
     7
 10
890.8948815965
 20
818.6813959823
 30
0.0
  0
SEQEND
  5
723
  8
0
  6
CONTINUOUS
 62
     7
  0
LINE
  5
137
  8
0
  6
CONTINUOUS
 62
     7
 10
890.6026400232
 20
818.4910187469
 30
0.0
 11
889.9234450959
 21
818.0486330734
 31
0.0
  0
POLYLINE
  5
138
  8
0
  6
CONTINUOUS
 62
     7
 66
     1
 10
0.0
 20
0.0
 30
0.0
  0
VERTEX
  5
724
  8
0
  6
CONTINUOUS
 62
     7
 10
890.8631123208
 20
819.3463453994
 30
0.0
  0
VERTEX
  5
725
  8
0
  6
CONTINUOUS
 62
     7
 10
890.4215611123
 20
818.6974892364
 30
0.0
  0
VERTEX
  5
726
  8
0
  6
CONTINUOUS
 62
     7
 10
889.9234450959
 20
818.0486330734
 30
0.0
  0
SEQEND
  5
727
  8
0
  6
CONTINUOUS
 62
     7
  0
LINE
  5
139
  8
0
  6
CONTINUOUS
 62
     7
 10
890.8631123208
 20
819.3463453994
 30
0.0
 11
891.8027795457
 21
819.3463453994
 31
0.0
  0
ARC
  5
13A
  8
0
  6
CONTINUOUS
 62
     7
 10
890.506598804
 20
820.2211894388
 30
0.0
 40
0.9446978251639304
 50
292.171714011
 51
346.0553917878
  0
LINE
  5
13B
  8
0
  6
CONTINUOUS
 62
     7
 10
892.9234660768
 20
819.9935326324
 30
0.0
 11
891.4234555864
 21
819.9935326324
 31
0.0
  0
LINE
  5
13C
  8
0
  6
CONTINUOUS
 62
     7
 10
891.4234555864
 20
-375.294012812
 30
0.0
 11
892.9234660768
 21
-375.294012812
 31
0.0
  0
POLYLINE
  5
13D
  8
0
  6
CONTINUOUS
 62
     7
 66
     1
 10
0.0
 20
0.0
 30
0.0
  0
VERTEX
  5
728
  8
0
  6
CONTINUOUS
 62
     7
 10
891.2097729348
 20
-375.0795979081
 30
0.0
  0
VERTEX
  5
729
  8
0
  6
CONTINUOUS
 62
     7
 10
891.3690365457
 20
-375.1868054765
 30
0.0
  0
VERTEX
  5
72A
  8
0
  6
CONTINUOUS
 62
     7
 10
891.4234555864
 20
-375.294012812
 30
0.0
  0
SEQEND
  5
72B
  8
0
  6
CONTINUOUS
 62
     7
  0
LINE
  5
13E
  8
0
  6
CONTINUOUS
 62
     7
 10
891.4234555864
 20
820.1814064727
 30
0.0
 11
891.4234555864
 21
819.9935326324
 31
0.0
  0
LINE
  5
13F
  8
0
  6
CONTINUOUS
 62
     7
 10
892.9234660768
 20
820.1814064727
 30
0.0
 11
891.4234555864
 21
820.1814064727
 31
0.0
  0
LINE
  5
140
  8
0
  6
CONTINUOUS
 62
     7
 10
892.9234660768
 20
820.1814064727
 30
0.0
 11
892.9234660768
 21
819.9935326324
 31
0.0
  0
LINE
  5
141
  8
0
  6
CONTINUOUS
 62
     7
 10
891.4234555864
 20
-375.3186306945
 30
0.0
 11
892.9234660768
 21
-375.3186306945
 31
0.0
  0
LINE
  5
142
  8
0
  6
CONTINUOUS
 62
     7
 10
892.9234660768
 20
-375.3186306945
 30
0.0
 11
892.9234660768
 21
-375.294012812
 31
0.0
  0
LINE
  5
143
  8
0
  6
CONTINUOUS
 62
     7
 10
891.4234555864
 20
-375.294012812
 30
0.0
 11
891.4234555864
 21
-375.3186306945
 31
0.0
  0
ARC
  5
144
  8
0
  6
CONTINUOUS
 62
     7
 10
889.9233933582
 20
-375.3185679424
 30
0.0
 40
3.000072719229339
 50
301.8906830293
 51
359.9988015522
  0
LINE
  5
145
  8
0
  6
CONTINUOUS
 62
     7
 10
890.9234322213
 20
-376.9257780892
 30
0.0
 11
891.5083326005
 21
-377.8658025054
 31
0.0
  0
ARC
  5
146
  8
0
  6
CONTINUOUS
 62
     7
 10
890.0459572876
 20
-375.3605358764
 30
0.0
 40
1.378135554790252
 50
309.5470486878
 51
1.7424702535
  0
LINE
  5
147
  8
0
  6
CONTINUOUS
 62
     7
 10
891.5083326005
 20
-377.8658025054
 30
0.0
 11
890.9234322213
 21
-378.1252159766
 31
0.0
  0
POLYLINE
  5
148
  8
0
  6
CONTINUOUS
 62
     7
 66
     1
 10
0.0
 20
0.0
 30
0.0
  0
VERTEX
  5
72C
  8
0
  6
CONTINUOUS
 62
     7
 10
891.4234555864
 20
-375.3186306945
 30
0.0
  0
VERTEX
  5
72D
  8
0
  6
CONTINUOUS
 62
     7
 10
891.309253087
 20
-375.2971841982
 30
0.0
  0
VERTEX
  5
72E
  8
0
  6
CONTINUOUS
 62
     7
 10
890.9878052377
 20
-375.2759800787
 30
0.0
  0
SEQEND
  5
72F
  8
0
  6
CONTINUOUS
 62
     7
  0
LINE
  5
149
  8
0
  6
CONTINUOUS
 62
     7
 10
-302.2500954962
 20
816.8504605041
 30
0.0
 11
-304.0810309745
 21
818.6813959823
 31
0.0
  0
LINE
  5
14A
  8
0
  6
CONTINUOUS
 62
     7
 10
889.9279154443
 20
818.6813959823
 30
0.0
 11
888.0969799661
 21
816.8504605041
 31
0.0
  0
ARC
  5
14B
  8
0
  6
CONTINUOUS
 62
     7
 10
-328.8605381881
 20
810.1594602104
 30
0.0
 40
26.00087624869481
 50
20.9381457988
 51
26.3042219046
  0
LINE
  5
14C
  8
0
  6
CONTINUOUS
 62
     7
 10
-305.5519543982
 20
821.6814169632
 30
0.0
 11
891.3988388681
 21
821.6814169632
 31
0.0
  0
ARC
  5
14D
  8
0
  6
CONTINUOUS
 62
     7
 10
905.704732262
 20
814.0966034473
 30
0.0
 40
16.19221979430372
 50
152.0679999427
 51
160.6896323539
  0
LINE
  5
14E
  8
0
  6
CONTINUOUS
 62
     7
 10
891.3988388681
 20
820.1814064727
 30
0.0
 11
891.3988388681
 21
821.6814169632
 31
0.0
  0
ARC
  5
14F
  8
0
  6
CONTINUOUS
 62
     7
 10
896.5418788677
 20
814.6991023365
 30
0.0
 40
7.517081819431263
 50
133.1711838129
 51
144.4821195499
  0
ARC
  5
150
  8
0
  6
CONTINUOUS
 62
     7
 10
-314.0039250426
 20
811.8050702109
 30
0.0
 40
11.89953011443402
 50
37.6042092763
 51
44.7424873609
  0
LINE
  5
151
  8
0
  6
CONTINUOUS
 62
     7
 10
-305.5519543982
 20
821.6814169632
 30
0.0
 11
-305.5519543982
 21
820.1814064727
 31
0.0
  0
LINE
  5
152
  8
0
  6
CONTINUOUS
 62
     7
 10
-305.5765711165
 20
820.1814064727
 30
0.0
 11
-305.5519543982
 21
820.1814064727
 31
0.0
  0
LINE
  5
153
  8
0
  6
CONTINUOUS
 62
     7
 10
-305.5765711165
 20
820.1814064727
 30
0.0
 11
-305.5765711165
 21
821.6814169632
 31
0.0
  0
LINE
  5
154
  8
0
  6
CONTINUOUS
 62
     7
 10
-305.5519543982
 20
821.6814169632
 30
0.0
 11
-305.5765711165
 21
821.6814169632
 31
0.0
  0
LINE
  5
155
  8
0
  6
CONTINUOUS
 62
     7
 10
891.4234555864
 20
821.6814169632
 30
0.0
 11
891.4234555864
 21
820.1814064727
 31
0.0
  0
LINE
  5
156
  8
0
  6
CONTINUOUS
 62
     7
 10
891.3988388681
 20
820.1814064727
 30
0.0
 11
891.4234555864
 21
820.1814064727
 31
0.0
  0
LINE
  5
157
  8
0
  6
CONTINUOUS
 62
     7
 10
891.3988388681
 20
821.6814169632
 30
0.0
 11
891.4234555864
 21
821.6814169632
 31
0.0
  0
LINE
  5
158
  8
0
  6
CONTINUOUS
 62
     7
 10
-305.5765711165
 20
820.1814064727
 30
0.0
 11
-305.5012308455
 21
820.1562533126
 31
0.0
  0
ARC
  5
159
  8
0
  6
CONTINUOUS
 62
     7
 10
1234.6348382896
 20
257.7717620445
 30
0.0
 40
279.9999999999779
 50
7.2582600318
 51
10.3102613261
  0
ARC
  5
15A
  8
0
  6
CONTINUOUS
 62
     7
 10
1234.6348382896
 20
202.1909765145
 30
0.0
 40
280.0000000002276
 50
349.689847532
 51
357.0
  0
ARC
  5
15B
  8
0
  6
CONTINUOUS
 62
     7
 10
704.3625553349
 20
229.9813692795
 30
0.0
 40
811.0000000004949
 50
357.0
 51
0.0
  0
ARC
  5
15C
  8
0
  6
CONTINUOUS
 62
     7
 10
704.3625553349
 20
229.9813692795
 30
0.0
 40
811.0000000004901
 50
0.0
 51
2.5676082653
  0
ARC
  5
15D
  8
0
  6
CONTINUOUS
 62
     7
 10
1500.3625553349
 20
276.8246905712
 30
0.0
 40
32.99999999999991
 50
73.9885793219
 51
83.0379373089
  0
ARC
  5
15E
  8
0
  6
CONTINUOUS
 62
     7
 10
1500.3625553349
 20
183.1380479878
 30
0.0
 40
33.00000000000009
 50
276.9620626911
 51
286.0038114314
  0
ARC
  5
15F
  8
0
  6
CONTINUOUS
 62
     7
 10
1512.3820072078
 20
292.3469684756
 30
0.0
 40
0.8000000000004255
 50
21.3050835821
 51
89.368240118
  0
ARC
  5
160
  8
0
  6
CONTINUOUS
 62
     7
 10
1514.1538216411
 20
267.008841599
 30
0.0
 40
0.8000000000005993
 50
299.5405628497
 51
346.6949164185
  0
ARC
  5
161
  8
0
  6
CONTINUOUS
 62
     7
 10
1509.3247549512
 20
152.2101312531
 30
0.0
 40
0.8000233075586557
 50
284.5511000342
 51
350.061114004
  0
ARC
  5
162
  8
0
  6
CONTINUOUS
 62
     7
 10
1509.3247390395
 20
307.7525934843
 30
0.0
 40
0.8000415142641165
 50
9.9397248444
 51
75.4480611174
  0
ARC
  5
163
  8
0
  6
CONTINUOUS
 62
     7
 10
1483.5671254536
 20
281.1095701956
 30
0.0
 40
31.7285714285716
 50
7.7404456693
 51
21.3050835822
  0
ARC
  5
164
  8
0
  6
CONTINUOUS
 62
     7
 10
1484.0554207698
 20
274.1266218438
 30
0.0
 40
31.72857142862246
 50
346.6949164182
 51
0.7440974729
  0
LINE
  5
165
  8
0
  6
CONTINUOUS
 62
     7
 10
1408.8125546281
 20
822.0732578979
 30
0.0
 11
1408.8125546281
 21
821.6814169632
 31
0.0
  0
LINE
  5
166
  8
0
  6
CONTINUOUS
 62
     7
 10
1427.5125508015
 20
821.6814169632
 30
0.0
 11
1427.5125508015
 21
822.0732578979
 31
0.0
  0
ARC
  5
167
  8
0
  6
CONTINUOUS
 62
     7
 10
1418.1625557606
 20
783.1813692794
 30
0.0
 40
40.00000000000003
 50
76.4820489901
 51
103.5179510099
  0
LINE
  5
168
  8
0
  6
CONTINUOUS
 62
     7
 10
1158.8125620787
 20
822.0732578979
 30
0.0
 11
1158.8125620787
 21
821.6814169632
 31
0.0
  0
LINE
  5
169
  8
0
  6
CONTINUOUS
 62
     7
 10
1177.512558252
 20
821.6814169632
 30
0.0
 11
1177.512558252
 21
822.0732578979
 31
0.0
  0
ARC
  5
16A
  8
0
  6
CONTINUOUS
 62
     7
 10
1168.1625557606
 20
783.1813692794
 30
0.0
 40
40.00000000000003
 50
76.4820489901
 51
103.5179510099
  0
LINE
  5
16B
  8
0
  6
CONTINUOUS
 62
     7
 10
1485.1625506584
 20
-232.818626429
 30
0.0
 11
1485.3825514023
 21
-232.818626429
 31
0.0
  0
LINE
  5
16C
  8
0
  6
CONTINUOUS
 62
     7
 10
1485.3825514023
 20
-227.8186311974
 30
0.0
 11
1485.1625506584
 21
-227.8186311974
 31
0.0
  0
LINE
  5
16D
  8
0
  6
CONTINUOUS
 62
     7
 10
1485.3825514023
 20
-232.818626429
 30
0.0
 11
1485.7825581734
 21
-232.4186345591
 31
0.0
  0
LINE
  5
16E
  8
0
  6
CONTINUOUS
 62
     7
 10
1485.7825581734
 20
-228.2186379685
 30
0.0
 11
1485.3825514023
 21
-227.8186311974
 31
0.0
  0
LINE
  5
16F
  8
0
  6
CONTINUOUS
 62
     7
 10
1485.3825514023
 20
-272.8186329855
 30
0.0
 11
1485.7825581734
 21
-272.418633665
 31
0.0
  0
LINE
  5
170
  8
0
  6
CONTINUOUS
 62
     7
 10
1485.7825581734
 20
-268.2186296238
 30
0.0
 11
1485.3825514023
 21
-267.8186303033
 31
0.0
  0
LINE
  5
171
  8
0
  6
CONTINUOUS
 62
     7
 10
1485.1625506584
 20
-272.8186329855
 30
0.0
 11
1485.3825514023
 21
-272.8186329855
 31
0.0
  0
LINE
  5
172
  8
0
  6
CONTINUOUS
 62
     7
 10
1485.3825514023
 20
-267.8186303033
 30
0.0
 11
1485.1625506584
 21
-267.8186303033
 31
0.0
  0
LINE
  5
173
  8
0
  6
CONTINUOUS
 62
     7
 10
1485.1625506584
 20
727.6813158737
 30
0.0
 11
1485.3825514023
 21
727.6813158737
 31
0.0
  0
LINE
  5
174
  8
0
  6
CONTINUOUS
 62
     7
 10
1485.3825514023
 20
732.6813111053
 30
0.0
 11
1485.1625506584
 21
732.6813111053
 31
0.0
  0
LINE
  5
175
  8
0
  6
CONTINUOUS
 62
     7
 10
1485.3825514023
 20
727.6813158737
 30
0.0
 11
1485.7825581734
 21
728.0813822494
 31
0.0
  0
LINE
  5
176
  8
0
  6
CONTINUOUS
 62
     7
 10
1485.7825581734
 20
732.2813639389
 30
0.0
 11
1485.3825514023
 21
732.6813111053
 31
0.0
  0
LINE
  5
177
  8
0
  6
CONTINUOUS
 62
     7
 10
1485.1625506584
 20
207.431353067
 30
0.0
 11
1485.3825514023
 21
207.431353067
 31
0.0
  0
LINE
  5
178
  8
0
  6
CONTINUOUS
 62
     7
 10
1485.3825514023
 20
212.4313482986
 30
0.0
 11
1485.1625506584
 21
212.4313482986
 31
0.0
  0
LINE
  5
179
  8
0
  6
CONTINUOUS
 62
     7
 10
1485.3825514023
 20
207.431353067
 30
0.0
 11
1485.7825581734
 21
207.8313598381
 31
0.0
  0
LINE
  5
17A
  8
0
  6
CONTINUOUS
 62
     7
 10
1485.7825581734
 20
212.0313415275
 30
0.0
 11
1485.3825514023
 21
212.4313482986
 31
0.0
  0
LINE
  5
17B
  8
0
  6
CONTINUOUS
 62
     7
 10
1485.3825514023
 20
687.6813540206
 30
0.0
 11
1485.7825581734
 21
688.0814203964
 31
0.0
  0
LINE
  5
17C
  8
0
  6
CONTINUOUS
 62
     7
 10
1485.7825581734
 20
692.2814020858
 30
0.0
 11
1485.3825514023
 21
692.6813492523
 31
0.0
  0
LINE
  5
17D
  8
0
  6
CONTINUOUS
 62
     7
 10
1485.1625506584
 20
687.6813540206
 30
0.0
 11
1485.3825514023
 21
687.6813540206
 31
0.0
  0
LINE
  5
17E
  8
0
  6
CONTINUOUS
 62
     7
 10
1485.3825514023
 20
692.6813492523
 30
0.0
 11
1485.1625506584
 21
692.6813492523
 31
0.0
  0
LINE
  5
17F
  8
0
  6
CONTINUOUS
 62
     7
 10
1485.3825514023
 20
247.4313745246
 30
0.0
 11
1485.7825581734
 21
247.8313812957
 31
0.0
  0
LINE
  5
180
  8
0
  6
CONTINUOUS
 62
     7
 10
1485.7825581734
 20
252.0313629852
 30
0.0
 11
1485.3825514023
 21
252.4313697563
 31
0.0
  0
LINE
  5
181
  8
0
  6
CONTINUOUS
 62
     7
 10
1485.1625506584
 20
247.4313745246
 30
0.0
 11
1485.3825514023
 21
247.4313745246
 31
0.0
  0
LINE
  5
182
  8
0
  6
CONTINUOUS
 62
     7
 10
1485.3825514023
 20
252.4313697563
 30
0.0
 11
1485.1625506584
 21
252.4313697563
 31
0.0
  0
LINE
  5
183
  8
0
  6
CONTINUOUS
 62
     7
 10
1489.3625621502
 20
-358.8186303182
 30
0.0
 11
1499.8625610773
 21
-358.8186303182
 31
0.0
  0
LINE
  5
184
  8
0
  6
CONTINUOUS
 62
     7
 10
1489.3625621502
 20
818.6813959823
 30
0.0
 11
1489.3625621502
 21
-358.8186303182
 31
0.0
  0
LINE
  5
185
  8
0
  6
CONTINUOUS
 62
     7
 10
1499.8625610773
 20
818.6813959823
 30
0.0
 11
1489.3625621502
 21
818.6813959823
 31
0.0
  0
ARC
  5
186
  8
0
  6
CONTINUOUS
 62
     7
 10
1502.8625553349
 20
-358.8186307206
 30
0.0
 40
3.000000000000227
 50
120.0
 51
180.0
  0
ARC
  5
187
  8
0
  6
CONTINUOUS
 62
     7
 10
1502.8625553349
 20
818.6813692794
 30
0.0
 40
3.00000000000036
 50
180.0
 51
240.0
  0
POLYLINE
  5
188
  8
0
  6
CONTINUOUS
 62
     7
 66
     1
 10
0.0
 20
0.0
 30
0.0
  0
VERTEX
  5
730
  8
0
  6
CONTINUOUS
 62
     7
 10
1504.3625627462
 20
816.0833487258
 30
0.0
  0
VERTEX
  5
731
  8
0
  6
CONTINUOUS
 62
     7
 10
1504.2839740221
 20
815.9017929779
 30
0.0
  0
VERTEX
  5
732
  8
0
  6
CONTINUOUS
 62
     7
 10
1504.0809904043
 20
815.772570108
 30
0.0
  0
VERTEX
  5
733
  8
0
  6
CONTINUOUS
 62
     7
 10
1503.4842734043
 20
815.6706461654
 30
0.0
  0
VERTEX
  5
734
  8
0
  6
CONTINUOUS
 62
     7
 10
1502.6503001158
 20
815.7749542938
 30
0.0
  0
VERTEX
  5
735
  8
0
  6
CONTINUOUS
 62
     7
 10
1502.0597521965
 20
815.9037003265
 30
0.0
  0
VERTEX
  5
736
  8
0
  6
CONTINUOUS
 62
     7
 10
1501.3625566666
 20
816.0833487258
 30
0.0
  0
SEQEND
  5
737
  8
0
  6
CONTINUOUS
 62
     7
  0
LINE
  5
189
  8
0
  6
CONTINUOUS
 62
     7
 10
1504.3625627462
 20
816.0833487258
 30
0.0
 11
1502.8625522558
 21
816.0833487258
 31
0.0
  0
LINE
  5
18A
  8
0
  6
CONTINUOUS
 62
     7
 10
1504.3625627462
 20
-356.2205551221
 30
0.0
 11
1504.3625627462
 21
816.0833487258
 31
0.0
  0
POLYLINE
  5
18B
  8
0
  6
CONTINUOUS
 62
     7
 66
     1
 10
0.0
 20
0.0
 30
0.0
  0
VERTEX
  5
738
  8
0
  6
CONTINUOUS
 62
     7
 10
1501.3625566666
 20
-356.2205551221
 30
0.0
  0
VERTEX
  5
739
  8
0
  6
CONTINUOUS
 62
     7
 10
1502.0447020237
 20
-356.0391036822
 30
0.0
  0
VERTEX
  5
73A
  8
0
  6
CONTINUOUS
 62
     7
 10
1502.631465048
 20
-355.9098472847
 30
0.0
  0
VERTEX
  5
73B
  8
0
  6
CONTINUOUS
 62
     7
 10
1503.4834687416
 20
-355.8079158916
 30
0.0
  0
VERTEX
  5
73C
  8
0
  6
CONTINUOUS
 62
     7
 10
1504.0721242134
 20
-355.9122519596
 30
0.0
  0
VERTEX
  5
73D
  8
0
  6
CONTINUOUS
 62
     7
 10
1504.2804126446
 20
-356.0409067227
 30
0.0
  0
VERTEX
  5
73E
  8
0
  6
CONTINUOUS
 62
     7
 10
1504.3625627462
 20
-356.2205551221
 30
0.0
  0
SEQEND
  5
73F
  8
0
  6
CONTINUOUS
 62
     7
  0
LINE
  5
18C
  8
0
  6
CONTINUOUS
 62
     7
 10
1502.8625522558
 20
-356.2205551221
 30
0.0
 11
1504.3625627462
 21
-356.2205551221
 31
0.0
  0
LINE
  5
18D
  8
0
  6
CONTINUOUS
 62
     7
 10
1499.8625610773
 20
818.6813959823
 30
0.0
 11
1499.8625610773
 21
820.1814064727
 31
0.0
  0
LINE
  5
18E
  8
0
  6
CONTINUOUS
 62
     7
 10
1501.3625566666
 20
820.1814064727
 30
0.0
 11
1499.8625610773
 21
820.1814064727
 31
0.0
  0
LINE
  5
18F
  8
0
  6
CONTINUOUS
 62
     7
 10
1501.3625566666
 20
818.6813959823
 30
0.0
 11
1501.3625566666
 21
820.1814064727
 31
0.0
  0
LINE
  5
190
  8
0
  6
CONTINUOUS
 62
     7
 10
1501.3625566666
 20
818.6813959823
 30
0.0
 11
1499.8625610773
 21
818.6813959823
 31
0.0
  0
LINE
  5
191
  8
0
  6
CONTINUOUS
 62
     7
 10
1499.8625610773
 20
-360.3186314954
 30
0.0
 11
1499.8625610773
 21
-358.8186303182
 31
0.0
  0
LINE
  5
192
  8
0
  6
CONTINUOUS
 62
     7
 10
1501.3625566666
 20
-360.3186314954
 30
0.0
 11
1501.3625566666
 21
-358.8186303182
 31
0.0
  0
LINE
  5
193
  8
0
  6
CONTINUOUS
 62
     7
 10
1501.3625566666
 20
-358.8186303182
 30
0.0
 11
1499.8625610773
 21
-358.8186303182
 31
0.0
  0
LINE
  5
194
  8
0
  6
CONTINUOUS
 62
     7
 10
1499.8625610773
 20
-360.3186314954
 30
0.0
 11
1501.3625566666
 21
-360.3186314954
 31
0.0
  0
LINE
  5
195
  8
0
  6
CONTINUOUS
 62
     7
 10
1489.3625621502
 20
820.1814064727
 30
0.0
 11
1489.3625621502
 21
818.6813959823
 31
0.0
  0
LINE
  5
196
  8
0
  6
CONTINUOUS
 62
     7
 10
1489.3625621502
 20
820.1814064727
 30
0.0
 11
1499.8625610773
 21
820.1814064727
 31
0.0
  0
LINE
  5
197
  8
0
  6
CONTINUOUS
 62
     7
 10
1489.3625621502
 20
-360.3186314954
 30
0.0
 11
1489.3625621502
 21
-358.8186303182
 31
0.0
  0
LINE
  5
198
  8
0
  6
CONTINUOUS
 62
     7
 10
1499.8625610773
 20
-360.3186314954
 30
0.0
 11
1489.3625621502
 21
-360.3186314954
 31
0.0
  0
LINE
  5
199
  8
0
  6
CONTINUOUS
 62
     7
 10
1502.8625522558
 20
817.1813854919
 30
0.0
 11
1504.3625627462
 21
817.1813854919
 31
0.0
  0
LINE
  5
19A
  8
0
  6
CONTINUOUS
 62
     7
 10
1504.3625627462
 20
816.0833487258
 30
0.0
 11
1504.3625627462
 21
817.1813854919
 31
0.0
  0
LINE
  5
19B
  8
0
  6
CONTINUOUS
 62
     7
 10
1502.8625522558
 20
816.0833487258
 30
0.0
 11
1502.8625522558
 21
817.1813854919
 31
0.0
  0
LINE
  5
19C
  8
0
  6
CONTINUOUS
 62
     7
 10
1504.3625627462
 20
-357.3186310037
 30
0.0
 11
1502.8625522558
 21
-357.3186310037
 31
0.0
  0
LINE
  5
19D
  8
0
  6
CONTINUOUS
 62
     7
 10
1504.3625627462
 20
-357.3186310037
 30
0.0
 11
1504.3625627462
 21
-356.2205551221
 31
0.0
  0
LINE
  5
19E
  8
0
  6
CONTINUOUS
 62
     7
 10
1502.8625522558
 20
-356.2205551221
 30
0.0
 11
1502.8625522558
 21
-357.3186310037
 31
0.0
  0
ARC
  5
19F
  8
0
  6
CONTINUOUS
 62
     7
 10
1501.3625392972
 20
-357.3186080464
 30
0.0
 40
3.000023449109765
 50
270.0003317275
 51
359.9995615509
  0
ARC
  5
1A0
  8
0
  6
CONTINUOUS
 62
     7
 10
1501.3625515437
 20
-357.3186296062
 30
0.0
 40
1.500000712082732
 50
270.0001956774
 51
359.9999466184
  0
ARC
  5
1A1
  8
0
  6
CONTINUOUS
 62
     7
 10
1501.3623182322
 20
817.1811619599
 30
0.0
 40
3.000244522321712
 50
0.004268799
 51
89.995446611
  0
ARC
  5
1A2
  8
0
  6
CONTINUOUS
 62
     7
 10
1501.3625269059
 20
817.1813706326
 30
0.0
 40
1.500025349966887
 50
0.0005675721
 51
89.9988632466
  0
ARC
  5
1A3
  8
0
  6
CONTINUOUS
 62
     7
 10
1106.9625398039
 20
-375.3186503029
 30
0.0
 40
1.499979298960551
 50
179.9992510048
 51
265.8584340353
  0
LINE
  5
1A4
  8
0
  6
CONTINUOUS
 62
     7
 10
1106.7458634083
 20
-378.3107945215
 30
0.0
 11
1106.8542097513
 21
-376.8147126335
 31
0.0
  0
ARC
  5
1A5
  8
0
  6
CONTINUOUS
 62
     7
 10
1106.9625586565
 20
-375.3186221921
 30
0.0
 40
3.000008641827888
 50
180.000162384
 51
265.8578303052
  0
LINE
  5
1A6
  8
0
  6
CONTINUOUS
 62
     7
 10
1105.4625605051
 20
-375.3186306945
 30
0.0
 11
1103.9625500147
 21
-375.3186306945
 31
0.0
  0
LINE
  5
1A7
  8
0
  6
CONTINUOUS
 62
     7
 10
1106.8542097513
 20
-376.8147126335
 30
0.0
 11
1106.9625560943
 21
-376.8186307075
 31
0.0
  0
LINE
  5
1A8
  8
0
  6
CONTINUOUS
 62
     7
 10
1106.9625560943
 20
-378.3186307206
 30
0.0
 11
1106.9625560943
 21
-376.8186307075
 31
0.0
  0
LINE
  5
1A9
  8
0
  6
CONTINUOUS
 62
     7
 10
1106.7458634083
 20
-378.3107945215
 30
0.0
 11
1106.9625560943
 21
-378.3186307206
 31
0.0
  0
LINE
  5
1AA
  8
0
  6
CONTINUOUS
 62
     7
 10
1107.7731643621
 20
-376.8186307075
 30
0.0
 11
1106.9625560943
 21
-376.8186307075
 31
0.0
  0
LINE
  5
1AB
  8
0
  6
CONTINUOUS
 62
     7
 10
1108.4625516836
 20
-378.3186307206
 30
0.0
 11
1106.9625560943
 21
-378.3186307206
 31
0.0
  0
LINE
  5
1AC
  8
0
  6
CONTINUOUS
 62
     7
 10
1103.9625500147
 20
-375.2328442438
 30
0.0
 11
1103.9625500147
 21
-375.3186306945
 31
0.0
  0
LINE
  5
1AD
  8
0
  6
CONTINUOUS
 62
     7
 10
1479.6625618641
 20
-376.8186307075
 30
0.0
 11
1479.6625618641
 21
-378.3186307206
 31
0.0
  0
LINE
  5
1AE
  8
0
  6
CONTINUOUS
 62
     7
 10
1479.3314878647
 20
-376.8186307075
 30
0.0
 11
1479.6625618641
 21
-376.8186307075
 31
0.0
  0
LINE
  5
1AF
  8
0
  6
CONTINUOUS
 62
     7
 10
1478.0480955545
 20
-378.3186307206
 30
0.0
 11
1479.6625618641
 21
-378.3186307206
 31
0.0
  0
LINE
  5
1B0
  8
0
  6
CONTINUOUS
 62
     7
 10
1479.6625618641
 20
-376.8186307075
 30
0.0
 11
1480.1625554268
 21
-376.8186307075
 31
0.0
  0
LINE
  5
1B1
  8
0
  6
CONTINUOUS
 62
     7
 10
1479.6625618641
 20
-378.3186307206
 30
0.0
 11
1480.1625554268
 21
-378.3186307206
 31
0.0
  0
LINE
  5
1B2
  8
0
  6
CONTINUOUS
 62
     7
 10
1483.1625615064
 20
-374.8186306125
 30
0.0
 11
1482.123563141
 21
-374.8186306125
 31
0.0
  0
LINE
  5
1B3
  8
0
  6
CONTINUOUS
 62
     7
 10
1481.662551016
 20
-375.3186306945
 30
0.0
 11
1481.662551016
 21
-375.0709205429
 31
0.0
  0
LINE
  5
1B4
  8
0
  6
CONTINUOUS
 62
     7
 10
1483.1625615064
 20
-375.3186306945
 30
0.0
 11
1483.1625615064
 21
-374.8186306125
 31
0.0
  0
LINE
  5
1B5
  8
0
  6
CONTINUOUS
 62
     7
 10
1483.1625615064
 20
-374.8186306125
 30
0.0
 11
1483.1625615064
 21
-373.1854982703
 31
0.0
  0
ARC
  5
1B6
  8
0
  6
CONTINUOUS
 62
     7
 10
1480.1625557606
 20
-375.3186307206
 30
0.0
 40
1.5
 50
270.0
 51
0.0
  0
ARC
  5
1B7
  8
0
  6
CONTINUOUS
 62
     7
 10
1480.1625557606
 20
-375.3186307206
 30
0.0
 40
3.0
 50
270.0
 51
0.0
  0
LINE
  5
1B8
  8
0
  6
CONTINUOUS
 62
     7
 10
1484.871322364
 20
-339.5332289888
 30
0.0
 11
1485.0800727312
 21
-338.0478253617
 31
0.0
  0
LINE
  5
1B9
  8
0
  6
CONTINUOUS
 62
     7
 10
1489.3625621502
 20
-340.1644310011
 30
0.0
 11
1484.871322364
 21
-339.5332289888
 31
0.0
  0
LINE
  5
1BA
  8
0
  6
CONTINUOUS
 62
     7
 10
1489.3625621502
 20
-338.6496907129
 30
0.0
 11
1485.0800727312
 21
-338.0478253617
 31
0.0
  0
ARC
  5
1BB
  8
0
  6
CONTINUOUS
 62
     7
 10
1484.6196644041
 20
-340.750238152
 30
0.0
 40
2.741351987073622
 50
80.3313878119
 51
122.1086936403
  0
ARC
  5
1BC
  8
0
  6
CONTINUOUS
 62
     7
 10
1484.6625520107
 20
-341.0186199988
 30
0.0
 40
1.49999050431459
 50
81.9995362234
 51
180.0003396461
  0
LINE
  5
1BD
  8
0
  6
CONTINUOUS
 62
     7
 10
1485.1625506584
 20
-356.0186313494
 30
0.0
 11
1483.1625615064
 21
-356.0186313494
 31
0.0
  0
LINE
  5
1BE
  8
0
  6
CONTINUOUS
 62
     7
 10
1487.1625547115
 20
-350.493483807
 30
0.0
 11
1487.1625547115
 21
-356.0186313494
 31
0.0
  0
LINE
  5
1BF
  8
0
  6
CONTINUOUS
 62
     7
 10
1487.1625547115
 20
-356.0186313494
 30
0.0
 11
1485.1625506584
 21
-356.0186313494
 31
0.0
  0
ARC
  5
1C0
  8
0
  6
CONTINUOUS
 62
     7
 10
1490.1625557606
 20
-350.4934841709
 30
0.0
 40
3.000000000000034
 50
105.4660183875
 51
180.0
  0
LINE
  5
1C1
  8
0
  6
CONTINUOUS
 62
     7
 10
1485.0800727312
 20
-338.0478253617
 30
0.0
 11
1483.1625615064
 21
-337.7783378615
 31
0.0
  0
ARC
  5
1C2
  8
0
  6
CONTINUOUS
 62
     7
 10
1484.6625557606
 20
800.6813692794
 30
0.0
 40
1.50000000000002
 50
227.6307431317
 51
247.0978156072
  0
LINE
  5
1C3
  8
0
  6
CONTINUOUS
 62
     7
 10
1485.1625506584
 20
815.6813750015
 30
0.0
 11
1483.1625615064
 21
815.6813750015
 31
0.0
  0
LINE
  5
1C4
  8
0
  6
CONTINUOUS
 62
     7
 10
1487.1625547115
 20
815.6813750015
 30
0.0
 11
1487.1625547115
 21
810.1562628494
 31
0.0
  0
LINE
  5
1C5
  8
0
  6
CONTINUOUS
 62
     7
 10
1485.1625506584
 20
815.6813750015
 30
0.0
 11
1487.1625547115
 21
815.6813750015
 31
0.0
  0
ARC
  5
1C6
  8
0
  6
CONTINUOUS
 62
     7
 10
1490.1625557606
 20
810.1562227297
 30
0.0
 40
3.0
 50
180.0
 51
254.5339816121
  0
LINE
  5
1C7
  8
0
  6
CONTINUOUS
 62
     7
 10
1485.0800727312
 20
797.7105746017
 30
0.0
 11
1483.1625615064
 21
797.441042398
 31
0.0
  0
POLYLINE
  5
1C8
  8
0
  6
CONTINUOUS
 62
     7
 66
     1
 10
0.0
 20
0.0
 30
0.0
  0
VERTEX
  5
740
  8
0
  6
CONTINUOUS
 62
     7
 10
1099.9625568096
 20
815.1814112411
 30
0.0
  0
VERTEX
  5
741
  8
0
  6
CONTINUOUS
 62
     7
 10
1099.2559437458
 20
815.0045046554
 30
0.0
  0
VERTEX
  5
742
  8
0
  6
CONTINUOUS
 62
     7
 10
1099.0157221262
 20
814.7926697479
 30
0.0
  0
SEQEND
  5
743
  8
0
  6
CONTINUOUS
 62
     7
  0
ARC
  5
1C9
  8
0
  6
CONTINUOUS
 62
     7
 10
1099.9626016984
 20
813.6813707632
 30
0.0
 40
3.000050968647995
 50
90.0008572988
 51
179.9994272911
  0
LINE
  5
1CA
  8
0
  6
CONTINUOUS
 62
     7
 10
1099.9625568096
 20
816.6814217315
 30
0.0
 11
1099.9625568096
 21
815.1814112411
 31
0.0
  0
POLYLINE
  5
1CB
  8
0
  6
CONTINUOUS
 62
     7
 66
     1
 10
0.0
 20
0.0
 30
0.0
  0
VERTEX
  5
744
  8
0
  6
CONTINUOUS
 62
     7
 10
1098.9718680088
 20
-358.4181411221
 30
0.0
  0
VERTEX
  5
745
  8
0
  6
CONTINUOUS
 62
     7
 10
1099.3680898849
 20
-358.6958037718
 30
0.0
  0
VERTEX
  5
746
  8
0
  6
CONTINUOUS
 62
     7
 10
1099.9625568096
 20
-358.8186303182
 30
0.0
  0
SEQEND
  5
747
  8
0
  6
CONTINUOUS
 62
     7
  0
LINE
  5
1CC
  8
0
  6
CONTINUOUS
 62
     7
 10
1099.9625568096
 20
-360.3186314954
 30
0.0
 11
1099.9625568096
 21
-358.8186303182
 31
0.0
  0
ARC
  5
1CD
  8
0
  6
CONTINUOUS
 62
     7
 10
1099.9625688448
 20
-357.3186133806
 30
0.0
 40
3.000018114883836
 50
180.0003365748
 51
269.9997701468
  0
LINE
  5
1CE
  8
0
  6
CONTINUOUS
 62
     7
 10
1099.9625568096
 20
816.6814217315
 30
0.0
 11
1103.9625500147
 21
816.6814217315
 31
0.0
  0
LINE
  5
1CF
  8
0
  6
CONTINUOUS
 62
     7
 10
1099.9625568096
 20
815.1814112411
 30
0.0
 11
1103.9625500147
 21
815.1814112411
 31
0.0
  0
POLYLINE
  5
1D0
  8
0
  6
CONTINUOUS
 62
     7
 66
     1
 10
0.0
 20
0.0
 30
0.0
  0
VERTEX
  5
748
  8
0
  6
CONTINUOUS
 62
     7
 10
1096.9625507299
 20
813.6814007507
 30
0.0
  0
VERTEX
  5
749
  8
0
  6
CONTINUOUS
 62
     7
 10
1097.1909110252
 20
814.0313992248
 30
0.0
  0
VERTEX
  5
74A
  8
0
  6
CONTINUOUS
 62
     7
 10
1097.8412424032
 20
814.3813976989
 30
0.0
  0
VERTEX
  5
74B
  8
0
  6
CONTINUOUS
 62
     7
 10
1098.8145117466
 20
814.7313961731
 30
0.0
  0
VERTEX
  5
74C
  8
0
  6
CONTINUOUS
 62
     7
 10
1099.9625568096
 20
815.0813946472
 30
0.0
  0
SEQEND
  5
74D
  8
0
  6
CONTINUOUS
 62
     7
  0
POLYLINE
  5
1D1
  8
0
  6
CONTINUOUS
 62
     7
 66
     1
 10
0.0
 20
0.0
 30
0.0
  0
VERTEX
  5
74E
  8
0
  6
CONTINUOUS
 62
     7
 10
1099.9625568096
 20
-358.7186304881
 30
0.0
  0
VERTEX
  5
74F
  8
0
  6
CONTINUOUS
 62
     7
 10
1098.9282672111
 20
-358.4049163415
 30
0.0
  0
VERTEX
  5
750
  8
0
  6
CONTINUOUS
 62
     7
 10
1098.0206672851
 20
-358.0911537661
 30
0.0
  0
VERTEX
  5
751
  8
0
  6
CONTINUOUS
 62
     7
 10
1097.3512624208
 20
-357.7773893281
 30
0.0
  0
VERTEX
  5
752
  8
0
  6
CONTINUOUS
 62
     7
 10
1097.0021729175
 20
-357.46362489
 30
0.0
  0
VERTEX
  5
753
  8
0
  6
CONTINUOUS
 62
     7
 10
1096.9625507299
 20
-357.3186310037
 30
0.0
  0
SEQEND
  5
754
  8
0
  6
CONTINUOUS
 62
     7
  0
LINE
  5
1D2
  8
0
  6
CONTINUOUS
 62
     7
 10
1096.9625507299
 20
-357.3186310037
 30
0.0
 11
1096.9625507299
 21
813.6814007507
 31
0.0
  0
LINE
  5
1D3
  8
0
  6
CONTINUOUS
 62
     7
 10
1099.9625568096
 20
-358.7186304881
 30
0.0
 11
1103.9625500147
 21
-358.7186304881
 31
0.0
  0
LINE
  5
1D4
  8
0
  6
CONTINUOUS
 62
     7
 10
1099.9625568096
 20
815.0813946472
 30
0.0
 11
1103.9625500147
 21
815.0813946472
 31
0.0
  0
LINE
  5
1D5
  8
0
  6
CONTINUOUS
 62
     7
 10
1099.9625568096
 20
-360.3186314954
 30
0.0
 11
1103.9625500147
 21
-360.3186314954
 31
0.0
  0
LINE
  5
1D6
  8
0
  6
CONTINUOUS
 62
     7
 10
1099.9625568096
 20
-358.8186303182
 30
0.0
 11
1103.9625500147
 21
-358.8186303182
 31
0.0
  0
POLYLINE
  5
1D7
  8
0
  6
CONTINUOUS
 62
     7
 66
     1
 10
0.0
 20
0.0
 30
0.0
  0
VERTEX
  5
755
  8
0
  6
CONTINUOUS
 62
     7
 10
1509.3483422701
 20
154.6165117965
 30
0.0
  0
VERTEX
  5
756
  8
0
  6
CONTINUOUS
 62
     7
 10
1509.3210880463
 20
154.6212205635
 30
0.0
  0
VERTEX
  5
757
  8
0
  6
CONTINUOUS
 62
     7
 10
1509.2766378824
 20
154.6289095626
 30
0.0
  0
VERTEX
  5
758
  8
0
  6
CONTINUOUS
 62
     7
 10
1509.2160050575
 20
154.6393999801
 30
0.0
  0
VERTEX
  5
759
  8
0
  6
CONTINUOUS
 62
     7
 10
1509.1405753795
 20
154.6524533973
 30
0.0
  0
VERTEX
  5
75A
  8
0
  6
CONTINUOUS
 62
     7
 10
1509.0520773832
 20
154.6678313957
 30
0.0
  0
VERTEX
  5
75B
  8
0
  6
CONTINUOUS
 62
     7
 10
1508.9525525276
 20
154.685057138
 30
0.0
  0
VERTEX
  5
75C
  8
0
  6
CONTINUOUS
 62
     7
 10
1508.844250888
 20
154.7037729965
 30
0.0
  0
VERTEX
  5
75D
  8
0
  6
CONTINUOUS
 62
     7
 10
1508.7296758596
 20
154.7236213432
 30
0.0
  0
SEQEND
  5
75E
  8
0
  6
CONTINUOUS
 62
     7
  0
POLYLINE
  5
1D8
  8
0
  6
CONTINUOUS
 62
     7
 66
     1
 10
0.0
 20
0.0
 30
0.0
  0
VERTEX
  5
75F
  8
0
  6
CONTINUOUS
 62
     7
 10
1512.3860333864
 20
292.2893533454
 30
0.0
  0
VERTEX
  5
760
  8
0
  6
CONTINUOUS
 62
     7
 10
1512.3882238571
 20
292.7619585739
 30
0.0
  0
VERTEX
  5
761
  8
0
  6
CONTINUOUS
 62
     7
 10
1512.3912040893
 20
293.1467065559
 30
0.0
  0
SEQEND
  5
762
  8
0
  6
CONTINUOUS
 62
     7
  0
ARC
  5
1D9
  8
0
  6
CONTINUOUS
 62
     7
 10
1667.2208526456
 20
291.7849333999
 30
0.0
 40
154.8356409051071
 50
179.8133428135
 51
187.1951250706
  0
LINE
  5
1DA
  8
0
  6
CONTINUOUS
 62
     7
 10
1513.6044864361
 20
272.3919520126
 30
0.0
 11
1513.9556173984
 21
269.843257402
 31
0.0
  0
ARC
  5
1DB
  8
0
  6
CONTINUOUS
 62
     7
 10
1607.3040083937
 20
283.7009635174
 30
0.0
 40
94.37138401115182
 50
188.4439742437
 51
190.6174351732
  0
LINE
  5
1DC
  8
0
  6
CONTINUOUS
 62
     7
 10
1508.6802338068
 20
308.2704314933
 30
0.0
 11
1509.4507430498
 21
308.4939489112
 31
0.0
  0
LINE
  5
1DD
  8
0
  6
CONTINUOUS
 62
     7
 10
1508.6802338068
 20
151.6923079238
 30
0.0
 11
1509.4507430498
 21
151.4687905059
 31
0.0
  0
POLYLINE
  5
1DE
  8
0
  6
CONTINUOUS
 62
     7
 66
     1
 10
0.0
 20
0.0
 30
0.0
  0
VERTEX
  5
763
  8
0
  6
CONTINUOUS
 62
     7
 10
1515.0062833731
 20
285.3852877365
 30
0.0
  0
VERTEX
  5
764
  8
0
  6
CONTINUOUS
 62
     7
 10
1515.0234942142
 20
285.1456770645
 30
0.0
  0
VERTEX
  5
765
  8
0
  6
CONTINUOUS
 62
     7
 10
1515.0735174124
 20
284.448898767
 30
0.0
  0
VERTEX
  5
766
  8
0
  6
CONTINUOUS
 62
     7
 10
1515.1517932121
 20
283.3575973259
 30
0.0
  0
VERTEX
  5
767
  8
0
  6
CONTINUOUS
 62
     7
 10
1515.2512584631
 20
281.9689283119
 30
0.0
  0
SEQEND
  5
768
  8
0
  6
CONTINUOUS
 62
     7
  0
LINE
  5
1DF
  8
0
  6
CONTINUOUS
 62
     7
 10
1515.2512584631
 20
281.9689283119
 30
0.0
 11
1515.0153879825
 21
281.974113916
 31
0.0
  0
LINE
  5
1E0
  8
0
  6
CONTINUOUS
 62
     7
 10
1514.9632786219
 20
281.2004456268
 30
0.0
 11
1515.1441489164
 21
278.7197599159
 31
0.0
  0
LINE
  5
1E1
  8
0
  6
CONTINUOUS
 62
     7
 10
1515.3077040617
 20
277.9461512313
 30
0.0
 11
1515.53828463
 21
277.9510388122
 31
0.0
  0
POLYLINE
  5
1E2
  8
0
  6
CONTINUOUS
 62
     7
 66
     1
 10
0.0
 20
0.0
 30
0.0
  0
VERTEX
  5
769
  8
0
  6
CONTINUOUS
 62
     7
 10
1515.53828463
 20
277.9510388122
 30
0.0
  0
VERTEX
  5
76A
  8
0
  6
CONTINUOUS
 62
     7
 10
1515.6371836368
 20
276.563085054
 30
0.0
  0
VERTEX
  5
76B
  8
0
  6
CONTINUOUS
 62
     7
 10
1515.7148037855
 20
275.4723796592
 30
0.0
  0
VERTEX
  5
76C
  8
0
  6
CONTINUOUS
 62
     7
 10
1515.7643352453
 20
274.7759589897
 30
0.0
  0
VERTEX
  5
76D
  8
0
  6
CONTINUOUS
 62
     7
 10
1515.7813374702
 20
274.5365271316
 30
0.0
  0
SEQEND
  5
76E
  8
0
  6
CONTINUOUS
 62
     7
  0
ARC
  5
1E3
  8
0
  6
CONTINUOUS
 62
     7
 10
1515.1391114794
 20
277.9317395978
 30
0.0
 40
0.3996365432984432
 50
2.7594441145
 51
89.9614241608
  0
ARC
  5
1E4
  8
0
  6
CONTINUOUS
 62
     7
 10
1514.8533559367
 20
281.9310751128
 30
0.0
 40
0.3997046424383611
 50
270.0486722882
 51
5.4428043043
  0
ARC
  5
1E5
  8
0
  6
CONTINUOUS
 62
     7
 10
1515.1391114794
 20
277.9317395978
 30
0.0
 40
0.3996365432984432
 50
2.7594441145
 51
89.9614241608
  0
LINE
  5
1E6
  8
0
  6
CONTINUOUS
 62
     7
 10
1408.8125546281
 20
822.0732578979
 30
0.0
 11
1427.5125508015
 21
822.0732578979
 31
0.0
  0
LINE
  5
1E7
  8
0
  6
CONTINUOUS
 62
     7
 10
1158.8125620787
 20
822.0732578979
 30
0.0
 11
1177.512558252
 21
822.0732578979
 31
0.0
  0
LINE
  5
1E8
  8
0
  6
CONTINUOUS
 62
     7
 10
1485.1625506584
 20
682.681358789
 30
0.0
 11
1485.1625506584
 21
737.6814255462
 31
0.0
  0
LINE
  5
1E9
  8
0
  6
CONTINUOUS
 62
     7
 10
1485.1625506584
 20
682.681358789
 30
0.0
 11
1483.1625615064
 21
682.681358789
 31
0.0
  0
LINE
  5
1EA
  8
0
  6
CONTINUOUS
 62
     7
 10
1485.1625506584
 20
737.6814255462
 30
0.0
 11
1483.1625615064
 21
737.6814255462
 31
0.0
  0
LINE
  5
1EB
  8
0
  6
CONTINUOUS
 62
     7
 10
1487.4409084026
 20
737.6814255462
 30
0.0
 11
1485.1625506584
 21
737.6814255462
 31
0.0
  0
LINE
  5
1EC
  8
0
  6
CONTINUOUS
 62
     7
 10
1487.4409084026
 20
682.681358789
 30
0.0
 11
1485.1625506584
 21
682.681358789
 31
0.0
  0
LINE
  5
1ED
  8
0
  6
CONTINUOUS
 62
     7
 10
1489.3625621502
 20
737.6814255462
 30
0.0
 11
1487.4409084026
 21
737.6814255462
 31
0.0
  0
LINE
  5
1EE
  8
0
  6
CONTINUOUS
 62
     7
 10
1489.3625621502
 20
682.681358789
 30
0.0
 11
1487.4409084026
 21
682.681358789
 31
0.0
  0
LINE
  5
1EF
  8
0
  6
CONTINUOUS
 62
     7
 10
1485.1625506584
 20
202.4313578353
 30
0.0
 11
1485.1625506584
 21
257.4313649879
 31
0.0
  0
LINE
  5
1F0
  8
0
  6
CONTINUOUS
 62
     7
 10
1485.1625506584
 20
202.4313578353
 30
0.0
 11
1483.1625615064
 21
202.4313578353
 31
0.0
  0
LINE
  5
1F1
  8
0
  6
CONTINUOUS
 62
     7
 10
1485.1625506584
 20
257.4313649879
 30
0.0
 11
1483.1625615064
 21
257.4313649879
 31
0.0
  0
LINE
  5
1F2
  8
0
  6
CONTINUOUS
 62
     7
 10
1487.4409084026
 20
257.4313649879
 30
0.0
 11
1485.1625506584
 21
257.4313649879
 31
0.0
  0
LINE
  5
1F3
  8
0
  6
CONTINUOUS
 62
     7
 10
1487.4409084026
 20
202.4313578353
 30
0.0
 11
1485.1625506584
 21
202.4313578353
 31
0.0
  0
LINE
  5
1F4
  8
0
  6
CONTINUOUS
 62
     7
 10
1489.3625621502
 20
257.4313649879
 30
0.0
 11
1487.4409084026
 21
257.4313649879
 31
0.0
  0
LINE
  5
1F5
  8
0
  6
CONTINUOUS
 62
     7
 10
1489.3625621502
 20
202.4313578353
 30
0.0
 11
1487.4409084026
 21
202.4313578353
 31
0.0
  0
LINE
  5
1F6
  8
0
  6
CONTINUOUS
 62
     7
 10
1485.1625506584
 20
-277.8186282172
 30
0.0
 11
1485.1625506584
 21
-222.8186359658
 31
0.0
  0
LINE
  5
1F7
  8
0
  6
CONTINUOUS
 62
     7
 10
1485.1625506584
 20
-277.8186282172
 30
0.0
 11
1483.1625615064
 21
-277.8186282172
 31
0.0
  0
LINE
  5
1F8
  8
0
  6
CONTINUOUS
 62
     7
 10
1485.1625506584
 20
-222.8186359658
 30
0.0
 11
1483.1625615064
 21
-222.8186359658
 31
0.0
  0
LINE
  5
1F9
  8
0
  6
CONTINUOUS
 62
     7
 10
1487.4409084026
 20
-222.8186359658
 30
0.0
 11
1485.1625506584
 21
-222.8186359658
 31
0.0
  0
LINE
  5
1FA
  8
0
  6
CONTINUOUS
 62
     7
 10
1487.4409084026
 20
-277.8186282172
 30
0.0
 11
1485.1625506584
 21
-277.8186282172
 31
0.0
  0
LINE
  5
1FB
  8
0
  6
CONTINUOUS
 62
     7
 10
1489.3625621502
 20
-222.8186359658
 30
0.0
 11
1487.4409084026
 21
-222.8186359658
 31
0.0
  0
LINE
  5
1FC
  8
0
  6
CONTINUOUS
 62
     7
 10
1489.3625621502
 20
-277.8186282172
 30
0.0
 11
1487.4409084026
 21
-277.8186282172
 31
0.0
  0
LINE
  5
1FD
  8
0
  6
CONTINUOUS
 62
     7
 10
1485.3825514023
 20
-231.6950341715
 30
0.0
 11
1485.3825514023
 21
-227.8186311974
 31
0.0
  0
LINE
  5
1FE
  8
0
  6
CONTINUOUS
 62
     7
 10
1485.3825514023
 20
-232.818626429
 30
0.0
 11
1485.3825514023
 21
-231.6950341715
 31
0.0
  0
LINE
  5
1FF
  8
0
  6
CONTINUOUS
 62
     7
 10
1485.7825581734
 20
-231.4748099102
 30
0.0
 11
1485.7825581734
 21
-232.4186345591
 31
0.0
  0
LINE
  5
200
  8
0
  6
CONTINUOUS
 62
     7
 10
1485.7825581734
 20
-228.2186379685
 30
0.0
 11
1485.7825581734
 21
-231.4748099102
 31
0.0
  0
LINE
  5
201
  8
0
  6
CONTINUOUS
 62
     7
 10
1485.7825581734
 20
-268.2186296238
 30
0.0
 11
1485.7825581734
 21
-272.418633665
 31
0.0
  0
LINE
  5
202
  8
0
  6
CONTINUOUS
 62
     7
 10
1485.3825514023
 20
-272.8186329855
 30
0.0
 11
1485.3825514023
 21
-267.8186303033
 31
0.0
  0
LINE
  5
203
  8
0
  6
CONTINUOUS
 62
     7
 10
1485.3825514023
 20
727.9979357467
 30
0.0
 11
1485.3825514023
 21
732.6813111053
 31
0.0
  0
LINE
  5
204
  8
0
  6
CONTINUOUS
 62
     7
 10
1485.3825514023
 20
727.6813158737
 30
0.0
 11
1485.3825514023
 21
727.9979357467
 31
0.0
  0
LINE
  5
205
  8
0
  6
CONTINUOUS
 62
     7
 10
1485.7825581734
 20
728.3472189651
 30
0.0
 11
1485.7825581734
 21
728.0813822494
 31
0.0
  0
LINE
  5
206
  8
0
  6
CONTINUOUS
 62
     7
 10
1485.7825581734
 20
732.2813639389
 30
0.0
 11
1485.7825581734
 21
728.3472189651
 31
0.0
  0
LINE
  5
207
  8
0
  6
CONTINUOUS
 62
     7
 10
1485.3825514023
 20
207.431353067
 30
0.0
 11
1485.3825514023
 21
212.4313482986
 31
0.0
  0
LINE
  5
208
  8
0
  6
CONTINUOUS
 62
     7
 10
1485.7825581734
 20
207.8735599266
 30
0.0
 11
1485.7825581734
 21
207.8313598381
 31
0.0
  0
LINE
  5
209
  8
0
  6
CONTINUOUS
 62
     7
 10
1485.7825581734
 20
212.0313415275
 30
0.0
 11
1485.7825581734
 21
207.8735599266
 31
0.0
  0
LINE
  5
20A
  8
0
  6
CONTINUOUS
 62
     7
 10
1485.7825581734
 20
692.2814020858
 30
0.0
 11
1485.7825581734
 21
688.0814203964
 31
0.0
  0
LINE
  5
20B
  8
0
  6
CONTINUOUS
 62
     7
 10
1485.3825514023
 20
687.6813540206
 30
0.0
 11
1485.3825514023
 21
692.6813492523
 31
0.0
  0
LINE
  5
20C
  8
0
  6
CONTINUOUS
 62
     7
 10
1485.7825581734
 20
250.1988181816
 30
0.0
 11
1485.7825581734
 21
247.8313812957
 31
0.0
  0
LINE
  5
20D
  8
0
  6
CONTINUOUS
 62
     7
 10
1485.7825581734
 20
252.0313629852
 30
0.0
 11
1485.7825581734
 21
250.1988181816
 31
0.0
  0
LINE
  5
20E
  8
0
  6
CONTINUOUS
 62
     7
 10
1485.3825514023
 20
250.2497205482
 30
0.0
 11
1485.3825514023
 21
252.4313697563
 31
0.0
  0
LINE
  5
20F
  8
0
  6
CONTINUOUS
 62
     7
 10
1485.3825514023
 20
247.4313745246
 30
0.0
 11
1485.3825514023
 21
250.2497205482
 31
0.0
  0
ARC
  5
210
  8
0
  6
CONTINUOUS
 62
     7
 10
1479.6670031497
 20
-370.3186307206
 30
0.0
 40
4.999999999973059
 50
270.0
 51
275.6879527016
  0
LINE
  5
211
  8
0
  6
CONTINUOUS
 62
     7
 10
1107.4173991386
 20
-375.3186306945
 30
0.0
 11
1106.9625560943
 21
-375.3186306945
 31
0.0
  0
LINE
  5
212
  8
0
  6
CONTINUOUS
 62
     7
 10
1106.9625560943
 20
820.1814064727
 30
0.0
 11
1479.6670024101
 21
820.1814064727
 31
0.0
  0
LINE
  5
213
  8
0
  6
CONTINUOUS
 62
     7
 10
1480.1625554268
 20
819.9935326324
 30
0.0
 11
1479.6670024101
 21
820.1814064727
 31
0.0
  0
ARC
  5
214
  8
0
  6
CONTINUOUS
 62
     7
 10
1463.1737206611
 20
-372.4228229115
 30
0.0
 40
16.74556793808089
 50
340.6516984265
 51
350.0417920457
  0
POLYLINE
  5
215
  8
0
  6
CONTINUOUS
 62
     7
 66
     1
 10
0.0
 20
0.0
 30
0.0
  0
VERTEX
  5
76F
  8
0
  6
CONTINUOUS
 62
     7
 10
1478.9735321705
 20
-377.9707962327
 30
0.0
  0
VERTEX
  5
770
  8
0
  6
CONTINUOUS
 62
     7
 10
1478.5108213131
 20
-378.2303737476
 30
0.0
  0
VERTEX
  5
771
  8
0
  6
CONTINUOUS
 62
     7
 10
1478.0480955545
 20
-378.3186307206
 30
0.0
  0
SEQEND
  5
772
  8
0
  6
CONTINUOUS
 62
     7
  0
LINE
  5
216
  8
0
  6
CONTINUOUS
 62
     7
 10
1478.0480955545
 20
-378.3186307206
 30
0.0
 11
1108.4625516836
 21
-378.3186307206
 31
0.0
  0
ARC
  5
217
  8
0
  6
CONTINUOUS
 62
     7
 10
1113.1552162958
 20
-375.0017232956
 30
0.0
 40
5.746562105193153
 50
183.1613114461
 51
215.2537451831
  0
POLYLINE
  5
218
  8
0
  6
CONTINUOUS
 62
     7
 66
     1
 10
0.0
 20
0.0
 30
0.0
  0
VERTEX
  5
773
  8
0
  6
CONTINUOUS
 62
     7
 10
1103.9625500147
 20
817.9742464767
 30
0.0
  0
VERTEX
  5
774
  8
0
  6
CONTINUOUS
 62
     7
 10
1104.1658316557
 20
818.6813959823
 30
0.0
  0
VERTEX
  5
775
  8
0
  6
CONTINUOUS
 62
     7
 10
1104.7481243317
 20
819.3884262786
 30
0.0
  0
SEQEND
  5
776
  8
0
  6
CONTINUOUS
 62
     7
  0
ARC
  5
219
  8
0
  6
CONTINUOUS
 62
     7
 10
1112.6721650403
 20
800.7486358599
 30
0.0
 40
20.25418988770696
 50
106.373496312
 51
113.0310368182
  0
ARC
  5
21A
  8
0
  6
CONTINUOUS
 62
     7
 10
1107.0565361237
 20
-319.5331480292
 30
0.0
 40
55.78556182782469
 50
266.8206225916
 51
269.9034757129
  0
LINE
  5
21B
  8
0
  6
CONTINUOUS
 62
     7
 10
1103.9625500147
 20
817.9742464767
 30
0.0
 11
1103.9625500147
 21
-375.2328442438
 31
0.0
  0
LINE
  5
21C
  8
0
  6
CONTINUOUS
 62
     7
 10
1483.1625615064
 20
818.0486330734
 30
0.0
 11
1483.1625615064
 21
-373.1854982703
 31
0.0
  0
ARC
  5
21D
  8
0
  6
CONTINUOUS
 62
     7
 10
1480.5305060272
 20
-372.7245154272
 30
0.0
 40
2.672119238997514
 50
299.9873866888
 51
350.0658734886
  0
ARC
  5
21E
  8
0
  6
CONTINUOUS
 62
     7
 10
1475.4769644705
 20
798.5157824805
 30
0.0
 40
21.98291414251355
 50
71.3661289051
 51
77.6931647839
  0
POLYLINE
  5
21F
  8
0
  6
CONTINUOUS
 62
     7
 66
     1
 10
0.0
 20
0.0
 30
0.0
  0
VERTEX
  5
777
  8
0
  6
CONTINUOUS
 62
     7
 10
1482.5009350483
 20
819.3463453994
 30
0.0
  0
VERTEX
  5
778
  8
0
  6
CONTINUOUS
 62
     7
 10
1482.9923157398
 20
818.6974892364
 30
0.0
  0
VERTEX
  5
779
  8
0
  6
CONTINUOUS
 62
     7
 10
1483.1625615064
 20
818.0486330734
 30
0.0
  0
SEQEND
  5
77A
  8
0
  6
CONTINUOUS
 62
     7
  0
POLYLINE
  5
220
  8
0
  6
CONTINUOUS
 62
     7
 66
     1
 10
0.0
 20
0.0
 30
0.0
  0
VERTEX
  5
77B
  8
0
  6
CONTINUOUS
 62
     7
 10
1481.8660561745
 20
-375.0389333377
 30
0.0
  0
VERTEX
  5
77C
  8
0
  6
CONTINUOUS
 62
     7
 10
1481.0546581451
 20
-375.1664730749
 30
0.0
  0
VERTEX
  5
77D
  8
0
  6
CONTINUOUS
 62
     7
 10
1480.1625554268
 20
-375.294012812
 30
0.0
  0
SEQEND
  5
77E
  8
0
  6
CONTINUOUS
 62
     7
  0
LINE
  5
221
  8
0
  6
CONTINUOUS
 62
     7
 10
1489.3625621502
 20
797.8220352874
 30
0.0
 11
1484.871322364
 21
797.1846232162
 31
0.0
  0
LINE
  5
222
  8
0
  6
CONTINUOUS
 62
     7
 10
1484.871322364
 20
-337.5239042594
 30
0.0
 11
1489.3625621502
 21
-338.16130888
 31
0.0
  0
ARC
  5
223
  8
0
  6
CONTINUOUS
 62
     7
 10
1493.3092342087
 20
-228.5316731489
 30
0.0
 40
109.3003919362698
 50
264.6733969521
 51
265.4625830674
  0
ARC
  5
224
  8
0
  6
CONTINUOUS
 62
     7
 10
1497.7030645041
 20
636.6141923168
 30
0.0
 40
161.0648817300115
 50
94.6440284958
 51
95.1591912464
  0
ARC
  5
225
  8
0
  6
CONTINUOUS
 62
     7
 10
1485.0562186803
 20
-333.1011097851
 30
0.0
 40
4.426657611478457
 50
244.6729353171
 51
267.6061258171
  0
ARC
  5
226
  8
0
  6
CONTINUOUS
 62
     7
 10
1485.0561702609
 20
792.7610702636
 30
0.0
 40
4.427413406207078
 50
92.3928381421
 51
115.3217425254
  0
LINE
  5
227
  8
0
  6
CONTINUOUS
 62
     7
 10
1106.9625560943
 20
821.6814169632
 30
0.0
 11
1106.9625560943
 21
820.1814064727
 31
0.0
  0
POLYLINE
  5
228
  8
0
  6
CONTINUOUS
 62
     7
 66
     1
 10
0.0
 20
0.0
 30
0.0
  0
VERTEX
  5
77F
  8
0
  6
CONTINUOUS
 62
     7
 10
1106.9625560943
 20
820.1814064727
 30
0.0
  0
VERTEX
  5
780
  8
0
  6
CONTINUOUS
 62
     7
 10
1106.3356046383
 20
820.0440773712
 30
0.0
  0
VERTEX
  5
781
  8
0
  6
CONTINUOUS
 62
     7
 10
1106.1745975916
 20
819.9262985931
 30
0.0
  0
SEQEND
  5
782
  8
0
  6
CONTINUOUS
 62
     7
  0
LINE
  5
229
  8
0
  6
CONTINUOUS
 62
     7
 10
1104.1658316557
 20
818.6813959823
 30
0.0
 11
1103.9625500147
 21
818.6813959823
 31
0.0
  0
ARC
  5
22A
  8
0
  6
CONTINUOUS
 62
     7
 10
1106.9627200034
 20
818.6812469752
 30
0.0
 40
3.000169992384369
 50
90.0031302541
 51
179.9971543358
  0
LINE
  5
22B
  8
0
  6
CONTINUOUS
 62
     7
 10
1480.1625554268
 20
821.6814169632
 30
0.0
 11
1480.1625554268
 21
820.1814064727
 31
0.0
  0
LINE
  5
22C
  8
0
  6
CONTINUOUS
 62
     7
 10
1480.1625554268
 20
821.6814169632
 30
0.0
 11
1479.6670024101
 21
821.6814169632
 31
0.0
  0
LINE
  5
22D
  8
0
  6
CONTINUOUS
 62
     7
 10
1106.9625560943
 20
821.6814169632
 30
0.0
 11
1479.6670024101
 21
821.6814169632
 31
0.0
  0
ARC
  5
22E
  8
0
  6
CONTINUOUS
 62
     7
 10
1480.162449886
 20
818.681284689
 30
0.0
 40
3.000132276030514
 50
14.8686452268
 51
89.9979844091
  0
LINE
  5
22F
  8
0
  6
CONTINUOUS
 62
     7
 10
1482.4008588497
 20
819.2755350814
 30
0.0
 11
1483.06212768
 21
819.4511303649
 31
0.0
  0
ARC
  5
230
  8
0
  6
CONTINUOUS
 62
     7
 10
1480.1971931289
 20
818.8053142559
 30
0.0
 40
1.376528081646362
 50
42.3410614903
 51
91.4418911353
  0
LINE
  5
231
  8
0
  6
CONTINUOUS
 62
     7
 10
1483.06212768
 20
819.4511303649
 30
0.0
 11
1483.1625615064
 21
818.6813959823
 31
0.0
  0
LINE
  5
232
  8
0
  6
CONTINUOUS
 62
     7
 10
1483.1625615064
 20
818.0486330734
 30
0.0
 11
1483.1625615064
 21
818.6813959823
 31
0.0
  0
LINE
  5
233
  8
0
  6
CONTINUOUS
 62
     7
 10
1103.9625500147
 20
818.6813959823
 30
0.0
 11
1103.9625500147
 21
817.9742464767
 31
0.0
  0
LINE
  5
234
  8
0
  6
CONTINUOUS
 62
     7
 10
1489.3625621502
 20
799.8271355377
 30
0.0
 11
1484.871322364
 21
799.1959223495
 31
0.0
  0
LINE
  5
235
  8
0
  6
CONTINUOUS
 62
     7
 10
1485.0800727312
 20
797.7105746017
 30
0.0
 11
1484.871322364
 21
799.1959223495
 31
0.0
  0
LINE
  5
236
  8
0
  6
CONTINUOUS
 62
     7
 10
1485.0800727312
 20
797.7105746017
 30
0.0
 11
1489.3625621502
 21
798.3124623046
 31
0.0
  0
POLYLINE
  5
237
  8
0
  6
CONTINUOUS
 62
     7
 66
     1
 10
0.0
 20
0.0
 30
0.0
  0
VERTEX
  5
783
  8
0
  6
CONTINUOUS
 62
     7
 10
1483.1625615064
 20
800.6813893066
 30
0.0
  0
VERTEX
  5
784
  8
0
  6
CONTINUOUS
 62
     7
 10
1483.2984004919
 20
800.0575670944
 30
0.0
  0
VERTEX
  5
785
  8
0
  6
CONTINUOUS
 62
     7
 10
1483.6813454334
 20
799.5467552887
 30
0.0
  0
SEQEND
  5
786
  8
0
  6
CONTINUOUS
 62
     7
  0
LINE
  5
238
  8
0
  6
CONTINUOUS
 62
     7
 10
1483.1625615064
 20
798.9470133529
 30
0.0
 11
1483.6813454334
 21
799.5467552887
 31
0.0
  0
ARC
  5
239
  8
0
  6
CONTINUOUS
 62
     7
 10
1484.6628554602
 20
800.6823666332
 30
0.0
 40
1.500991358549738
 50
229.1631111245
 51
277.9833974085
  0
ARC
  5
23A
  8
0
  6
CONTINUOUS
 62
     7
 10
1484.6201668742
 20
800.4124740483
 30
0.0
 40
2.740761576092628
 50
237.8711580343
 51
279.6600595721
  0
ARC
  5
23B
  8
0
  6
CONTINUOUS
 62
     7
 10
-645.62890313
 20
257.7717620445
 30
0.0
 40
279.9999999999777
 50
169.6893026751
 51
172.7420376961
  0
ARC
  5
23C
  8
0
  6
CONTINUOUS
 62
     7
 10
-645.62890313
 20
202.1909765145
 30
0.0
 40
280.0000000002275
 50
183.0
 51
190.3096605428
  0
ARC
  5
23D
  8
0
  6
CONTINUOUS
 62
     7
 10
-115.3566201753
 20
229.9813692795
 30
0.0
 40
811.000000000495
 50
177.4323496779
 51
183.0
  0
ARC
  5
23E
  8
0
  6
CONTINUOUS
 62
     7
 10
-911.3566201753
 20
276.8246905712
 30
0.0
 40
32.99999999999996
 50
96.9620626911
 51
106.0038114363
  0
ARC
  5
23F
  8
0
  6
CONTINUOUS
 62
     7
 10
-911.3566201753
 20
183.1380479878
 30
0.0
 40
33.00000000000014
 50
253.9885793286
 51
263.0379373089
  0
ARC
  5
240
  8
0
  6
CONTINUOUS
 62
     7
 10
-925.1478864814
 20
267.008841599
 30
0.0
 40
0.8000000000003781
 50
193.3050835815
 51
240.4801028819
  0
ARC
  5
241
  8
0
  6
CONTINUOUS
 62
     7
 10
-923.3760720482
 20
292.3469684756
 30
0.0
 40
0.8000000000003196
 50
90.63381958
 51
158.6949164179
  0
ARC
  5
242
  8
0
  6
CONTINUOUS
 62
     7
 10
-920.3188038799
 20
307.7525934843
 30
0.0
 40
0.8000415142642551
 50
104.5519388826
 51
170.0602751556
  0
ARC
  5
243
  8
0
  6
CONTINUOUS
 62
     7
 10
-920.3188197916
 20
152.2101312531
 30
0.0
 40
0.8000233075588201
 50
189.938885996
 51
255.4488999658
  0
ARC
  5
244
  8
0
  6
CONTINUOUS
 62
     7
 10
-895.0494856102
 20
274.1266218438
 30
0.0
 40
31.72857142862246
 50
179.2551359542
 51
193.3050835818
  0
ARC
  5
245
  8
0
  6
CONTINUOUS
 62
     7
 10
-894.561190294
 20
281.1095701956
 30
0.0
 40
31.72857142857149
 50
158.6949164178
 51
172.2587626394
  0
ARC
  5
246
  8
0
  6
CONTINUOUS
 62
     7
 10
-829.156620601
 20
783.1813692794
 30
0.0
 40
40.0
 50
76.4820489901
 51
103.5179510099
  0
LINE
  5
247
  8
0
  6
CONTINUOUS
 62
     7
 10
-838.5066156418
 20
822.0732578979
 30
0.0
 11
-838.5066156418
 21
821.6814169632
 31
0.0
  0
LINE
  5
248
  8
0
  6
CONTINUOUS
 62
     7
 10
-819.8066194685
 20
821.6814169632
 30
0.0
 11
-819.8066194685
 21
822.0732578979
 31
0.0
  0
ARC
  5
249
  8
0
  6
CONTINUOUS
 62
     7
 10
-579.156620601
 20
783.1813692794
 30
0.0
 40
40.0
 50
76.4820489901
 51
103.5179510099
  0
LINE
  5
24A
  8
0
  6
CONTINUOUS
 62
     7
 10
-588.5066230924
 20
822.0732578979
 30
0.0
 11
-588.5066230924
 21
821.6814169632
 31
0.0
  0
LINE
  5
24B
  8
0
  6
CONTINUOUS
 62
     7
 10
-569.806626919
 20
821.6814169632
 30
0.0
 11
-569.806626919
 21
822.0732578979
 31
0.0
  0
LINE
  5
24C
  8
0
  6
CONTINUOUS
 62
     7
 10
-896.1566154988
 20
-267.8186303033
 30
0.0
 11
-896.3766162427
 21
-267.8186303033
 31
0.0
  0
LINE
  5
24D
  8
0
  6
CONTINUOUS
 62
     7
 10
-896.3766162427
 20
-272.8186329855
 30
0.0
 11
-896.1566154988
 21
-272.8186329855
 31
0.0
  0
LINE
  5
24E
  8
0
  6
CONTINUOUS
 62
     7
 10
-896.3766162427
 20
-267.8186303033
 30
0.0
 11
-896.7766230137
 21
-268.2186296238
 31
0.0
  0
LINE
  5
24F
  8
0
  6
CONTINUOUS
 62
     7
 10
-896.7766230137
 20
-272.418633665
 30
0.0
 11
-896.3766162427
 21
-272.8186329855
 31
0.0
  0
LINE
  5
250
  8
0
  6
CONTINUOUS
 62
     7
 10
-896.3766162427
 20
-227.8186311974
 30
0.0
 11
-896.7766230137
 21
-228.2186379685
 31
0.0
  0
LINE
  5
251
  8
0
  6
CONTINUOUS
 62
     7
 10
-896.7766230137
 20
-232.4186345591
 30
0.0
 11
-896.3766162427
 21
-232.818626429
 31
0.0
  0
LINE
  5
252
  8
0
  6
CONTINUOUS
 62
     7
 10
-896.1566154988
 20
-227.8186311974
 30
0.0
 11
-896.3766162427
 21
-227.8186311974
 31
0.0
  0
LINE
  5
253
  8
0
  6
CONTINUOUS
 62
     7
 10
-896.3766162427
 20
-232.818626429
 30
0.0
 11
-896.1566154988
 21
-232.818626429
 31
0.0
  0
LINE
  5
254
  8
0
  6
CONTINUOUS
 62
     7
 10
-896.1566154988
 20
732.6813111053
 30
0.0
 11
-896.3766162427
 21
732.6813111053
 31
0.0
  0
LINE
  5
255
  8
0
  6
CONTINUOUS
 62
     7
 10
-896.3766162427
 20
727.6813158737
 30
0.0
 11
-896.1566154988
 21
727.6813158737
 31
0.0
  0
LINE
  5
256
  8
0
  6
CONTINUOUS
 62
     7
 10
-896.3766162427
 20
732.6813111053
 30
0.0
 11
-896.7766230137
 21
732.2813639389
 31
0.0
  0
LINE
  5
257
  8
0
  6
CONTINUOUS
 62
     7
 10
-896.7766230137
 20
728.0813822494
 30
0.0
 11
-896.3766162427
 21
727.6813158737
 31
0.0
  0
LINE
  5
258
  8
0
  6
CONTINUOUS
 62
     7
 10
-896.3766162427
 20
692.6813492523
 30
0.0
 11
-896.7766230137
 21
692.2814020858
 31
0.0
  0
LINE
  5
259
  8
0
  6
CONTINUOUS
 62
     7
 10
-896.7766230137
 20
688.0814203964
 30
0.0
 11
-896.3766162427
 21
687.6813540206
 31
0.0
  0
LINE
  5
25A
  8
0
  6
CONTINUOUS
 62
     7
 10
-896.1566154988
 20
692.6813492523
 30
0.0
 11
-896.3766162427
 21
692.6813492523
 31
0.0
  0
LINE
  5
25B
  8
0
  6
CONTINUOUS
 62
     7
 10
-896.3766162427
 20
687.6813540206
 30
0.0
 11
-896.1566154988
 21
687.6813540206
 31
0.0
  0
LINE
  5
25C
  8
0
  6
CONTINUOUS
 62
     7
 10
-896.3766162427
 20
212.4313482986
 30
0.0
 11
-896.7766230137
 21
212.0313415275
 31
0.0
  0
LINE
  5
25D
  8
0
  6
CONTINUOUS
 62
     7
 10
-896.7766230137
 20
207.8313598381
 30
0.0
 11
-896.3766162427
 21
207.431353067
 31
0.0
  0
LINE
  5
25E
  8
0
  6
CONTINUOUS
 62
     7
 10
-896.1566154988
 20
212.4313482986
 30
0.0
 11
-896.3766162427
 21
212.4313482986
 31
0.0
  0
LINE
  5
25F
  8
0
  6
CONTINUOUS
 62
     7
 10
-896.3766162427
 20
207.431353067
 30
0.0
 11
-896.1566154988
 21
207.431353067
 31
0.0
  0
LINE
  5
260
  8
0
  6
CONTINUOUS
 62
     7
 10
-896.3766162427
 20
252.4313697563
 30
0.0
 11
-896.7766230137
 21
252.0313629852
 31
0.0
  0
LINE
  5
261
  8
0
  6
CONTINUOUS
 62
     7
 10
-896.7766230137
 20
247.8313812957
 30
0.0
 11
-896.3766162427
 21
247.4313745246
 31
0.0
  0
LINE
  5
262
  8
0
  6
CONTINUOUS
 62
     7
 10
-896.1566154988
 20
252.4313697563
 30
0.0
 11
-896.3766162427
 21
252.4313697563
 31
0.0
  0
LINE
  5
263
  8
0
  6
CONTINUOUS
 62
     7
 10
-896.3766162427
 20
247.4313745246
 30
0.0
 11
-896.1566154988
 21
247.4313745246
 31
0.0
  0
LINE
  5
264
  8
0
  6
CONTINUOUS
 62
     7
 10
-900.3566269906
 20
818.6813959823
 30
0.0
 11
-910.8566259177
 21
818.6813959823
 31
0.0
  0
LINE
  5
265
  8
0
  6
CONTINUOUS
 62
     7
 10
-900.3566269906
 20
-358.8186303182
 30
0.0
 11
-900.3566269906
 21
818.6813959823
 31
0.0
  0
LINE
  5
266
  8
0
  6
CONTINUOUS
 62
     7
 10
-910.8566259177
 20
-358.8186303182
 30
0.0
 11
-900.3566269906
 21
-358.8186303182
 31
0.0
  0
ARC
  5
267
  8
0
  6
CONTINUOUS
 62
     7
 10
-913.8566201753
 20
818.6813692795
 30
0.0
 40
3.0
 50
300.0
 51
0.0
  0
ARC
  5
268
  8
0
  6
CONTINUOUS
 62
     7
 10
-913.8566201753
 20
-358.8186307205
 30
0.0
 40
3.0
 50
0.0
 51
60.0
  0
LINE
  5
269
  8
0
  6
CONTINUOUS
 62
     7
 10
-915.3566275866
 20
816.0833487258
 30
0.0
 11
-915.3566275866
 21
-356.2205551221
 31
0.0
  0
POLYLINE
  5
26A
  8
0
  6
CONTINUOUS
 62
     7
 66
     1
 10
0.0
 20
0.0
 30
0.0
  0
VERTEX
  5
787
  8
0
  6
CONTINUOUS
 62
     7
 10
-912.3566215069
 20
816.0833487258
 30
0.0
  0
VERTEX
  5
788
  8
0
  6
CONTINUOUS
 62
     7
 10
-913.0387668641
 20
815.9017929779
 30
0.0
  0
VERTEX
  5
789
  8
0
  6
CONTINUOUS
 62
     7
 10
-913.6255298884
 20
815.772570108
 30
0.0
  0
VERTEX
  5
78A
  8
0
  6
CONTINUOUS
 62
     7
 10
-914.477533582
 20
815.6706461654
 30
0.0
  0
VERTEX
  5
78B
  8
0
  6
CONTINUOUS
 62
     7
 10
-915.0661890538
 20
815.7749542938
 30
0.0
  0
VERTEX
  5
78C
  8
0
  6
CONTINUOUS
 62
     7
 10
-915.274477485
 20
815.9037003265
 30
0.0
  0
VERTEX
  5
78D
  8
0
  6
CONTINUOUS
 62
     7
 10
-915.3566275866
 20
816.0833487258
 30
0.0
  0
SEQEND
  5
78E
  8
0
  6
CONTINUOUS
 62
     7
  0
POLYLINE
  5
26B
  8
0
  6
CONTINUOUS
 62
     7
 66
     1
 10
0.0
 20
0.0
 30
0.0
  0
VERTEX
  5
78F
  8
0
  6
CONTINUOUS
 62
     7
 10
-915.3566275866
 20
-356.2205551221
 30
0.0
  0
VERTEX
  5
790
  8
0
  6
CONTINUOUS
 62
     7
 10
-915.2780388625
 20
-356.0391036822
 30
0.0
  0
VERTEX
  5
791
  8
0
  6
CONTINUOUS
 62
     7
 10
-915.0750552447
 20
-355.9098472847
 30
0.0
  0
VERTEX
  5
792
  8
0
  6
CONTINUOUS
 62
     7
 10
-914.4783382447
 20
-355.8079158916
 30
0.0
  0
VERTEX
  5
793
  8
0
  6
CONTINUOUS
 62
     7
 10
-913.6443649562
 20
-355.9122519596
 30
0.0
  0
VERTEX
  5
794
  8
0
  6
CONTINUOUS
 62
     7
 10
-913.0538170369
 20
-356.0409067227
 30
0.0
  0
VERTEX
  5
795
  8
0
  6
CONTINUOUS
 62
     7
 10
-912.3566215069
 20
-356.2205551221
 30
0.0
  0
SEQEND
  5
796
  8
0
  6
CONTINUOUS
 62
     7
  0
LINE
  5
26C
  8
0
  6
CONTINUOUS
 62
     7
 10
-915.3566275866
 20
-356.2205551221
 30
0.0
 11
-913.8566170962
 21
-356.2205551221
 31
0.0
  0
LINE
  5
26D
  8
0
  6
CONTINUOUS
 62
     7
 10
-913.8566170962
 20
816.0833487258
 30
0.0
 11
-915.3566275866
 21
816.0833487258
 31
0.0
  0
LINE
  5
26E
  8
0
  6
CONTINUOUS
 62
     7
 10
-910.8566259177
 20
-358.8186303182
 30
0.0
 11
-910.8566259177
 21
-360.3186314954
 31
0.0
  0
LINE
  5
26F
  8
0
  6
CONTINUOUS
 62
     7
 10
-912.3566215069
 20
-358.8186303182
 30
0.0
 11
-912.3566215069
 21
-360.3186314954
 31
0.0
  0
LINE
  5
270
  8
0
  6
CONTINUOUS
 62
     7
 10
-912.3566215069
 20
-358.8186303182
 30
0.0
 11
-910.8566259177
 21
-358.8186303182
 31
0.0
  0
LINE
  5
271
  8
0
  6
CONTINUOUS
 62
     7
 10
-912.3566215069
 20
-360.3186314954
 30
0.0
 11
-910.8566259177
 21
-360.3186314954
 31
0.0
  0
LINE
  5
272
  8
0
  6
CONTINUOUS
 62
     7
 10
-910.8566259177
 20
820.1814064727
 30
0.0
 11
-910.8566259177
 21
818.6813959823
 31
0.0
  0
LINE
  5
273
  8
0
  6
CONTINUOUS
 62
     7
 10
-912.3566215069
 20
818.6813959823
 30
0.0
 11
-910.8566259177
 21
818.6813959823
 31
0.0
  0
LINE
  5
274
  8
0
  6
CONTINUOUS
 62
     7
 10
-912.3566215069
 20
820.1814064727
 30
0.0
 11
-912.3566215069
 21
818.6813959823
 31
0.0
  0
LINE
  5
275
  8
0
  6
CONTINUOUS
 62
     7
 10
-910.8566259177
 20
820.1814064727
 30
0.0
 11
-912.3566215069
 21
820.1814064727
 31
0.0
  0
LINE
  5
276
  8
0
  6
CONTINUOUS
 62
     7
 10
-900.3566269906
 20
-360.3186314954
 30
0.0
 11
-900.3566269906
 21
-358.8186303182
 31
0.0
  0
LINE
  5
277
  8
0
  6
CONTINUOUS
 62
     7
 10
-900.3566269906
 20
-360.3186314954
 30
0.0
 11
-910.8566259177
 21
-360.3186314954
 31
0.0
  0
LINE
  5
278
  8
0
  6
CONTINUOUS
 62
     7
 10
-900.3566269906
 20
820.1814064727
 30
0.0
 11
-900.3566269906
 21
818.6813959823
 31
0.0
  0
LINE
  5
279
  8
0
  6
CONTINUOUS
 62
     7
 10
-910.8566259177
 20
820.1814064727
 30
0.0
 11
-900.3566269906
 21
820.1814064727
 31
0.0
  0
LINE
  5
27A
  8
0
  6
CONTINUOUS
 62
     7
 10
-913.8566170962
 20
-357.3186310037
 30
0.0
 11
-915.3566275866
 21
-357.3186310037
 31
0.0
  0
LINE
  5
27B
  8
0
  6
CONTINUOUS
 62
     7
 10
-913.8566170962
 20
-356.2205551221
 30
0.0
 11
-913.8566170962
 21
-357.3186310037
 31
0.0
  0
LINE
  5
27C
  8
0
  6
CONTINUOUS
 62
     7
 10
-915.3566275866
 20
-356.2205551221
 30
0.0
 11
-915.3566275866
 21
-357.3186310037
 31
0.0
  0
LINE
  5
27D
  8
0
  6
CONTINUOUS
 62
     7
 10
-915.3566275866
 20
817.1813854919
 30
0.0
 11
-913.8566170962
 21
817.1813854919
 31
0.0
  0
LINE
  5
27E
  8
0
  6
CONTINUOUS
 62
     7
 10
-913.8566170962
 20
816.0833487258
 30
0.0
 11
-913.8566170962
 21
817.1813854919
 31
0.0
  0
LINE
  5
27F
  8
0
  6
CONTINUOUS
 62
     7
 10
-915.3566275866
 20
817.1813854919
 30
0.0
 11
-915.3566275866
 21
816.0833487258
 31
0.0
  0
ARC
  5
280
  8
0
  6
CONTINUOUS
 62
     7
 10
-912.3566229867
 20
-357.3186362087
 30
0.0
 40
1.499994109510276
 50
179.9998011814
 51
270.0000565227
  0
ARC
  5
281
  8
0
  6
CONTINUOUS
 62
     7
 10
-912.3566005459
 20
-357.3186044547
 30
0.0
 40
3.00002704082798
 50
180.0005070443
 51
269.9995996773
  0
ARC
  5
282
  8
0
  6
CONTINUOUS
 62
     7
 10
-912.3566307398
 20
817.1814096258
 30
0.0
 40
1.49998635655365
 50
89.9996473261
 51
180.0009218552
  0
ARC
  5
283
  8
0
  6
CONTINUOUS
 62
     7
 10
-912.3565452769
 20
817.1813241634
 30
0.0
 40
3.000082310346762
 50
90.0014558467
 51
179.9988287432
  0
ARC
  5
284
  8
0
  6
CONTINUOUS
 62
     7
 10
-912.3566307398
 20
817.1814096258
 30
0.0
 40
1.49998635655365
 50
89.9996473261
 51
180.0009218552
  0
LINE
  5
285
  8
0
  6
CONTINUOUS
 62
     7
 10
-517.7399282487
 20
-378.3107945215
 30
0.0
 11
-517.8482745917
 21
-376.8147126335
 31
0.0
  0
LINE
  5
286
  8
0
  6
CONTINUOUS
 62
     7
 10
-517.9566209347
 20
-378.3186307206
 30
0.0
 11
-517.7399282487
 21
-378.3107945588
 31
0.0
  0
LINE
  5
287
  8
0
  6
CONTINUOUS
 62
     7
 10
-517.9566209347
 20
-376.8186307075
 30
0.0
 11
-517.9566209347
 21
-378.3186307206
 31
0.0
  0
LINE
  5
288
  8
0
  6
CONTINUOUS
 62
     7
 10
-517.9566209347
 20
-376.8186307075
 30
0.0
 11
-517.8482745917
 21
-376.8147126335
 31
0.0
  0
LINE
  5
289
  8
0
  6
CONTINUOUS
 62
     7
 10
-516.4566253455
 20
-375.3186306945
 30
0.0
 11
-514.9566148551
 21
-375.3186306945
 31
0.0
  0
ARC
  5
28A
  8
0
  6
CONTINUOUS
 62
     7
 10
-517.9566235801
 20
-375.3186221528
 30
0.0
 40
3.000008725096707
 50
274.1421711741
 51
359.9998368662
  0
ARC
  5
28B
  8
0
  6
CONTINUOUS
 62
     7
 10
-517.9566046443
 20
-375.3186503029
 30
0.0
 40
1.499979298960437
 50
274.1415659647
 51
0.0007489952
  0
LINE
  5
28C
  8
0
  6
CONTINUOUS
 62
     7
 10
-517.9566209347
 20
-378.3186307206
 30
0.0
 11
-519.456616524
 21
-378.3186307206
 31
0.0
  0
LINE
  5
28D
  8
0
  6
CONTINUOUS
 62
     7
 10
-517.9566209347
 20
-376.8186307075
 30
0.0
 11
-518.7672292025
 21
-376.8186307075
 31
0.0
  0
LINE
  5
28E
  8
0
  6
CONTINUOUS
 62
     7
 10
-514.9566148551
 20
-375.3186306945
 30
0.0
 11
-514.9566148551
 21
-375.2328442438
 31
0.0
  0
LINE
  5
28F
  8
0
  6
CONTINUOUS
 62
     7
 10
-890.6566267045
 20
-376.8186307075
 30
0.0
 11
-890.6566267045
 21
-378.3186307206
 31
0.0
  0
LINE
  5
290
  8
0
  6
CONTINUOUS
 62
     7
 10
-890.6566267045
 20
-376.8186307075
 30
0.0
 11
-890.3253738911
 21
-376.8186307075
 31
0.0
  0
LINE
  5
291
  8
0
  6
CONTINUOUS
 62
     7
 10
-890.6566267045
 20
-378.3186307206
 30
0.0
 11
-888.9495198758
 21
-378.3186307206
 31
0.0
  0
LINE
  5
292
  8
0
  6
CONTINUOUS
 62
     7
 10
-894.1566263468
 20
-374.8186306125
 30
0.0
 11
-893.0204873116
 21
-374.8186306125
 31
0.0
  0
LINE
  5
293
  8
0
  6
CONTINUOUS
 62
     7
 10
-894.1566263468
 20
-373.1115237838
 30
0.0
 11
-894.1566263468
 21
-374.8186306125
 31
0.0
  0
LINE
  5
294
  8
0
  6
CONTINUOUS
 62
     7
 10
-891.1566202672
 20
-376.8186307075
 30
0.0
 11
-890.6566267045
 21
-376.8186307075
 31
0.0
  0
LINE
  5
295
  8
0
  6
CONTINUOUS
 62
     7
 10
-891.1566202672
 20
-378.3186307206
 30
0.0
 11
-890.6566267045
 21
-378.3186307206
 31
0.0
  0
LINE
  5
296
  8
0
  6
CONTINUOUS
 62
     7
 10
-894.1566263468
 20
-374.8186306125
 30
0.0
 11
-894.1566263468
 21
-375.3186306945
 31
0.0
  0
LINE
  5
297
  8
0
  6
CONTINUOUS
 62
     7
 10
-892.6566158564
 20
-374.9740869767
 30
0.0
 11
-892.6566158564
 21
-375.3186306945
 31
0.0
  0
ARC
  5
298
  8
0
  6
CONTINUOUS
 62
     7
 10
-891.156620601
 20
-375.3186307206
 30
0.0
 40
1.499999999999943
 50
180.0
 51
270.0
  0
ARC
  5
299
  8
0
  6
CONTINUOUS
 62
     7
 10
-891.156620601
 20
-375.3186307206
 30
0.0
 40
3.0
 50
180.0
 51
270.0
  0
LINE
  5
29A
  8
0
  6
CONTINUOUS
 62
     7
 10
-895.8653872044
 20
-339.5332289888
 30
0.0
 11
-896.0741375716
 21
-338.0478253617
 31
0.0
  0
LINE
  5
29B
  8
0
  6
CONTINUOUS
 62
     7
 10
-895.8653872044
 20
-339.5332289888
 30
0.0
 11
-900.3566269906
 21
-340.1644310011
 31
0.0
  0
LINE
  5
29C
  8
0
  6
CONTINUOUS
 62
     7
 10
-896.0741375716
 20
-338.0478253617
 30
0.0
 11
-900.3566269906
 21
-338.6496907129
 31
0.0
  0
ARC
  5
29D
  8
0
  6
CONTINUOUS
 62
     7
 10
-895.6137292445
 20
-340.750238152
 30
0.0
 40
2.74135198707367
 50
57.8913063597
 51
99.6686121881
  0
ARC
  5
29E
  8
0
  6
CONTINUOUS
 62
     7
 10
-895.6566168511
 20
-341.0186199988
 30
0.0
 40
1.49999050431457
 50
359.9996603539
 51
98.0004637766
  0
LINE
  5
29F
  8
0
  6
CONTINUOUS
 62
     7
 10
-896.1566154988
 20
-356.0186313494
 30
0.0
 11
-894.1566263468
 21
-356.0186313494
 31
0.0
  0
ARC
  5
2A0
  8
0
  6
CONTINUOUS
 62
     7
 10
-901.156620601
 20
-350.4934841709
 30
0.0
 40
3.000000000000031
 50
0.0
 51
74.5339816122
  0
LINE
  5
2A1
  8
0
  6
CONTINUOUS
 62
     7
 10
-898.1566195519
 20
-356.0186313494
 30
0.0
 11
-898.1566195519
 21
-350.493483807
 31
0.0
  0
LINE
  5
2A2
  8
0
  6
CONTINUOUS
 62
     7
 10
-896.1566154988
 20
-356.0186313494
 30
0.0
 11
-898.1566195519
 21
-356.0186313494
 31
0.0
  0
LINE
  5
2A3
  8
0
  6
CONTINUOUS
 62
     7
 10
-896.0741375716
 20
-338.0478253617
 30
0.0
 11
-894.1566263468
 21
-337.7783378615
 31
0.0
  0
LINE
  5
2A4
  8
0
  6
CONTINUOUS
 62
     7
 10
-896.1566154988
 20
815.6813750015
 30
0.0
 11
-894.1566263468
 21
815.6813750015
 31
0.0
  0
ARC
  5
2A5
  8
0
  6
CONTINUOUS
 62
     7
 10
-895.656620601
 20
800.6813692794
 30
0.0
 40
1.50000000000002
 50
292.9021843928
 51
312.3692568683
  0
ARC
  5
2A6
  8
0
  6
CONTINUOUS
 62
     7
 10
-901.156620601
 20
810.1562227297
 30
0.0
 40
2.999999999999984
 50
285.4660183876
 51
0.0
  0
LINE
  5
2A7
  8
0
  6
CONTINUOUS
 62
     7
 10
-898.1566195519
 20
810.1562628494
 30
0.0
 11
-898.1566195519
 21
815.6813750015
 31
0.0
  0
LINE
  5
2A8
  8
0
  6
CONTINUOUS
 62
     7
 10
-898.1566195519
 20
815.6813750015
 30
0.0
 11
-896.1566154988
 21
815.6813750015
 31
0.0
  0
LINE
  5
2A9
  8
0
  6
CONTINUOUS
 62
     7
 10
-896.0741375716
 20
797.7105746017
 30
0.0
 11
-894.1566263468
 21
797.441042398
 31
0.0
  0
POLYLINE
  5
2AA
  8
0
  6
CONTINUOUS
 62
     7
 66
     1
 10
0.0
 20
0.0
 30
0.0
  0
VERTEX
  5
797
  8
0
  6
CONTINUOUS
 62
     7
 10
-510.0420479806
 20
814.8025641189
 30
0.0
  0
VERTEX
  5
798
  8
0
  6
CONTINUOUS
 62
     7
 10
-510.27097452
 20
815.0154719101
 30
0.0
  0
VERTEX
  5
799
  8
0
  6
CONTINUOUS
 62
     7
 10
-510.95662165
 20
815.1814112411
 30
0.0
  0
SEQEND
  5
79A
  8
0
  6
CONTINUOUS
 62
     7
  0
LINE
  5
2AB
  8
0
  6
CONTINUOUS
 62
     7
 10
-510.95662165
 20
816.6814217315
 30
0.0
 11
-510.95662165
 21
815.1814112411
 31
0.0
  0
ARC
  5
2AC
  8
0
  6
CONTINUOUS
 62
     7
 10
-510.9567320252
 20
813.6813052772
 30
0.0
 40
3.000116456381114
 50
0.0018233391
 51
89.997892071
  0
LINE
  5
2AD
  8
0
  6
CONTINUOUS
 62
     7
 10
-510.95662165
 20
-358.7186304881
 30
0.0
 11
-514.9566148551
 21
-358.7186304881
 31
0.0
  0
LINE
  5
2AE
  8
0
  6
CONTINUOUS
 62
     7
 10
-510.95662165
 20
815.0813946472
 30
0.0
 11
-514.9566148551
 21
815.0813946472
 31
0.0
  0
LINE
  5
2AF
  8
0
  6
CONTINUOUS
 62
     7
 10
-510.95662165
 20
816.6814217315
 30
0.0
 11
-514.9566148551
 21
816.6814217315
 31
0.0
  0
LINE
  5
2B0
  8
0
  6
CONTINUOUS
 62
     7
 10
-510.95662165
 20
815.1814112411
 30
0.0
 11
-514.9566148551
 21
815.1814112411
 31
0.0
  0
POLYLINE
  5
2B1
  8
0
  6
CONTINUOUS
 62
     7
 66
     1
 10
0.0
 20
0.0
 30
0.0
  0
VERTEX
  5
79B
  8
0
  6
CONTINUOUS
 62
     7
 10
-510.95662165
 20
815.0813946472
 30
0.0
  0
VERTEX
  5
79C
  8
0
  6
CONTINUOUS
 62
     7
 10
-509.808576587
 20
814.7313961731
 30
0.0
  0
VERTEX
  5
79D
  8
0
  6
CONTINUOUS
 62
     7
 10
-508.8353072436
 20
814.3813976989
 30
0.0
  0
VERTEX
  5
79E
  8
0
  6
CONTINUOUS
 62
     7
 10
-508.1849758656
 20
814.0313992248
 30
0.0
  0
VERTEX
  5
79F
  8
0
  6
CONTINUOUS
 62
     7
 10
-507.9566155703
 20
813.6814007507
 30
0.0
  0
SEQEND
  5
7A0
  8
0
  6
CONTINUOUS
 62
     7
  0
LINE
  5
2B2
  8
0
  6
CONTINUOUS
 62
     7
 10
-507.9566155703
 20
813.6814007507
 30
0.0
 11
-507.9566155703
 21
-357.3186310037
 31
0.0
  0
POLYLINE
  5
2B3
  8
0
  6
CONTINUOUS
 62
     7
 66
     1
 10
0.0
 20
0.0
 30
0.0
  0
VERTEX
  5
7A1
  8
0
  6
CONTINUOUS
 62
     7
 10
-507.9566155703
 20
-357.3186310037
 30
0.0
  0
VERTEX
  5
7A2
  8
0
  6
CONTINUOUS
 62
     7
 10
-508.1405555041
 20
-357.6323451503
 30
0.0
  0
VERTEX
  5
7A3
  8
0
  6
CONTINUOUS
 62
     7
 10
-508.6699043543
 20
-357.9461077257
 30
0.0
  0
VERTEX
  5
7A4
  8
0
  6
CONTINUOUS
 62
     7
 10
-509.4797377617
 20
-358.2598703011
 30
0.0
  0
VERTEX
  5
7A5
  8
0
  6
CONTINUOUS
 62
     7
 10
-510.4707245858
 20
-358.5736347391
 30
0.0
  0
VERTEX
  5
7A6
  8
0
  6
CONTINUOUS
 62
     7
 10
-510.95662165
 20
-358.7186304881
 30
0.0
  0
SEQEND
  5
7A7
  8
0
  6
CONTINUOUS
 62
     7
  0
POLYLINE
  5
2B4
  8
0
  6
CONTINUOUS
 62
     7
 66
     1
 10
0.0
 20
0.0
 30
0.0
  0
VERTEX
  5
7A8
  8
0
  6
CONTINUOUS
 62
     7
 10
-510.95662165
 20
-358.8186303182
 30
0.0
  0
VERTEX
  5
7A9
  8
0
  6
CONTINUOUS
 62
     7
 10
-510.3825991185
 20
-358.7044501706
 30
0.0
  0
VERTEX
  5
7AA
  8
0
  6
CONTINUOUS
 62
     7
 10
-509.9311237366
 20
-358.4027910634
 30
0.0
  0
SEQEND
  5
7AB
  8
0
  6
CONTINUOUS
 62
     7
  0
ARC
  5
2B5
  8
0
  6
CONTINUOUS
 62
     7
 10
-510.9566272987
 20
-357.3186197671
 30
0.0
 40
3.000011728367244
 50
270.0001078813
 51
359.9997853971
  0
LINE
  5
2B6
  8
0
  6
CONTINUOUS
 62
     7
 10
-510.95662165
 20
-360.3186314954
 30
0.0
 11
-510.95662165
 21
-358.8186303182
 31
0.0
  0
LINE
  5
2B7
  8
0
  6
CONTINUOUS
 62
     7
 10
-510.95662165
 20
-358.8186303182
 30
0.0
 11
-514.9566148551
 21
-358.8186303182
 31
0.0
  0
LINE
  5
2B8
  8
0
  6
CONTINUOUS
 62
     7
 10
-510.95662165
 20
-360.3186314954
 30
0.0
 11
-514.9566148551
 21
-360.3186314954
 31
0.0
  0
POLYLINE
  5
2B9
  8
0
  6
CONTINUOUS
 62
     7
 66
     1
 10
0.0
 20
0.0
 30
0.0
  0
VERTEX
  5
7AC
  8
0
  6
CONTINUOUS
 62
     7
 10
-920.3424071105
 20
305.3462276207
 30
0.0
  0
VERTEX
  5
7AD
  8
0
  6
CONTINUOUS
 62
     7
 10
-920.3151528866
 20
305.3415188537
 30
0.0
  0
VERTEX
  5
7AE
  8
0
  6
CONTINUOUS
 62
     7
 10
-920.2707027228
 20
305.3338298545
 30
0.0
  0
VERTEX
  5
7AF
  8
0
  6
CONTINUOUS
 62
     7
 10
-920.2100698979
 20
305.3233394371
 30
0.0
  0
VERTEX
  5
7B0
  8
0
  6
CONTINUOUS
 62
     7
 10
-920.1346402199
 20
305.3102860199
 30
0.0
  0
VERTEX
  5
7B1
  8
0
  6
CONTINUOUS
 62
     7
 10
-920.0461422236
 20
305.2949080215
 30
0.0
  0
VERTEX
  5
7B2
  8
0
  6
CONTINUOUS
 62
     7
 10
-919.946617368
 20
305.2776822792
 30
0.0
  0
VERTEX
  5
7B3
  8
0
  6
CONTINUOUS
 62
     7
 10
-919.8383157284
 20
305.2589664207
 30
0.0
  0
VERTEX
  5
7B4
  8
0
  6
CONTINUOUS
 62
     7
 10
-919.7237407
 20
305.239118074
 30
0.0
  0
SEQEND
  5
7B5
  8
0
  6
CONTINUOUS
 62
     7
  0
ARC
  5
2BA
  8
0
  6
CONTINUOUS
 62
     7
 10
-1078.0738380937
 20
291.7762941503
 30
0.0
 40
154.6945906738697
 50
352.8015049127
 51
0.1900272032
  0
POLYLINE
  5
2BB
  8
0
  6
CONTINUOUS
 62
     7
 66
     1
 10
0.0
 20
0.0
 30
0.0
  0
VERTEX
  5
7B6
  8
0
  6
CONTINUOUS
 62
     7
 10
-923.3852689297
 20
293.1465873466
 30
0.0
  0
VERTEX
  5
7B7
  8
0
  6
CONTINUOUS
 62
     7
 10
-923.3852689297
 20
293.1469449745
 30
0.0
  0
VERTEX
  5
7B8
  8
0
  6
CONTINUOUS
 62
     7
 10
-923.3844344647
 20
293.05205438
 30
0.0
  0
VERTEX
  5
7B9
  8
0
  6
CONTINUOUS
 62
     7
 10
-923.3800982268
 20
292.2893533454
 30
0.0
  0
SEQEND
  5
7BA
  8
0
  6
CONTINUOUS
 62
     7
  0
POLYLINE
  5
2BC
  8
0
  6
CONTINUOUS
 62
     7
 66
     1
 10
0.0
 20
0.0
 30
0.0
  0
VERTEX
  5
7BB
  8
0
  6
CONTINUOUS
 62
     7
 10
-925.5423163207
 20
266.3134107338
 30
0.0
  0
VERTEX
  5
7BC
  8
0
  6
CONTINUOUS
 62
     7
 10
-925.5424206288
 20
266.3128742919
 30
0.0
  0
VERTEX
  5
7BD
  8
0
  6
CONTINUOUS
 62
     7
 10
-925.5255674155
 20
266.402638887
 30
0.0
  0
VERTEX
  5
7BE
  8
0
  6
CONTINUOUS
 62
     7
 10
-925.4448627265
 20
266.8404946075
 30
0.0
  0
VERTEX
  5
7BF
  8
0
  6
CONTINUOUS
 62
     7
 10
-925.2983694108
 20
267.6691779838
 30
0.0
  0
VERTEX
  5
7C0
  8
0
  6
CONTINUOUS
 62
     7
 10
-924.9496822388
 20
269.843257402
 30
0.0
  0
SEQEND
  5
7C1
  8
0
  6
CONTINUOUS
 62
     7
  0
LINE
  5
2BD
  8
0
  6
CONTINUOUS
 62
     7
 10
-924.9496822388
 20
269.843257402
 30
0.0
 11
-924.5985512765
 21
272.3919520126
 31
0.0
  0
LINE
  5
2BE
  8
0
  6
CONTINUOUS
 62
     7
 10
-919.6742986472
 20
308.2704314933
 30
0.0
 11
-920.4448078902
 21
308.4939489112
 31
0.0
  0
LINE
  5
2BF
  8
0
  6
CONTINUOUS
 62
     7
 10
-919.6742986472
 20
151.6923079238
 30
0.0
 11
-920.4448078902
 21
151.4687905059
 31
0.0
  0
LINE
  5
2C0
  8
0
  6
CONTINUOUS
 62
     7
 10
-926.0094528229
 20
281.974113916
 30
0.0
 11
-926.2453233035
 21
281.9689283119
 31
0.0
  0
POLYLINE
  5
2C1
  8
0
  6
CONTINUOUS
 62
     7
 66
     1
 10
0.0
 20
0.0
 30
0.0
  0
VERTEX
  5
7C2
  8
0
  6
CONTINUOUS
 62
     7
 10
-926.2453233035
 20
281.9689283119
 30
0.0
  0
VERTEX
  5
7C3
  8
0
  6
CONTINUOUS
 62
     7
 10
-926.145813349
 20
283.3581337677
 30
0.0
  0
VERTEX
  5
7C4
  8
0
  6
CONTINUOUS
 62
     7
 10
-926.0675375493
 20
284.4494948135
 30
0.0
  0
VERTEX
  5
7C5
  8
0
  6
CONTINUOUS
 62
     7
 10
-926.0175441535
 20
285.1459750877
 30
0.0
  0
VERTEX
  5
7C6
  8
0
  6
CONTINUOUS
 62
     7
 10
-926.0003482134
 20
285.3852877365
 30
0.0
  0
SEQEND
  5
7C7
  8
0
  6
CONTINUOUS
 62
     7
  0
POLYLINE
  5
2C2
  8
0
  6
CONTINUOUS
 62
     7
 66
     1
 10
0.0
 20
0.0
 30
0.0
  0
VERTEX
  5
7C8
  8
0
  6
CONTINUOUS
 62
     7
 10
-926.0175590546
 20
285.1456770645
 30
0.0
  0
VERTEX
  5
7C9
  8
0
  6
CONTINUOUS
 62
     7
 10
-926.0675822528
 20
284.448898767
 30
0.0
  0
VERTEX
  5
7CA
  8
0
  6
CONTINUOUS
 62
     7
 10
-926.1458580525
 20
283.3575973259
 30
0.0
  0
VERTEX
  5
7CB
  8
0
  6
CONTINUOUS
 62
     7
 10
-926.2453233035
 20
281.9689283119
 30
0.0
  0
SEQEND
  5
7CC
  8
0
  6
CONTINUOUS
 62
     7
  0
POLYLINE
  5
2C3
  8
0
  6
CONTINUOUS
 62
     7
 66
     1
 10
0.0
 20
0.0
 30
0.0
  0
VERTEX
  5
7CD
  8
0
  6
CONTINUOUS
 62
     7
 10
-926.7754023106
 20
274.5365271316
 30
0.0
  0
VERTEX
  5
7CE
  8
0
  6
CONTINUOUS
 62
     7
 10
-926.7583851845
 20
274.7759589897
 30
0.0
  0
VERTEX
  5
7CF
  8
0
  6
CONTINUOUS
 62
     7
 10
-926.7088686259
 20
275.4723200546
 30
0.0
  0
VERTEX
  5
7D0
  8
0
  6
CONTINUOUS
 62
     7
 10
-926.6312484772
 20
276.5629658447
 30
0.0
  0
VERTEX
  5
7D1
  8
0
  6
CONTINUOUS
 62
     7
 10
-926.5323494704
 20
277.9509792076
 30
0.0
  0
SEQEND
  5
7D2
  8
0
  6
CONTINUOUS
 62
     7
  0
LINE
  5
2C4
  8
0
  6
CONTINUOUS
 62
     7
 10
-926.5323494704
 20
277.9509792076
 30
0.0
 11
-926.3017689021
 21
277.9461512313
 31
0.0
  0
LINE
  5
2C5
  8
0
  6
CONTINUOUS
 62
     7
 10
-926.1382137568
 20
278.7197599159
 30
0.0
 11
-925.9573434622
 21
281.2004456268
 31
0.0
  0
ARC
  5
2C6
  8
0
  6
CONTINUOUS
 62
     7
 10
-925.8473844037
 20
281.931108157
 30
0.0
 40
0.399737719215871
 50
174.5624051993
 51
269.9461182081
  0
ARC
  5
2C7
  8
0
  6
CONTINUOUS
 62
     7
 10
-926.1331763198
 20
277.9317395978
 30
0.0
 40
0.3996365432984432
 50
90.0385758392
 51
177.2405558855
  0
ARC
  5
2C8
  8
0
  6
CONTINUOUS
 62
     7
 10
-926.1331763198
 20
277.9317395978
 30
0.0
 40
0.399636543298531
 50
90.0385758392
 51
177.2405558855
  0
LINE
  5
2C9
  8
0
  6
CONTINUOUS
 62
     7
 10
-838.5066156418
 20
822.0732578979
 30
0.0
 11
-819.8066194685
 21
822.0732578979
 31
0.0
  0
LINE
  5
2CA
  8
0
  6
CONTINUOUS
 62
     7
 10
-588.5066230924
 20
822.0732578979
 30
0.0
 11
-569.806626919
 21
822.0732578979
 31
0.0
  0
LINE
  5
2CB
  8
0
  6
CONTINUOUS
 62
     7
 10
-896.1566154988
 20
257.4313649879
 30
0.0
 11
-896.1566154988
 21
202.4313578353
 31
0.0
  0
LINE
  5
2CC
  8
0
  6
CONTINUOUS
 62
     7
 10
-896.1566154988
 20
257.4313649879
 30
0.0
 11
-894.1566263468
 21
257.4313649879
 31
0.0
  0
LINE
  5
2CD
  8
0
  6
CONTINUOUS
 62
     7
 10
-896.1566154988
 20
202.4313578353
 30
0.0
 11
-894.1566263468
 21
202.4313578353
 31
0.0
  0
LINE
  5
2CE
  8
0
  6
CONTINUOUS
 62
     7
 10
-898.434973243
 20
202.4313578353
 30
0.0
 11
-896.1566154988
 21
202.4313578353
 31
0.0
  0
LINE
  5
2CF
  8
0
  6
CONTINUOUS
 62
     7
 10
-898.434973243
 20
257.4313649879
 30
0.0
 11
-896.1566154988
 21
257.4313649879
 31
0.0
  0
LINE
  5
2D0
  8
0
  6
CONTINUOUS
 62
     7
 10
-900.3566269906
 20
202.4313578353
 30
0.0
 11
-898.434973243
 21
202.4313578353
 31
0.0
  0
LINE
  5
2D1
  8
0
  6
CONTINUOUS
 62
     7
 10
-900.3566269906
 20
257.4313649879
 30
0.0
 11
-898.434973243
 21
257.4313649879
 31
0.0
  0
LINE
  5
2D2
  8
0
  6
CONTINUOUS
 62
     7
 10
-896.1566154988
 20
737.6814255462
 30
0.0
 11
-896.1566154988
 21
682.681358789
 31
0.0
  0
LINE
  5
2D3
  8
0
  6
CONTINUOUS
 62
     7
 10
-896.1566154988
 20
737.6814255462
 30
0.0
 11
-894.1566263468
 21
737.6814255462
 31
0.0
  0
LINE
  5
2D4
  8
0
  6
CONTINUOUS
 62
     7
 10
-896.1566154988
 20
682.681358789
 30
0.0
 11
-894.1566263468
 21
682.681358789
 31
0.0
  0
LINE
  5
2D5
  8
0
  6
CONTINUOUS
 62
     7
 10
-898.434973243
 20
682.681358789
 30
0.0
 11
-896.1566154988
 21
682.681358789
 31
0.0
  0
LINE
  5
2D6
  8
0
  6
CONTINUOUS
 62
     7
 10
-898.434973243
 20
737.6814255462
 30
0.0
 11
-896.1566154988
 21
737.6814255462
 31
0.0
  0
LINE
  5
2D7
  8
0
  6
CONTINUOUS
 62
     7
 10
-900.3566269906
 20
682.681358789
 30
0.0
 11
-898.434973243
 21
682.681358789
 31
0.0
  0
LINE
  5
2D8
  8
0
  6
CONTINUOUS
 62
     7
 10
-900.3566269906
 20
737.6814255462
 30
0.0
 11
-898.434973243
 21
737.6814255462
 31
0.0
  0
LINE
  5
2D9
  8
0
  6
CONTINUOUS
 62
     7
 10
-896.1566154988
 20
-222.8186359658
 30
0.0
 11
-896.1566154988
 21
-277.8186282172
 31
0.0
  0
LINE
  5
2DA
  8
0
  6
CONTINUOUS
 62
     7
 10
-896.1566154988
 20
-222.8186359658
 30
0.0
 11
-894.1566263468
 21
-222.8186359658
 31
0.0
  0
LINE
  5
2DB
  8
0
  6
CONTINUOUS
 62
     7
 10
-896.1566154988
 20
-277.8186282172
 30
0.0
 11
-894.1566263468
 21
-277.8186282172
 31
0.0
  0
LINE
  5
2DC
  8
0
  6
CONTINUOUS
 62
     7
 10
-898.434973243
 20
-277.8186282172
 30
0.0
 11
-896.1566154988
 21
-277.8186282172
 31
0.0
  0
LINE
  5
2DD
  8
0
  6
CONTINUOUS
 62
     7
 10
-898.434973243
 20
-222.8186359658
 30
0.0
 11
-896.1566154988
 21
-222.8186359658
 31
0.0
  0
LINE
  5
2DE
  8
0
  6
CONTINUOUS
 62
     7
 10
-900.3566269906
 20
-277.8186282172
 30
0.0
 11
-898.434973243
 21
-277.8186282172
 31
0.0
  0
LINE
  5
2DF
  8
0
  6
CONTINUOUS
 62
     7
 10
-900.3566269906
 20
-222.8186359658
 30
0.0
 11
-898.434973243
 21
-222.8186359658
 31
0.0
  0
LINE
  5
2E0
  8
0
  6
CONTINUOUS
 62
     7
 10
-896.3766162427
 20
-267.8186303033
 30
0.0
 11
-896.3766162427
 21
-272.8186329855
 31
0.0
  0
LINE
  5
2E1
  8
0
  6
CONTINUOUS
 62
     7
 10
-896.7766230137
 20
-272.418633665
 30
0.0
 11
-896.7766230137
 21
-268.2186296238
 31
0.0
  0
LINE
  5
2E2
  8
0
  6
CONTINUOUS
 62
     7
 10
-896.7766230137
 20
-232.4186345591
 30
0.0
 11
-896.7766230137
 21
-228.2186379685
 31
0.0
  0
LINE
  5
2E3
  8
0
  6
CONTINUOUS
 62
     7
 10
-896.3766162427
 20
-227.8186311974
 30
0.0
 11
-896.3766162427
 21
-232.818626429
 31
0.0
  0
LINE
  5
2E4
  8
0
  6
CONTINUOUS
 62
     7
 10
-896.3766162427
 20
732.6813111053
 30
0.0
 11
-896.3766162427
 21
727.6813158737
 31
0.0
  0
LINE
  5
2E5
  8
0
  6
CONTINUOUS
 62
     7
 10
-896.7766230137
 20
728.0813822494
 30
0.0
 11
-896.7766230137
 21
732.2813639389
 31
0.0
  0
LINE
  5
2E6
  8
0
  6
CONTINUOUS
 62
     7
 10
-896.7766230137
 20
688.0814203964
 30
0.0
 11
-896.7766230137
 21
692.2814020858
 31
0.0
  0
LINE
  5
2E7
  8
0
  6
CONTINUOUS
 62
     7
 10
-896.3766162427
 20
692.6813492523
 30
0.0
 11
-896.3766162427
 21
687.6813540206
 31
0.0
  0
LINE
  5
2E8
  8
0
  6
CONTINUOUS
 62
     7
 10
-896.7766230137
 20
207.8313598381
 30
0.0
 11
-896.7766230137
 21
212.0313415275
 31
0.0
  0
LINE
  5
2E9
  8
0
  6
CONTINUOUS
 62
     7
 10
-896.3766162427
 20
212.4313482986
 30
0.0
 11
-896.3766162427
 21
207.431353067
 31
0.0
  0
LINE
  5
2EA
  8
0
  6
CONTINUOUS
 62
     7
 10
-896.7766230137
 20
247.8313812957
 30
0.0
 11
-896.7766230137
 21
252.0313629852
 31
0.0
  0
LINE
  5
2EB
  8
0
  6
CONTINUOUS
 62
     7
 10
-896.3766162427
 20
252.4313697563
 30
0.0
 11
-896.3766162427
 21
247.4313745246
 31
0.0
  0
LINE
  5
2EC
  8
0
  6
CONTINUOUS
 62
     7
 10
-890.6610672505
 20
-375.3186306945
 30
0.0
 11
-890.4949342044
 21
-376.0885629832
 31
0.0
  0
POLYLINE
  5
2ED
  8
0
  6
CONTINUOUS
 62
     7
 66
     1
 10
0.0
 20
0.0
 30
0.0
  0
VERTEX
  5
7D3
  8
0
  6
CONTINUOUS
 62
     7
 10
-892.572826627
 20
-375.0840915396
 30
0.0
  0
VERTEX
  5
7D4
  8
0
  6
CONTINUOUS
 62
     7
 10
-892.0487229855
 20
-375.1664730749
 30
0.0
  0
VERTEX
  5
7D5
  8
0
  6
CONTINUOUS
 62
     7
 10
-891.1566202672
 20
-375.294012812
 30
0.0
  0
SEQEND
  5
7D6
  8
0
  6
CONTINUOUS
 62
     7
  0
LINE
  5
2EE
  8
0
  6
CONTINUOUS
 62
     7
 10
-892.6566158564
 20
-375.0389333377
 30
0.0
 11
-892.008370641
 21
-375.0389333377
 31
0.0
  0
LINE
  5
2EF
  8
0
  6
CONTINUOUS
 62
     7
 10
-517.9566209347
 20
820.1814064727
 30
0.0
 11
-890.6610672505
 21
820.1814064727
 31
0.0
  0
LINE
  5
2F0
  8
0
  6
CONTINUOUS
 62
     7
 10
-518.411463979
 20
-375.3186306945
 30
0.0
 11
-517.9566209347
 21
-375.3186306945
 31
0.0
  0
ARC
  5
2F1
  8
0
  6
CONTINUOUS
 62
     7
 10
-890.6610679901
 20
-370.3186307206
 30
0.0
 40
4.999999999973056
 50
264.3120472984
 51
270.0
  0
LINE
  5
2F2
  8
0
  6
CONTINUOUS
 62
     7
 10
-890.6610672505
 20
820.1814064727
 30
0.0
 11
-891.1566202672
 21
819.9935326324
 31
0.0
  0
ARC
  5
2F3
  8
0
  6
CONTINUOUS
 62
     7
 10
-524.1492811362
 20
-375.0017232956
 30
0.0
 40
5.746562105194533
 50
324.7462548169
 51
356.8386885539
  0
LINE
  5
2F4
  8
0
  6
CONTINUOUS
 62
     7
 10
-519.456616524
 20
-378.3186307206
 30
0.0
 11
-888.9495198758
 21
-378.3186307206
 31
0.0
  0
POLYLINE
  5
2F5
  8
0
  6
CONTINUOUS
 62
     7
 66
     1
 10
0.0
 20
0.0
 30
0.0
  0
VERTEX
  5
7D7
  8
0
  6
CONTINUOUS
 62
     7
 10
-890.012538913
 20
-377.8658025054
 30
0.0
  0
VERTEX
  5
7D8
  8
0
  6
CONTINUOUS
 62
     7
 10
-889.4810293944
 20
-378.2032030736
 30
0.0
  0
VERTEX
  5
7D9
  8
0
  6
CONTINUOUS
 62
     7
 10
-888.9495198758
 20
-378.3186307206
 30
0.0
  0
SEQEND
  5
7DA
  8
0
  6
CONTINUOUS
 62
     7
  0
ARC
  5
2F6
  8
0
  6
CONTINUOUS
 62
     7
 10
-871.7698596709
 20
-371.8649387261
 30
0.0
 40
19.20431493253412
 50
190.3604039162
 51
198.2084347312
  0
ARC
  5
2F7
  8
0
  6
CONTINUOUS
 62
     7
 10
-518.050600964
 20
-319.5331480292
 30
0.0
 40
55.78556182782469
 50
270.0965242871
 51
273.1793774084
  0
POLYLINE
  5
2F8
  8
0
  6
CONTINUOUS
 62
     7
 66
     1
 10
0.0
 20
0.0
 30
0.0
  0
VERTEX
  5
7DB
  8
0
  6
CONTINUOUS
 62
     7
 10
-514.9566148551
 20
817.9742464767
 30
0.0
  0
VERTEX
  5
7DC
  8
0
  6
CONTINUOUS
 62
     7
 10
-515.1598964961
 20
818.6813959823
 30
0.0
  0
VERTEX
  5
7DD
  8
0
  6
CONTINUOUS
 62
     7
 10
-515.742189172
 20
819.3884262786
 30
0.0
  0
SEQEND
  5
7DE
  8
0
  6
CONTINUOUS
 62
     7
  0
LINE
  5
2F9
  8
0
  6
CONTINUOUS
 62
     7
 10
-514.9566148551
 20
817.9742464767
 30
0.0
 11
-514.9566148551
 21
-375.2328442438
 31
0.0
  0
ARC
  5
2FA
  8
0
  6
CONTINUOUS
 62
     7
 10
-523.6662298807
 20
800.7486358599
 30
0.0
 40
20.25418988770688
 50
66.9689631818
 51
73.626503688
  0
POLYLINE
  5
2FB
  8
0
  6
CONTINUOUS
 62
     7
 66
     1
 10
0.0
 20
0.0
 30
0.0
  0
VERTEX
  5
7DF
  8
0
  6
CONTINUOUS
 62
     7
 10
-892.699844125
 20
-375.0795979081
 30
0.0
  0
VERTEX
  5
7E0
  8
0
  6
CONTINUOUS
 62
     7
 10
-891.9572745593
 20
-375.1868054765
 30
0.0
  0
VERTEX
  5
7E1
  8
0
  6
CONTINUOUS
 62
     7
 10
-891.1566202672
 20
-375.294012812
 30
0.0
  0
SEQEND
  5
7E2
  8
0
  6
CONTINUOUS
 62
     7
  0
ARC
  5
2FC
  8
0
  6
CONTINUOUS
 62
     7
 10
-891.3457478284
 20
-372.5540891123
 30
0.0
 40
2.865618861323842
 50
191.2169800697
 51
241.8012270946
  0
LINE
  5
2FD
  8
0
  6
CONTINUOUS
 62
     7
 10
-894.1566263468
 20
-373.1115237838
 30
0.0
 11
-894.1566263468
 21
818.0486330734
 31
0.0
  0
POLYLINE
  5
2FE
  8
0
  6
CONTINUOUS
 62
     7
 66
     1
 10
0.0
 20
0.0
 30
0.0
  0
VERTEX
  5
7E3
  8
0
  6
CONTINUOUS
 62
     7
 10
-893.4949998887
 20
819.3463453994
 30
0.0
  0
VERTEX
  5
7E4
  8
0
  6
CONTINUOUS
 62
     7
 10
-893.9863805802
 20
818.6974892364
 30
0.0
  0
VERTEX
  5
7E5
  8
0
  6
CONTINUOUS
 62
     7
 10
-894.1566263468
 20
818.0486330734
 30
0.0
  0
SEQEND
  5
7E6
  8
0
  6
CONTINUOUS
 62
     7
  0
ARC
  5
2FF
  8
0
  6
CONTINUOUS
 62
     7
 10
-886.4710293109
 20
798.5157824805
 30
0.0
 40
21.98291414251355
 50
102.3068352161
 51
108.6338710949
  0
LINE
  5
300
  8
0
  6
CONTINUOUS
 62
     7
 10
-900.3566269906
 20
-338.16130888
 30
0.0
 11
-895.8653872044
 21
-337.5239042594
 31
0.0
  0
LINE
  5
301
  8
0
  6
CONTINUOUS
 62
     7
 10
-895.8653872044
 20
797.1846232162
 30
0.0
 11
-900.3566269906
 21
797.8220352874
 31
0.0
  0
ARC
  5
302
  8
0
  6
CONTINUOUS
 62
     7
 10
-896.0502351013
 20
792.7610702636
 30
0.0
 40
4.427413406207074
 50
64.6782574746
 51
87.6071618579
  0
ARC
  5
303
  8
0
  6
CONTINUOUS
 62
     7
 10
-904.6121749063
 20
684.638953131
 30
0.0
 40
112.8671992482322
 50
84.6847363233
 51
85.4489836573
  0
ARC
  5
304
  8
0
  6
CONTINUOUS
 62
     7
 10
-904.3032990491
 20
-228.5316731489
 30
0.0
 40
109.3003919362698
 50
274.5374169326
 51
275.3266030479
  0
ARC
  5
305
  8
0
  6
CONTINUOUS
 62
     7
 10
-896.0502835207
 20
-333.1011097851
 30
0.0
 40
4.426657611478464
 50
272.3938741829
 51
295.3270646829
  0
LINE
  5
306
  8
0
  6
CONTINUOUS
 62
     7
 10
-517.9566209347
 20
821.6814169632
 30
0.0
 11
-517.9566209347
 21
820.1814064727
 31
0.0
  0
LINE
  5
307
  8
0
  6
CONTINUOUS
 62
     7
 10
-515.1598964961
 20
818.6813959823
 30
0.0
 11
-514.9566148551
 21
818.6813959823
 31
0.0
  0
POLYLINE
  5
308
  8
0
  6
CONTINUOUS
 62
     7
 66
     1
 10
0.0
 20
0.0
 30
0.0
  0
VERTEX
  5
7E7
  8
0
  6
CONTINUOUS
 62
     7
 10
-517.1812241109
 20
819.9304709182
 30
0.0
  0
VERTEX
  5
7E8
  8
0
  6
CONTINUOUS
 62
     7
 10
-517.4583708079
 20
820.0961718307
 30
0.0
  0
VERTEX
  5
7E9
  8
0
  6
CONTINUOUS
 62
     7
 10
-517.9566209347
 20
820.1814064727
 30
0.0
  0
SEQEND
  5
7EA
  8
0
  6
CONTINUOUS
 62
     7
  0
ARC
  5
309
  8
0
  6
CONTINUOUS
 62
     7
 10
-517.9567879604
 20
818.6812438586
 30
0.0
 40
3.000173109180071
 50
0.0029051809
 51
89.9968102291
  0
LINE
  5
30A
  8
0
  6
CONTINUOUS
 62
     7
 10
-891.1566202672
 20
820.1814064727
 30
0.0
 11
-891.1566202672
 21
821.6814169632
 31
0.0
  0
LINE
  5
30B
  8
0
  6
CONTINUOUS
 62
     7
 10
-891.1566202672
 20
821.6814169632
 30
0.0
 11
-890.6610672505
 21
821.6814169632
 31
0.0
  0
LINE
  5
30C
  8
0
  6
CONTINUOUS
 62
     7
 10
-890.6610672505
 20
821.6814169632
 30
0.0
 11
-517.9566209347
 21
821.6814169632
 31
0.0
  0
LINE
  5
30D
  8
0
  6
CONTINUOUS
 62
     7
 10
-893.3949236901
 20
819.2755350814
 30
0.0
 11
-894.0561925204
 21
819.4511303649
 31
0.0
  0
ARC
  5
30E
  8
0
  6
CONTINUOUS
 62
     7
 10
-891.1565154199
 20
818.6812855905
 30
0.0
 40
3.000131374460481
 50
90.0020023482
 51
165.1313680159
  0
ARC
  5
30F
  8
0
  6
CONTINUOUS
 62
     7
 10
-891.1912579693
 20
818.8053142559
 30
0.0
 40
1.376528081646246
 50
88.5581088647
 51
137.6589385097
  0
LINE
  5
310
  8
0
  6
CONTINUOUS
 62
     7
 10
-894.1566263468
 20
818.6813959823
 30
0.0
 11
-894.0561925204
 21
819.4511303649
 31
0.0
  0
LINE
  5
311
  8
0
  6
CONTINUOUS
 62
     7
 10
-894.1566263468
 20
818.6813959823
 30
0.0
 11
-894.1566263468
 21
818.0486330734
 31
0.0
  0
LINE
  5
312
  8
0
  6
CONTINUOUS
 62
     7
 10
-514.9566148551
 20
817.9742464767
 30
0.0
 11
-514.9566148551
 21
818.6813959823
 31
0.0
  0
LINE
  5
313
  8
0
  6
CONTINUOUS
 62
     7
 10
-900.3566269906
 20
798.3124623046
 30
0.0
 11
-896.0741375716
 21
797.7105746017
 31
0.0
  0
LINE
  5
314
  8
0
  6
CONTINUOUS
 62
     7
 10
-900.3566269906
 20
799.8271355377
 30
0.0
 11
-895.8653872044
 21
799.1959223495
 31
0.0
  0
LINE
  5
315
  8
0
  6
CONTINUOUS
 62
     7
 10
-895.8653872044
 20
799.1959223495
 30
0.0
 11
-896.0741375716
 21
797.7105746017
 31
0.0
  0
POLYLINE
  5
316
  8
0
  6
CONTINUOUS
 62
     7
 66
     1
 10
0.0
 20
0.0
 30
0.0
  0
VERTEX
  5
7EB
  8
0
  6
CONTINUOUS
 62
     7
 10
-894.6754102738
 20
799.5467552887
 30
0.0
  0
VERTEX
  5
7EC
  8
0
  6
CONTINUOUS
 62
     7
 10
-894.2924653323
 20
800.0575670944
 30
0.0
  0
VERTEX
  5
7ED
  8
0
  6
CONTINUOUS
 62
     7
 10
-894.1566263468
 20
800.6813893066
 30
0.0
  0
SEQEND
  5
7EE
  8
0
  6
CONTINUOUS
 62
     7
  0
LINE
  5
317
  8
0
  6
CONTINUOUS
 62
     7
 10
-894.1566263468
 20
798.9470133529
 30
0.0
 11
-894.6754102738
 21
799.5467552887
 31
0.0
  0
ARC
  5
318
  8
0
  6
CONTINUOUS
 62
     7
 10
-895.6569203006
 20
800.6823666332
 30
0.0
 40
1.500991358549589
 50
262.0166025915
 51
310.8368888755
  0
ARC
  5
319
  8
0
  6
CONTINUOUS
 62
     7
 10
-895.6142317146
 20
800.4124740483
 30
0.0
 40
2.740761576092628
 50
260.3399404279
 51
302.1288419657
  0
LINE
  5
31A
  8
0
  6
CONTINUOUS
 62
     7
 10
-284.5949612952
 20
1414.7815989556
 30
0.0
 11
-284.5949612952
 21
1414.7353308501
 31
0.0
  0
LINE
  5
31B
  8
0
  6
CONTINUOUS
 62
     7
 10
870.441845765
 20
1414.7353308501
 30
0.0
 11
870.441845765
 21
1414.7815989556
 31
0.0
  0
LINE
  5
31C
  8
0
  6
CONTINUOUS
 62
     7
 10
297.7735611216
 20
1432.327030808
 30
0.0
 11
295.2110794444
 21
1432.327030808
 31
0.0
  0
LINE
  5
31D
  8
0
  6
CONTINUOUS
 62
     7
 10
293.5927957019
 20
1432.327030808
 30
0.0
 11
287.2550433108
 21
1432.327030808
 31
0.0
  0
ARC
  5
31E
  8
0
  6
CONTINUOUS
 62
     7
 10
349.4734420152
 20
1345.5270308358
 30
0.0
 40
100.0000000000041
 50
81.1241878669
 51
98.8758121331
  0
ARC
  5
31F
  8
0
  6
CONTINUOUS
 62
     7
 10
334.1675468713
 20
1443.5391197522
 30
0.0
 40
0.800000000242391
 50
98.8758094368
 51
168.2772923332
  0
ARC
  5
320
  8
0
  6
CONTINUOUS
 62
     7
 10
364.7793371592
 20
1443.5391197522
 30
0.0
 40
0.8000000002461273
 50
11.7227076668
 51
81.1241905629
  0
ARC
  5
321
  8
0
  6
CONTINUOUS
 62
     7
 10
387.2370663499
 20
1432.5270308352
 30
0.0
 40
55.00000000001661
 50
168.2773094144
 51
177.9136198395
  0
ARC
  5
322
  8
0
  6
CONTINUOUS
 62
     7
 10
311.7098176806
 20
1432.5270308352
 30
0.0
 40
55.00000000002018
 50
2.0863170139
 51
11.7226905855
  0
LINE
  5
323
  8
0
  6
CONTINUOUS
 62
     7
 10
350.1362308466
 20
1445.9413277211
 30
0.0
 11
349.4734420978
 21
1445.9484653773
 31
0.0
  0
ARC
  5
324
  8
0
  6
CONTINUOUS
 62
     7
 10
350.540723588
 20
1401.5255966421
 30
0.0
 40
44.41757289251532
 50
76.5535000818
 51
90.5217765347
  0
ARC
  5
325
  8
0
  6
CONTINUOUS
 62
     7
 10
348.2455999704
 20
1402.9069802671
 30
0.0
 40
43.03803686839615
 50
89.2482585316
 51
103.3699181788
  0
LINE
  5
326
  8
0
  6
CONTINUOUS
 62
     7
 10
349.4734420978
 20
1445.9484653773
 30
0.0
 11
348.8102584683
 21
1445.9413128199
 31
0.0
  0
LINE
  5
327
  8
0
  6
CONTINUOUS
 62
     7
 10
881.6734470033
 20
1415.3270261588
 30
0.0
 11
881.6734470033
 21
1415.5470269027
 31
0.0
  0
LINE
  5
328
  8
0
  6
CONTINUOUS
 62
     7
 10
876.6734517717
 20
1415.5470269027
 30
0.0
 11
876.6734517717
 21
1415.3270261588
 31
0.0
  0
LINE
  5
329
  8
0
  6
CONTINUOUS
 62
     7
 10
881.6734470033
 20
1415.5470269027
 30
0.0
 11
881.2734402322
 21
1415.9470336738
 31
0.0
  0
LINE
  5
32A
  8
0
  6
CONTINUOUS
 62
     7
 10
877.0734585428
 20
1415.9470336738
 30
0.0
 11
876.6734517717
 21
1415.5470269027
 31
0.0
  0
LINE
  5
32B
  8
0
  6
CONTINUOUS
 62
     7
 10
-290.8265673018
 20
1415.3270261588
 30
0.0
 11
-290.8265673018
 21
1415.5470269027
 31
0.0
  0
LINE
  5
32C
  8
0
  6
CONTINUOUS
 62
     7
 10
-295.8265625334
 20
1415.5470269027
 30
0.0
 11
-295.8265625334
 21
1415.3270261588
 31
0.0
  0
LINE
  5
32D
  8
0
  6
CONTINUOUS
 62
     7
 10
-290.8265673018
 20
1415.5470269027
 30
0.0
 11
-291.2265740729
 21
1415.9470336738
 31
0.0
  0
LINE
  5
32E
  8
0
  6
CONTINUOUS
 62
     7
 10
-295.4265557624
 20
1415.9470336738
 30
0.0
 11
-295.8265625334
 21
1415.5470269027
 31
0.0
  0
LINE
  5
32F
  8
0
  6
CONTINUOUS
 62
     7
 10
881.6305316591
 20
1399.8270320001
 30
0.0
 11
880.9234417581
 21
1399.8270320001
 31
0.0
  0
LINE
  5
330
  8
0
  6
CONTINUOUS
 62
     7
 10
-295.0765572882
 20
1399.8270320001
 30
0.0
 11
-295.6603847838
 21
1399.8270320001
 31
0.0
  0
LINE
  5
331
  8
0
  6
CONTINUOUS
 62
     7
 10
846.9234622621
 20
1049.3246900143
 30
0.0
 11
846.9234622621
 21
1051.7270254197
 31
0.0
  0
LINE
  5
332
  8
0
  6
CONTINUOUS
 62
     7
 10
838.9234460496
 20
1051.7270254197
 30
0.0
 11
838.9234460496
 21
1049.3246900143
 31
0.0
  0
LINE
  5
333
  8
0
  6
CONTINUOUS
 62
     7
 10
-253.0765615798
 20
1049.3246900143
 30
0.0
 11
-253.0765615798
 21
1051.7270254197
 31
0.0
  0
LINE
  5
334
  8
0
  6
CONTINUOUS
 62
     7
 10
-261.0765777922
 20
1051.7270254197
 30
0.0
 11
-261.0765777922
 21
1049.3246900143
 31
0.0
  0
LINE
  5
335
  8
0
  6
CONTINUOUS
 62
     7
 10
890.4734171533
 20
1419.5270376506
 30
0.0
 11
890.4734171533
 21
1430.0270365777
 31
0.0
  0
LINE
  5
336
  8
0
  6
CONTINUOUS
 62
     7
 10
294.9734420122
 20
1419.5270376506
 30
0.0
 11
890.4734171533
 21
1419.5270376506
 31
0.0
  0
LINE
  5
337
  8
0
  6
CONTINUOUS
 62
     7
 10
294.9734420122
 20
1430.0270365777
 30
0.0
 11
294.9734420122
 21
1419.5270376506
 31
0.0
  0
ARC
  5
338
  8
0
  6
CONTINUOUS
 62
     7
 10
294.9734420152
 20
1433.0270308353
 30
0.0
 40
3.000000000000227
 50
270.0
 51
330.0
  0
ARC
  5
339
  8
0
  6
CONTINUOUS
 62
     7
 10
890.4734420152
 20
1433.0270308353
 30
0.0
 40
3.000000000000227
 50
210.0
 51
270.0
  0
LINE
  5
33A
  8
0
  6
CONTINUOUS
 62
     7
 10
887.8753698968
 20
1434.5270382466
 30
0.0
 11
297.5715181396
 21
1434.5270382466
 31
0.0
  0
POLYLINE
  5
33B
  8
0
  6
CONTINUOUS
 62
     7
 66
     1
 10
0.0
 20
0.0
 30
0.0
  0
VERTEX
  5
7EF
  8
0
  6
CONTINUOUS
 62
     7
 10
887.8753698968
 20
1431.5270321669
 30
0.0
  0
VERTEX
  5
7F0
  8
0
  6
CONTINUOUS
 62
     7
 10
887.6939333581
 20
1432.2091775241
 30
0.0
  0
VERTEX
  5
7F1
  8
0
  6
CONTINUOUS
 62
     7
 10
887.5646508836
 20
1432.7959405484
 30
0.0
  0
VERTEX
  5
7F2
  8
0
  6
CONTINUOUS
 62
     7
 10
887.462726941
 20
1433.647944242
 30
0.0
  0
VERTEX
  5
7F3
  8
0
  6
CONTINUOUS
 62
     7
 10
887.5670350694
 20
1434.2365997138
 30
0.0
  0
VERTEX
  5
7F4
  8
0
  6
CONTINUOUS
 62
     7
 10
887.6957214975
 20
1434.444888145
 30
0.0
  0
VERTEX
  5
7F5
  8
0
  6
CONTINUOUS
 62
     7
 10
887.8753698968
 20
1434.5270382466
 30
0.0
  0
SEQEND
  5
7F6
  8
0
  6
CONTINUOUS
 62
     7
  0
POLYLINE
  5
33C
  8
0
  6
CONTINUOUS
 62
     7
 66
     1
 10
0.0
 20
0.0
 30
0.0
  0
VERTEX
  5
7F7
  8
0
  6
CONTINUOUS
 62
     7
 10
297.5715181396
 20
1434.5270382466
 30
0.0
  0
VERTEX
  5
7F8
  8
0
  6
CONTINUOUS
 62
     7
 10
297.7529691138
 20
1434.4484495225
 30
0.0
  0
VERTEX
  5
7F9
  8
0
  6
CONTINUOUS
 62
     7
 10
297.882225977
 20
1434.2454659047
 30
0.0
  0
VERTEX
  5
7FA
  8
0
  6
CONTINUOUS
 62
     7
 10
297.9841559731
 20
1433.6487489047
 30
0.0
  0
VERTEX
  5
7FB
  8
0
  6
CONTINUOUS
 62
     7
 10
297.8798208364
 20
1432.8147756162
 30
0.0
  0
VERTEX
  5
7FC
  8
0
  6
CONTINUOUS
 62
     7
 10
297.7511656077
 20
1432.2242276969
 30
0.0
  0
VERTEX
  5
7FD
  8
0
  6
CONTINUOUS
 62
     7
 10
297.5715181396
 20
1431.5270321669
 30
0.0
  0
SEQEND
  5
7FE
  8
0
  6
CONTINUOUS
 62
     7
  0
LINE
  5
33D
  8
0
  6
CONTINUOUS
 62
     7
 10
297.5715181396
 20
1434.5270382466
 30
0.0
 11
297.5715181396
 21
1433.0270277562
 31
0.0
  0
LINE
  5
33E
  8
0
  6
CONTINUOUS
 62
     7
 10
887.8753698968
 20
1433.0270277562
 30
0.0
 11
887.8753698968
 21
1434.5270382466
 31
0.0
  0
LINE
  5
33F
  8
0
  6
CONTINUOUS
 62
     7
 10
294.9734420122
 20
1430.0270365777
 30
0.0
 11
293.4734419991
 21
1430.0270365777
 31
0.0
  0
LINE
  5
340
  8
0
  6
CONTINUOUS
 62
     7
 10
294.9734420122
 20
1431.5270321669
 30
0.0
 11
293.4734419991
 21
1431.5270321669
 31
0.0
  0
LINE
  5
341
  8
0
  6
CONTINUOUS
 62
     7
 10
294.9734420122
 20
1430.0270365777
 30
0.0
 11
294.9734420122
 21
1431.5270321669
 31
0.0
  0
LINE
  5
342
  8
0
  6
CONTINUOUS
 62
     7
 10
293.4734419991
 20
1431.5270321669
 30
0.0
 11
293.4734419991
 21
1430.0270365777
 31
0.0
  0
LINE
  5
343
  8
0
  6
CONTINUOUS
 62
     7
 10
891.9734276437
 20
1430.0270365777
 30
0.0
 11
890.4734171533
 21
1430.0270365777
 31
0.0
  0
LINE
  5
344
  8
0
  6
CONTINUOUS
 62
     7
 10
891.9734276437
 20
1431.5270321669
 30
0.0
 11
890.4734171533
 21
1431.5270321669
 31
0.0
  0
LINE
  5
345
  8
0
  6
CONTINUOUS
 62
     7
 10
891.9734276437
 20
1430.0270365777
 30
0.0
 11
891.9734276437
 21
1431.5270321669
 31
0.0
  0
LINE
  5
346
  8
0
  6
CONTINUOUS
 62
     7
 10
890.4734171533
 20
1430.0270365777
 30
0.0
 11
890.4734171533
 21
1431.5270321669
 31
0.0
  0
LINE
  5
347
  8
0
  6
CONTINUOUS
 62
     7
 10
293.4734419991
 20
1419.5270376506
 30
0.0
 11
294.9734420122
 21
1419.5270376506
 31
0.0
  0
LINE
  5
348
  8
0
  6
CONTINUOUS
 62
     7
 10
293.4734419991
 20
1419.5270376506
 30
0.0
 11
293.4734419991
 21
1430.0270365777
 31
0.0
  0
LINE
  5
349
  8
0
  6
CONTINUOUS
 62
     7
 10
891.9734276437
 20
1419.5270376506
 30
0.0
 11
890.4734171533
 21
1419.5270376506
 31
0.0
  0
LINE
  5
34A
  8
0
  6
CONTINUOUS
 62
     7
 10
891.9734276437
 20
1430.0270365777
 30
0.0
 11
891.9734276437
 21
1419.5270376506
 31
0.0
  0
LINE
  5
34B
  8
0
  6
CONTINUOUS
 62
     7
 10
297.5715181396
 20
1434.5270382466
 30
0.0
 11
296.4734420252
 21
1434.5270382466
 31
0.0
  0
LINE
  5
34C
  8
0
  6
CONTINUOUS
 62
     7
 10
296.4734420252
 20
1433.0270277562
 30
0.0
 11
297.5715181396
 21
1433.0270277562
 31
0.0
  0
LINE
  5
34D
  8
0
  6
CONTINUOUS
 62
     7
 10
296.4734420252
 20
1433.0270277562
 30
0.0
 11
296.4734420252
 21
1434.5270382466
 31
0.0
  0
LINE
  5
34E
  8
0
  6
CONTINUOUS
 62
     7
 10
888.9734662675
 20
1434.5270382466
 30
0.0
 11
888.9734662675
 21
1433.0270277562
 31
0.0
  0
LINE
  5
34F
  8
0
  6
CONTINUOUS
 62
     7
 10
888.9734662675
 20
1434.5270382466
 30
0.0
 11
887.8753698968
 21
1434.5270382466
 31
0.0
  0
LINE
  5
350
  8
0
  6
CONTINUOUS
 62
     7
 10
888.9734662675
 20
1433.0270277562
 30
0.0
 11
887.8753698968
 21
1433.0270277562
 31
0.0
  0
ARC
  5
351
  8
0
  6
CONTINUOUS
 62
     7
 10
296.4734686276
 20
1431.5270116182
 30
0.0
 40
3.000026628582813
 50
90.0005080646
 51
179.9996075505
  0
ARC
  5
352
  8
0
  6
CONTINUOUS
 62
     7
 10
296.4734361953
 20
1431.527033573
 30
0.0
 40
1.499994183184487
 50
89.9997773151
 51
180.0000537086
  0
ARC
  5
353
  8
0
  6
CONTINUOUS
 62
     7
 10
888.973435614
 20
1431.527046217
 30
0.0
 40
2.999992029777733
 50
359.999731663
 51
89.9994145587
  0
ARC
  5
354
  8
0
  6
CONTINUOUS
 62
     7
 10
888.9734563323
 20
1431.5270669348
 30
0.0
 40
1.499960821404718
 50
359.99867193
 51
89.9996204923
  0
LINE
  5
355
  8
0
  6
CONTINUOUS
 62
     7
 10
285.8734425695
 20
1419.5270376506
 30
0.0
 11
285.8734425695
 21
1430.0270365777
 31
0.0
  0
LINE
  5
356
  8
0
  6
CONTINUOUS
 62
     7
 10
-304.6265326834
 20
1419.5270376506
 30
0.0
 11
285.8734425695
 21
1419.5270376506
 31
0.0
  0
LINE
  5
357
  8
0
  6
CONTINUOUS
 62
     7
 10
-304.6265326834
 20
1430.0270365777
 30
0.0
 11
-304.6265326834
 21
1419.5270376506
 31
0.0
  0
ARC
  5
358
  8
0
  6
CONTINUOUS
 62
     7
 10
-304.6265575457
 20
1433.0270308353
 30
0.0
 40
3.000000000000133
 50
270.0
 51
330.0
  0
ARC
  5
359
  8
0
  6
CONTINUOUS
 62
     7
 10
285.8734424543
 20
1433.0270308353
 30
0.0
 40
2.99999999999964
 50
210.0
 51
270.0
  0
POLYLINE
  5
35A
  8
0
  6
CONTINUOUS
 62
     7
 66
     1
 10
0.0
 20
0.0
 30
0.0
  0
VERTEX
  5
7FF
  8
0
  6
CONTINUOUS
 62
     7
 10
-302.028485427
 20
1434.5270382466
 30
0.0
  0
VERTEX
  5
800
  8
0
  6
CONTINUOUS
 62
     7
 10
-301.8470488883
 20
1434.4484495225
 30
0.0
  0
VERTEX
  5
801
  8
0
  6
CONTINUOUS
 62
     7
 10
-301.7177664138
 20
1434.2454659047
 30
0.0
  0
VERTEX
  5
802
  8
0
  6
CONTINUOUS
 62
     7
 10
-301.6158424712
 20
1433.6487489047
 30
0.0
  0
VERTEX
  5
803
  8
0
  6
CONTINUOUS
 62
     7
 10
-301.7201505995
 20
1432.8147756162
 30
0.0
  0
VERTEX
  5
804
  8
0
  6
CONTINUOUS
 62
     7
 10
-301.8488370276
 20
1432.2242276969
 30
0.0
  0
VERTEX
  5
805
  8
0
  6
CONTINUOUS
 62
     7
 10
-302.028485427
 20
1431.5270321669
 30
0.0
  0
SEQEND
  5
806
  8
0
  6
CONTINUOUS
 62
     7
  0
LINE
  5
35B
  8
0
  6
CONTINUOUS
 62
     7
 10
-302.028485427
 20
1434.5270382466
 30
0.0
 11
-302.028485427
 21
1433.0270277562
 31
0.0
  0
LINE
  5
35C
  8
0
  6
CONTINUOUS
 62
     7
 10
283.2753659763
 20
1434.5270382466
 30
0.0
 11
-302.028485427
 21
1434.5270382466
 31
0.0
  0
POLYLINE
  5
35D
  8
0
  6
CONTINUOUS
 62
     7
 66
     1
 10
0.0
 20
0.0
 30
0.0
  0
VERTEX
  5
807
  8
0
  6
CONTINUOUS
 62
     7
 10
283.2753659763
 20
1431.5270321669
 30
0.0
  0
VERTEX
  5
808
  8
0
  6
CONTINUOUS
 62
     7
 10
283.0939154678
 20
1432.2091775241
 30
0.0
  0
VERTEX
  5
809
  8
0
  6
CONTINUOUS
 62
     7
 10
282.964658139
 20
1432.7959405484
 30
0.0
  0
VERTEX
  5
80A
  8
0
  6
CONTINUOUS
 62
     7
 10
282.8627286085
 20
1433.647944242
 30
0.0
  0
VERTEX
  5
80B
  8
0
  6
CONTINUOUS
 62
     7
 10
282.9670637452
 20
1434.2365997138
 30
0.0
  0
VERTEX
  5
80C
  8
0
  6
CONTINUOUS
 62
     7
 10
283.0957194396
 20
1434.444888145
 30
0.0
  0
VERTEX
  5
80D
  8
0
  6
CONTINUOUS
 62
     7
 10
283.2753659763
 20
1434.5270382466
 30
0.0
  0
SEQEND
  5
80E
  8
0
  6
CONTINUOUS
 62
     7
  0
LINE
  5
35E
  8
0
  6
CONTINUOUS
 62
     7
 10
283.2753659763
 20
1433.0270277562
 30
0.0
 11
283.2753659763
 21
1434.5270382466
 31
0.0
  0
LINE
  5
35F
  8
0
  6
CONTINUOUS
 62
     7
 10
287.3734423497
 20
1430.0270365777
 30
0.0
 11
285.8734425695
 21
1430.0270365777
 31
0.0
  0
LINE
  5
360
  8
0
  6
CONTINUOUS
 62
     7
 10
287.3734423497
 20
1431.5270321669
 30
0.0
 11
285.8734425695
 21
1431.5270321669
 31
0.0
  0
LINE
  5
361
  8
0
  6
CONTINUOUS
 62
     7
 10
285.8734425695
 20
1431.5270321669
 30
0.0
 11
285.8734425695
 21
1430.0270365777
 31
0.0
  0
LINE
  5
362
  8
0
  6
CONTINUOUS
 62
     7
 10
287.3734423497
 20
1430.0270365777
 30
0.0
 11
287.3734423497
 21
1431.5270321669
 31
0.0
  0
LINE
  5
363
  8
0
  6
CONTINUOUS
 62
     7
 10
-304.6265326834
 20
1430.0270365777
 30
0.0
 11
-306.1265431739
 21
1430.0270365777
 31
0.0
  0
LINE
  5
364
  8
0
  6
CONTINUOUS
 62
     7
 10
-304.6265326834
 20
1431.5270321669
 30
0.0
 11
-306.1265431739
 21
1431.5270321669
 31
0.0
  0
LINE
  5
365
  8
0
  6
CONTINUOUS
 62
     7
 10
-306.1265431739
 20
1431.5270321669
 30
0.0
 11
-306.1265431739
 21
1430.0270365777
 31
0.0
  0
LINE
  5
366
  8
0
  6
CONTINUOUS
 62
     7
 10
-304.6265326834
 20
1430.0270365777
 30
0.0
 11
-304.6265326834
 21
1431.5270321669
 31
0.0
  0
LINE
  5
367
  8
0
  6
CONTINUOUS
 62
     7
 10
-306.1265431739
 20
1419.5270376506
 30
0.0
 11
-304.6265326834
 21
1419.5270376506
 31
0.0
  0
LINE
  5
368
  8
0
  6
CONTINUOUS
 62
     7
 10
-306.1265431739
 20
1419.5270376506
 30
0.0
 11
-306.1265431739
 21
1430.0270365777
 31
0.0
  0
LINE
  5
369
  8
0
  6
CONTINUOUS
 62
     7
 10
287.3734423497
 20
1419.5270376506
 30
0.0
 11
285.8734425695
 21
1419.5270376506
 31
0.0
  0
LINE
  5
36A
  8
0
  6
CONTINUOUS
 62
     7
 10
287.3734423497
 20
1430.0270365777
 30
0.0
 11
287.3734423497
 21
1419.5270376506
 31
0.0
  0
LINE
  5
36B
  8
0
  6
CONTINUOUS
 62
     7
 10
-302.028485427
 20
1434.5270382466
 30
0.0
 11
-303.1265817977
 21
1434.5270382466
 31
0.0
  0
LINE
  5
36C
  8
0
  6
CONTINUOUS
 62
     7
 10
-303.1265817977
 20
1433.0270277562
 30
0.0
 11
-302.028485427
 21
1433.0270277562
 31
0.0
  0
LINE
  5
36D
  8
0
  6
CONTINUOUS
 62
     7
 10
-303.1265817977
 20
1433.0270277562
 30
0.0
 11
-303.1265817977
 21
1434.5270382466
 31
0.0
  0
LINE
  5
36E
  8
0
  6
CONTINUOUS
 62
     7
 10
284.3734427893
 20
1434.5270382466
 30
0.0
 11
284.3734427893
 21
1433.0270277562
 31
0.0
  0
LINE
  5
36F
  8
0
  6
CONTINUOUS
 62
     7
 10
284.3734427893
 20
1434.5270382466
 30
0.0
 11
283.2753659763
 21
1434.5270382466
 31
0.0
  0
LINE
  5
370
  8
0
  6
CONTINUOUS
 62
     7
 10
283.2753659763
 20
1433.0270277562
 30
0.0
 11
284.3734427893
 21
1433.0270277562
 31
0.0
  0
ARC
  5
371
  8
0
  6
CONTINUOUS
 62
     7
 10
284.3734187466
 20
1431.5270146436
 30
0.0
 40
3.000023603118214
 50
0.0003346687
 51
89.9995408228
  0
ARC
  5
372
  8
0
  6
CONTINUOUS
 62
     7
 10
284.3734517688
 20
1431.5270369555
 30
0.0
 40
1.499990800680782
 50
359.9998170877
 51
90.0003429951
  0
ARC
  5
373
  8
0
  6
CONTINUOUS
 62
     7
 10
-303.126569989
 20
1431.5270650616
 30
0.0
 40
2.999973185021466
 50
90.0002255306
 51
180.0006282476
  0
ARC
  5
374
  8
0
  6
CONTINUOUS
 62
     7
 10
-303.1265669112
 20
1431.5270619837
 30
0.0
 40
1.499965772531115
 50
90.0005686339
 51
180.0011389438
  0
LINE
  5
375
  8
0
  6
CONTINUOUS
 62
     7
 10
-252.3265563346
 20
1050.0650095048
 30
0.0
 11
-252.3265563346
 21
1051.7270254197
 31
0.0
  0
LINE
  5
376
  8
0
  6
CONTINUOUS
 62
     7
 10
-252.3265563346
 20
1051.7270254197
 30
0.0
 11
-251.3057075835
 21
1051.7270254197
 31
0.0
  0
LINE
  5
377
  8
0
  6
CONTINUOUS
 62
     7
 10
838.1734408044
 20
1050.0650095048
 30
0.0
 11
838.1734408044
 21
1051.7270254197
 31
0.0
  0
LINE
  5
378
  8
0
  6
CONTINUOUS
 62
     7
 10
837.1525920533
 20
1051.7270254197
 30
0.0
 11
838.1734408044
 21
1051.7270254197
 31
0.0
  0
LINE
  5
379
  8
0
  6
CONTINUOUS
 62
     7
 10
-261.8265830374
 20
1050.0650095048
 30
0.0
 11
-261.8265830374
 21
1051.7270254197
 31
0.0
  0
LINE
  5
37A
  8
0
  6
CONTINUOUS
 62
     7
 10
-261.9969927169
 20
1051.7270254197
 30
0.0
 11
-262.8473721839
 21
1051.7270254197
 31
0.0
  0
LINE
  5
37B
  8
0
  6
CONTINUOUS
 62
     7
 10
847.6734675073
 20
1050.0650095048
 30
0.0
 11
847.6734675073
 21
1051.7270254197
 31
0.0
  0
LINE
  5
37C
  8
0
  6
CONTINUOUS
 62
     7
 10
847.8438771867
 20
1051.7270254197
 30
0.0
 11
848.6942566537
 21
1051.7270254197
 31
0.0
  0
LINE
  5
37D
  8
0
  6
CONTINUOUS
 62
     7
 10
890.7163060808
 20
1037.1270315947
 30
0.0
 11
890.8544100427
 21
1036.9103389087
 31
0.0
  0
POLYLINE
  5
37E
  8
0
  6
CONTINUOUS
 62
     7
 66
     1
 10
0.0
 20
0.0
 30
0.0
  0
VERTEX
  5
80F
  8
0
  6
CONTINUOUS
 62
     7
 10
890.8544100427
 20
1036.9103389087
 30
0.0
  0
VERTEX
  5
810
  8
0
  6
CONTINUOUS
 62
     7
 10
890.4966629648
 20
1035.8304666581
 30
0.0
  0
VERTEX
  5
811
  8
0
  6
CONTINUOUS
 62
     7
 10
890.1389158868
 20
1034.930436522
 30
0.0
  0
VERTEX
  5
812
  8
0
  6
CONTINUOUS
 62
     7
 10
889.7811688089
 20
1034.3350904288
 30
0.0
  0
VERTEX
  5
813
  8
0
  6
CONTINUOUS
 62
     7
 10
889.4234217309
 20
1034.1270255151
 30
0.0
  0
SEQEND
  5
814
  8
0
  6
CONTINUOUS
 62
     7
  0
LINE
  5
37F
  8
0
  6
CONTINUOUS
 62
     7
 10
889.4234217309
 20
1034.1270255151
 30
0.0
 11
-303.5765372611
 21
1034.1270255151
 31
0.0
  0
POLYLINE
  5
380
  8
0
  6
CONTINUOUS
 62
     7
 66
     1
 10
0.0
 20
0.0
 30
0.0
  0
VERTEX
  5
815
  8
0
  6
CONTINUOUS
 62
     7
 10
-303.5765372611
 20
1034.1270255151
 30
0.0
  0
VERTEX
  5
816
  8
0
  6
CONTINUOUS
 62
     7
 10
-303.934284339
 20
1034.3350904288
 30
0.0
  0
VERTEX
  5
817
  8
0
  6
CONTINUOUS
 62
     7
 10
-304.292031417
 20
1034.930436522
 30
0.0
  0
VERTEX
  5
818
  8
0
  6
CONTINUOUS
 62
     7
 10
-304.6497784949
 20
1035.8304666581
 30
0.0
  0
VERTEX
  5
819
  8
0
  6
CONTINUOUS
 62
     7
 10
-305.0075255728
 20
1036.9103389087
 30
0.0
  0
SEQEND
  5
81A
  8
0
  6
CONTINUOUS
 62
     7
  0
LINE
  5
381
  8
0
  6
CONTINUOUS
 62
     7
 10
-305.0075255728
 20
1036.9103389087
 30
0.0
 11
-304.8694216109
 21
1037.1270315947
 31
0.0
  0
LINE
  5
382
  8
0
  6
CONTINUOUS
 62
     7
 10
-305.0075255728
 20
1037.0186852517
 30
0.0
 11
-304.8694216109
 21
1037.1270315947
 31
0.0
  0
LINE
  5
383
  8
0
  6
CONTINUOUS
 62
     7
 10
-305.0075255728
 20
1036.9103389087
 30
0.0
 11
-305.0075255728
 21
1037.0186852517
 31
0.0
  0
LINE
  5
384
  8
0
  6
CONTINUOUS
 62
     7
 10
890.7163060808
 20
1037.1270315947
 30
0.0
 11
862.0163119935
 21
1065.827025682
 31
0.0
  0
LINE
  5
385
  8
0
  6
CONTINUOUS
 62
     7
 10
-276.1694275237
 20
1065.827025682
 30
0.0
 11
-304.8694216109
 21
1037.1270315947
 31
0.0
  0
LINE
  5
386
  8
0
  6
CONTINUOUS
 62
     7
 10
-199.0765713549
 20
1065.827025682
 30
0.0
 11
-276.1694275237
 21
1065.827025682
 31
0.0
  0
LINE
  5
387
  8
0
  6
CONTINUOUS
 62
     7
 10
-199.0765713549
 20
1095.7270251813
 30
0.0
 11
-199.0765713549
 21
1065.827025682
 31
0.0
  0
LINE
  5
388
  8
0
  6
CONTINUOUS
 62
     7
 10
784.9234558248
 20
1065.827025682
 30
0.0
 11
784.9234558248
 21
1095.7270251813
 31
0.0
  0
LINE
  5
389
  8
0
  6
CONTINUOUS
 62
     7
 10
862.0163119935
 20
1065.827025682
 30
0.0
 11
784.9234558248
 21
1065.827025682
 31
0.0
  0
CIRCLE
  5
38A
  8
0
  6
CONTINUOUS
 62
     7
 10
842.9234422349
 20
1054.1270312609
 30
0.0
 40
6.249999999999773
  0
CIRCLE
  5
38B
  8
0
  6
CONTINUOUS
 62
     7
 10
-257.0765577651
 20
1054.127031261
 30
0.0
 40
6.250000000000227
  0
LINE
  5
38C
  8
0
  6
CONTINUOUS
 62
     7
 10
890.7163060808
 20
1037.1270315947
 30
0.0
 11
890.8544100427
 21
1037.0186852517
 31
0.0
  0
LINE
  5
38D
  8
0
  6
CONTINUOUS
 62
     7
 10
890.8544100427
 20
1036.9103389087
 30
0.0
 11
890.8544100427
 21
1037.0186852517
 31
0.0
  0
LINE
  5
38E
  8
0
  6
CONTINUOUS
 62
     7
 10
-199.0765713549
 20
1098.727031261
 30
0.0
 11
784.9234558248
 21
1098.727031261
 31
0.0
  0
LINE
  5
38F
  8
0
  6
CONTINUOUS
 62
     7
 10
784.9234558248
 20
1098.727031261
 30
0.0
 11
784.9234558248
 21
1095.7270251813
 31
0.0
  0
LINE
  5
390
  8
0
  6
CONTINUOUS
 62
     7
 10
-199.0765713549
 20
1095.7270251813
 30
0.0
 11
-199.0765713549
 21
1098.727031261
 31
0.0
  0
LINE
  5
391
  8
0
  6
CONTINUOUS
 62
     7
 10
785.4234493875
 20
1351.7270373406
 30
0.0
 11
785.4234493875
 21
1348.727031261
 31
0.0
  0
LINE
  5
392
  8
0
  6
CONTINUOUS
 62
     7
 10
785.4234493875
 20
1348.727031261
 30
0.0
 11
-199.5765649176
 21
1348.727031261
 31
0.0
  0
LINE
  5
393
  8
0
  6
CONTINUOUS
 62
     7
 10
-199.5765649176
 20
1348.727031261
 30
0.0
 11
-199.5765649176
 21
1351.7270373406
 31
0.0
  0
LINE
  5
394
  8
0
  6
CONTINUOUS
 62
     7
 10
890.9234322213
 20
1410.3270309272
 30
0.0
 11
890.9234322213
 21
1409.8270373645
 31
0.0
  0
LINE
  5
395
  8
0
  6
CONTINUOUS
 62
     7
 10
890.9234322213
 20
1409.8270373645
 30
0.0
 11
862.2234381341
 21
1381.1270283761
 31
0.0
  0
LINE
  5
396
  8
0
  6
CONTINUOUS
 62
     7
 10
862.2234381341
 20
1381.1270283761
 30
0.0
 11
785.4234493875
 21
1381.1270283761
 31
0.0
  0
LINE
  5
397
  8
0
  6
CONTINUOUS
 62
     7
 10
785.4234493875
 20
1381.1270283761
 30
0.0
 11
785.4234493875
 21
1351.7270373406
 31
0.0
  0
LINE
  5
398
  8
0
  6
CONTINUOUS
 62
     7
 10
-199.5765649176
 20
1351.7270373406
 30
0.0
 11
-199.5765649176
 21
1381.1270283761
 31
0.0
  0
LINE
  5
399
  8
0
  6
CONTINUOUS
 62
     7
 10
-199.5765649176
 20
1381.1270283761
 30
0.0
 11
-276.3765536643
 21
1381.1270283761
 31
0.0
  0
LINE
  5
39A
  8
0
  6
CONTINUOUS
 62
     7
 10
-276.3765536643
 20
1381.1270283761
 30
0.0
 11
-305.0765477515
 21
1409.8270373645
 31
0.0
  0
LINE
  5
39B
  8
0
  6
CONTINUOUS
 62
     7
 10
-305.0765477515
 20
1409.8270373645
 30
0.0
 11
-305.0765477515
 21
1410.3270309272
 31
0.0
  0
CIRCLE
  5
39C
  8
0
  6
CONTINUOUS
 62
     7
 10
-257.0765577651
 20
1393.327031261
 30
0.0
 40
6.250000000000227
  0
CIRCLE
  5
39D
  8
0
  6
CONTINUOUS
 62
     7
 10
842.9234422349
 20
1393.327031261
 30
0.0
 40
6.249999999999773
  0
LINE
  5
39E
  8
0
  6
CONTINUOUS
 62
     7
 10
890.9234322213
 20
1413.3270370068
 30
0.0
 11
-305.0765477515
 21
1413.3270370068
 31
0.0
  0
LINE
  5
39F
  8
0
  6
CONTINUOUS
 62
     7
 10
890.9234322213
 20
1413.3270370068
 30
0.0
 11
890.9234322213
 21
1410.3270309272
 31
0.0
  0
LINE
  5
3A0
  8
0
  6
CONTINUOUS
 62
     7
 10
-305.0765477515
 20
1410.3270309272
 30
0.0
 11
-305.0765477515
 21
1413.3270370068
 31
0.0
  0
ARC
  5
3A1
  8
0
  6
CONTINUOUS
 62
     7
 10
700.4202124872
 20
1422.4956770877
 30
0.0
 40
170.1986164543362
 50
356.9119678764
 51
357.3868565489
  0
ARC
  5
3A2
  8
0
  6
CONTINUOUS
 62
     7
 10
-114.5733280174
 20
1422.4956770877
 30
0.0
 40
170.1986164543361
 50
182.6131434511
 51
183.0880321236
  0
ARC
  5
3A3
  8
0
  6
CONTINUOUS
 62
     7
 10
-277.4929808226
 20
1415.1753960601
 30
0.0
 40
7.127427969206086
 50
181.122270045
 51
195.0303367242
  0
ARC
  5
3A4
  8
0
  6
CONTINUOUS
 62
     7
 10
863.3398652924
 20
1415.1753960601
 30
0.0
 40
7.127427969206086
 50
344.9696632758
 51
358.877729955
  0
LINE
  5
3A5
  8
0
  6
CONTINUOUS
 62
     7
 10
870.4659260415
 20
1415.0357978644
 30
0.0
 11
871.1033381128
 21
1419.5270376506
 31
0.0
  0
LINE
  5
3A6
  8
0
  6
CONTINUOUS
 62
     7
 10
-285.2564536429
 20
1419.5270376506
 30
0.0
 11
-284.6190415717
 21
1415.0357978644
 31
0.0
  0
ARC
  5
3A7
  8
0
  6
CONTINUOUS
 62
     7
 10
315.9234422349
 20
1415.327031261
 30
0.0
 40
2.0
 50
0.0
 51
90.0
  0
LINE
  5
3A8
  8
0
  6
CONTINUOUS
 62
     7
 10
267.9234418624
 20
1415.3270261588
 30
0.0
 11
267.9234418624
 21
1413.3270370068
 31
0.0
  0
ARC
  5
3A9
  8
0
  6
CONTINUOUS
 62
     7
 10
269.9234422349
 20
1415.327031261
 30
0.0
 40
2.0
 50
90.0
 51
180.0
  0
LINE
  5
3AA
  8
0
  6
CONTINUOUS
 62
     7
 10
315.9234422796
 20
1417.3270302119
 30
0.0
 11
269.9234421902
 21
1417.3270302119
 31
0.0
  0
LINE
  5
3AB
  8
0
  6
CONTINUOUS
 62
     7
 10
317.9234426075
 20
1415.3270261588
 30
0.0
 11
317.9234426075
 21
1413.3270370068
 31
0.0
  0
LINE
  5
3AC
  8
0
  6
CONTINUOUS
 62
     7
 10
267.9234418624
 20
1415.3270261588
 30
0.0
 11
267.9234418624
 21
1419.1174196305
 31
0.0
  0
LINE
  5
3AD
  8
0
  6
CONTINUOUS
 62
     7
 10
317.9234426075
 20
1419.1174196305
 30
0.0
 11
317.9234426075
 21
1415.3270261588
 31
0.0
  0
LINE
  5
3AE
  8
0
  6
CONTINUOUS
 62
     7
 10
317.9234426075
 20
1419.5270376506
 30
0.0
 11
317.9234426075
 21
1419.1174196305
 31
0.0
  0
LINE
  5
3AF
  8
0
  6
CONTINUOUS
 62
     7
 10
267.9234418624
 20
1419.1174196305
 30
0.0
 11
267.9234418624
 21
1419.5270376506
 31
0.0
  0
LINE
  5
3B0
  8
0
  6
CONTINUOUS
 62
     7
 10
285.8734425695
 20
1431.5270321669
 30
0.0
 11
285.8734425695
 21
1433.0270277562
 31
0.0
  0
ARC
  5
3B1
  8
0
  6
CONTINUOUS
 62
     7
 10
-297.5536100581
 20
1031.6500101122
 30
0.0
 40
4.772502085059875
 50
198.6094224105
 51
251.3908621794
  0
POLYLINE
  5
3B2
  8
0
  6
CONTINUOUS
 62
     7
 66
     1
 10
0.0
 20
0.0
 30
0.0
  0
VERTEX
  5
81B
  8
0
  6
CONTINUOUS
 62
     7
 10
887.9234708452
 20
1030.12703231
 30
0.0
  0
VERTEX
  5
81C
  8
0
  6
CONTINUOUS
 62
     7
 10
887.1734655999
 20
1028.978987247
 30
0.0
  0
VERTEX
  5
81D
  8
0
  6
CONTINUOUS
 62
     7
 10
886.4234603547
 20
1028.0057179036
 30
0.0
  0
VERTEX
  5
81E
  8
0
  6
CONTINUOUS
 62
     7
 10
885.6734551095
 20
1027.3553865256
 30
0.0
  0
VERTEX
  5
81F
  8
0
  6
CONTINUOUS
 62
     7
 10
884.9234498643
 20
1027.1270262303
 30
0.0
  0
SEQEND
  5
820
  8
0
  6
CONTINUOUS
 62
     7
  0
LINE
  5
3B3
  8
0
  6
CONTINUOUS
 62
     7
 10
884.9234498643
 20
1027.1270262303
 30
0.0
 11
-299.0765653945
 21
1027.1270262303
 31
0.0
  0
LINE
  5
3B4
  8
0
  6
CONTINUOUS
 62
     7
 10
-302.0765863753
 20
1030.12703231
 30
0.0
 11
-302.0765863753
 21
1034.1270255151
 31
0.0
  0
LINE
  5
3B5
  8
0
  6
CONTINUOUS
 62
     7
 10
887.9234708452
 20
1030.12703231
 30
0.0
 11
887.9234708452
 21
1034.1270255151
 31
0.0
  0
ARC
  5
3B6
  8
0
  6
CONTINUOUS
 62
     7
 10
349.4734402352
 20
1338.3950011476
 30
0.0
 40
101.3167166396263
 50
82.4990039079
 51
97.5009960921
  0
LINE
  5
3B7
  8
0
  6
CONTINUOUS
 62
     7
 10
333.3842336737
 20
1438.89415136
 30
0.0
 11
333.0779887342
 21
1436.9842546286
 31
0.0
  0
LINE
  5
3B8
  8
0
  6
CONTINUOUS
 62
     7
 10
365.8688954615
 20
1436.9842546286
 30
0.0
 11
365.5626467966
 21
1438.89415136
 31
0.0
  0
ARC
  5
3B9
  8
0
  6
CONTINUOUS
 62
     7
 10
334.1613311552
 20
1438.726539007
 30
0.0
 40
0.7949681733206706
 50
98.479188395
 51
167.8283239316
  0
LINE
  5
3BA
  8
0
  6
CONTINUOUS
 62
     7
 10
365.5626542472
 20
1442.5927089753
 30
0.0
 11
365.5626542472
 21
1438.89415136
 31
0.0
  0
LINE
  5
3BB
  8
0
  6
CONTINUOUS
 62
     7
 10
888.2373489045
 20
1431.0270237031
 30
0.0
 11
888.4734429025
 21
1431.0270237031
 31
0.0
  0
LINE
  5
3BC
  8
0
  6
CONTINUOUS
 62
     7
 10
888.4734429025
 20
1431.0270237031
 30
0.0
 11
888.4734429025
 21
1432.9765277209
 31
0.0
  0
ARC
  5
3BD
  8
0
  6
CONTINUOUS
 62
     7
 10
887.9734420152
 20
1430.5270308353
 30
0.0
 40
2.500000000000227
 50
78.4630409672
 51
90.0
  0
ARC
  5
3BE
  8
0
  6
CONTINUOUS
 62
     7
 10
887.9734420152
 20
1430.5270308353
 30
0.0
 40
2.5
 50
0.0
 51
78.4630409672
  0
LINE
  5
3BF
  8
0
  6
CONTINUOUS
 62
     7
 10
-302.3904644347
 20
1431.0270237031
 30
0.0
 11
-302.6265584326
 21
1431.0270237031
 31
0.0
  0
ARC
  5
3C0
  8
0
  6
CONTINUOUS
 62
     7
 10
-302.1265575457
 20
1430.5270308353
 30
0.0
 40
2.5
 50
90.0
 51
101.5369590328
  0
LINE
  5
3C1
  8
0
  6
CONTINUOUS
 62
     7
 10
-302.6265584326
 20
1431.0270237031
 30
0.0
 11
-302.6265584326
 21
1432.9765277209
 31
0.0
  0
ARC
  5
3C2
  8
0
  6
CONTINUOUS
 62
     7
 10
-302.1265575457
 20
1430.5270308353
 30
0.0
 40
2.500000000000325
 50
101.5369590328
 51
180.0000000001
  0
LINE
  5
3C3
  8
0
  6
CONTINUOUS
 62
     7
 10
845.6167496347
 20
1053.907586843
 30
0.0
 11
841.9098771715
 21
1053.3270376029
 31
0.0
  0
POLYLINE
  5
3C4
  8
0
  6
CONTINUOUS
 62
     7
 66
     1
 10
0.0
 20
0.0
 30
0.0
  0
VERTEX
  5
821
  8
0
  6
CONTINUOUS
 62
     7
 10
841.9098771715
 20
1053.3270376029
 30
0.0
  0
VERTEX
  5
822
  8
0
  6
CONTINUOUS
 62
     7
 10
841.6463650369
 20
1053.3301966491
 30
0.0
  0
VERTEX
  5
823
  8
0
  6
CONTINUOUS
 62
     7
 10
838.2030047082
 20
1053.907586843
 30
0.0
  0
SEQEND
  5
824
  8
0
  6
CONTINUOUS
 62
     7
  0
LINE
  5
3C5
  8
0
  6
CONTINUOUS
 62
     7
 10
838.2030047082
 20
1053.907586843
 30
0.0
 11
838.2030047082
 21
1058.2233803573
 31
0.0
  0
POLYLINE
  5
3C6
  8
0
  6
CONTINUOUS
 62
     7
 66
     1
 10
0.0
 20
0.0
 30
0.0
  0
VERTEX
  5
825
  8
0
  6
CONTINUOUS
 62
     7
 10
841.9098771715
 20
1059.8270284238
 30
0.0
  0
VERTEX
  5
826
  8
0
  6
CONTINUOUS
 62
     7
 10
841.6463650369
 20
1059.8238693776
 30
0.0
  0
VERTEX
  5
827
  8
0
  6
CONTINUOUS
 62
     7
 10
839.9976409578
 20
1059.547408134
 30
0.0
  0
SEQEND
  5
828
  8
0
  6
CONTINUOUS
 62
     7
  0
LINE
  5
3C7
  8
0
  6
CONTINUOUS
 62
     7
 10
845.6167496347
 20
1059.2464791837
 30
0.0
 11
841.9098771715
 21
1059.8270284238
 31
0.0
  0
LINE
  5
3C8
  8
0
  6
CONTINUOUS
 62
     7
 10
845.6167496347
 20
1053.907586843
 30
0.0
 11
845.6167496347
 21
1059.2464791837
 31
0.0
  0
POLYLINE
  5
3C9
  8
0
  6
CONTINUOUS
 62
     7
 66
     1
 10
0.0
 20
0.0
 30
0.0
  0
VERTEX
  5
829
  8
0
  6
CONTINUOUS
 62
     7
 10
847.9769743585
 20
1053.3270376029
 30
0.0
  0
VERTEX
  5
82A
  8
0
  6
CONTINUOUS
 62
     7
 10
847.3346747064
 20
1053.3730672898
 30
0.0
  0
VERTEX
  5
82B
  8
0
  6
CONTINUOUS
 62
     7
 10
845.6167496347
 20
1053.907586843
 30
0.0
  0
SEQEND
  5
82C
  8
0
  6
CONTINUOUS
 62
     7
  0
LINE
  5
3CA
  8
0
  6
CONTINUOUS
 62
     7
 10
846.0815466546
 20
1059.391094953
 30
0.0
 11
845.6167496347
 21
1059.2464791837
 31
0.0
  0
LINE
  5
3CB
  8
0
  6
CONTINUOUS
 62
     7
 10
841.9098771715
 20
1059.8270284238
 30
0.0
 11
845.4871095323
 21
1059.8270284238
 31
0.0
  0
LINE
  5
3CC
  8
0
  6
CONTINUOUS
 62
     7
 10
838.2030047082
 20
1053.907586843
 30
0.0
 11
836.8563569688
 21
1053.3270376029
 31
0.0
  0
LINE
  5
3CD
  8
0
  6
CONTINUOUS
 62
     7
 10
840.3597391748
 20
1059.8270284238
 30
0.0
 11
841.9098771715
 21
1059.8270284238
 31
0.0
  0
LINE
  5
3CE
  8
0
  6
CONTINUOUS
 62
     7
 10
849.0188635492
 20
1053.5245673957
 30
0.0
 11
847.9769743585
 21
1053.3270376029
 31
0.0
  0
LINE
  5
3CF
  8
0
  6
CONTINUOUS
 62
     7
 10
-250.9535037375
 20
1053.5985069575
 30
0.0
 11
-252.0740114546
 21
1053.3270376029
 31
0.0
  0
POLYLINE
  5
3D0
  8
0
  6
CONTINUOUS
 62
     7
 66
     1
 10
0.0
 20
0.0
 30
0.0
  0
VERTEX
  5
82D
  8
0
  6
CONTINUOUS
 62
     7
 10
-252.0740114546
 20
1053.3270376029
 30
0.0
  0
VERTEX
  5
82E
  8
0
  6
CONTINUOUS
 62
     7
 10
-252.2443615294
 20
1053.3301966491
 30
0.0
  0
VERTEX
  5
82F
  8
0
  6
CONTINUOUS
 62
     7
 10
-254.4701181746
 20
1053.907586843
 30
0.0
  0
SEQEND
  5
830
  8
0
  6
CONTINUOUS
 62
     7
  0
LINE
  5
3D1
  8
0
  6
CONTINUOUS
 62
     7
 10
-254.4701181746
 20
1053.907586843
 30
0.0
 11
-254.4701181746
 21
1059.2464791837
 31
0.0
  0
LINE
  5
3D2
  8
0
  6
CONTINUOUS
 62
     7
 10
-253.9353453017
 20
1059.3852089944
 30
0.0
 11
-254.4701181746
 21
1059.2464791837
 31
0.0
  0
POLYLINE
  5
3D3
  8
0
  6
CONTINUOUS
 62
     7
 66
     1
 10
0.0
 20
0.0
 30
0.0
  0
VERTEX
  5
831
  8
0
  6
CONTINUOUS
 62
     7
 10
-254.4701181746
 20
1059.2464791837
 30
0.0
  0
VERTEX
  5
832
  8
0
  6
CONTINUOUS
 62
     7
 10
-255.4048978186
 20
1059.4926314654
 30
0.0
  0
VERTEX
  5
833
  8
0
  6
CONTINUOUS
 62
     7
 10
-258.1694804526
 20
1059.8270284238
 30
0.0
  0
SEQEND
  5
834
  8
0
  6
CONTINUOUS
 62
     7
  0
LINE
  5
3D4
  8
0
  6
CONTINUOUS
 62
     7
 10
-258.1694804526
 20
1059.8270284238
 30
0.0
 11
-254.5128547049
 21
1059.8270284238
 31
0.0
  0
POLYLINE
  5
3D5
  8
0
  6
CONTINUOUS
 62
     7
 66
     1
 10
0.0
 20
0.0
 30
0.0
  0
VERTEX
  5
835
  8
0
  6
CONTINUOUS
 62
     7
 10
-254.4701181746
 20
1053.907586843
 30
0.0
  0
VERTEX
  5
836
  8
0
  6
CONTINUOUS
 62
     7
 10
-255.4048978186
 20
1053.6614345612
 30
0.0
  0
VERTEX
  5
837
  8
0
  6
CONTINUOUS
 62
     7
 10
-258.1694804526
 20
1053.3270376029
 30
0.0
  0
SEQEND
  5
838
  8
0
  6
CONTINUOUS
 62
     7
  0
POLYLINE
  5
3D6
  8
0
  6
CONTINUOUS
 62
     7
 66
     1
 10
0.0
 20
0.0
 30
0.0
  0
VERTEX
  5
839
  8
0
  6
CONTINUOUS
 62
     7
 10
-258.1694804526
 20
1053.3270376029
 30
0.0
  0
VERTEX
  5
83A
  8
0
  6
CONTINUOUS
 62
     7
 10
-259.1762029029
 20
1053.3730672898
 30
0.0
  0
VERTEX
  5
83B
  8
0
  6
CONTINUOUS
 62
     7
 10
-261.8687831259
 20
1053.907586843
 30
0.0
  0
SEQEND
  5
83C
  8
0
  6
CONTINUOUS
 62
     7
  0
LINE
  5
3D7
  8
0
  6
CONTINUOUS
 62
     7
 10
-261.8687831259
 20
1053.907586843
 30
0.0
 11
-261.8687831259
 21
1058.1391142907
 31
0.0
  0
POLYLINE
  5
3D8
  8
0
  6
CONTINUOUS
 62
     7
 66
     1
 10
0.0
 20
0.0
 30
0.0
  0
VERTEX
  5
83D
  8
0
  6
CONTINUOUS
 62
     7
 10
-258.1694804526
 20
1059.8270284238
 30
0.0
  0
VERTEX
  5
83E
  8
0
  6
CONTINUOUS
 62
     7
 10
-259.1762029029
 20
1059.7809987368
 30
0.0
  0
VERTEX
  5
83F
  8
0
  6
CONTINUOUS
 62
     7
 10
-260.0006543494
 20
1059.6173243823
 30
0.0
  0
SEQEND
  5
840
  8
0
  6
CONTINUOUS
 62
     7
  0
LINE
  5
3D9
  8
0
  6
CONTINUOUS
 62
     7
 10
-261.8687831259
 20
1053.907586843
 30
0.0
 11
-263.172038684
 21
1053.3270376029
 31
0.0
  0
LINE
  5
3DA
  8
0
  6
CONTINUOUS
 62
     7
 10
-259.6402250624
 20
1059.8270284238
 30
0.0
 11
-258.1694804526
 21
1059.8270284238
 31
0.0
  0
LINE
  5
3DB
  8
0
  6
CONTINUOUS
 62
     7
 10
838.9234460496
 20
1049.2270278039
 30
0.0
 11
846.9234622621
 21
1049.2270278039
 31
0.0
  0
LINE
  5
3DC
  8
0
  6
CONTINUOUS
 62
     7
 10
849.1220391893
 20
1053.3270376029
 30
0.0
 11
836.7248691224
 21
1053.3270376029
 31
0.0
  0
LINE
  5
3DD
  8
0
  6
CONTINUOUS
 62
     7
 10
847.8438771867
 20
1051.7270254197
 30
0.0
 11
838.1734408044
 21
1051.7270254197
 31
0.0
  0
LINE
  5
3DE
  8
0
  6
CONTINUOUS
 62
     7
 10
-261.0765777922
 20
1049.2270278039
 30
0.0
 11
-253.0765615798
 21
1049.2270278039
 31
0.0
  0
LINE
  5
3DF
  8
0
  6
CONTINUOUS
 62
     7
 10
-261.9969927169
 20
1051.7270254197
 30
0.0
 11
-252.3265563346
 21
1051.7270254197
 31
0.0
  0
LINE
  5
3E0
  8
0
  6
CONTINUOUS
 62
     7
 10
-263.2872544623
 20
1053.3270376029
 30
0.0
 11
-250.8779846526
 21
1053.3270376029
 31
0.0
  0
LINE
  5
3E1
  8
0
  6
CONTINUOUS
 62
     7
 10
873.4240449571
 20
1419.5270376506
 30
0.0
 11
873.1539763116
 21
1417.605383903
 31
0.0
  0
ARC
  5
3E2
  8
0
  6
CONTINUOUS
 62
     7
 10
875.1345145666
 20
1417.3270312609
 30
0.0
 40
2.000000082123279
 50
172.0000011903
 51
269.9999999999
  0
LINE
  5
3E3
  8
0
  6
CONTINUOUS
 62
     7
 10
875.1345194482
 20
1415.3270261588
 30
0.0
 11
884.1734446191
 21
1415.3270261588
 31
0.0
  0
ARC
  5
3E4
  8
0
  6
CONTINUOUS
 62
     7
 10
875.1345145666
 20
1417.3270312609
 30
0.0
 40
4.0
 50
172.0000011904
 51
270.0000000001
  0
LINE
  5
3E5
  8
0
  6
CONTINUOUS
 62
     7
 10
871.173433175
 20
1417.883722693
 30
0.0
 11
871.4044011735
 21
1419.5270376506
 31
0.0
  0
LINE
  5
3E6
  8
0
  6
CONTINUOUS
 62
     7
 10
884.1734446191
 20
1415.3270261588
 30
0.0
 11
884.1734446191
 21
1413.3270370068
 31
0.0
  0
LINE
  5
3E7
  8
0
  6
CONTINUOUS
 62
     7
 10
-285.3265487052
 20
1417.883722693
 30
0.0
 11
-285.5575167037
 21
1419.5270376506
 31
0.0
  0
ARC
  5
3E8
  8
0
  6
CONTINUOUS
 62
     7
 10
-289.2876300968
 20
1417.3270312609
 30
0.0
 40
4.0
 50
269.9999999999
 51
7.9999988096
  0
LINE
  5
3E9
  8
0
  6
CONTINUOUS
 62
     7
 10
-298.3265601493
 20
1415.3270261588
 30
0.0
 11
-298.3265601493
 21
1413.3270370068
 31
0.0
  0
LINE
  5
3EA
  8
0
  6
CONTINUOUS
 62
     7
 10
-289.2876349784
 20
1415.3270261588
 30
0.0
 11
-298.3265601493
 21
1415.3270261588
 31
0.0
  0
ARC
  5
3EB
  8
0
  6
CONTINUOUS
 62
     7
 10
-289.2876300968
 20
1417.3270312609
 30
0.0
 40
2.000000082123506
 50
269.9999999998
 51
7.9999988096
  0
LINE
  5
3EC
  8
0
  6
CONTINUOUS
 62
     7
 10
-287.5771604872
 20
1419.5270376506
 30
0.0
 11
-287.3070918418
 21
1417.605383903
 31
0.0
  0
LINE
  5
3ED
  8
0
  6
CONTINUOUS
 62
     7
 10
877.7012146615
 20
1415.5470269027
 30
0.0
 11
876.6734517717
 21
1415.5470269027
 31
0.0
  0
LINE
  5
3EE
  8
0
  6
CONTINUOUS
 62
     7
 10
881.6734470033
 20
1415.5470269027
 30
0.0
 11
877.7012146615
 21
1415.5470269027
 31
0.0
  0
LINE
  5
3EF
  8
0
  6
CONTINUOUS
 62
     7
 10
877.9367722177
 20
1415.9470336738
 30
0.0
 11
881.2734402322
 21
1415.9470336738
 31
0.0
  0
LINE
  5
3F0
  8
0
  6
CONTINUOUS
 62
     7
 10
877.0734585428
 20
1415.9470336738
 30
0.0
 11
877.9367722177
 21
1415.9470336738
 31
0.0
  0
LINE
  5
3F1
  8
0
  6
CONTINUOUS
 62
     7
 10
-293.0230580664
 20
1415.5470269027
 30
0.0
 11
-295.8265625334
 21
1415.5470269027
 31
0.0
  0
LINE
  5
3F2
  8
0
  6
CONTINUOUS
 62
     7
 10
-290.8265673018
 20
1415.5470269027
 30
0.0
 11
-293.0230580664
 21
1415.5470269027
 31
0.0
  0
LINE
  5
3F3
  8
0
  6
CONTINUOUS
 62
     7
 10
-293.0716358519
 20
1415.9470336738
 30
0.0
 11
-291.2265740729
 21
1415.9470336738
 31
0.0
  0
LINE
  5
3F4
  8
0
  6
CONTINUOUS
 62
     7
 10
-295.4265557624
 20
1415.9470336738
 30
0.0
 11
-293.0716358519
 21
1415.9470336738
 31
0.0
  0
ARC
  5
3F5
  8
0
  6
CONTINUOUS
 62
     7
 10
-305.395238881
 20
1411.5179573356
 30
0.0
 40
2.381412650804466
 50
225.0873891016
 51
267.9915425557
  0
POLYLINE
  5
3F6
  8
0
  6
CONTINUOUS
 62
     7
 66
     1
 10
0.0
 20
0.0
 30
0.0
  0
VERTEX
  5
841
  8
0
  6
CONTINUOUS
 62
     7
 10
-305.4787002898
 20
1409.1380076709
 30
0.0
  0
VERTEX
  5
842
  8
0
  6
CONTINUOUS
 62
     7
 10
-304.7989093161
 20
1408.6752968135
 30
0.0
  0
VERTEX
  5
843
  8
0
  6
CONTINUOUS
 62
     7
 10
-304.0765606261
 20
1408.2125710549
 30
0.0
  0
SEQEND
  5
844
  8
0
  6
CONTINUOUS
 62
     7
  0
ARC
  5
3F7
  8
0
  6
CONTINUOUS
 62
     7
 10
-303.759523046
 20
1032.8887698504
 30
0.0
 40
5.747008791841671
 50
93.1623653252
 51
125.2524426358
  0
LINE
  5
3F8
  8
0
  6
CONTINUOUS
 62
     7
 10
-307.0765816069
 20
1409.8314779105
 30
0.0
 11
-307.0765816069
 21
1037.581874639
 31
0.0
  0
CIRCLE
  5
3F9
  8
0
  6
CONTINUOUS
 62
     7
 10
-262.0765577651
 20
1078.727031261
 30
0.0
 40
6.250000000705995
  0
CIRCLE
  5
3FA
  8
0
  6
CONTINUOUS
 62
     7
 10
-287.0765577651
 20
1083.727031261
 30
0.0
 40
6.250000000705768
  0
CIRCLE
  5
3FB
  8
0
  6
CONTINUOUS
 62
     7
 10
-287.0765577651
 20
1363.727031261
 30
0.0
 40
6.25
  0
CIRCLE
  5
3FC
  8
0
  6
CONTINUOUS
 62
     7
 10
-262.0765577651
 20
1368.727031261
 30
0.0
 40
6.25
  0
LINE
  5
3FD
  8
0
  6
CONTINUOUS
 62
     7
 10
-200.0765584803
 20
1380.6270348134
 30
0.0
 11
-276.3902627326
 21
1380.6270348134
 31
0.0
  0
LINE
  5
3FE
  8
0
  6
CONTINUOUS
 62
     7
 10
-200.0765584803
 20
1348.2270302477
 30
0.0
 11
-200.0765584803
 21
1380.6270348134
 31
0.0
  0
LINE
  5
3FF
  8
0
  6
CONTINUOUS
 62
     7
 10
-201.0765456057
 20
1348.2270302477
 30
0.0
 11
-200.0765584803
 21
1348.2270302477
 31
0.0
  0
LINE
  5
400
  8
0
  6
CONTINUOUS
 62
     7
 10
-199.5765649176
 20
1099.2270322742
 30
0.0
 11
-201.0765456057
 21
1099.2270322742
 31
0.0
  0
LINE
  5
401
  8
0
  6
CONTINUOUS
 62
     7
 10
-199.5765649176
 20
1066.3270341458
 30
0.0
 11
-199.5765649176
 21
1099.2270322742
 31
0.0
  0
LINE
  5
402
  8
0
  6
CONTINUOUS
 62
     7
 10
-276.3765536643
 20
1066.3270341458
 30
0.0
 11
-199.5765649176
 21
1066.3270341458
 31
0.0
  0
LINE
  5
403
  8
0
  6
CONTINUOUS
 62
     7
 10
-304.0765606261
 20
1038.627027184
 30
0.0
 11
-276.3765536643
 21
1066.3270341458
 31
0.0
  0
LINE
  5
404
  8
0
  6
CONTINUOUS
 62
     7
 10
-276.3902627326
 20
1380.6270348134
 30
0.0
 11
-304.0765606261
 21
1408.2125710549
 31
0.0
  0
ARC
  5
405
  8
0
  6
CONTINUOUS
 62
     7
 10
-303.5812634724
 20
1036.3171839034
 30
0.0
 40
2.362349519316817
 50
102.1026006077
 51
147.6321506137
  0
LINE
  5
406
  8
0
  6
CONTINUOUS
 62
     7
 10
-307.0765816069
 20
1037.581874639
 30
0.0
 11
-305.5765711165
 21
1037.581874639
 31
0.0
  0
LINE
  5
407
  8
0
  6
CONTINUOUS
 62
     7
 10
-304.7776304579
 20
1409.1380076709
 30
0.0
 11
-304.0765606261
 21
1408.2125710549
 31
0.0
  0
LINE
  5
408
  8
0
  6
CONTINUOUS
 62
     7
 10
-305.4787002898
 20
1409.1380076709
 30
0.0
 11
-304.7776304579
 21
1409.1380076709
 31
0.0
  0
LINE
  5
409
  8
0
  6
CONTINUOUS
 62
     7
 10
-200.0765584803
 20
1348.2270302477
 30
0.0
 11
-198.0765544272
 21
1348.2270302477
 31
0.0
  0
LINE
  5
40A
  8
0
  6
CONTINUOUS
 62
     7
 10
-198.0765544272
 20
1099.2270322742
 30
0.0
 11
-198.0765544272
 21
1348.2270302477
 31
0.0
  0
LINE
  5
40B
  8
0
  6
CONTINUOUS
 62
     7
 10
-198.0765544272
 20
1099.2270322742
 30
0.0
 11
-199.5765649176
 21
1099.2270322742
 31
0.0
  0
LINE
  5
40C
  8
0
  6
CONTINUOUS
 62
     7
 10
-307.0765816069
 20
1409.8314779105
 30
0.0
 11
-305.5765711165
 21
1409.8314779105
 31
0.0
  0
ARC
  5
40D
  8
0
  6
CONTINUOUS
 62
     7
 10
-304.4898558281
 20
1410.2765113611
 30
0.0
 40
1.174310389199294
 50
202.2701625267
 51
255.8147147484
  0
ARC
  5
40E
  8
0
  6
CONTINUOUS
 62
     7
 10
-304.1978924761
 20
1037.0508398755
 30
0.0
 40
1.380782376666681
 50
176.8368061315
 51
252.5821025257
  0
LINE
  5
40F
  8
0
  6
CONTINUOUS
 62
     7
 10
-304.0765606261
 20
1034.1270255151
 30
0.0
 11
-304.0765606261
 21
1034.5718400779
 31
0.0
  0
ARC
  5
410
  8
0
  6
CONTINUOUS
 62
     7
 10
-304.0765096304
 20
1037.1270974919
 30
0.0
 40
3.000071977234645
 50
180.0012585122
 51
269.9990260777
  0
LINE
  5
411
  8
0
  6
CONTINUOUS
 62
     7
 10
-307.0765816069
 20
1037.1270315947
 30
0.0
 11
-305.5765711165
 21
1037.1270315947
 31
0.0
  0
LINE
  5
412
  8
0
  6
CONTINUOUS
 62
     7
 10
-307.0765816069
 20
1037.581874639
 30
0.0
 11
-307.0765816069
 21
1037.1270315947
 31
0.0
  0
LINE
  5
413
  8
0
  6
CONTINUOUS
 62
     7
 10
-305.5765711165
 20
1037.581874639
 30
0.0
 11
-305.5765711165
 21
1037.1270315947
 31
0.0
  0
LINE
  5
414
  8
0
  6
CONTINUOUS
 62
     7
 10
-307.0765816069
 20
1410.3270309272
 30
0.0
 11
-305.5765711165
 21
1410.3270309272
 31
0.0
  0
LINE
  5
415
  8
0
  6
CONTINUOUS
 62
     7
 10
-307.0765816069
 20
1410.3270309272
 30
0.0
 11
-307.0765816069
 21
1409.8314779105
 31
0.0
  0
LINE
  5
416
  8
0
  6
CONTINUOUS
 62
     7
 10
-305.5765711165
 20
1409.8314779105
 30
0.0
 11
-305.5765711165
 21
1410.3270309272
 31
0.0
  0
POLYLINE
  5
417
  8
0
  6
CONTINUOUS
 62
     7
 66
     1
 10
0.0
 20
0.0
 30
0.0
  0
VERTEX
  5
845
  8
0
  6
CONTINUOUS
 62
     7
 10
-305.3112708426
 20
1411.178781301
 30
0.0
  0
VERTEX
  5
846
  8
0
  6
CONTINUOUS
 62
     7
 10
-305.5086814261
 20
1410.7730822863
 30
0.0
  0
VERTEX
  5
847
  8
0
  6
CONTINUOUS
 62
     7
 10
-305.5765711165
 20
1410.3270309272
 30
0.0
  0
SEQEND
  5
848
  8
0
  6
CONTINUOUS
 62
     7
  0
LINE
  5
418
  8
0
  6
CONTINUOUS
 62
     7
 10
-306.5459810591
 20
1412.0305316748
 30
0.0
 11
-305.3112708426
 21
1411.178781301
 31
0.0
  0
POLYLINE
  5
419
  8
0
  6
CONTINUOUS
 62
     7
 66
     1
 10
0.0
 20
0.0
 30
0.0
  0
VERTEX
  5
849
  8
0
  6
CONTINUOUS
 62
     7
 10
-306.5459810591
 20
1412.0305316748
 30
0.0
  0
VERTEX
  5
84A
  8
0
  6
CONTINUOUS
 62
     7
 10
-306.9408618308
 20
1411.2191336455
 30
0.0
  0
VERTEX
  5
84B
  8
0
  6
CONTINUOUS
 62
     7
 10
-307.0765816069
 20
1410.3270309272
 30
0.0
  0
SEQEND
  5
84C
  8
0
  6
CONTINUOUS
 62
     7
  0
LINE
  5
41A
  8
0
  6
CONTINUOUS
 62
     7
 10
-303.5765372611
 20
1034.1270255151
 30
0.0
 11
-304.0765606261
 21
1034.1270255151
 31
0.0
  0
LINE
  5
41B
  8
0
  6
CONTINUOUS
 62
     7
 10
-305.0765477515
 20
1411.3868164124
 30
0.0
 11
-305.3112708426
 21
1411.178781301
 31
0.0
  0
ARC
  5
41C
  8
0
  6
CONTINUOUS
 62
     7
 10
-304.282169451
 20
1410.5434060801
 30
0.0
 40
2.708576292445518
 50
107.0545831561
 51
146.6985977185
  0
LINE
  5
41D
  8
0
  6
CONTINUOUS
 62
     7
 10
-198.0765544272
 20
1348.2270302477
 30
0.0
 11
-196.5765439368
 21
1348.2270302477
 31
0.0
  0
LINE
  5
41E
  8
0
  6
CONTINUOUS
 62
     7
 10
-196.5765439368
 20
1099.2270322742
 30
0.0
 11
-198.0765544272
 21
1099.2270322742
 31
0.0
  0
LINE
  5
41F
  8
0
  6
CONTINUOUS
 62
     7
 10
-183.576562295
 20
1099.2270322742
 30
0.0
 11
-196.5765439368
 21
1099.2270322742
 31
0.0
  0
LINE
  5
420
  8
0
  6
CONTINUOUS
 62
     7
 10
-196.5765439368
 20
1348.2270302477
 30
0.0
 11
-183.576562295
 21
1348.2270302477
 31
0.0
  0
CIRCLE
  5
421
  8
0
  6
CONTINUOUS
 62
     7
 10
-190.0765577651
 20
1223.727031261
 30
0.0
 40
2.099999999999909
  0
CIRCLE
  5
422
  8
0
  6
CONTINUOUS
 62
     7
 10
-190.0765577651
 20
1328.727031261
 30
0.0
 40
2.099999999999909
  0
CIRCLE
  5
423
  8
0
  6
CONTINUOUS
 62
     7
 10
-190.0765577651
 20
1118.727031261
 30
0.0
 40
2.100000000000136
  0
LINE
  5
424
  8
0
  6
CONTINUOUS
 62
     7
 10
-183.576562295
 20
1348.2270302477
 30
0.0
 11
-183.576562295
 21
1099.2270322742
 31
0.0
  0
ARC
  5
425
  8
0
  6
CONTINUOUS
 62
     7
 10
-286.0765740527
 20
1414.8270591921
 30
0.0
 40
1.500022185431229
 50
270.000767842
 51
7.9990716976
  0
LINE
  5
426
  8
0
  6
CONTINUOUS
 62
     7
 10
879.9234546327
 20
1398.8270299735
 30
0.0
 11
879.9234546327
 21
1398.1199251714
 31
0.0
  0
LINE
  5
427
  8
0
  6
CONTINUOUS
 62
     7
 10
879.4234312677
 20
1398.3270364108
 30
0.0
 11
879.4234312677
 21
1397.6199316087
 31
0.0
  0
LINE
  5
428
  8
0
  6
CONTINUOUS
 62
     7
 10
-294.0765701628
 20
1398.2489543261
 30
0.0
 11
-294.0765701628
 21
1398.8270299735
 31
0.0
  0
LINE
  5
429
  8
0
  6
CONTINUOUS
 62
     7
 10
-293.5765467978
 20
1397.7507787051
 30
0.0
 11
-293.5765467978
 21
1398.3270364108
 31
0.0
  0
ARC
  5
42A
  8
0
  6
CONTINUOUS
 62
     7
 10
889.6064075158
 20
1032.8887698504
 30
0.0
 40
5.747008791841665
 50
54.7475573642
 51
86.8376346748
  0
POLYLINE
  5
42B
  8
0
  6
CONTINUOUS
 62
     7
 66
     1
 10
0.0
 20
0.0
 30
0.0
  0
VERTEX
  5
84D
  8
0
  6
CONTINUOUS
 62
     7
 10
891.5083326005
 20
1409.182949573
 30
0.0
  0
VERTEX
  5
84E
  8
0
  6
CONTINUOUS
 62
     7
 10
890.7475985193
 20
1408.6514400544
 30
0.0
  0
VERTEX
  5
84F
  8
0
  6
CONTINUOUS
 62
     7
 10
889.923445096
 20
1408.1199305358
 30
0.0
  0
SEQEND
  5
850
  8
0
  6
CONTINUOUS
 62
     7
  0
ARC
  5
42C
  8
0
  6
CONTINUOUS
 62
     7
 10
891.4304412064
 20
1411.2211374564
 30
0.0
 40
2.039675689186904
 50
272.188550661
 51
317.0535930097
  0
LINE
  5
42D
  8
0
  6
CONTINUOUS
 62
     7
 10
892.9234660768
 20
1409.8314779105
 30
0.0
 11
892.9234660768
 21
1037.581874639
 31
0.0
  0
LINE
  5
42E
  8
0
  6
CONTINUOUS
 62
     7
 10
891.4234555864
 20
1037.581874639
 30
0.0
 11
892.9234660768
 21
1037.581874639
 31
0.0
  0
ARC
  5
42F
  8
0
  6
CONTINUOUS
 62
     7
 10
889.4281479423
 20
1036.3171839034
 30
0.0
 40
2.362349519316841
 50
32.3678493863
 51
77.8973993923
  0
CIRCLE
  5
430
  8
0
  6
CONTINUOUS
 62
     7
 10
872.9234422349
 20
1083.727031261
 30
0.0
 40
6.25
  0
CIRCLE
  5
431
  8
0
  6
CONTINUOUS
 62
     7
 10
847.9234422349
 20
1078.727031261
 30
0.0
 40
6.25
  0
CIRCLE
  5
432
  8
0
  6
CONTINUOUS
 62
     7
 10
847.9234422349
 20
1368.727031261
 30
0.0
 40
6.25
  0
CIRCLE
  5
433
  8
0
  6
CONTINUOUS
 62
     7
 10
872.9234422349
 20
1363.727031261
 30
0.0
 40
6.25
  0
LINE
  5
434
  8
0
  6
CONTINUOUS
 62
     7
 10
862.4305642747
 20
1380.6270348134
 30
0.0
 11
785.9234429502
 21
1380.6270348134
 31
0.0
  0
LINE
  5
435
  8
0
  6
CONTINUOUS
 62
     7
 10
889.923445096
 20
1408.1199305358
 30
0.0
 11
862.4305642747
 21
1380.6270348134
 31
0.0
  0
LINE
  5
436
  8
0
  6
CONTINUOUS
 62
     7
 10
785.4234493875
 20
1066.3270341458
 30
0.0
 11
862.2234381341
 21
1066.3270341458
 31
0.0
  0
LINE
  5
437
  8
0
  6
CONTINUOUS
 62
     7
 10
785.4234493875
 20
1099.2270322742
 30
0.0
 11
785.4234493875
 21
1066.3270341458
 31
0.0
  0
LINE
  5
438
  8
0
  6
CONTINUOUS
 62
     7
 10
786.9234300756
 20
1099.2270322742
 30
0.0
 11
785.4234493875
 21
1099.2270322742
 31
0.0
  0
LINE
  5
439
  8
0
  6
CONTINUOUS
 62
     7
 10
785.9234429502
 20
1348.2270302477
 30
0.0
 11
786.9234300756
 21
1348.2270302477
 31
0.0
  0
LINE
  5
43A
  8
0
  6
CONTINUOUS
 62
     7
 10
785.9234429502
 20
1380.6270348134
 30
0.0
 11
785.9234429502
 21
1348.2270302477
 31
0.0
  0
LINE
  5
43B
  8
0
  6
CONTINUOUS
 62
     7
 10
862.2234381341
 20
1066.3270341458
 30
0.0
 11
889.923445096
 21
1038.627027184
 31
0.0
  0
LINE
  5
43C
  8
0
  6
CONTINUOUS
 62
     7
 10
890.7158888482
 20
1409.182949573
 30
0.0
 11
889.923445096
 21
1408.1199305358
 31
0.0
  0
LINE
  5
43D
  8
0
  6
CONTINUOUS
 62
     7
 10
890.7158888482
 20
1409.182949573
 30
0.0
 11
891.5083326005
 21
1409.182949573
 31
0.0
  0
LINE
  5
43E
  8
0
  6
CONTINUOUS
 62
     7
 10
783.9234388971
 20
1099.2270322742
 30
0.0
 11
785.4234493875
 21
1099.2270322742
 31
0.0
  0
LINE
  5
43F
  8
0
  6
CONTINUOUS
 62
     7
 10
783.9234388971
 20
1099.2270322742
 30
0.0
 11
783.9234388971
 21
1348.2270302477
 31
0.0
  0
LINE
  5
440
  8
0
  6
CONTINUOUS
 62
     7
 10
785.9234429502
 20
1348.2270302477
 30
0.0
 11
783.9234388971
 21
1348.2270302477
 31
0.0
  0
LINE
  5
441
  8
0
  6
CONTINUOUS
 62
     7
 10
891.4234555864
 20
1409.8314779105
 30
0.0
 11
892.9234660768
 21
1409.8314779105
 31
0.0
  0
ARC
  5
442
  8
0
  6
CONTINUOUS
 62
     7
 10
890.4367632201
 20
1410.1977392421
 30
0.0
 40
1.052477642844983
 50
285.379320315
 51
339.6350166968
  0
LINE
  5
443
  8
0
  6
CONTINUOUS
 62
     7
 10
889.923445096
 20
1034.5718400779
 30
0.0
 11
889.923445096
 21
1034.1270255151
 31
0.0
  0
ARC
  5
444
  8
0
  6
CONTINUOUS
 62
     7
 10
890.0447769459
 20
1037.0508398755
 30
0.0
 40
1.380782376666681
 50
287.4178974743
 51
3.1631938685
  0
LINE
  5
445
  8
0
  6
CONTINUOUS
 62
     7
 10
891.4234555864
 20
1037.1270315947
 30
0.0
 11
892.9234660768
 21
1037.1270315947
 31
0.0
  0
ARC
  5
446
  8
0
  6
CONTINUOUS
 62
     7
 10
889.9233941003
 20
1037.1270974919
 30
0.0
 40
3.000071977234702
 50
270.0009739223
 51
359.9987414878
  0
LINE
  5
447
  8
0
  6
CONTINUOUS
 62
     7
 10
892.9234660768
 20
1037.581874639
 30
0.0
 11
892.9234660768
 21
1037.1270315947
 31
0.0
  0
LINE
  5
448
  8
0
  6
CONTINUOUS
 62
     7
 10
891.4234555864
 20
1037.581874639
 30
0.0
 11
891.4234555864
 21
1037.1270315947
 31
0.0
  0
LINE
  5
449
  8
0
  6
CONTINUOUS
 62
     7
 10
891.4234555864
 20
1410.3270309272
 30
0.0
 11
892.9234660768
 21
1410.3270309272
 31
0.0
  0
LINE
  5
44A
  8
0
  6
CONTINUOUS
 62
     7
 10
892.9234660768
 20
1409.8314779105
 30
0.0
 11
892.9234660768
 21
1410.3270309272
 31
0.0
  0
LINE
  5
44B
  8
0
  6
CONTINUOUS
 62
     7
 10
891.4234555864
 20
1410.3270309272
 30
0.0
 11
891.4234555864
 21
1409.8314779105
 31
0.0
  0
POLYLINE
  5
44C
  8
0
  6
CONTINUOUS
 62
     7
 66
     1
 10
0.0
 20
0.0
 30
0.0
  0
VERTEX
  5
851
  8
0
  6
CONTINUOUS
 62
     7
 10
891.2097729348
 20
1411.0986428561
 30
0.0
  0
VERTEX
  5
852
  8
0
  6
CONTINUOUS
 62
     7
 10
891.3690365457
 20
1410.7273506226
 30
0.0
  0
VERTEX
  5
853
  8
0
  6
CONTINUOUS
 62
     7
 10
891.4234555864
 20
1410.3270309272
 30
0.0
  0
SEQEND
  5
854
  8
0
  6
CONTINUOUS
 62
     7
  0
LINE
  5
44D
  8
0
  6
CONTINUOUS
 62
     7
 10
891.2097729348
 20
1411.0986428561
 30
0.0
 11
892.4961007737
 21
1411.870254785
 31
0.0
  0
POLYLINE
  5
44E
  8
0
  6
CONTINUOUS
 62
     7
 66
     1
 10
0.0
 20
0.0
 30
0.0
  0
VERTEX
  5
855
  8
0
  6
CONTINUOUS
 62
     7
 10
892.4961007737
 20
1411.870254785
 30
0.0
  0
VERTEX
  5
856
  8
0
  6
CONTINUOUS
 62
     7
 10
892.8146279954
 20
1411.1276852193
 30
0.0
  0
VERTEX
  5
857
  8
0
  6
CONTINUOUS
 62
     7
 10
892.9234660768
 20
1410.3270309272
 30
0.0
  0
SEQEND
  5
858
  8
0
  6
CONTINUOUS
 62
     7
  0
LINE
  5
44F
  8
0
  6
CONTINUOUS
 62
     7
 10
889.4234217309
 20
1034.1270255151
 30
0.0
 11
889.923445096
 21
1034.1270255151
 31
0.0
  0
LINE
  5
450
  8
0
  6
CONTINUOUS
 62
     7
 10
890.9234322213
 20
1411.3778757157
 30
0.0
 11
891.2097729348
 21
1411.0986428561
 31
0.0
  0
ARC
  5
451
  8
0
  6
CONTINUOUS
 62
     7
 10
890.0984338365
 20
1410.4930276177
 30
0.0
 40
2.765060833451757
 50
29.8731903436
 51
72.6405504157
  0
LINE
  5
452
  8
0
  6
CONTINUOUS
 62
     7
 10
782.4234284066
 20
1099.2270322742
 30
0.0
 11
783.9234388971
 21
1099.2270322742
 31
0.0
  0
LINE
  5
453
  8
0
  6
CONTINUOUS
 62
     7
 10
783.9234388971
 20
1348.2270302477
 30
0.0
 11
782.4234284066
 21
1348.2270302477
 31
0.0
  0
LINE
  5
454
  8
0
  6
CONTINUOUS
 62
     7
 10
782.4234284066
 20
1348.2270302477
 30
0.0
 11
769.4234467649
 21
1348.2270302477
 31
0.0
  0
CIRCLE
  5
455
  8
0
  6
CONTINUOUS
 62
     7
 10
775.9234422349
 20
1118.727031261
 30
0.0
 40
2.100000000000136
  0
CIRCLE
  5
456
  8
0
  6
CONTINUOUS
 62
     7
 10
775.9234422349
 20
1223.727031261
 30
0.0
 40
2.100000000000136
  0
CIRCLE
  5
457
  8
0
  6
CONTINUOUS
 62
     7
 10
775.9234422349
 20
1328.727031261
 30
0.0
 40
2.100000000000136
  0
LINE
  5
458
  8
0
  6
CONTINUOUS
 62
     7
 10
769.4234467649
 20
1099.2270322742
 30
0.0
 11
782.4234284066
 21
1099.2270322742
 31
0.0
  0
LINE
  5
459
  8
0
  6
CONTINUOUS
 62
     7
 10
769.4234467649
 20
1348.2270302477
 30
0.0
 11
769.4234467649
 21
1099.2270322742
 31
0.0
  0
ARC
  5
45A
  8
0
  6
CONTINUOUS
 62
     7
 10
871.9234585226
 20
1414.8270591921
 30
0.0
 40
1.500022185431229
 50
172.0009283024
 51
269.999232158
  0
LINE
  5
45B
  8
0
  6
CONTINUOUS
 62
     7
 10
870.6336535119
 20
1415.0357978644
 30
0.0
 11
870.5987251901
 21
1414.8240374627
 31
0.0
  0
ARC
  5
45C
  8
0
  6
CONTINUOUS
 62
     7
 10
732.7532209953
 20
1426.0608067722
 30
0.0
 40
138.3040314661997
 50
354.7172471757
 51
355.5145237994
  0
LINE
  5
45D
  8
0
  6
CONTINUOUS
 62
     7
 10
870.6336535119
 20
1415.0357978644
 30
0.0
 11
870.6336535119
 21
1415.2445482316
 31
0.0
  0
LINE
  5
45E
  8
0
  6
CONTINUOUS
 62
     7
 10
-284.7518407202
 20
1414.8240374627
 30
0.0
 11
-284.7867690421
 21
1415.0357978644
 31
0.0
  0
LINE
  5
45F
  8
0
  6
CONTINUOUS
 62
     7
 10
-284.7867690421
 20
1415.2445482316
 30
0.0
 11
-284.7867690421
 21
1415.0357978644
 31
0.0
  0
ARC
  5
460
  8
0
  6
CONTINUOUS
 62
     7
 10
-89.5956439028
 20
1430.8991080655
 30
0.0
 40
195.8178760397619
 50
184.5853749104
 51
185.1113529388
  0
LINE
  5
461
  8
0
  6
CONTINUOUS
 62
     7
 10
-285.4241215087
 20
1419.5270376506
 30
0.0
 11
-284.7867690421
 21
1415.0357978644
 31
0.0
  0
LINE
  5
462
  8
0
  6
CONTINUOUS
 62
     7
 10
-284.7867690421
 20
1415.2445482316
 30
0.0
 11
-285.3944980002
 21
1419.5270376506
 31
0.0
  0
LINE
  5
463
  8
0
  6
CONTINUOUS
 62
     7
 10
871.2413824701
 20
1419.5270376506
 30
0.0
 11
870.6336535119
 21
1415.2445482316
 31
0.0
  0
LINE
  5
464
  8
0
  6
CONTINUOUS
 62
     7
 10
871.2710059785
 20
1419.5270376506
 30
0.0
 11
870.6336535119
 21
1415.0357978644
 31
0.0
  0
POLYLINE
  5
465
  8
0
  6
CONTINUOUS
 62
     7
 66
     1
 10
0.0
 20
0.0
 30
0.0
  0
VERTEX
  5
859
  8
0
  6
CONTINUOUS
 62
     7
 10
870.4234279298
 20
1413.8458209338
 30
0.0
  0
VERTEX
  5
85A
  8
0
  6
CONTINUOUS
 62
     7
 10
871.1756385469
 20
1413.4628759923
 30
0.0
  0
VERTEX
  5
85B
  8
0
  6
CONTINUOUS
 62
     7
 10
871.9279087686
 20
1413.3270370068
 30
0.0
  0
SEQEND
  5
85C
  8
0
  6
CONTINUOUS
 62
     7
  0
LINE
  5
466
  8
0
  6
CONTINUOUS
 62
     7
 10
-305.519946704
 20
1036.9528221192
 30
0.0
 11
-305.3213440276
 21
1036.3419639172
 31
0.0
  0
POLYLINE
  5
467
  8
0
  6
CONTINUOUS
 62
     7
 66
     1
 10
0.0
 20
0.0
 30
0.0
  0
VERTEX
  5
85D
  8
0
  6
CONTINUOUS
 62
     7
 10
891.1645926141
 20
1036.3365249934
 30
0.0
  0
VERTEX
  5
85E
  8
0
  6
CONTINUOUS
 62
     7
 10
891.2761725091
 20
1036.666228086
 30
0.0
  0
VERTEX
  5
85F
  8
0
  6
CONTINUOUS
 62
     7
 10
891.3679040574
 20
1036.9532244506
 30
0.0
  0
SEQEND
  5
860
  8
0
  6
CONTINUOUS
 62
     7
  0
POLYLINE
  5
468
  8
0
  6
CONTINUOUS
 62
     7
 66
     1
 10
0.0
 20
0.0
 30
0.0
  0
VERTEX
  5
861
  8
0
  6
CONTINUOUS
 62
     7
 10
-305.5519543982
 20
1410.3270309272
 30
0.0
  0
VERTEX
  5
862
  8
0
  6
CONTINUOUS
 62
     7
 10
-305.4796539641
 20
1410.9786289039
 30
0.0
  0
VERTEX
  5
863
  8
0
  6
CONTINUOUS
 62
     7
 10
-305.4424010611
 20
1411.2421857419
 30
0.0
  0
SEQEND
  5
864
  8
0
  6
CONTINUOUS
 62
     7
  0
POLYLINE
  5
469
  8
0
  6
CONTINUOUS
 62
     7
 66
     1
 10
0.0
 20
0.0
 30
0.0
  0
VERTEX
  5
865
  8
0
  6
CONTINUOUS
 62
     7
 10
891.2967361116
 20
1411.1893909278
 30
0.0
  0
VERTEX
  5
866
  8
0
  6
CONTINUOUS
 62
     7
 10
891.326538434
 20
1410.9786289039
 30
0.0
  0
VERTEX
  5
867
  8
0
  6
CONTINUOUS
 62
     7
 10
891.3988388681
 20
1410.3270309272
 30
0.0
  0
SEQEND
  5
868
  8
0
  6
CONTINUOUS
 62
     7
  0
ARC
  5
46A
  8
0
  6
CONTINUOUS
 62
     7
 10
-303.5919456908
 20
1410.1572352231
 30
0.0
 40
1.967349667510036
 50
138.9922063339
 51
175.048823366
  0
ARC
  5
46B
  8
0
  6
CONTINUOUS
 62
     7
 10
889.4388301607
 20
1410.1572352231
 30
0.0
 40
1.967349667510036
 50
4.951176634
 51
41.0077936661
  0
ARC
  5
46C
  8
0
  6
CONTINUOUS
 62
     7
 10
886.4234422349
 20
1409.8314786501
 30
0.0
 40
5.00000000000642
 50
0.0
 51
5.6879527015
  0
ARC
  5
46D
  8
0
  6
CONTINUOUS
 62
     7
 10
-300.5765577651
 20
1409.8314786501
 30
0.0
 40
5.000000000006477
 50
174.3120472985
 51
180.0
  0
LINE
  5
46E
  8
0
  6
CONTINUOUS
 62
     7
 10
287.2540887051
 20
-975.0610423992
 30
0.0
 11
293.5918413291
 21
-975.0610423992
 31
0.0
  0
LINE
  5
46F
  8
0
  6
CONTINUOUS
 62
     7
 10
295.2112976068
 20
-975.0610423992
 30
0.0
 11
297.7789311276
 21
-975.0610423992
 31
0.0
  0
ARC
  5
470
  8
0
  6
CONTINUOUS
 62
     7
 10
362.2781214465
 20
-986.2624175458
 30
0.0
 40
0.6802274156953222
 50
304.7657630676
 51
10.2851606778
  0
LINE
  5
471
  8
0
  6
CONTINUOUS
 62
     7
 10
348.8106570744
 20
-988.6753393123
 30
0.0
 11
349.4734420978
 21
-988.6824769685
 31
0.0
  0
ARC
  5
472
  8
0
  6
CONTINUOUS
 62
     7
 10
348.1406315859
 20
-947.4287874838
 30
0.0
 40
41.25199355060912
 50
254.3923533809
 51
270.9306537087
  0
ARC
  5
473
  8
0
  6
CONTINUOUS
 62
     7
 10
350.734899142
 20
-946.731547409
 30
0.0
 40
41.94804352796911
 50
269.1828107459
 51
285.4539271365
  0
LINE
  5
474
  8
0
  6
CONTINUOUS
 62
     7
 10
349.4734420978
 20
-988.6824769685
 30
0.0
 11
350.1366294526
 21
-988.6753244111
 31
0.0
  0
LINE
  5
475
  8
0
  6
CONTINUOUS
 62
     7
 10
362.9734433793
 20
-986.1664009998
 30
0.0
 11
362.9734433793
 21
-985.7617748687
 31
0.0
  0
LINE
  5
476
  8
0
  6
CONTINUOUS
 62
     7
 10
335.9734408163
 20
-985.763190479
 30
0.0
 11
335.9734408163
 21
-986.1664009998
 31
0.0
  0
ARC
  5
477
  8
0
  6
CONTINUOUS
 62
     7
 10
311.7098176806
 20
-975.2610424264
 30
0.0
 40
55.00000000002023
 50
348.2773094145
 51
357.9136198395
  0
ARC
  5
478
  8
0
  6
CONTINUOUS
 62
     7
 10
387.2370663499
 20
-975.2610424264
 30
0.0
 40
55.00000000001661
 50
182.0863170139
 51
191.7226905856
  0
POLYLINE
  5
479
  8
0
  6
CONTINUOUS
 62
     7
 66
     1
 10
0.0
 20
0.0
 30
0.0
  0
VERTEX
  5
869
  8
0
  6
CONTINUOUS
 62
     7
 10
334.0441129708
 20
-987.0635552118
 30
0.0
  0
VERTEX
  5
86A
  8
0
  6
CONTINUOUS
 62
     7
 10
337.8811508023
 20
-987.5868690917
 30
0.0
  0
VERTEX
  5
86B
  8
0
  6
CONTINUOUS
 62
     7
 10
338.0626655721
 20
-987.607879729
 30
0.0
  0
SEQEND
  5
86C
  8
0
  6
CONTINUOUS
 62
     7
  0
POLYLINE
  5
47A
  8
0
  6
CONTINUOUS
 62
     7
 66
     1
 10
0.0
 20
0.0
 30
0.0
  0
VERTEX
  5
86D
  8
0
  6
CONTINUOUS
 62
     7
 10
360.6692246699
 20
-987.6323325345
 30
0.0
  0
VERTEX
  5
86E
  8
0
  6
CONTINUOUS
 62
     7
 10
361.0657296681
 20
-987.5868690917
 30
0.0
  0
VERTEX
  5
86F
  8
0
  6
CONTINUOUS
 62
     7
 10
364.9027712249
 20
-987.0635552118
 30
0.0
  0
SEQEND
  5
870
  8
0
  6
CONTINUOUS
 62
     7
  0
ARC
  5
47B
  8
0
  6
CONTINUOUS
 62
     7
 10
334.1675468713
 20
-986.2731313434
 30
0.0
 40
0.800000000242391
 50
191.7227076668
 51
261.1241905632
  0
ARC
  5
47C
  8
0
  6
CONTINUOUS
 62
     7
 10
364.7793371592
 20
-986.2731313434
 30
0.0
 40
0.8000000002459026
 50
278.8758094371
 51
348.2772923332
  0
LINE
  5
47D
  8
0
  6
CONTINUOUS
 62
     7
 10
-295.8265625334
 20
-958.06103775
 30
0.0
 11
-295.8265625334
 21
-958.2810384939
 31
0.0
  0
LINE
  5
47E
  8
0
  6
CONTINUOUS
 62
     7
 10
-290.8265673018
 20
-958.2810384939
 30
0.0
 11
-290.8265673018
 21
-958.06103775
 31
0.0
  0
LINE
  5
47F
  8
0
  6
CONTINUOUS
 62
     7
 10
-295.8265625334
 20
-958.2810384939
 30
0.0
 11
-295.4265557624
 21
-958.681045265
 31
0.0
  0
LINE
  5
480
  8
0
  6
CONTINUOUS
 62
     7
 10
-291.2265740729
 20
-958.681045265
 30
0.0
 11
-290.8265673018
 21
-958.2810384939
 31
0.0
  0
LINE
  5
481
  8
0
  6
CONTINUOUS
 62
     7
 10
876.6734517717
 20
-958.2810384939
 30
0.0
 11
877.0734585428
 21
-958.681045265
 31
0.0
  0
LINE
  5
482
  8
0
  6
CONTINUOUS
 62
     7
 10
881.2734402322
 20
-958.681045265
 30
0.0
 11
881.6734470033
 21
-958.2810384939
 31
0.0
  0
LINE
  5
483
  8
0
  6
CONTINUOUS
 62
     7
 10
876.6734517717
 20
-958.06103775
 30
0.0
 11
876.6734517717
 21
-958.2810384939
 31
0.0
  0
LINE
  5
484
  8
0
  6
CONTINUOUS
 62
     7
 10
881.6734470033
 20
-958.2810384939
 30
0.0
 11
881.6734470033
 21
-958.06103775
 31
0.0
  0
LINE
  5
485
  8
0
  6
CONTINUOUS
 62
     7
 10
294.9734420122
 20
-962.2610492418
 30
0.0
 11
294.9734420122
 21
-972.7610481689
 31
0.0
  0
LINE
  5
486
  8
0
  6
CONTINUOUS
 62
     7
 10
890.4734171533
 20
-962.2610492418
 30
0.0
 11
294.9734420122
 21
-962.2610492418
 31
0.0
  0
LINE
  5
487
  8
0
  6
CONTINUOUS
 62
     7
 10
890.4734171533
 20
-972.7610481689
 30
0.0
 11
890.4734171533
 21
-962.2610492418
 31
0.0
  0
ARC
  5
488
  8
0
  6
CONTINUOUS
 62
     7
 10
890.4734420152
 20
-975.7610424265
 30
0.0
 40
3.0
 50
90.0
 51
150.0
  0
ARC
  5
489
  8
0
  6
CONTINUOUS
 62
     7
 10
294.9734420152
 20
-975.7610424265
 30
0.0
 40
3.0
 50
30.0
 51
90.0
  0
LINE
  5
48A
  8
0
  6
CONTINUOUS
 62
     7
 10
297.5715181396
 20
-977.2610498378
 30
0.0
 11
887.8753698968
 21
-977.2610498378
 31
0.0
  0
POLYLINE
  5
48B
  8
0
  6
CONTINUOUS
 62
     7
 66
     1
 10
0.0
 20
0.0
 30
0.0
  0
VERTEX
  5
871
  8
0
  6
CONTINUOUS
 62
     7
 10
297.5715181396
 20
-974.2610437582
 30
0.0
  0
VERTEX
  5
872
  8
0
  6
CONTINUOUS
 62
     7
 10
297.7529691138
 20
-974.9431891153
 30
0.0
  0
VERTEX
  5
873
  8
0
  6
CONTINUOUS
 62
     7
 10
297.882225977
 20
-975.5299521396
 30
0.0
  0
VERTEX
  5
874
  8
0
  6
CONTINUOUS
 62
     7
 10
297.9841559731
 20
-976.3819558332
 30
0.0
  0
VERTEX
  5
875
  8
0
  6
CONTINUOUS
 62
     7
 10
297.8798208364
 20
-976.970611305
 30
0.0
  0
VERTEX
  5
876
  8
0
  6
CONTINUOUS
 62
     7
 10
297.7511656077
 20
-977.1788997362
 30
0.0
  0
VERTEX
  5
877
  8
0
  6
CONTINUOUS
 62
     7
 10
297.5715181396
 20
-977.2610498378
 30
0.0
  0
SEQEND
  5
878
  8
0
  6
CONTINUOUS
 62
     7
  0
POLYLINE
  5
48C
  8
0
  6
CONTINUOUS
 62
     7
 66
     1
 10
0.0
 20
0.0
 30
0.0
  0
VERTEX
  5
879
  8
0
  6
CONTINUOUS
 62
     7
 10
887.8753698968
 20
-977.2610498378
 30
0.0
  0
VERTEX
  5
87A
  8
0
  6
CONTINUOUS
 62
     7
 10
887.6939333581
 20
-977.1824611137
 30
0.0
  0
VERTEX
  5
87B
  8
0
  6
CONTINUOUS
 62
     7
 10
887.5646508836
 20
-976.9794774959
 30
0.0
  0
VERTEX
  5
87C
  8
0
  6
CONTINUOUS
 62
     7
 10
887.462726941
 20
-976.3827604959
 30
0.0
  0
VERTEX
  5
87D
  8
0
  6
CONTINUOUS
 62
     7
 10
887.5670350694
 20
-975.5487872074
 30
0.0
  0
VERTEX
  5
87E
  8
0
  6
CONTINUOUS
 62
     7
 10
887.6957214975
 20
-974.9582392881
 30
0.0
  0
VERTEX
  5
87F
  8
0
  6
CONTINUOUS
 62
     7
 10
887.8753698968
 20
-974.2610437582
 30
0.0
  0
SEQEND
  5
880
  8
0
  6
CONTINUOUS
 62
     7
  0
LINE
  5
48D
  8
0
  6
CONTINUOUS
 62
     7
 10
887.8753698968
 20
-977.2610498378
 30
0.0
 11
887.8753698968
 21
-975.7610393474
 31
0.0
  0
LINE
  5
48E
  8
0
  6
CONTINUOUS
 62
     7
 10
297.5715181396
 20
-975.7610393474
 30
0.0
 11
297.5715181396
 21
-977.2610498378
 31
0.0
  0
LINE
  5
48F
  8
0
  6
CONTINUOUS
 62
     7
 10
890.4734171533
 20
-972.7610481689
 30
0.0
 11
891.9734276437
 21
-972.7610481689
 31
0.0
  0
LINE
  5
490
  8
0
  6
CONTINUOUS
 62
     7
 10
891.9734276437
 20
-974.2610437582
 30
0.0
 11
891.9734276437
 21
-972.7610481689
 31
0.0
  0
LINE
  5
491
  8
0
  6
CONTINUOUS
 62
     7
 10
890.4734171533
 20
-974.2610437582
 30
0.0
 11
891.9734276437
 21
-974.2610437582
 31
0.0
  0
LINE
  5
492
  8
0
  6
CONTINUOUS
 62
     7
 10
890.4734171533
 20
-972.7610481689
 30
0.0
 11
890.4734171533
 21
-974.2610437582
 31
0.0
  0
LINE
  5
493
  8
0
  6
CONTINUOUS
 62
     7
 10
293.4734419991
 20
-972.7610481689
 30
0.0
 11
294.9734420122
 21
-972.7610481689
 31
0.0
  0
LINE
  5
494
  8
0
  6
CONTINUOUS
 62
     7
 10
294.9734420122
 20
-974.2610437582
 30
0.0
 11
294.9734420122
 21
-972.7610481689
 31
0.0
  0
LINE
  5
495
  8
0
  6
CONTINUOUS
 62
     7
 10
293.4734419991
 20
-974.2610437582
 30
0.0
 11
294.9734420122
 21
-974.2610437582
 31
0.0
  0
LINE
  5
496
  8
0
  6
CONTINUOUS
 62
     7
 10
293.4734419991
 20
-972.7610481689
 30
0.0
 11
293.4734419991
 21
-974.2610437582
 31
0.0
  0
LINE
  5
497
  8
0
  6
CONTINUOUS
 62
     7
 10
293.4734419991
 20
-962.2610492418
 30
0.0
 11
294.9734420122
 21
-962.2610492418
 31
0.0
  0
LINE
  5
498
  8
0
  6
CONTINUOUS
 62
     7
 10
293.4734419991
 20
-972.7610481689
 30
0.0
 11
293.4734419991
 21
-962.2610492418
 31
0.0
  0
LINE
  5
499
  8
0
  6
CONTINUOUS
 62
     7
 10
891.9734276437
 20
-962.2610492418
 30
0.0
 11
890.4734171533
 21
-962.2610492418
 31
0.0
  0
LINE
  5
49A
  8
0
  6
CONTINUOUS
 62
     7
 10
891.9734276437
 20
-962.2610492418
 30
0.0
 11
891.9734276437
 21
-972.7610481689
 31
0.0
  0
LINE
  5
49B
  8
0
  6
CONTINUOUS
 62
     7
 10
887.8753698968
 20
-977.2610498378
 30
0.0
 11
888.9734662675
 21
-977.2610498378
 31
0.0
  0
LINE
  5
49C
  8
0
  6
CONTINUOUS
 62
     7
 10
888.9734662675
 20
-975.7610393474
 30
0.0
 11
887.8753698968
 21
-975.7610393474
 31
0.0
  0
LINE
  5
49D
  8
0
  6
CONTINUOUS
 62
     7
 10
888.9734662675
 20
-975.7610393474
 30
0.0
 11
888.9734662675
 21
-977.2610498378
 31
0.0
  0
LINE
  5
49E
  8
0
  6
CONTINUOUS
 62
     7
 10
297.5715181396
 20
-975.7610393474
 30
0.0
 11
296.4734420252
 21
-975.7610393474
 31
0.0
  0
LINE
  5
49F
  8
0
  6
CONTINUOUS
 62
     7
 10
296.4734420252
 20
-977.2610498378
 30
0.0
 11
297.5715181396
 21
-977.2610498378
 31
0.0
  0
LINE
  5
4A0
  8
0
  6
CONTINUOUS
 62
     7
 10
296.4734420252
 20
-977.2610498378
 30
0.0
 11
296.4734420252
 21
-975.7610393474
 31
0.0
  0
ARC
  5
4A1
  8
0
  6
CONTINUOUS
 62
     7
 10
888.9734544589
 20
-974.2610766528
 30
0.0
 40
2.999973185021125
 50
270.0002255306
 51
0.0006282476
  0
ARC
  5
4A2
  8
0
  6
CONTINUOUS
 62
     7
 10
888.9734513811
 20
-974.2610735749
 30
0.0
 40
1.499965772530774
 50
270.0005686339
 51
0.0011389438
  0
ARC
  5
4A3
  8
0
  6
CONTINUOUS
 62
     7
 10
296.4734620401
 20
-974.2610297969
 30
0.0
 40
3.000020041036379
 50
180.0002666393
 51
269.9996177456
  0
ARC
  5
4A4
  8
0
  6
CONTINUOUS
 62
     7
 10
296.4734434635
 20
-974.261037896
 30
0.0
 40
1.500001451400665
 50
180.0002239172
 51
269.9999450591
  0
POLYLINE
  5
4A5
  8
0
  6
CONTINUOUS
 62
     7
 66
     1
 10
0.0
 20
0.0
 30
0.0
  0
VERTEX
  5
881
  8
0
  6
CONTINUOUS
 62
     7
 10
-302.028485427
 20
-974.2610437582
 30
0.0
  0
VERTEX
  5
882
  8
0
  6
CONTINUOUS
 62
     7
 10
-301.8470488883
 20
-974.9431891153
 30
0.0
  0
VERTEX
  5
883
  8
0
  6
CONTINUOUS
 62
     7
 10
-301.7177664138
 20
-975.5299521396
 30
0.0
  0
VERTEX
  5
884
  8
0
  6
CONTINUOUS
 62
     7
 10
-301.6158424712
 20
-976.3819558332
 30
0.0
  0
VERTEX
  5
885
  8
0
  6
CONTINUOUS
 62
     7
 10
-301.7201505995
 20
-976.970611305
 30
0.0
  0
VERTEX
  5
886
  8
0
  6
CONTINUOUS
 62
     7
 10
-301.8488370276
 20
-977.1788997362
 30
0.0
  0
VERTEX
  5
887
  8
0
  6
CONTINUOUS
 62
     7
 10
-302.028485427
 20
-977.2610498378
 30
0.0
  0
SEQEND
  5
888
  8
0
  6
CONTINUOUS
 62
     7
  0
LINE
  5
4A6
  8
0
  6
CONTINUOUS
 62
     7
 10
-302.028485427
 20
-975.7610393474
 30
0.0
 11
-302.028485427
 21
-977.2610498378
 31
0.0
  0
POLYLINE
  5
4A7
  8
0
  6
CONTINUOUS
 62
     7
 66
     1
 10
0.0
 20
0.0
 30
0.0
  0
VERTEX
  5
889
  8
0
  6
CONTINUOUS
 62
     7
 10
283.2753659763
 20
-977.2610498378
 30
0.0
  0
VERTEX
  5
88A
  8
0
  6
CONTINUOUS
 62
     7
 10
283.0939154678
 20
-977.1824611137
 30
0.0
  0
VERTEX
  5
88B
  8
0
  6
CONTINUOUS
 62
     7
 10
282.964658139
 20
-976.9794774959
 30
0.0
  0
VERTEX
  5
88C
  8
0
  6
CONTINUOUS
 62
     7
 10
282.8627286085
 20
-976.3827604959
 30
0.0
  0
VERTEX
  5
88D
  8
0
  6
CONTINUOUS
 62
     7
 10
282.9670637452
 20
-975.5487872074
 30
0.0
  0
VERTEX
  5
88E
  8
0
  6
CONTINUOUS
 62
     7
 10
283.0957194396
 20
-974.9582392881
 30
0.0
  0
VERTEX
  5
88F
  8
0
  6
CONTINUOUS
 62
     7
 10
283.2753659763
 20
-974.2610437582
 30
0.0
  0
SEQEND
  5
890
  8
0
  6
CONTINUOUS
 62
     7
  0
LINE
  5
4A8
  8
0
  6
CONTINUOUS
 62
     7
 10
283.2753659763
 20
-977.2610498378
 30
0.0
 11
283.2753659763
 21
-975.7610393474
 31
0.0
  0
LINE
  5
4A9
  8
0
  6
CONTINUOUS
 62
     7
 10
-302.028485427
 20
-977.2610498378
 30
0.0
 11
283.2753659763
 21
-977.2610498378
 31
0.0
  0
LINE
  5
4AA
  8
0
  6
CONTINUOUS
 62
     7
 10
-304.6265326834
 20
-962.2610492418
 30
0.0
 11
-304.6265326834
 21
-972.7610481689
 31
0.0
  0
LINE
  5
4AB
  8
0
  6
CONTINUOUS
 62
     7
 10
285.8734425695
 20
-962.2610492418
 30
0.0
 11
-304.6265326834
 21
-962.2610492418
 31
0.0
  0
LINE
  5
4AC
  8
0
  6
CONTINUOUS
 62
     7
 10
285.8734425695
 20
-972.7610481689
 30
0.0
 11
285.8734425695
 21
-962.2610492418
 31
0.0
  0
ARC
  5
4AD
  8
0
  6
CONTINUOUS
 62
     7
 10
-304.6265575457
 20
-975.7610424265
 30
0.0
 40
3.000000000000034
 50
30.0
 51
90.0
  0
ARC
  5
4AE
  8
0
  6
CONTINUOUS
 62
     7
 10
285.8734424543
 20
-975.7610424265
 30
0.0
 40
3.0
 50
90.0
 51
150.0
  0
LINE
  5
4AF
  8
0
  6
CONTINUOUS
 62
     7
 10
-306.1265431739
 20
-972.7610481689
 30
0.0
 11
-304.6265326834
 21
-972.7610481689
 31
0.0
  0
LINE
  5
4B0
  8
0
  6
CONTINUOUS
 62
     7
 10
-304.6265326834
 20
-972.7610481689
 30
0.0
 11
-304.6265326834
 21
-974.2610437582
 31
0.0
  0
LINE
  5
4B1
  8
0
  6
CONTINUOUS
 62
     7
 10
-306.1265431739
 20
-974.2610437582
 30
0.0
 11
-304.6265326834
 21
-974.2610437582
 31
0.0
  0
LINE
  5
4B2
  8
0
  6
CONTINUOUS
 62
     7
 10
-306.1265431739
 20
-972.7610481689
 30
0.0
 11
-306.1265431739
 21
-974.2610437582
 31
0.0
  0
LINE
  5
4B3
  8
0
  6
CONTINUOUS
 62
     7
 10
285.8734425695
 20
-972.7610481689
 30
0.0
 11
287.3734423497
 21
-972.7610481689
 31
0.0
  0
LINE
  5
4B4
  8
0
  6
CONTINUOUS
 62
     7
 10
287.3734423497
 20
-974.2610437582
 30
0.0
 11
287.3734423497
 21
-972.7610481689
 31
0.0
  0
LINE
  5
4B5
  8
0
  6
CONTINUOUS
 62
     7
 10
285.8734425695
 20
-974.2610437582
 30
0.0
 11
287.3734423497
 21
-974.2610437582
 31
0.0
  0
LINE
  5
4B6
  8
0
  6
CONTINUOUS
 62
     7
 10
285.8734425695
 20
-972.7610481689
 30
0.0
 11
285.8734425695
 21
-974.2610437582
 31
0.0
  0
LINE
  5
4B7
  8
0
  6
CONTINUOUS
 62
     7
 10
287.3734423497
 20
-962.2610492418
 30
0.0
 11
285.8734425695
 21
-962.2610492418
 31
0.0
  0
LINE
  5
4B8
  8
0
  6
CONTINUOUS
 62
     7
 10
287.3734423497
 20
-962.2610492418
 30
0.0
 11
287.3734423497
 21
-972.7610481689
 31
0.0
  0
LINE
  5
4B9
  8
0
  6
CONTINUOUS
 62
     7
 10
-306.1265431739
 20
-962.2610492418
 30
0.0
 11
-304.6265326834
 21
-962.2610492418
 31
0.0
  0
LINE
  5
4BA
  8
0
  6
CONTINUOUS
 62
     7
 10
-306.1265431739
 20
-972.7610481689
 30
0.0
 11
-306.1265431739
 21
-962.2610492418
 31
0.0
  0
LINE
  5
4BB
  8
0
  6
CONTINUOUS
 62
     7
 10
283.2753659763
 20
-977.2610498378
 30
0.0
 11
284.3734427893
 21
-977.2610498378
 31
0.0
  0
LINE
  5
4BC
  8
0
  6
CONTINUOUS
 62
     7
 10
284.3734427893
 20
-975.7610393474
 30
0.0
 11
283.2753659763
 21
-975.7610393474
 31
0.0
  0
LINE
  5
4BD
  8
0
  6
CONTINUOUS
 62
     7
 10
284.3734427893
 20
-975.7610393474
 30
0.0
 11
284.3734427893
 21
-977.2610498378
 31
0.0
  0
LINE
  5
4BE
  8
0
  6
CONTINUOUS
 62
     7
 10
-303.1265817977
 20
-975.7610393474
 30
0.0
 11
-302.028485427
 21
-975.7610393474
 31
0.0
  0
LINE
  5
4BF
  8
0
  6
CONTINUOUS
 62
     7
 10
-303.1265817977
 20
-977.2610498378
 30
0.0
 11
-303.1265817977
 21
-975.7610393474
 31
0.0
  0
LINE
  5
4C0
  8
0
  6
CONTINUOUS
 62
     7
 10
-303.1265817977
 20
-977.2610498378
 30
0.0
 11
-302.028485427
 21
-977.2610498378
 31
0.0
  0
ARC
  5
4C1
  8
0
  6
CONTINUOUS
 62
     7
 10
-303.1265511441
 20
-974.2610578082
 30
0.0
 40
2.999992029777434
 50
179.999731663
 51
269.9994145587
  0
ARC
  5
4C2
  8
0
  6
CONTINUOUS
 62
     7
 10
-303.1265718624
 20
-974.261078526
 30
0.0
 40
1.499960821404377
 50
179.9986719299
 51
269.9996204923
  0
ARC
  5
4C3
  8
0
  6
CONTINUOUS
 62
     7
 10
284.3734450794
 20
-974.2610418573
 30
0.0
 40
1.499997490074904
 50
269.9999125232
 51
359.999927394
  0
ARC
  5
4C4
  8
0
  6
CONTINUOUS
 62
     7
 10
284.3734110857
 20
-974.2610185739
 30
0.0
 40
3.000031264110454
 50
270.0006054876
 51
359.9995190209
  0
ARC
  5
4C5
  8
0
  6
CONTINUOUS
 62
     7
 10
-57.4086692327
 20
-968.037172182
 30
0.0
 40
227.4319175032288
 50
177.1013670603
 51
177.3368986709
  0
ARC
  5
4C6
  8
0
  6
CONTINUOUS
 62
     7
 10
643.2555537026
 20
-968.037172182
 30
0.0
 40
227.4319175032287
 50
2.6631013291
 51
2.8986329397
  0
LINE
  5
4C7
  8
0
  6
CONTINUOUS
 62
     7
 10
-305.0765477515
 20
-956.061048598
 30
0.0
 11
-304.0810309745
 21
-956.061048598
 31
0.0
  0
LINE
  5
4C8
  8
0
  6
CONTINUOUS
 62
     7
 10
889.9279154443
 20
-956.061048598
 30
0.0
 11
890.9234322213
 21
-956.061048598
 31
0.0
  0
LINE
  5
4C9
  8
0
  6
CONTINUOUS
 62
     7
 10
267.9234418624
 20
-958.06103775
 30
0.0
 11
267.9234418624
 21
-956.061048598
 31
0.0
  0
ARC
  5
4CA
  8
0
  6
CONTINUOUS
 62
     7
 10
269.9234422349
 20
-958.0610428522
 30
0.0
 40
2.0
 50
180.0
 51
270.0
  0
ARC
  5
4CB
  8
0
  6
CONTINUOUS
 62
     7
 10
315.9234422349
 20
-958.0610428522
 30
0.0
 40
2.0
 50
270.0
 51
0.0
  0
LINE
  5
4CC
  8
0
  6
CONTINUOUS
 62
     7
 10
317.9234426075
 20
-958.06103775
 30
0.0
 11
317.9234426075
 21
-956.061048598
 31
0.0
  0
LINE
  5
4CD
  8
0
  6
CONTINUOUS
 62
     7
 10
269.9234421902
 20
-960.0610418031
 30
0.0
 11
315.9234422796
 21
-960.0610418031
 31
0.0
  0
LINE
  5
4CE
  8
0
  6
CONTINUOUS
 62
     7
 10
317.9234426075
 20
-958.06103775
 30
0.0
 11
317.9234426075
 21
-961.8514312217
 31
0.0
  0
LINE
  5
4CF
  8
0
  6
CONTINUOUS
 62
     7
 10
267.9234418624
 20
-961.8514312217
 30
0.0
 11
267.9234418624
 21
-958.06103775
 31
0.0
  0
LINE
  5
4D0
  8
0
  6
CONTINUOUS
 62
     7
 10
267.9234418624
 20
-962.2610492418
 30
0.0
 11
267.9234418624
 21
-961.8514312217
 31
0.0
  0
LINE
  5
4D1
  8
0
  6
CONTINUOUS
 62
     7
 10
317.9234426075
 20
-961.8514312217
 30
0.0
 11
317.9234426075
 21
-962.2610492418
 31
0.0
  0
LINE
  5
4D2
  8
0
  6
CONTINUOUS
 62
     7
 10
285.8734425695
 20
-974.2610437582
 30
0.0
 11
285.8734425695
 21
-975.7610393474
 31
0.0
  0
LINE
  5
4D3
  8
0
  6
CONTINUOUS
 62
     7
 10
-302.0765863753
 20
-572.8610439012
 30
0.0
 11
-302.0765863753
 21
-576.8610371063
 31
0.0
  0
LINE
  5
4D4
  8
0
  6
CONTINUOUS
 62
     7
 10
887.9234708452
 20
-572.8610439012
 30
0.0
 11
887.9234708452
 21
-576.8610371063
 31
0.0
  0
POLYLINE
  5
4D5
  8
0
  6
CONTINUOUS
 62
     7
 66
     1
 10
0.0
 20
0.0
 30
0.0
  0
VERTEX
  5
891
  8
0
  6
CONTINUOUS
 62
     7
 10
884.9234498643
 20
-569.8610378215
 30
0.0
  0
VERTEX
  5
892
  8
0
  6
CONTINUOUS
 62
     7
 10
885.6875218057
 20
-570.0979364822
 30
0.0
  0
VERTEX
  5
893
  8
0
  6
CONTINUOUS
 62
     7
 10
886.4523090028
 20
-570.7720352123
 30
0.0
  0
VERTEX
  5
894
  8
0
  6
CONTINUOUS
 62
     7
 10
887.2170961999
 20
-571.7766715
 30
0.0
  0
VERTEX
  5
895
  8
0
  6
CONTINUOUS
 62
     7
 10
887.9234708452
 20
-572.8610439012
 30
0.0
  0
SEQEND
  5
896
  8
0
  6
CONTINUOUS
 62
     7
  0
ARC
  5
4D6
  8
0
  6
CONTINUOUS
 62
     7
 10
-297.4392358816
 20
-574.498396448
 30
0.0
 40
4.917920593526615
 50
109.4467880978
 51
160.5529273122
  0
LINE
  5
4D7
  8
0
  6
CONTINUOUS
 62
     7
 10
-299.0765653945
 20
-569.8610378215
 30
0.0
 11
884.9234498643
 21
-569.8610378215
 31
0.0
  0
ARC
  5
4D8
  8
0
  6
CONTINUOUS
 62
     7
 10
349.4734439605
 20
-881.128948792
 30
0.0
 40
101.3167805254662
 50
262.49900654
 51
277.50099346
  0
LINE
  5
4D9
  8
0
  6
CONTINUOUS
 62
     7
 10
365.5626542472
 20
-981.6281629512
 30
0.0
 11
365.8688656592
 21
-979.7184450338
 31
0.0
  0
LINE
  5
4DA
  8
0
  6
CONTINUOUS
 62
     7
 10
333.0780185365
 20
-979.7184450338
 30
0.0
 11
333.3842336737
 21
-981.6281629512
 31
0.0
  0
ARC
  5
4DB
  8
0
  6
CONTINUOUS
 62
     7
 10
364.7855406266
 20
-981.460532678
 30
0.0
 40
0.7949877281304434
 50
278.4798828629
 51
347.8273066779
  0
POLYLINE
  5
4DC
  8
0
  6
CONTINUOUS
 62
     7
 66
     1
 10
0.0
 20
0.0
 30
0.0
  0
VERTEX
  5
897
  8
0
  6
CONTINUOUS
 62
     7
 10
354.2087480032
 20
-985.284520478
 30
0.0
  0
VERTEX
  5
898
  8
0
  6
CONTINUOUS
 62
     7
 10
356.2640465402
 20
-985.2846396873
 30
0.0
  0
VERTEX
  5
899
  8
0
  6
CONTINUOUS
 62
     7
 10
358.1274590992
 20
-985.2942956397
 30
0.0
  0
VERTEX
  5
89A
  8
0
  6
CONTINUOUS
 62
     7
 10
359.7432590627
 20
-985.3210134218
 30
0.0
  0
VERTEX
  5
89B
  8
0
  6
CONTINUOUS
 62
     7
 10
361.0696188711
 20
-985.3721095035
 30
0.0
  0
VERTEX
  5
89C
  8
0
  6
CONTINUOUS
 62
     7
 10
362.0648599767
 20
-985.4546619365
 30
0.0
  0
VERTEX
  5
89D
  8
0
  6
CONTINUOUS
 62
     7
 10
362.7047232889
 20
-985.5722768018
 30
0.0
  0
VERTEX
  5
89E
  8
0
  6
CONTINUOUS
 62
     7
 10
362.9653967523
 20
-985.7266081283
 30
0.0
  0
VERTEX
  5
89F
  8
0
  6
CONTINUOUS
 62
     7
 10
362.943320682
 20
-985.7616705606
 30
0.0
  0
SEQEND
  5
8A0
  8
0
  6
CONTINUOUS
 62
     7
  0
POLYLINE
  5
4DD
  8
0
  6
CONTINUOUS
 62
     7
 66
     1
 10
0.0
 20
0.0
 30
0.0
  0
VERTEX
  5
8A1
  8
0
  6
CONTINUOUS
 62
     7
 10
344.7381361925
 20
-985.284520478
 30
0.0
  0
VERTEX
  5
8A2
  8
0
  6
CONTINUOUS
 62
     7
 10
346.2697594964
 20
-985.2867109487
 30
0.0
  0
VERTEX
  5
8A3
  8
0
  6
CONTINUOUS
 62
     7
 10
349.4734420978
 20
-985.2896911809
 30
0.0
  0
VERTEX
  5
8A4
  8
0
  6
CONTINUOUS
 62
     7
 10
351.0734431052
 20
-985.2888567159
 30
0.0
  0
VERTEX
  5
8A5
  8
0
  6
CONTINUOUS
 62
     7
 10
354.2087480032
 20
-985.284520478
 30
0.0
  0
SEQEND
  5
8A6
  8
0
  6
CONTINUOUS
 62
     7
  0
POLYLINE
  5
4DE
  8
0
  6
CONTINUOUS
 62
     7
 66
     1
 10
0.0
 20
0.0
 30
0.0
  0
VERTEX
  5
8A7
  8
0
  6
CONTINUOUS
 62
     7
 10
336.0197536253
 20
-985.7632500837
 30
0.0
  0
VERTEX
  5
8A8
  8
0
  6
CONTINUOUS
 62
     7
 10
336.0452308857
 20
-985.6563342521
 30
0.0
  0
VERTEX
  5
8A9
  8
0
  6
CONTINUOUS
 62
     7
 10
336.4684983694
 20
-985.5181706855
 30
0.0
  0
VERTEX
  5
8AA
  8
0
  6
CONTINUOUS
 62
     7
 10
337.2557341658
 20
-985.4158593128
 30
0.0
  0
VERTEX
  5
8AB
  8
0
  6
CONTINUOUS
 62
     7
 10
338.3901409411
 20
-985.347567291
 30
0.0
  0
VERTEX
  5
8AC
  8
0
  6
CONTINUOUS
 62
     7
 10
339.8347004854
 20
-985.3074086616
 30
0.0
  0
VERTEX
  5
8AD
  8
0
  6
CONTINUOUS
 62
     7
 10
341.5586717033
 20
-985.2887375066
 30
0.0
  0
VERTEX
  5
8AE
  8
0
  6
CONTINUOUS
 62
     7
 10
343.5058697664
 20
-985.2838499258
 30
0.0
  0
VERTEX
  5
8AF
  8
0
  6
CONTINUOUS
 62
     7
 10
344.7381361925
 20
-985.284520478
 30
0.0
  0
SEQEND
  5
8B0
  8
0
  6
CONTINUOUS
 62
     7
  0
LINE
  5
4DF
  8
0
  6
CONTINUOUS
 62
     7
 10
333.3842336737
 20
-985.3267205665
 30
0.0
 11
333.3842336737
 21
-981.6281629512
 31
0.0
  0
POLYLINE
  5
4E0
  8
0
  6
CONTINUOUS
 62
     7
 66
     1
 10
0.0
 20
0.0
 30
0.0
  0
VERTEX
  5
8B1
  8
0
  6
CONTINUOUS
 62
     7
 10
361.4955760145
 20
-986.5948093841
 30
0.0
  0
VERTEX
  5
8B2
  8
0
  6
CONTINUOUS
 62
     7
 10
362.3260773324
 20
-986.4545149515
 30
0.0
  0
VERTEX
  5
8B3
  8
0
  6
CONTINUOUS
 62
     7
 10
362.8381780886
 20
-986.2993789623
 30
0.0
  0
VERTEX
  5
8B4
  8
0
  6
CONTINUOUS
 62
     7
 10
362.9683099293
 20
-986.1404282758
 30
0.0
  0
VERTEX
  5
8B5
  8
0
  6
CONTINUOUS
 62
     7
 10
362.7127401137
 20
-985.9822226474
 30
0.0
  0
VERTEX
  5
8B6
  8
0
  6
CONTINUOUS
 62
     7
 10
362.0787776613
 20
-985.8292920301
 30
0.0
  0
VERTEX
  5
8B7
  8
0
  6
CONTINUOUS
 62
     7
 10
361.0845423841
 20
-985.6859875629
 30
0.0
  0
VERTEX
  5
8B8
  8
0
  6
CONTINUOUS
 62
     7
 10
359.7584582471
 20
-985.5564070651
 30
0.0
  0
VERTEX
  5
8B9
  8
0
  6
CONTINUOUS
 62
     7
 10
358.1384114527
 20
-985.444260926
 30
0.0
  0
VERTEX
  5
8BA
  8
0
  6
CONTINUOUS
 62
     7
 10
356.2707148098
 20
-985.3527677963
 30
0.0
  0
VERTEX
  5
8BB
  8
0
  6
CONTINUOUS
 62
     7
 10
354.2087480032
 20
-985.284520478
 30
0.0
  0
SEQEND
  5
8BC
  8
0
  6
CONTINUOUS
 62
     7
  0
POLYLINE
  5
4E1
  8
0
  6
CONTINUOUS
 62
     7
 66
     1
 10
0.0
 20
0.0
 30
0.0
  0
VERTEX
  5
8BD
  8
0
  6
CONTINUOUS
 62
     7
 10
337.4513081812
 20
-986.5948093841
 30
0.0
  0
VERTEX
  5
8BE
  8
0
  6
CONTINUOUS
 62
     7
 10
336.6208068632
 20
-986.4545149515
 30
0.0
  0
VERTEX
  5
8BF
  8
0
  6
CONTINUOUS
 62
     7
 10
336.1087061071
 20
-986.2993789623
 30
0.0
  0
VERTEX
  5
8C0
  8
0
  6
CONTINUOUS
 62
     7
 10
335.9785779917
 20
-986.1404282758
 30
0.0
  0
VERTEX
  5
8C1
  8
0
  6
CONTINUOUS
 62
     7
 10
336.2341478073
 20
-985.9822226474
 30
0.0
  0
VERTEX
  5
8C2
  8
0
  6
CONTINUOUS
 62
     7
 10
336.8681065344
 20
-985.8292920301
 30
0.0
  0
VERTEX
  5
8C3
  8
0
  6
CONTINUOUS
 62
     7
 10
337.8623380863
 20
-985.6859875629
 30
0.0
  0
VERTEX
  5
8C4
  8
0
  6
CONTINUOUS
 62
     7
 10
339.1884259486
 20
-985.5564070651
 30
0.0
  0
VERTEX
  5
8C5
  8
0
  6
CONTINUOUS
 62
     7
 10
340.8084690177
 20
-985.444260926
 30
0.0
  0
VERTEX
  5
8C6
  8
0
  6
CONTINUOUS
 62
     7
 10
342.6761656606
 20
-985.3527677963
 30
0.0
  0
VERTEX
  5
8C7
  8
0
  6
CONTINUOUS
 62
     7
 10
344.7381361925
 20
-985.284520478
 30
0.0
  0
SEQEND
  5
8C8
  8
0
  6
CONTINUOUS
 62
     7
  0
POLYLINE
  5
4E2
  8
0
  6
CONTINUOUS
 62
     7
 66
     1
 10
0.0
 20
0.0
 30
0.0
  0
VERTEX
  5
8C9
  8
0
  6
CONTINUOUS
 62
     7
 10
349.4734420978
 20
-986.0258234451
 30
0.0
  0
VERTEX
  5
8CA
  8
0
  6
CONTINUOUS
 62
     7
 10
347.3439208769
 20
-986.0381318042
 30
0.0
  0
VERTEX
  5
8CB
  8
0
  6
CONTINUOUS
 62
     7
 10
345.2724918329
 20
-986.0747290561
 30
0.0
  0
VERTEX
  5
8CC
  8
0
  6
CONTINUOUS
 62
     7
 10
343.3156489932
 20
-986.1346019218
 30
0.0
  0
VERTEX
  5
8CD
  8
0
  6
CONTINUOUS
 62
     7
 10
341.526779493
 20
-986.2161261747
 30
0.0
  0
VERTEX
  5
8CE
  8
0
  6
CONTINUOUS
 62
     7
 10
339.9546697342
 20
-986.3170815418
 30
0.0
  0
VERTEX
  5
8CF
  8
0
  6
CONTINUOUS
 62
     7
 10
338.6422089838
 20
-986.4347113082
 30
0.0
  0
VERTEX
  5
8D0
  8
0
  6
CONTINUOUS
 62
     7
 10
337.6251972818
 20
-986.5657968233
 30
0.0
  0
VERTEX
  5
8D1
  8
0
  6
CONTINUOUS
 62
     7
 10
336.9313731396
 20
-986.7067767093
 30
0.0
  0
VERTEX
  5
8D2
  8
0
  6
CONTINUOUS
 62
     7
 10
336.5796647572
 20
-986.8538064668
 30
0.0
  0
VERTEX
  5
8D3
  8
0
  6
CONTINUOUS
 62
     7
 10
336.5796647572
 20
-987.0028627822
 30
0.0
  0
VERTEX
  5
8D4
  8
0
  6
CONTINUOUS
 62
     7
 10
336.880984863
 20
-987.1355129192
 30
0.0
  0
SEQEND
  5
8D5
  8
0
  6
CONTINUOUS
 62
     7
  0
POLYLINE
  5
4E3
  8
0
  6
CONTINUOUS
 62
     7
 66
     1
 10
0.0
 20
0.0
 30
0.0
  0
VERTEX
  5
8D6
  8
0
  6
CONTINUOUS
 62
     7
 10
361.7072172069
 20
-987.2220141599
 30
0.0
  0
VERTEX
  5
8D7
  8
0
  6
CONTINUOUS
 62
     7
 10
362.0155147814
 20
-987.1498776386
 30
0.0
  0
VERTEX
  5
8D8
  8
0
  6
CONTINUOUS
 62
     7
 10
362.3672194385
 20
-987.0028627822
 30
0.0
  0
VERTEX
  5
8D9
  8
0
  6
CONTINUOUS
 62
     7
 10
362.3672194385
 20
-986.8538064668
 30
0.0
  0
VERTEX
  5
8DA
  8
0
  6
CONTINUOUS
 62
     7
 10
362.0155147814
 20
-986.7067767093
 30
0.0
  0
VERTEX
  5
8DB
  8
0
  6
CONTINUOUS
 62
     7
 10
361.3216869139
 20
-986.5657968233
 30
0.0
  0
VERTEX
  5
8DC
  8
0
  6
CONTINUOUS
 62
     7
 10
360.3046752118
 20
-986.4347113082
 30
0.0
  0
VERTEX
  5
8DD
  8
0
  6
CONTINUOUS
 62
     7
 10
358.9922107362
 20
-986.3170815418
 30
0.0
  0
VERTEX
  5
8DE
  8
0
  6
CONTINUOUS
 62
     7
 10
357.4201084279
 20
-986.2161261747
 30
0.0
  0
VERTEX
  5
8DF
  8
0
  6
CONTINUOUS
 62
     7
 10
355.6312314772
 20
-986.1346019218
 30
0.0
  0
VERTEX
  5
8E0
  8
0
  6
CONTINUOUS
 62
     7
 10
353.6743923628
 20
-986.0747290561
 30
0.0
  0
VERTEX
  5
8E1
  8
0
  6
CONTINUOUS
 62
     7
 10
351.6029633188
 20
-986.0381318042
 30
0.0
  0
VERTEX
  5
8E2
  8
0
  6
CONTINUOUS
 62
     7
 10
349.4734420978
 20
-986.0258234451
 30
0.0
  0
SEQEND
  5
8E3
  8
0
  6
CONTINUOUS
 62
     7
  0
LINE
  5
4E4
  8
0
  6
CONTINUOUS
 62
     7
 10
356.9953135752
 20
-987.9138750741
 30
0.0
 11
354.512377789
 21
-988.1497455547
 31
0.0
  0
ARC
  5
4E5
  8
0
  6
CONTINUOUS
 62
     7
 10
350.1810718365
 20
-1025.2952745348
 30
0.0
 40
37.3971995537708
 50
83.3491345095
 51
91.0842153364
  0
ARC
  5
4E6
  8
0
  6
CONTINUOUS
 62
     7
 10
348.7655276037
 20
-1025.2894173499
 30
0.0
 40
37.39134880774436
 50
88.9151785759
 51
96.6514715781
  0
LINE
  5
4E7
  8
0
  6
CONTINUOUS
 62
     7
 10
344.4345064067
 20
-988.1497455547
 30
0.0
 11
341.9515743458
 21
-987.9138750741
 31
0.0
  0
ARC
  5
4E8
  8
0
  6
CONTINUOUS
 62
     7
 10
343.0243270297
 20
-979.3499957606
 30
0.0
 40
8.920878666620427
 50
258.8265185583
 51
263.096130482
  0
LINE
  5
4E9
  8
0
  6
CONTINUOUS
 62
     7
 10
341.9520027541
 20
-988.2061911533
 30
0.0
 11
344.4353147947
 21
-988.4367717216
 31
0.0
  0
ARC
  5
4EA
  8
0
  6
CONTINUOUS
 62
     7
 10
349.0586494276
 20
-940.1724910238
 30
0.0
 40
48.50910697933091
 50
266.2789131612
 51
270.489931901
  0
ARC
  5
4EB
  8
0
  6
CONTINUOUS
 62
     7
 10
349.8878821966
 20
-940.1615673206
 30
0.0
 40
48.52002727044582
 50
269.5105947253
 51
273.7208769849
  0
LINE
  5
4EC
  8
0
  6
CONTINUOUS
 62
     7
 10
354.5115805768
 20
-988.4367717216
 30
0.0
 11
356.9948814415
 21
-988.2061911533
 31
0.0
  0
ARC
  5
4ED
  8
0
  6
CONTINUOUS
 62
     7
 10
355.9279928645
 20
-979.3849902883
 30
0.0
 40
8.885484563915794
 50
276.896197349
 51
281.1899357857
  0
LINE
  5
4EE
  8
0
  6
CONTINUOUS
 62
     7
 10
888.2373489045
 20
-973.7610352943
 30
0.0
 11
888.4734429025
 21
-973.7610352943
 31
0.0
  0
ARC
  5
4EF
  8
0
  6
CONTINUOUS
 62
     7
 10
887.9734420152
 20
-973.2610424265
 30
0.0
 40
2.5
 50
270.0
 51
281.5369590328
  0
LINE
  5
4F0
  8
0
  6
CONTINUOUS
 62
     7
 10
888.4734429025
 20
-973.7610352943
 30
0.0
 11
888.4734429025
 21
-975.7105393121
 31
0.0
  0
ARC
  5
4F1
  8
0
  6
CONTINUOUS
 62
     7
 10
887.9734420152
 20
-973.2610424265
 30
0.0
 40
2.5
 50
281.5369590328
 51
0.0000000001
  0
LINE
  5
4F2
  8
0
  6
CONTINUOUS
 62
     7
 10
-302.3904644347
 20
-973.7610352943
 30
0.0
 11
-302.6265584326
 21
-973.7610352943
 31
0.0
  0
LINE
  5
4F3
  8
0
  6
CONTINUOUS
 62
     7
 10
-302.6265584326
 20
-973.7610352943
 30
0.0
 11
-302.6265584326
 21
-975.7105393121
 31
0.0
  0
ARC
  5
4F4
  8
0
  6
CONTINUOUS
 62
     7
 10
-302.1265575457
 20
-973.2610424265
 30
0.0
 40
2.500000000000114
 50
258.4630409672
 51
270.0
  0
ARC
  5
4F5
  8
0
  6
CONTINUOUS
 62
     7
 10
-302.1265575457
 20
-973.2610424265
 30
0.0
 40
2.500000000000014
 50
180.0
 51
258.4630409672
  0
CIRCLE
  5
4F6
  8
0
  6
CONTINUOUS
 62
     7
 10
864.9234422349
 20
-891.0610428522
 30
0.0
 40
9.350000000000023
  0
CIRCLE
  5
4F7
  8
0
  6
CONTINUOUS
 62
     7
 10
-279.0765577651
 20
-891.0610428522
 30
0.0
 40
9.350000000000012
  0
CIRCLE
  5
4F8
  8
0
  6
CONTINUOUS
 62
     7
 10
864.9234422349
 20
-641.0610428522
 30
0.0
 40
9.350000000000136
  0
CIRCLE
  5
4F9
  8
0
  6
CONTINUOUS
 62
     7
 10
-279.0765577651
 20
-641.0610428522
 30
0.0
 40
9.350000000000012
  0
LINE
  5
4FA
  8
0
  6
CONTINUOUS
 62
     7
 10
-287.5771604872
 20
-962.2610492418
 30
0.0
 11
-287.3070918418
 21
-960.3393954942
 31
0.0
  0
ARC
  5
4FB
  8
0
  6
CONTINUOUS
 62
     7
 10
-289.2876300968
 20
-960.0610428522
 30
0.0
 40
2.000000082123506
 50
352.0000011903
 51
89.9999999999
  0
LINE
  5
4FC
  8
0
  6
CONTINUOUS
 62
     7
 10
-289.2876349784
 20
-958.06103775
 30
0.0
 11
-298.3265601493
 21
-958.06103775
 31
0.0
  0
LINE
  5
4FD
  8
0
  6
CONTINUOUS
 62
     7
 10
-298.3265601493
 20
-958.06103775
 30
0.0
 11
-298.3265601493
 21
-956.061048598
 31
0.0
  0
ARC
  5
4FE
  8
0
  6
CONTINUOUS
 62
     7
 10
-289.2876300968
 20
-960.0610428522
 30
0.0
 40
4.0
 50
352.0000011904
 51
90.0000000001
  0
LINE
  5
4FF
  8
0
  6
CONTINUOUS
 62
     7
 10
-285.3265487052
 20
-960.6177342842
 30
0.0
 11
-285.5575167037
 21
-962.2610492418
 31
0.0
  0
ARC
  5
500
  8
0
  6
CONTINUOUS
 62
     7
 10
875.1345145666
 20
-960.0610428522
 30
0.0
 40
4.000000000000114
 50
89.9999999999
 51
187.9999988096
  0
LINE
  5
501
  8
0
  6
CONTINUOUS
 62
     7
 10
884.1734446191
 20
-958.06103775
 30
0.0
 11
884.1734446191
 21
-956.061048598
 31
0.0
  0
LINE
  5
502
  8
0
  6
CONTINUOUS
 62
     7
 10
875.1345194482
 20
-958.06103775
 30
0.0
 11
884.1734446191
 21
-958.06103775
 31
0.0
  0
ARC
  5
503
  8
0
  6
CONTINUOUS
 62
     7
 10
875.1345145666
 20
-960.0610428522
 30
0.0
 40
2.000000082123734
 50
89.9999999998
 51
187.9999988096
  0
LINE
  5
504
  8
0
  6
CONTINUOUS
 62
     7
 10
873.4240449571
 20
-962.2610492418
 30
0.0
 11
873.1539763116
 21
-960.3393954942
 31
0.0
  0
LINE
  5
505
  8
0
  6
CONTINUOUS
 62
     7
 10
871.173433175
 20
-960.6177342842
 30
0.0
 11
871.4044011735
 21
-962.2610492418
 31
0.0
  0
LINE
  5
506
  8
0
  6
CONTINUOUS
 62
     7
 10
-295.8265625334
 20
-958.2810384939
 30
0.0
 11
-290.8265673018
 21
-958.2810384939
 31
0.0
  0
LINE
  5
507
  8
0
  6
CONTINUOUS
 62
     7
 10
-291.2265740729
 20
-958.681045265
 30
0.0
 11
-295.4265557624
 21
-958.681045265
 31
0.0
  0
LINE
  5
508
  8
0
  6
CONTINUOUS
 62
     7
 10
881.2734402322
 20
-958.681045265
 30
0.0
 11
877.0734585428
 21
-958.681045265
 31
0.0
  0
LINE
  5
509
  8
0
  6
CONTINUOUS
 62
     7
 10
876.6734517717
 20
-958.2810384939
 30
0.0
 11
881.6734470033
 21
-958.2810384939
 31
0.0
  0
LINE
  5
50A
  8
0
  6
CONTINUOUS
 62
     7
 10
-307.0765816069
 20
-579.8610431859
 30
0.0
 11
-305.5765711165
 21
-579.8610431859
 31
0.0
  0
LINE
  5
50B
  8
0
  6
CONTINUOUS
 62
     7
 10
-306.1004959441
 20
-577.6466114233
 30
0.0
 11
-305.0885282851
 21
-578.7538273046
 31
0.0
  0
ARC
  5
50C
  8
0
  6
CONTINUOUS
 62
     7
 10
-304.0764322522
 20
-579.8611231817
 30
0.0
 40
3.000149355802936
 50
132.4273111001
 51
179.9984722698
  0
LINE
  5
50D
  8
0
  6
CONTINUOUS
 62
     7
 10
-305.5765711165
 20
-952.5654895017
 30
0.0
 11
-307.0765816069
 21
-952.5654895017
 31
0.0
  0
LINE
  5
50E
  8
0
  6
CONTINUOUS
 62
     7
 10
-307.0765816069
 20
-579.8610431859
 30
0.0
 11
-307.0765816069
 21
-952.5654895017
 31
0.0
  0
LINE
  5
50F
  8
0
  6
CONTINUOUS
 62
     7
 10
-305.5765711165
 20
-953.0610425184
 30
0.0
 11
-307.0765816069
 21
-953.0610425184
 31
0.0
  0
LINE
  5
510
  8
0
  6
CONTINUOUS
 62
     7
 10
-307.0765816069
 20
-953.0610425184
 30
0.0
 11
-307.0765816069
 21
-952.5654895017
 31
0.0
  0
POLYLINE
  5
511
  8
0
  6
CONTINUOUS
 62
     7
 66
     1
 10
0.0
 20
0.0
 30
0.0
  0
VERTEX
  5
8E4
  8
0
  6
CONTINUOUS
 62
     7
 10
-305.5765711165
 20
-953.0610425184
 30
0.0
  0
VERTEX
  5
8E5
  8
0
  6
CONTINUOUS
 62
     7
 10
-305.5392586089
 20
-953.3934427211
 30
0.0
  0
VERTEX
  5
8E6
  8
0
  6
CONTINUOUS
 62
     7
 10
-305.5037342406
 20
-953.4954113672
 30
0.0
  0
SEQEND
  5
8E7
  8
0
  6
CONTINUOUS
 62
     7
  0
LINE
  5
512
  8
0
  6
CONTINUOUS
 62
     7
 10
-305.9558950759
 20
-955.3994221399
 30
0.0
 11
-305.3212844229
 21
-954.6097649047
 31
0.0
  0
ARC
  5
513
  8
0
  6
CONTINUOUS
 62
     7
 10
-304.0764955147
 20
-953.0609666975
 30
0.0
 40
3.000086093170819
 50
180.0014480305
 51
231.2114142069
  0
POLYLINE
  5
514
  8
0
  6
CONTINUOUS
 62
     7
 66
     1
 10
0.0
 20
0.0
 30
0.0
  0
VERTEX
  5
8E8
  8
0
  6
CONTINUOUS
 62
     7
 10
-304.0765606261
 20
-576.8610371063
 30
0.0
  0
VERTEX
  5
8E9
  8
0
  6
CONTINUOUS
 62
     7
 10
-305.1620804167
 20
-577.0643187473
 30
0.0
  0
VERTEX
  5
8EA
  8
0
  6
CONTINUOUS
 62
     7
 10
-306.1004959441
 20
-577.6466114233
 30
0.0
  0
SEQEND
  5
8EB
  8
0
  6
CONTINUOUS
 62
     7
  0
POLYLINE
  5
515
  8
0
  6
CONTINUOUS
 62
     7
 66
     1
 10
0.0
 20
0.0
 30
0.0
  0
VERTEX
  5
8EC
  8
0
  6
CONTINUOUS
 62
     7
 10
-305.9558950759
 20
-955.3994221399
 30
0.0
  0
VERTEX
  5
8ED
  8
0
  6
CONTINUOUS
 62
     7
 10
-305.0727926589
 20
-955.8908028314
 30
0.0
  0
VERTEX
  5
8EE
  8
0
  6
CONTINUOUS
 62
     7
 10
-304.0765606261
 20
-956.061048598
 30
0.0
  0
SEQEND
  5
8EF
  8
0
  6
CONTINUOUS
 62
     7
  0
ARC
  5
516
  8
0
  6
CONTINUOUS
 62
     7
 10
-286.0765740527
 20
-957.5610707833
 30
0.0
 40
1.500022185431343
 50
352.0009283024
 51
89.999232158
  0
LINE
  5
517
  8
0
  6
CONTINUOUS
 62
     7
 10
892.9234660768
 20
-579.8610431859
 30
0.0
 11
892.9234660768
 21
-952.5654895017
 31
0.0
  0
LINE
  5
518
  8
0
  6
CONTINUOUS
 62
     7
 10
892.9234660768
 20
-952.5654895017
 30
0.0
 11
891.4234555864
 21
-952.5654895017
 31
0.0
  0
LINE
  5
519
  8
0
  6
CONTINUOUS
 62
     7
 10
891.4234555864
 20
-579.8610431859
 30
0.0
 11
892.9234660768
 21
-579.8610431859
 31
0.0
  0
ARC
  5
51A
  8
0
  6
CONTINUOUS
 62
     7
 10
889.923316722
 20
-579.8611231817
 30
0.0
 40
3.000149355802936
 50
0.0015277302
 51
47.5726888999
  0
LINE
  5
51B
  8
0
  6
CONTINUOUS
 62
     7
 10
890.9354127549
 20
-578.7538273046
 30
0.0
 11
891.9473804139
 21
-577.6466114233
 31
0.0
  0
LINE
  5
51C
  8
0
  6
CONTINUOUS
 62
     7
 10
892.9234660768
 20
-953.0610425184
 30
0.0
 11
891.4234555864
 21
-953.0610425184
 31
0.0
  0
LINE
  5
51D
  8
0
  6
CONTINUOUS
 62
     7
 10
892.9234660768
 20
-952.5654895017
 30
0.0
 11
892.9234660768
 21
-953.0610425184
 31
0.0
  0
LINE
  5
51E
  8
0
  6
CONTINUOUS
 62
     7
 10
891.1681688928
 20
-954.6097649047
 30
0.0
 11
891.8027795457
 21
-955.3994221399
 31
0.0
  0
POLYLINE
  5
51F
  8
0
  6
CONTINUOUS
 62
     7
 66
     1
 10
0.0
 20
0.0
 30
0.0
  0
VERTEX
  5
8F0
  8
0
  6
CONTINUOUS
 62
     7
 10
891.4234555864
 20
-953.0610425184
 30
0.0
  0
VERTEX
  5
8F1
  8
0
  6
CONTINUOUS
 62
     7
 10
891.3861430787
 20
-953.3934427211
 30
0.0
  0
VERTEX
  5
8F2
  8
0
  6
CONTINUOUS
 62
     7
 10
891.3506187105
 20
-953.4954113672
 30
0.0
  0
SEQEND
  5
8F3
  8
0
  6
CONTINUOUS
 62
     7
  0
ARC
  5
520
  8
0
  6
CONTINUOUS
 62
     7
 10
889.9233799846
 20
-953.0609666975
 30
0.0
 40
3.000086093170762
 50
308.7885857931
 51
359.9985519695
  0
POLYLINE
  5
521
  8
0
  6
CONTINUOUS
 62
     7
 66
     1
 10
0.0
 20
0.0
 30
0.0
  0
VERTEX
  5
8F4
  8
0
  6
CONTINUOUS
 62
     7
 10
889.923445096
 20
-576.8610371063
 30
0.0
  0
VERTEX
  5
8F5
  8
0
  6
CONTINUOUS
 62
     7
 10
891.0089648866
 20
-577.0643187473
 30
0.0
  0
VERTEX
  5
8F6
  8
0
  6
CONTINUOUS
 62
     7
 10
891.9473804139
 20
-577.6466114233
 30
0.0
  0
SEQEND
  5
8F7
  8
0
  6
CONTINUOUS
 62
     7
  0
POLYLINE
  5
522
  8
0
  6
CONTINUOUS
 62
     7
 66
     1
 10
0.0
 20
0.0
 30
0.0
  0
VERTEX
  5
8F8
  8
0
  6
CONTINUOUS
 62
     7
 10
891.8027795457
 20
-955.3994221399
 30
0.0
  0
VERTEX
  5
8F9
  8
0
  6
CONTINUOUS
 62
     7
 10
890.9196771287
 20
-955.8908028314
 30
0.0
  0
VERTEX
  5
8FA
  8
0
  6
CONTINUOUS
 62
     7
 10
889.923445096
 20
-956.061048598
 30
0.0
  0
SEQEND
  5
8FB
  8
0
  6
CONTINUOUS
 62
     7
  0
ARC
  5
523
  8
0
  6
CONTINUOUS
 62
     7
 10
871.9234585226
 20
-957.5610707833
 30
0.0
 40
1.500022185431343
 50
90.000767842
 51
187.9990716976
  0
LINE
  5
524
  8
0
  6
CONTINUOUS
 62
     7
 10
-305.5765711165
 20
-579.8610431859
 30
0.0
 11
-305.5765711165
 21
-952.5654895017
 31
0.0
  0
LINE
  5
525
  8
0
  6
CONTINUOUS
 62
     7
 10
891.4234555864
 20
-952.5654895017
 30
0.0
 11
891.4234555864
 21
-579.8610431859
 31
0.0
  0
ARC
  5
526
  8
0
  6
CONTINUOUS
 62
     7
 10
886.4234422349
 20
-952.5654902413
 30
0.0
 40
5.000000000006431
 50
354.3120472985
 51
0.0
  0
ARC
  5
527
  8
0
  6
CONTINUOUS
 62
     7
 10
-300.5765577651
 20
-952.5654902413
 30
0.0
 40
5.000000000006488
 50
180.0
 51
185.6879527015
  0
LINE
  5
528
  8
0
  6
CONTINUOUS
 62
     7
 10
889.9279154443
 20
-956.061048598
 30
0.0
 11
890.423468461
 21
-955.9606147716
 31
0.0
  0
LINE
  5
529
  8
0
  6
CONTINUOUS
 62
     7
 10
-304.0810309745
 20
-956.061048598
 30
0.0
 11
889.9279154443
 21
-956.061048598
 31
0.0
  0
LINE
  5
52A
  8
0
  6
CONTINUOUS
 62
     7
 10
-304.5765839911
 20
-955.9606147716
 30
0.0
 11
-304.0810309745
 21
-956.061048598
 31
0.0
  0
ARC
  5
52B
  8
0
  6
CONTINUOUS
 62
     7
 10
-301.3253351316
 20
-953.2531101539
 30
0.0
 40
4.230981021208889
 50
177.3981334352
 51
219.7861229761
  0
ARC
  5
52C
  8
0
  6
CONTINUOUS
 62
     7
 10
886.8304953911
 20
-953.1381595153
 30
0.0
 40
4.568994326429666
 50
321.8486405569
 51
0.9671030318
  0
POLYLINE
  5
52D
  8
0
  6
CONTINUOUS
 62
     7
 66
     1
 10
0.0
 20
0.0
 30
0.0
  0
VERTEX
  5
8FC
  8
0
  6
CONTINUOUS
 62
     7
 10
-305.5765711165
 20
-579.8610431859
 30
0.0
  0
VERTEX
  5
8FD
  8
0
  6
CONTINUOUS
 62
     7
 10
-305.2384339667
 20
-578.8208080242
 30
0.0
  0
VERTEX
  5
8FE
  8
0
  6
CONTINUOUS
 62
     7
 10
-304.9002372122
 20
-577.909497709
 30
0.0
  0
VERTEX
  5
8FF
  8
0
  6
CONTINUOUS
 62
     7
 10
-304.5620404578
 20
-577.2404355714
 30
0.0
  0
VERTEX
  5
900
  8
0
  6
CONTINUOUS
 62
     7
 10
-304.2238437033
 20
-576.8966359804
 30
0.0
  0
VERTEX
  5
901
  8
0
  6
CONTINUOUS
 62
     7
 10
-304.0765606261
 20
-576.8610371063
 30
0.0
  0
SEQEND
  5
902
  8
0
  6
CONTINUOUS
 62
     7
  0
LINE
  5
52E
  8
0
  6
CONTINUOUS
 62
     7
 10
-304.0765606261
 20
-576.8610371063
 30
0.0
 11
889.923445096
 21
-576.8610371063
 31
0.0
  0
POLYLINE
  5
52F
  8
0
  6
CONTINUOUS
 62
     7
 66
     1
 10
0.0
 20
0.0
 30
0.0
  0
VERTEX
  5
903
  8
0
  6
CONTINUOUS
 62
     7
 10
889.923445096
 20
-576.8610371063
 30
0.0
  0
VERTEX
  5
904
  8
0
  6
CONTINUOUS
 62
     7
 10
890.2615822458
 20
-577.0471675107
 30
0.0
  0
VERTEX
  5
905
  8
0
  6
CONTINUOUS
 62
     7
 10
890.5997790002
 20
-577.5825662324
 30
0.0
  0
VERTEX
  5
906
  8
0
  6
CONTINUOUS
 62
     7
 10
890.9379757547
 20
-578.4007740924
 30
0.0
  0
VERTEX
  5
907
  8
0
  6
CONTINUOUS
 62
     7
 10
891.2761725091
 20
-579.4002396772
 30
0.0
  0
VERTEX
  5
908
  8
0
  6
CONTINUOUS
 62
     7
 10
891.4234555864
 20
-579.8610431859
 30
0.0
  0
SEQEND
  5
909
  8
0
  6
CONTINUOUS
 62
     7
  0
LINE
  5
530
  8
0
  6
CONTINUOUS
 62
     7
 10
871.2710059785
 20
-962.2610492418
 30
0.0
 11
870.6336535119
 21
-957.7698094556
 31
0.0
  0
LINE
  5
531
  8
0
  6
CONTINUOUS
 62
     7
 10
-285.4241215087
 20
-962.2610492418
 30
0.0
 11
-284.7867690421
 21
-957.7698094556
 31
0.0
  0
ARC
  5
532
  8
0
  6
CONTINUOUS
 62
     7
 10
842.1266823865
 20
-962.1923949013
 30
0.0
 40
28.84799238718176
 50
8.8185934057
 51
11.2188125674
  0
ARC
  5
533
  8
0
  6
CONTINUOUS
 62
     7
 10
-256.2797979166
 20
-962.1923949013
 30
0.0
 40
28.84799238718173
 50
168.7811874326
 51
171.1814065943
  0
POLYLINE
  5
534
  8
0
  6
CONTINUOUS
 62
     7
 66
     1
 10
0.0
 20
0.0
 30
0.0
  0
VERTEX
  5
90A
  8
0
  6
CONTINUOUS
 62
     7
 10
-286.0810242987
 20
-956.061048598
 30
0.0
  0
VERTEX
  5
90B
  8
0
  6
CONTINUOUS
 62
     7
 10
-285.328754077
 20
-956.1968875835
 30
0.0
  0
VERTEX
  5
90C
  8
0
  6
CONTINUOUS
 62
     7
 10
-284.57654346
 20
-956.579832525
 30
0.0
  0
SEQEND
  5
90D
  8
0
  6
CONTINUOUS
 62
     7
  0
POLYLINE
  5
535
  8
0
  6
CONTINUOUS
 62
     7
 66
     1
 10
0.0
 20
0.0
 30
0.0
  0
VERTEX
  5
90E
  8
0
  6
CONTINUOUS
 62
     7
 10
870.4234279298
 20
-956.579832525
 30
0.0
  0
VERTEX
  5
90F
  8
0
  6
CONTINUOUS
 62
     7
 10
871.1756385469
 20
-956.1968875835
 30
0.0
  0
VERTEX
  5
910
  8
0
  6
CONTINUOUS
 62
     7
 10
871.9279087686
 20
-956.061048598
 30
0.0
  0
SEQEND
  5
911
  8
0
  6
CONTINUOUS
 62
     7
  0
ARC
  5
536
  8
0
  6
CONTINUOUS
 62
     7
 10
-140.8768371449
 20
-969.1739357101
 30
0.0
 40
144.3433933022329
 50
174.9764243585
 51
175.3853467957
  0
ARC
  5
537
  8
0
  6
CONTINUOUS
 62
     7
 10
726.7237216148
 20
-969.1739357101
 30
0.0
 40
144.3433933022329
 50
4.6146532043
 51
5.0235756415
  0
LINE
  5
538
  8
0
  6
CONTINUOUS
 62
     7
 10
-1800.2893473322
 20
510.3485150726
 30
0.0
 11
-1800.2893473322
 21
-446.2116855842
 31
0.0
  0
LINE
  5
539
  8
0
  6
CONTINUOUS
 62
     7
 10
-1797.7210533032
 20
-450.6599955404
 30
0.0
 11
-1380.8966583089
 21
-691.2875968681
 31
0.0
  0
LINE
  5
53A
  8
0
  6
CONTINUOUS
 62
     7
 10
-2224.2705543686
 20
755.1076560499
 30
0.0
 11
-2224.2705543686
 21
-201.4525446069
 31
0.0
  0
LINE
  5
53B
  8
0
  6
CONTINUOUS
 62
     7
 10
-2221.7022623976
 20
-205.9008533751
 30
0.0
 11
-1808.413436133
 21
-444.4874143198
 31
0.0
  0
LINE
  5
53C
  8
0
  6
CONTINUOUS
 62
     7
 10
-1803.402589411
 20
-444.769995558
 30
0.0
 11
-1800.1802178638
 21
-446.630231056
 31
0.0
  0
LINE
  5
53D
  8
0
  6
CONTINUOUS
 62
     7
 10
-1375.8858194894
 20
-691.5701735443
 30
0.0
 11
-1363.4589476465
 21
-698.7440539588
 31
0.0
  0
LINE
  5
53E
  8
0
  6
CONTINUOUS
 62
     7
 10
-1803.253969745
 20
-432.6159110265
 30
0.0
 11
-1800.2893496371
 21
-434.3273497858
 31
0.0
  0
LINE
  5
53F
  8
0
  6
CONTINUOUS
 62
     7
 10
-1803.253969745
 20
498.7871110202
 30
0.0
 11
-1800.2893496371
 21
497.0756722609
 31
0.0
  0
LINE
  5
540
  8
0
  6
CONTINUOUS
 62
     7
 10
-1094.7988140685
 20
434.3551498432
 30
0.0
 11
-1934.1726897133
 21
918.9153740986
 31
0.0
  0
POLYLINE
  5
541
  8
0
  6
CONTINUOUS
 62
     7
 66
     1
 10
0.0
 20
0.0
 30
0.0
  0
VERTEX
  5
912
  8
0
  6
CONTINUOUS
 62
     7
 10
-1095.2383635517
 20
432.7046867381
 30
0.0
  0
VERTEX
  5
913
  8
0
  6
CONTINUOUS
 62
     7
 10
-1095.1771136441
 20
433.3734189298
 30
0.0
  0
VERTEX
  5
914
  8
0
  6
CONTINUOUS
 62
     7
 10
-1095.099373782
 20
433.7035604149
 30
0.0
  0
VERTEX
  5
915
  8
0
  6
CONTINUOUS
 62
     7
 10
-1095.0207804462
 20
433.9383569342
 30
0.0
  0
VERTEX
  5
916
  8
0
  6
CONTINUOUS
 62
     7
 10
-1094.9789707725
 20
434.0434265971
 30
0.0
  0
VERTEX
  5
917
  8
0
  6
CONTINUOUS
 62
     7
 10
-1094.9834594119
 20
434.0378123706
 30
0.0
  0
SEQEND
  5
918
  8
0
  6
CONTINUOUS
 62
     7
  0
LINE
  5
542
  8
0
  6
CONTINUOUS
 62
     7
 10
-1094.3596965906
 20
-524.3711030053
 30
0.0
 11
-1094.3596965906
 21
432.9411133209
 31
0.0
  0
POLYLINE
  5
543
  8
0
  6
CONTINUOUS
 62
     7
 66
     1
 10
0.0
 20
0.0
 30
0.0
  0
VERTEX
  5
919
  8
0
  6
CONTINUOUS
 62
     7
 10
-1774.377186221
 20
58.1929896325
 30
0.0
  0
VERTEX
  5
91A
  8
0
  6
CONTINUOUS
 62
     7
 10
-1775.3619025554
 20
57.5468353891
 30
0.0
  0
VERTEX
  5
91B
  8
0
  6
CONTINUOUS
 62
     7
 10
-1776.2610739583
 20
56.6130125537
 30
0.0
  0
VERTEX
  5
91C
  8
0
  6
CONTINUOUS
 62
     7
 10
-1776.9857600425
 20
55.4732239637
 30
0.0
  0
VERTEX
  5
91D
  8
0
  6
CONTINUOUS
 62
     7
 10
-1777.5226107937
 20
54.161897925
 30
0.0
  0
VERTEX
  5
91E
  8
0
  6
CONTINUOUS
 62
     7
 10
-1777.8672350373
 20
52.7159096418
 30
0.0
  0
VERTEX
  5
91F
  8
0
  6
CONTINUOUS
 62
     7
 10
-1778.0223011955
 20
51.172657068
 30
0.0
  0
VERTEX
  5
920
  8
0
  6
CONTINUOUS
 62
     7
 10
-1777.9962439064
 20
49.5756896741
 30
0.0
  0
VERTEX
  5
921
  8
0
  6
CONTINUOUS
 62
     7
 10
-1777.8072837795
 20
47.9847916698
 30
0.0
  0
VERTEX
  5
922
  8
0
  6
CONTINUOUS
 62
     7
 10
-1777.4627306587
 20
46.3690198737
 30
0.0
  0
VERTEX
  5
923
  8
0
  6
CONTINUOUS
 62
     7
 10
-1777.1189546205
 20
45.1944797379
 30
0.0
  0
VERTEX
  5
924
  8
0
  6
CONTINUOUS
 62
     7
 10
-1776.712690611
 20
44.0617606562
 30
0.0
  0
VERTEX
  5
925
  8
0
  6
CONTINUOUS
 62
     7
 10
-1775.9573242553
 20
42.3574654567
 30
0.0
  0
SEQEND
  5
926
  8
0
  6
CONTINUOUS
 62
     7
  0
ARC
  5
544
  8
0
  6
CONTINUOUS
 62
     7
 10
-1764.882391435
 20
39.227956674
 30
0.0
 40
5.784204672425396
 50
250.2124376947
 51
311.7220132932
  0
ARC
  5
545
  8
0
  6
CONTINUOUS
 62
     7
 10
-1761.6193763255
 20
48.4722407736
 30
0.0
 40
15.58740607064804
 50
203.0970323234
 51
250.4298726049
  0
ARC
  5
546
  8
0
  6
CONTINUOUS
 62
     7
 10
-1764.4046051622
 20
43.3772543632
 30
0.0
 40
0.7672799641298381
 50
4.2908116878
 51
65.1742476209
  0
LINE
  5
547
  8
0
  6
CONTINUOUS
 62
     7
 10
-1773.3027181727
 20
79.4282055435
 30
0.0
 11
-1775.9758109167
 21
76.6415408885
 31
0.0
  0
LINE
  5
548
  8
0
  6
CONTINUOUS
 62
     7
 10
-1766.0055155544
 20
44.9922803084
 30
0.0
 11
-1764.0637101448
 21
44.0651309962
 31
0.0
  0
ARC
  5
549
  8
0
  6
CONTINUOUS
 62
     7
 10
-1773.9041864799
 20
75.0417470537
 30
0.0
 40
2.635176859293637
 50
146.2179179816
 51
174.8301282567
  0
LINE
  5
54A
  8
0
  6
CONTINUOUS
 62
     7
 10
-1771.6598708962
 20
50.194749346
 30
0.0
 11
-1771.8535356651
 21
50.0829490547
 31
0.0
  0
ARC
  5
54B
  8
0
  6
CONTINUOUS
 62
     7
 10
-1508.9695837093
 20
36.2534091807
 30
0.0
 40
270.3700543374831
 50
171.6906241464
 51
177.7460230719
  0
LINE
  5
54C
  8
0
  6
CONTINUOUS
 62
     7
 10
-1774.1105547206
 20
58.3470569257
 30
0.0
 11
-1774.2349300706
 21
58.2852825073
 31
0.0
  0
LINE
  5
54D
  8
0
  6
CONTINUOUS
 62
     7
 10
-1763.7616436815
 20
41.440082254
 30
0.0
 11
-1763.8019571421
 21
41.3846528126
 31
0.0
  0
ARC
  5
54E
  8
0
  6
CONTINUOUS
 62
     7
 10
-1765.8408300858
 20
45.3190108639
 30
0.0
 40
0.3606991658750296
 50
191.045769073
 51
246.3096672567
  0
LINE
  5
54F
  8
0
  6
CONTINUOUS
 62
     7
 10
-1763.862811923
 20
41.348873072
 30
0.0
 11
-1763.7760526353
 21
41.3989581427
 31
0.0
  0
ARC
  5
550
  8
0
  6
CONTINUOUS
 62
     7
 10
-1770.751036149
 20
48.0208845719
 30
0.0
 40
2.338429153777084
 50
54.2640153976
 51
117.2078803117
  0
LINE
  5
551
  8
0
  6
CONTINUOUS
 62
     7
 10
-1763.7322989382
 20
43.7315924582
 30
0.0
 11
-1766.2075306677
 21
42.3026715962
 31
0.0
  0
LINE
  5
552
  8
0
  6
CONTINUOUS
 62
     7
 10
-1774.7091453366
 20
50.2101995169
 30
0.0
 11
-1773.1084817871
 21
49.0931140175
 31
0.0
  0
LINE
  5
553
  8
0
  6
CONTINUOUS
 62
     7
 10
-1772.6992148147
 20
49.0876744731
 30
0.0
 11
-1770.5484927453
 21
50.3292598959
 31
0.0
  0
POLYLINE
  5
554
  8
0
  6
CONTINUOUS
 62
     7
 66
     1
 10
0.0
 20
0.0
 30
0.0
  0
VERTEX
  5
927
  8
0
  6
CONTINUOUS
 62
     7
 10
-1779.1394929773
 20
46.8821910971
 30
0.0
  0
VERTEX
  5
928
  8
0
  6
CONTINUOUS
 62
     7
 10
-1779.5913598769
 20
34.7327808509
 30
0.0
  0
VERTEX
  5
929
  8
0
  6
CONTINUOUS
 62
     7
 10
-1779.861921571
 20
22.0110779552
 30
0.0
  0
VERTEX
  5
92A
  8
0
  6
CONTINUOUS
 62
     7
 10
-1779.925589654
 20
9.4001916242
 30
0.0
  0
VERTEX
  5
92B
  8
0
  6
CONTINUOUS
 62
     7
 10
-1779.7820980741
 20
-3.0950188068
 30
0.0
  0
VERTEX
  5
92C
  8
0
  6
CONTINUOUS
 62
     7
 10
-1779.431296683
 20
-15.4697487469
 30
0.0
  0
VERTEX
  5
92D
  8
0
  6
CONTINUOUS
 62
     7
 10
-1779.1190359507
 20
-22.3221657391
 30
0.0
  0
SEQEND
  5
92E
  8
0
  6
CONTINUOUS
 62
     7
  0
ARC
  5
555
  8
0
  6
CONTINUOUS
 62
     7
 10
-1586.9408934315
 20
-15.4101210672
 30
0.0
 40
192.3032851748114
 50
182.0600156917
 51
189.6856030987
  0
LINE
  5
556
  8
0
  6
CONTINUOUS
 62
     7
 10
-1754.6140337288
 20
-62.0003063945
 30
0.0
 11
-1750.878421568
 21
-61.1110221621
 31
0.0
  0
ARC
  5
557
  8
0
  6
CONTINUOUS
 62
     7
 10
-1754.8942965545
 20
-59.7185571535
 30
0.0
 40
2.323683027402351
 50
245.2752017135
 51
274.066847125
  0
ARC
  5
558
  8
0
  6
CONTINUOUS
 62
     7
 10
-1728.0732973613
 20
7.9776992655
 30
0.0
 40
75.1358057037825
 50
231.6937035462
 51
248.3016276523
  0
ARC
  5
559
  8
0
  6
CONTINUOUS
 62
     7
 10
-1770.9123772542
 20
-46.6483831341
 30
0.0
 40
5.719361383369284
 50
190.994647247
 51
229.5444986871
  0
LINE
  5
55A
  8
0
  6
CONTINUOUS
 62
     7
 10
-1345.8532080359
 20
317.4953891917
 30
0.0
 11
-1345.8532080359
 21
317.1754350767
 31
0.0
  0
LINE
  5
55B
  8
0
  6
CONTINUOUS
 62
     7
 10
-1327.1532256024
 20
317.1754442007
 30
0.0
 11
-1327.1532256024
 21
317.4953983157
 31
0.0
  0
LINE
  5
55C
  8
0
  6
CONTINUOUS
 62
     7
 10
-2154.78336133
 20
784.4808266238
 30
0.0
 11
-2154.78336133
 21
784.1608725088
 31
0.0
  0
LINE
  5
55D
  8
0
  6
CONTINUOUS
 62
     7
 10
-2136.0833788965
 20
784.1608816329
 30
0.0
 11
-2136.0833788965
 21
784.4808357479
 31
0.0
  0
LINE
  5
55E
  8
0
  6
CONTINUOUS
 62
     7
 10
-1169.0765127392
 20
419.5464031695
 30
0.0
 11
-1169.0765127392
 21
419.2264490545
 31
0.0
  0
LINE
  5
55F
  8
0
  6
CONTINUOUS
 62
     7
 10
-1150.3765355741
 20
419.2264551372
 30
0.0
 11
-1150.3765355741
 21
419.5464092522
 31
0.0
  0
LINE
  5
560
  8
0
  6
CONTINUOUS
 62
     7
 10
-1978.0066660334
 20
886.5318406017
 30
0.0
 11
-1978.0066660334
 21
886.2118864867
 31
0.0
  0
LINE
  5
561
  8
0
  6
CONTINUOUS
 62
     7
 10
-1959.3066888683
 20
886.2118925694
 30
0.0
 11
-1959.3066888683
 21
886.5318466844
 31
0.0
  0
LINE
  5
562
  8
0
  6
CONTINUOUS
 62
     7
 10
-2209.9516683492
 20
767.214702407
 30
0.0
 11
-2209.9516683492
 21
762.0533860111
 31
0.0
  0
LINE
  5
563
  8
0
  6
CONTINUOUS
 62
     7
 10
-1363.4085610891
 20
278.3618954494
 30
0.0
 11
-1364.1413894176
 21
277.8437382446
 31
0.0
  0
LINE
  5
564
  8
0
  6
CONTINUOUS
 62
     7
 10
-1095.773913019
 20
-543.3990427328
 30
0.0
 11
-1095.773913019
 21
432.1661522
 31
0.0
  0
LINE
  5
565
  8
0
  6
CONTINUOUS
 62
     7
 10
-1360.4607578207
 20
-697.9285626824
 30
0.0
 11
-1097.9652119667
 21
-546.3931095837
 31
0.0
  0
LINE
  5
566
  8
0
  6
CONTINUOUS
 62
     7
 10
-1364.1355836892
 20
278.360116931
 30
0.0
 11
-1363.4892196205
 21
278.6778129439
 31
0.0
  0
LINE
  5
567
  8
0
  6
CONTINUOUS
 62
     7
 10
-1096.7439122007
 20
433.8458750608
 30
0.0
 11
-1942.0901648669
 21
921.8538791825
 31
0.0
  0
ARC
  5
568
  8
0
  6
CONTINUOUS
 62
     7
 10
-1378.3285922746
 20
269.9095240629
 30
0.0
 40
3.135981928241094
 50
227.434042347
 51
312.5664505287
  0
ARC
  5
569
  8
0
  6
CONTINUOUS
 62
     7
 10
-1378.3286295318
 20
-678.6623184943
 30
0.0
 40
11.1749656272841
 50
259.0575652619
 51
280.9429276139
  0
LINE
  5
56A
  8
0
  6
CONTINUOUS
 62
     7
 10
-1379.3892235883
 20
268.2121864868
 30
0.0
 11
-1380.449891178
 21
267.5998761207
 31
0.0
  0
ARC
  5
56B
  8
0
  6
CONTINUOUS
 62
     7
 10
-1378.3285883809
 20
268.9143763744
 30
0.0
 40
1.272013239458569
 50
213.506413851
 51
326.4945719127
  0
LINE
  5
56C
  8
0
  6
CONTINUOUS
 62
     7
 10
-1377.2679410926
 20
268.2122047349
 30
0.0
 11
-1376.207273503
 21
267.5998943688
 31
0.0
  0
ARC
  5
56D
  8
0
  6
CONTINUOUS
 62
     7
 10
-1378.165337379
 20
269.6269362348
 30
0.0
 40
3.136128273863267
 50
107.4358109857
 51
192.5643531857
  0
LINE
  5
56E
  8
0
  6
CONTINUOUS
 62
     7
 10
-1379.1050379255
 20
272.6189695623
 30
0.0
 11
-1379.1050379255
 21
271.3941497786
 31
0.0
  0
ARC
  5
56F
  8
0
  6
CONTINUOUS
 62
     7
 10
-1379.0271695727
 20
270.1244474377
 30
0.0
 40
1.272087856587654
 50
93.5094423011
 51
206.490886188
  0
LINE
  5
570
  8
0
  6
CONTINUOUS
 62
     7
 10
-1381.2263625681
 20
268.9447153454
 30
0.0
 11
-1380.1656949784
 21
269.5570257115
 31
0.0
  0
ARC
  5
571
  8
0
  6
CONTINUOUS
 62
     7
 10
-1788.0747381811
 20
506.2621416282
 30
0.0
 40
11.1715374074076
 50
139.0538914071
 51
160.9462727643
  0
LINE
  5
572
  8
0
  6
CONTINUOUS
 62
     7
 10
-1367.7219960063
 20
274.6197524175
 30
0.0
 11
-1375.1466164501
 21
270.3336102683
 31
0.0
  0
LINE
  5
573
  8
0
  6
CONTINUOUS
 62
     7
 10
-1367.7219960063
 20
-686.8570750535
 30
0.0
 11
-1367.7219960063
 21
274.6197524175
 31
0.0
  0
LINE
  5
574
  8
0
  6
CONTINUOUS
 62
     7
 10
-1375.1466164501
 20
-691.1432172026
 30
0.0
 11
-1367.7219960063
 21
-686.8570750535
 31
0.0
  0
ARC
  5
575
  8
0
  6
CONTINUOUS
 62
     7
 10
-1376.448753958
 20
-690.9311001358
 30
0.0
 40
1.319301231493105
 50
350.7478350525
 51
79.4533147163
  0
ARC
  5
576
  8
0
  6
CONTINUOUS
 62
     7
 10
-1379.7460830307
 20
270.5455410937
 30
0.0
 40
4.604346587864304
 50
320.2265608711
 51
357.3618333596
  0
LINE
  5
577
  8
0
  6
CONTINUOUS
 62
     7
 10
-1376.2072840397
 20
270.9459206344
 30
0.0
 11
-1375.1466164501
 21
270.3336102683
 31
0.0
  0
ARC
  5
578
  8
0
  6
CONTINUOUS
 62
     7
 10
-1380.8067506204
 20
271.1578514598
 30
0.0
 40
4.604346587862432
 50
320.2265608711
 51
357.3618333596
  0
LINE
  5
579
  8
0
  6
CONTINUOUS
 62
     7
 10
-1789.8647342146
 20
519.542387715
 30
0.0
 11
-1797.2893546584
 21
515.2562455658
 31
0.0
  0
LINE
  5
57A
  8
0
  6
CONTINUOUS
 62
     7
 10
-1368.7826635959
 20
276.4568825672
 30
0.0
 11
-1789.8647342146
 21
519.542387715
 31
0.0
  0
LINE
  5
57B
  8
0
  6
CONTINUOUS
 62
     7
 10
-1376.2072840397
 20
272.1707404181
 30
0.0
 11
-1368.7826635959
 21
276.4568825672
 31
0.0
  0
ARC
  5
57C
  8
0
  6
CONTINUOUS
 62
     7
 10
-1378.3235100718
 20
268.0805138958
 30
0.0
 40
4.605254132290782
 50
62.6435863814
 51
99.7705817507
  0
ARC
  5
57D
  8
0
  6
CONTINUOUS
 62
     7
 10
-1797.7564579256
 20
514.0228142057
 30
0.0
 40
1.318915608523044
 50
340.5389343705
 51
69.2582089464
  0
LINE
  5
57E
  8
0
  6
CONTINUOUS
 62
     7
 10
-1376.2072840397
 20
272.1707404181
 30
0.0
 11
-1376.2072840397
 21
270.9459206344
 31
0.0
  0
ARC
  5
57F
  8
0
  6
CONTINUOUS
 62
     7
 10
-1378.3235100718
 20
266.8556941121
 30
0.0
 40
4.605254132290558
 50
62.6435863814
 51
99.7705817507
  0
ARC
  5
580
  8
0
  6
CONTINUOUS
 62
     7
 10
-1376.4511095341
 20
270.8052330455
 30
0.0
 40
5.124896842951038
 50
201.2867124728
 51
218.715083386
  0
ARC
  5
581
  8
0
  6
CONTINUOUS
 62
     7
 10
-1375.3904419445
 20
271.4175434116
 30
0.0
 40
5.124896842951181
 50
201.2867124728
 51
218.715083386
  0
ARC
  5
582
  8
0
  6
CONTINUOUS
 62
     7
 10
-1799.491125783
 20
510.496622146
 30
0.0
 40
1.038952428073739
 50
274.4410521301
 51
325.5661436233
  0
ARC
  5
583
  8
0
  6
CONTINUOUS
 62
     7
 10
-1380.3692546982
 20
-690.6702582761
 30
0.0
 40
1.039285919810193
 50
94.4499573914
 51
145.5589427678
  0
ARC
  5
584
  8
0
  6
CONTINUOUS
 62
     7
 10
-1803.4113952841
 20
-450.9795841983
 30
0.0
 40
5.127055932562293
 50
21.2894409605
 51
38.7105661996
  0
LINE
  5
585
  8
0
  6
CONTINUOUS
 62
     7
 10
-1367.7219960063
 20
274.6197524175
 30
0.0
 11
-1368.7826635959
 21
275.2320627836
 31
0.0
  0
LINE
  5
586
  8
0
  6
CONTINUOUS
 62
     7
 10
-1368.7826635959
 20
275.2320627836
 30
0.0
 11
-1376.2072840397
 21
270.9459206344
 31
0.0
  0
LINE
  5
587
  8
0
  6
CONTINUOUS
 62
     7
 10
-1368.7826635959
 20
276.4568825672
 30
0.0
 11
-1368.7826635959
 21
275.2320627836
 31
0.0
  0
LINE
  5
588
  8
0
  6
CONTINUOUS
 62
     7
 10
-1799.4106761729
 20
509.460789144
 30
0.0
 11
-1798.6344576639
 21
509.9088905511
 31
0.0
  0
LINE
  5
589
  8
0
  6
CONTINUOUS
 62
     7
 10
-1797.2893546584
 20
514.0314257822
 30
0.0
 11
-1797.2893546584
 21
515.2562455658
 31
0.0
  0
ARC
  5
58A
  8
0
  6
CONTINUOUS
 62
     7
 10
-1798.2213425492
 20
512.2969304974
 30
0.0
 40
1.969029030062718
 50
35.8130528477
 51
61.7497448004
  0
POLYLINE
  5
58B
  8
0
  6
CONTINUOUS
 62
     7
 66
     1
 10
0.0
 20
0.0
 30
0.0
  0
VERTEX
  5
92F
  8
0
  6
CONTINUOUS
 62
     7
 10
-1799.4106761729
 20
509.460789144
 30
0.0
  0
VERTEX
  5
930
  8
0
  6
CONTINUOUS
 62
     7
 10
-1799.8374559841
 20
509.6230766788
 30
0.0
  0
VERTEX
  5
931
  8
0
  6
CONTINUOUS
 62
     7
 10
-1800.1088276879
 20
509.8399379538
 30
0.0
  0
VERTEX
  5
932
  8
0
  6
CONTINUOUS
 62
     7
 10
-1800.2893478261
 20
510.3480895518
 30
0.0
  0
VERTEX
  5
933
  8
0
  6
CONTINUOUS
 62
     7
 10
-1800.1158736202
 20
511.013979426
 30
0.0
  0
VERTEX
  5
934
  8
0
  6
CONTINUOUS
 62
     7
 10
-1799.8455821352
 20
511.4451979749
 30
0.0
  0
VERTEX
  5
935
  8
0
  6
CONTINUOUS
 62
     7
 10
-1799.4106718924
 20
511.9100159719
 30
0.0
  0
SEQEND
  5
936
  8
0
  6
CONTINUOUS
 62
     7
  0
LINE
  5
58C
  8
0
  6
CONTINUOUS
 62
     7
 10
-1799.4106718924
 20
511.9100159719
 30
0.0
 11
-1798.3500117114
 21
511.2977098827
 31
0.0
  0
ARC
  5
58D
  8
0
  6
CONTINUOUS
 62
     7
 10
-1797.1541149964
 20
510.1679628104
 30
0.0
 40
1.645143580394142
 50
136.6292579948
 51
173.7027631316
  0
ARC
  5
58E
  8
0
  6
CONTINUOUS
 62
     7
 10
-1797.9433118614
 20
-445.9196647625
 30
0.0
 40
2.364047859862805
 50
187.0954405468
 51
231.6327358132
  0
LINE
  5
58F
  8
0
  6
CONTINUOUS
 62
     7
 10
-1798.3500148394
 20
514.6437318714
 30
0.0
 11
-1797.2893546584
 21
514.0314257822
 31
0.0
  0
ARC
  5
590
  8
0
  6
CONTINUOUS
 62
     7
 10
-1801.8888212391
 20
514.2433566075
 30
0.0
 40
4.604346587857581
 50
320.2265608711
 51
357.3618333597
  0
ARC
  5
591
  8
0
  6
CONTINUOUS
 62
     7
 10
-1802.9494814201
 20
514.8556626967
 30
0.0
 40
4.604346587861056
 50
320.2265608711
 51
357.3618333596
  0
LINE
  5
592
  8
0
  6
CONTINUOUS
 62
     7
 10
-1798.3500148394
 20
514.6437318714
 30
0.0
 11
-1797.2893472498
 21
515.2560422375
 31
0.0
  0
LINE
  5
593
  8
0
  6
CONTINUOUS
 62
     7
 10
-1375.1466164501
 20
-691.1432172026
 30
0.0
 11
-1376.2072840397
 21
-690.5309068365
 31
0.0
  0
ARC
  5
594
  8
0
  6
CONTINUOUS
 62
     7
 10
-1378.1760703641
 20
-690.4709014786
 30
0.0
 40
1.969700544224495
 50
358.2542596225
 51
24.1534288259
  0
LINE
  5
595
  8
0
  6
CONTINUOUS
 62
     7
 10
-1380.6458529501
 20
-689.7473606145
 30
0.0
 11
-1381.2263625681
 21
-690.0824816837
 31
0.0
  0
POLYLINE
  5
596
  8
0
  6
CONTINUOUS
 62
     7
 66
     1
 10
0.0
 20
0.0
 30
0.0
  0
VERTEX
  5
937
  8
0
  6
CONTINUOUS
 62
     7
 10
-1379.1050379255
 20
-691.3074898714
 30
0.0
  0
VERTEX
  5
938
  8
0
  6
CONTINUOUS
 62
     7
 10
-1379.7156825402
 20
-691.4477149041
 30
0.0
  0
VERTEX
  5
939
  8
0
  6
CONTINUOUS
 62
     7
 10
-1380.2220031681
 20
-691.468714391
 30
0.0
  0
VERTEX
  5
93A
  8
0
  6
CONTINUOUS
 62
     7
 10
-1380.8965318683
 20
-691.2876622877
 30
0.0
  0
VERTEX
  5
93B
  8
0
  6
CONTINUOUS
 62
     7
 10
-1381.2390171593
 20
-690.8895504882
 30
0.0
  0
VERTEX
  5
93C
  8
0
  6
CONTINUOUS
 62
     7
 10
-1381.2953042755
 20
-690.5449076406
 30
0.0
  0
VERTEX
  5
93D
  8
0
  6
CONTINUOUS
 62
     7
 10
-1381.2263625681
 20
-690.0824816837
 30
0.0
  0
SEQEND
  5
93E
  8
0
  6
CONTINUOUS
 62
     7
  0
ARC
  5
597
  8
0
  6
CONTINUOUS
 62
     7
 10
-1379.5053142968
 20
-688.7020483674
 30
0.0
 40
1.43748339341586
 50
243.4984978763
 51
286.1680961216
  0
LINE
  5
598
  8
0
  6
CONTINUOUS
 62
     7
 10
-1379.1050379255
 20
-690.0826776923
 30
0.0
 11
-1379.1050379255
 21
-691.3074898714
 31
0.0
  0
ARC
  5
599
  8
0
  6
CONTINUOUS
 62
     7
 10
-1796.6727121934
 20
-448.9975989817
 30
0.0
 40
1.965202041372198
 50
183.5141223857
 51
237.7631832938
  0
LINE
  5
59A
  8
0
  6
CONTINUOUS
 62
     7
 10
-1376.2072840397
 20
-690.5309068365
 30
0.0
 11
-1376.2072840397
 21
-691.7557190156
 31
0.0
  0
ARC
  5
59B
  8
0
  6
CONTINUOUS
 62
     7
 10
-1378.3235100718
 20
-695.8459455379
 30
0.0
 40
4.605254132287589
 50
62.6435863814
 51
99.7705817507
  0
ARC
  5
59C
  8
0
  6
CONTINUOUS
 62
     7
 10
-1378.3235100718
 20
-694.6211333588
 30
0.0
 40
4.60525413228967
 50
62.6435863814
 51
99.7705817507
  0
LINE
  5
59D
  8
0
  6
CONTINUOUS
 62
     7
 10
-1368.7826635959
 20
-687.4695768664
 30
0.0
 11
-1368.7826635959
 21
-687.4693776252
 31
0.0
  0
LINE
  5
59E
  8
0
  6
CONTINUOUS
 62
     7
 10
-1368.7826635959
 20
-687.4695768664
 30
0.0
 11
-1376.2072840397
 21
-691.7557190156
 31
0.0
  0
ARC
  5
59F
  8
0
  6
CONTINUOUS
 62
     7
 10
-1805.8453522294
 20
-431.8620397207
 30
0.0
 40
11.17507106388553
 50
259.057388782
 51
280.9426830952
  0
ARC
  5
5A0
  8
0
  6
CONTINUOUS
 62
     7
 10
-1805.8453467961
 20
516.7097599118
 30
0.0
 40
3.136036615995365
 50
227.4344146299
 51
312.5656572474
  0
LINE
  5
5A1
  8
0
  6
CONTINUOUS
 62
     7
 10
-1806.9060000954
 20
515.0123682747
 30
0.0
 11
-1807.966667685
 21
514.4000579086
 31
0.0
  0
ARC
  5
5A2
  8
0
  6
CONTINUOUS
 62
     7
 10
-1805.8453409944
 20
515.7145721212
 30
0.0
 40
1.27204086822238
 50
213.5063440051
 51
326.493563581
  0
LINE
  5
5A3
  8
0
  6
CONTINUOUS
 62
     7
 10
-1804.7846830261
 20
515.012366564
 30
0.0
 11
-1803.7240230097
 21
514.4000605698
 31
0.0
  0
ARC
  5
5A4
  8
0
  6
CONTINUOUS
 62
     7
 10
-2212.0562049879
 20
751.0214325822
 30
0.0
 40
11.17126726554063
 50
139.0536234397
 51
160.9465407316
  0
ARC
  5
5A5
  8
0
  6
CONTINUOUS
 62
     7
 10
-1805.6821149217
 20
516.4271186215
 30
0.0
 40
3.136115631718832
 50
107.4355988653
 51
192.5645653061
  0
LINE
  5
5A6
  8
0
  6
CONTINUOUS
 62
     7
 10
-1806.6218006031
 20
519.4191433666
 30
0.0
 11
-1806.6218006031
 21
518.194323583
 31
0.0
  0
ARC
  5
5A7
  8
0
  6
CONTINUOUS
 62
     7
 10
-1806.5439026667
 20
516.9246041621
 30
0.0
 40
1.272106715738956
 50
93.5107251579
 51
206.4896033312
  0
LINE
  5
5A8
  8
0
  6
CONTINUOUS
 62
     7
 10
-1808.7431252457
 20
515.7448891498
 30
0.0
 11
-1807.682457656
 21
516.3571995159
 31
0.0
  0
LINE
  5
5A9
  8
0
  6
CONTINUOUS
 62
     7
 10
-1795.238745513
 20
521.4199186184
 30
0.0
 11
-1802.6633659568
 21
517.1337764693
 31
0.0
  0
LINE
  5
5AA
  8
0
  6
CONTINUOUS
 62
     7
 10
-1795.238745513
 20
516.4400425846
 30
0.0
 11
-1795.238745513
 21
521.4199186184
 31
0.0
  0
ARC
  5
5AB
  8
0
  6
CONTINUOUS
 62
     7
 10
-1807.2628325374
 20
517.3457072947
 30
0.0
 40
4.604346587864056
 50
320.2265608711
 51
357.3618333596
  0
LINE
  5
5AC
  8
0
  6
CONTINUOUS
 62
     7
 10
-1803.7240259732
 20
517.7460824635
 30
0.0
 11
-1802.6633659568
 21
517.1337764693
 31
0.0
  0
ARC
  5
5AD
  8
0
  6
CONTINUOUS
 62
     7
 10
-1808.3234925538
 20
517.9580132888
 30
0.0
 40
4.604346587862047
 50
320.2265608711
 51
357.3618333596
  0
LINE
  5
5AE
  8
0
  6
CONTINUOUS
 62
     7
 10
-1803.7240259732
 20
518.9709022471
 30
0.0
 11
-1803.7240259732
 21
517.7460824635
 31
0.0
  0
ARC
  5
5AF
  8
0
  6
CONTINUOUS
 62
     7
 10
-1805.8402518412
 20
513.6560144212
 30
0.0
 40
4.60511330100858
 50
62.6426821163
 51
99.7711474442
  0
ARC
  5
5B0
  8
0
  6
CONTINUOUS
 62
     7
 10
-1805.8402518412
 20
514.8808342049
 30
0.0
 40
4.60511330100858
 50
62.6426821163
 51
99.7711474442
  0
LINE
  5
5B1
  8
0
  6
CONTINUOUS
 62
     7
 10
-2213.8459423212
 20
764.30152931
 30
0.0
 11
-2221.270562765
 21
760.0153871609
 31
0.0
  0
LINE
  5
5B2
  8
0
  6
CONTINUOUS
 62
     7
 10
-1796.2994055294
 20
523.2570443963
 30
0.0
 11
-2213.8459423212
 21
764.30152931
 31
0.0
  0
LINE
  5
5B3
  8
0
  6
CONTINUOUS
 62
     7
 10
-1803.7240259732
 20
518.9709022471
 30
0.0
 11
-1796.2994055294
 21
523.2570443963
 31
0.0
  0
ARC
  5
5B4
  8
0
  6
CONTINUOUS
 62
     7
 10
-2221.7377190994
 20
758.7819494416
 30
0.0
 40
1.318940350585122
 50
340.540150127
 51
69.2561509141
  0
ARC
  5
5B5
  8
0
  6
CONTINUOUS
 62
     7
 10
-1803.9677158731
 20
517.6054750216
 30
0.0
 40
5.125067264186923
 50
201.2867880946
 51
218.7144185565
  0
ARC
  5
5B6
  8
0
  6
CONTINUOUS
 62
     7
 10
-1802.9070482834
 20
518.2177853877
 30
0.0
 40
5.125067264176769
 50
201.2867880946
 51
218.7144185565
  0
ARC
  5
5B7
  8
0
  6
CONTINUOUS
 62
     7
 10
-2223.4723310372
 20
755.2557569041
 30
0.0
 40
1.038922707740255
 50
274.4391000995
 51
325.5662650994
  0
ARC
  5
5B8
  8
0
  6
CONTINUOUS
 62
     7
 10
-1807.8859938092
 20
-443.8701043453
 30
0.0
 40
1.039316595107381
 50
94.4518936057
 51
145.5587739849
  0
ARC
  5
5B9
  8
0
  6
CONTINUOUS
 62
     7
 10
-2227.3924696033
 20
-206.2203646832
 30
0.0
 40
5.126888241162275
 50
21.289377998
 51
38.711239413
  0
LINE
  5
5BA
  8
0
  6
CONTINUOUS
 62
     7
 10
-1795.238745513
 20
521.4199186184
 30
0.0
 11
-1796.2994055294
 21
522.0322246126
 31
0.0
  0
LINE
  5
5BB
  8
0
  6
CONTINUOUS
 62
     7
 10
-1796.2994055294
 20
522.0322246126
 30
0.0
 11
-1803.7240259732
 21
517.7460824635
 31
0.0
  0
LINE
  5
5BC
  8
0
  6
CONTINUOUS
 62
     7
 10
-1796.2994055294
 20
523.2570443963
 30
0.0
 11
-1796.2994055294
 21
522.0322246126
 31
0.0
  0
LINE
  5
5BD
  8
0
  6
CONTINUOUS
 62
     7
 10
-2223.3919190177
 20
754.219950793
 30
0.0
 11
-2222.6157005086
 21
754.6680522002
 31
0.0
  0
LINE
  5
5BE
  8
0
  6
CONTINUOUS
 62
     7
 10
-2221.270562765
 20
758.7905673773
 30
0.0
 11
-2221.270562765
 21
760.0153871609
 31
0.0
  0
ARC
  5
5BF
  8
0
  6
CONTINUOUS
 62
     7
 10
-2222.1899107479
 20
757.0728440763
 30
0.0
 40
1.948274634671834
 50
34.6212146601
 51
61.8437277169
  0
POLYLINE
  5
5C0
  8
0
  6
CONTINUOUS
 62
     7
 66
     1
 10
0.0
 20
0.0
 30
0.0
  0
VERTEX
  5
93F
  8
0
  6
CONTINUOUS
 62
     7
 10
-2223.3919190177
 20
754.219950793
 30
0.0
  0
VERTEX
  5
940
  8
0
  6
CONTINUOUS
 62
     7
 10
-2223.8186769323
 20
754.3822256872
 30
0.0
  0
VERTEX
  5
941
  8
0
  6
CONTINUOUS
 62
     7
 10
-2224.0900394164
 20
754.5990816398
 30
0.0
  0
VERTEX
  5
942
  8
0
  6
CONTINUOUS
 62
     7
 10
-2224.2705859787
 20
755.1072484922
 30
0.0
  0
VERTEX
  5
943
  8
0
  6
CONTINUOUS
 62
     7
 10
-2224.0971200869
 20
755.773143166
 30
0.0
  0
VERTEX
  5
944
  8
0
  6
CONTINUOUS
 62
     7
 10
-2223.8268007373
 20
756.2043456289
 30
0.0
  0
VERTEX
  5
945
  8
0
  6
CONTINUOUS
 62
     7
 10
-2223.3918874075
 20
756.6691618438
 30
0.0
  0
SEQEND
  5
946
  8
0
  6
CONTINUOUS
 62
     7
  0
LINE
  5
5C1
  8
0
  6
CONTINUOUS
 62
     7
 10
-2223.3918874075
 20
756.6691618438
 30
0.0
 11
-2222.3312198179
 21
756.0568514778
 31
0.0
  0
ARC
  5
5C2
  8
0
  6
CONTINUOUS
 62
     7
 10
-2221.1356445607
 20
754.9272389965
 30
0.0
 40
1.644817483302623
 50
136.6249764366
 51
173.7060698669
  0
ARC
  5
5C3
  8
0
  6
CONTINUOUS
 62
     7
 10
-2221.9244137531
 20
-201.1604188709
 30
0.0
 40
2.364201400430368
 50
187.0969848214
 51
231.6313247535
  0
ARC
  5
5C4
  8
0
  6
CONTINUOUS
 62
     7
 10
-2225.8700293456
 20
759.0024982026
 30
0.0
 40
4.604346587856543
 50
320.2265608711
 51
357.3618333597
  0
LINE
  5
5C5
  8
0
  6
CONTINUOUS
 62
     7
 10
-2222.3312303546
 20
759.4028777433
 30
0.0
 11
-2221.270562765
 21
758.7905673773
 31
0.0
  0
ARC
  5
5C6
  8
0
  6
CONTINUOUS
 62
     7
 10
-2226.9306969352
 20
759.6148085687
 30
0.0
 40
4.604346587864012
 50
320.2265608711
 51
357.3618333596
  0
LINE
  5
5C7
  8
0
  6
CONTINUOUS
 62
     7
 10
-2222.3312303546
 20
759.4028777433
 30
0.0
 11
-2221.270562765
 21
760.0151881094
 31
0.0
  0
LINE
  5
5C8
  8
0
  6
CONTINUOUS
 62
     7
 10
-1802.6633659568
 20
-444.3430510016
 30
0.0
 11
-1800.289349884
 21
-442.9725606945
 31
0.0
  0
ARC
  5
5C9
  8
0
  6
CONTINUOUS
 62
     7
 10
-1803.9655034647
 20
-444.1309339349
 30
0.0
 40
1.319301231493064
 50
350.7478350526
 51
79.4533147163
  0
LINE
  5
5CA
  8
0
  6
CONTINUOUS
 62
     7
 10
-1802.6633659568
 20
-444.3430510016
 30
0.0
 11
-1803.7240259732
 21
-443.7307450075
 31
0.0
  0
ARC
  5
5CB
  8
0
  6
CONTINUOUS
 62
     7
 10
-1805.6729099777
 20
-443.6683241728
 30
0.0
 40
1.949883387226182
 50
358.1654997695
 51
25.331665635
  0
LINE
  5
5CC
  8
0
  6
CONTINUOUS
 62
     7
 10
-1808.1626156277
 20
-442.9471868101
 30
0.0
 11
-1808.7431252457
 21
-443.2823078793
 31
0.0
  0
POLYLINE
  5
5CD
  8
0
  6
CONTINUOUS
 62
     7
 66
     1
 10
0.0
 20
0.0
 30
0.0
  0
VERTEX
  5
947
  8
0
  6
CONTINUOUS
 62
     7
 10
-1806.6218006031
 20
-444.507316067
 30
0.0
  0
VERTEX
  5
948
  8
0
  6
CONTINUOUS
 62
     7
 10
-1807.2324550959
 20
-444.6475353972
 30
0.0
  0
VERTEX
  5
949
  8
0
  6
CONTINUOUS
 62
     7
 10
-1807.7387579431
 20
-444.6685451487
 30
0.0
  0
VERTEX
  5
94A
  8
0
  6
CONTINUOUS
 62
     7
 10
-1808.4132905947
 20
-444.4874907643
 30
0.0
  0
VERTEX
  5
94B
  8
0
  6
CONTINUOUS
 62
     7
 10
-1808.7557567879
 20
-444.0893899898
 30
0.0
  0
VERTEX
  5
94C
  8
0
  6
CONTINUOUS
 62
     7
 10
-1808.812065636
 20
-443.7447345966
 30
0.0
  0
VERTEX
  5
94D
  8
0
  6
CONTINUOUS
 62
     7
 10
-1808.7431252457
 20
-443.2823078793
 30
0.0
  0
SEQEND
  5
94E
  8
0
  6
CONTINUOUS
 62
     7
  0
ARC
  5
5CE
  8
0
  6
CONTINUOUS
 62
     7
 10
-1807.0233833516
 20
-441.9163057854
 30
0.0
 40
1.42399647449669
 50
243.2872010948
 51
286.3802675058
  0
LINE
  5
5CF
  8
0
  6
CONTINUOUS
 62
     7
 10
-1806.6218006031
 20
-443.282503888
 30
0.0
 11
-1806.6218006031
 21
-444.507316067
 31
0.0
  0
ARC
  5
5D0
  8
0
  6
CONTINUOUS
 62
     7
 10
-2220.6474869023
 20
-204.2346217777
 30
0.0
 40
1.971881066116382
 50
183.6135258644
 51
237.6644832004
  0
LINE
  5
5D1
  8
0
  6
CONTINUOUS
 62
     7
 10
-1803.7240259732
 20
-443.7307450075
 30
0.0
 11
-1803.7240259732
 21
-444.9555571865
 31
0.0
  0
ARC
  5
5D2
  8
0
  6
CONTINUOUS
 62
     7
 10
-1805.8402518412
 20
-449.0456252288
 30
0.0
 40
4.605113301009272
 50
62.6426821163
 51
99.7711474442
  0
ARC
  5
5D3
  8
0
  6
CONTINUOUS
 62
     7
 10
-1805.8402518412
 20
-447.8208130498
 30
0.0
 40
4.605113301007418
 50
62.6426821163
 51
99.7711474442
  0
LINE
  5
5D4
  8
0
  6
CONTINUOUS
 62
     7
 10
-1800.2893528475
 20
-442.972762596
 30
0.0
 11
-1803.7240259732
 21
-444.9555571865
 31
0.0
  0
LINE
  5
5D5
  8
0
  6
CONTINUOUS
 62
     7
 10
-1369.3664079845
 20
-687.8065896259
 30
0.0
 11
-1364.0803923911
 21
-696.9622504844
 31
0.0
  0
LINE
  5
5D6
  8
0
  6
CONTINUOUS
 62
     7
 10
-1364.0803923911
 20
-696.9622504844
 30
0.0
 11
-1364.0803923911
 21
-697.3705209573
 31
0.0
  0
LINE
  5
5D7
  8
0
  6
CONTINUOUS
 62
     7
 10
-1364.0803923911
 20
-696.9622504844
 30
0.0
 11
-1363.2981995663
 21
-696.5107001782
 31
0.0
  0
ARC
  5
5D8
  8
0
  6
CONTINUOUS
 62
     7
 10
-1362.7871652229
 20
-697.5802963741
 30
0.0
 40
1.310130617163864
 50
170.7862579987
 51
309.2031904868
  0
ARC
  5
5D9
  8
0
  6
CONTINUOUS
 62
     7
 10
-1362.3731177665
 20
-696.8631085996
 30
0.0
 40
0.6550604933288581
 50
170.7852770013
 51
309.2036785844
  0
LINE
  5
5DA
  8
0
  6
CONTINUOUS
 62
     7
 10
-1361.6055189098
 20
-697.1666181361
 30
0.0
 11
-1361.6055189098
 21
-698.3914293646
 31
0.0
  0
LINE
  5
5DB
  8
0
  6
CONTINUOUS
 62
     7
 10
-1361.9590677486
 20
-698.5955287648
 30
0.0
 11
-1361.6055189098
 21
-698.3914293646
 31
0.0
  0
LINE
  5
5DC
  8
0
  6
CONTINUOUS
 62
     7
 10
-1769.2525706669
 20
509.0305104472
 30
0.0
 11
-1769.2525706669
 21
507.6432314551
 31
0.0
  0
LINE
  5
5DD
  8
0
  6
CONTINUOUS
 62
     7
 10
-1770.4541351711
 20
508.3368620236
 30
0.0
 11
-1769.2525706669
 21
509.0305104472
 31
0.0
  0
LINE
  5
5DE
  8
0
  6
CONTINUOUS
 62
     7
 10
-1805.8094747573
 20
528.7470651233
 30
0.0
 11
-1804.6079102531
 21
529.4407135469
 31
0.0
  0
LINE
  5
5DF
  8
0
  6
CONTINUOUS
 62
     7
 10
-1804.6079102531
 20
529.4407135469
 30
0.0
 11
-1769.2525706669
 21
509.0305104472
 31
0.0
  0
LINE
  5
5E0
  8
0
  6
CONTINUOUS
 62
     7
 10
-1795.2387399154
 20
520.7663797386
 30
0.0
 11
-1791.4915917012
 21
518.6031971192
 31
0.0
  0
LINE
  5
5E1
  8
0
  6
CONTINUOUS
 62
     7
 10
-1095.2383635517
 20
433.5945621623
 30
0.0
 11
-1097.6093871982
 21
432.2257993461
 31
0.0
  0
LINE
  5
5E2
  8
0
  6
CONTINUOUS
 62
     7
 10
-1095.2383635517
 20
433.5945621623
 30
0.0
 11
-1095.2383635517
 21
432.7046867381
 31
0.0
  0
LINE
  5
5E3
  8
0
  6
CONTINUOUS
 62
     7
 10
-1095.2383635517
 20
432.3697423786
 30
0.0
 11
-1095.7738919455
 21
432.0605884174
 31
0.0
  0
LINE
  5
5E4
  8
0
  6
CONTINUOUS
 62
     7
 10
-1936.6954736246
 20
919.3574120545
 30
0.0
 11
-1937.2305278665
 21
919.0485318153
 31
0.0
  0
LINE
  5
5E5
  8
0
  6
CONTINUOUS
 62
     7
 10
-1095.2383635517
 20
432.2880747478
 30
0.0
 11
-1095.4487606194
 21
432.4095343897
 31
0.0
  0
LINE
  5
5E6
  8
0
  6
CONTINUOUS
 62
     7
 10
-1095.2383635517
 20
432.2880747478
 30
0.0
 11
-1095.7738919455
 21
431.9789207866
 31
0.0
  0
LINE
  5
5E7
  8
0
  6
CONTINUOUS
 62
     7
 10
-1095.2383635517
 20
-526.1675507676
 30
0.0
 11
-1095.7738919455
 21
-526.4767047289
 31
0.0
  0
LINE
  5
5E8
  8
0
  6
CONTINUOUS
 62
     7
 10
-1095.2383740884
 20
433.5941579766
 30
0.0
 11
-1094.8656062867
 21
434.139579707
 31
0.0
  0
POLYLINE
  5
5E9
  8
0
  6
CONTINUOUS
 62
     7
 66
     1
 10
0.0
 20
0.0
 30
0.0
  0
VERTEX
  5
94F
  8
0
  6
CONTINUOUS
 62
     7
 10
-1094.8038506169
 20
434.3482513965
 30
0.0
  0
VERTEX
  5
950
  8
0
  6
CONTINUOUS
 62
     7
 10
-1094.8014798567
 20
434.3563401804
 30
0.0
  0
VERTEX
  5
951
  8
0
  6
CONTINUOUS
 62
     7
 10
-1094.9710787751
 20
434.1598809662
 30
0.0
  0
VERTEX
  5
952
  8
0
  6
CONTINUOUS
 62
     7
 10
-1095.2383635517
 20
433.5945621623
 30
0.0
  0
SEQEND
  5
953
  8
0
  6
CONTINUOUS
 62
     7
  0
ARC
  5
5EA
  8
0
  6
CONTINUOUS
 62
     7
 10
-1935.94441134
 20
916.3494418122
 30
0.0
 40
3.100319263134836
 50
55.3805292227
 51
104.0195647161
  0
ARC
  5
5EB
  8
0
  6
CONTINUOUS
 62
     7
 10
-1096.7087812667
 20
-524.3777986284
 30
0.0
 40
2.316320568595797
 50
309.4057100268
 51
0.210307963
  0
POLYLINE
  5
5EC
  8
0
  6
CONTINUOUS
 62
     7
 66
     1
 10
0.0
 20
0.0
 30
0.0
  0
VERTEX
  5
954
  8
0
  6
CONTINUOUS
 62
     7
 10
-1095.2383635517
 20
432.2880747478
 30
0.0
  0
VERTEX
  5
955
  8
0
  6
CONTINUOUS
 62
     7
 10
-1094.588079826
 20
432.5641592076
 30
0.0
  0
VERTEX
  5
956
  8
0
  6
CONTINUOUS
 62
     7
 10
-1094.3596965906
 20
432.9411133209
 30
0.0
  0
VERTEX
  5
957
  8
0
  6
CONTINUOUS
 62
     7
 10
-1094.5880587526
 20
433.318091765
 30
0.0
  0
VERTEX
  5
958
  8
0
  6
CONTINUOUS
 62
     7
 10
-1095.2383740884
 20
433.5941579766
 30
0.0
  0
SEQEND
  5
959
  8
0
  6
CONTINUOUS
 62
     7
  0
LINE
  5
5ED
  8
0
  6
CONTINUOUS
 62
     7
 10
-1095.2383635517
 20
-526.2492047101
 30
0.0
 11
-1095.7738919455
 21
-526.5583586714
 31
0.0
  0
LINE
  5
5EE
  8
0
  6
CONTINUOUS
 62
     7
 10
-1095.2383635517
 20
-527.4740168892
 30
0.0
 11
-1095.2383635517
 21
-526.2492047101
 31
0.0
  0
LINE
  5
5EF
  8
0
  6
CONTINUOUS
 62
     7
 10
-1095.2383635517
 20
-527.4740168892
 30
0.0
 11
-1095.7738919455
 21
-527.7831708504
 31
0.0
  0
POLYLINE
  5
5F0
  8
0
  6
CONTINUOUS
 62
     7
 66
     1
 10
0.0
 20
0.0
 30
0.0
  0
VERTEX
  5
95A
  8
0
  6
CONTINUOUS
 62
     7
 10
-1095.2383635517
 20
-527.4740168892
 30
0.0
  0
VERTEX
  5
95B
  8
0
  6
CONTINUOUS
 62
     7
 10
-1094.9569068973
 20
-526.5127580332
 30
0.0
  0
VERTEX
  5
95C
  8
0
  6
CONTINUOUS
 62
     7
 10
-1094.8547956201
 20
-525.7142835966
 30
0.0
  0
SEQEND
  5
95D
  8
0
  6
CONTINUOUS
 62
     7
  0
POLYLINE
  5
5F1
  8
0
  6
CONTINUOUS
 62
     7
 66
     1
 10
0.0
 20
0.0
 30
0.0
  0
VERTEX
  5
95E
  8
0
  6
CONTINUOUS
 62
     7
 10
-1764.2591003003
 20
54.9186155679
 30
0.0
  0
VERTEX
  5
95F
  8
0
  6
CONTINUOUS
 62
     7
 10
-1762.8058690611
 20
53.2806738123
 30
0.0
  0
VERTEX
  5
960
  8
0
  6
CONTINUOUS
 62
     7
 10
-1761.4950651939
 20
51.4485600933
 30
0.0
  0
VERTEX
  5
961
  8
0
  6
CONTINUOUS
 62
     7
 10
-1760.3714144076
 20
49.469156792
 30
0.0
  0
VERTEX
  5
962
  8
0
  6
CONTINUOUS
 62
     7
 10
-1759.4696667786
 20
47.3969959332
 30
0.0
  0
VERTEX
  5
963
  8
0
  6
CONTINUOUS
 62
     7
 10
-1758.8242984291
 20
45.2861106726
 30
0.0
  0
VERTEX
  5
964
  8
0
  6
CONTINUOUS
 62
     7
 10
-1758.4550130108
 20
43.1951587053
 30
0.0
  0
VERTEX
  5
965
  8
0
  6
CONTINUOUS
 62
     7
 10
-1758.3798177647
 20
41.1882790432
 30
0.0
  0
VERTEX
  5
966
  8
0
  6
CONTINUOUS
 62
     7
 10
-1758.5963682724
 20
39.3146977769
 30
0.0
  0
VERTEX
  5
967
  8
0
  6
CONTINUOUS
 62
     7
 10
-1759.1008239022
 20
37.6332651959
 30
0.0
  0
VERTEX
  5
968
  8
0
  6
CONTINUOUS
 62
     7
 10
-1759.8721006933
 20
36.1858073969
 30
0.0
  0
VERTEX
  5
969
  8
0
  6
CONTINUOUS
 62
     7
 10
-1760.435324835
 20
35.4694017856
 30
0.0
  0
SEQEND
  5
96A
  8
0
  6
CONTINUOUS
 62
     7
  0
ARC
  5
5F2
  8
0
  6
CONTINUOUS
 62
     7
 10
-1773.4702501037
 20
46.6958484155
 30
0.0
 40
12.34743618495693
 50
41.7551985282
 51
78.2501780045
  0
ARC
  5
5F3
  8
0
  6
CONTINUOUS
 62
     7
 10
-1771.8347963839
 20
53.9683724726
 30
0.0
 40
4.895734366206761
 50
79.6572456612
 51
117.4815823921
  0
LINE
  5
5F4
  8
0
  6
CONTINUOUS
 62
     7
 10
-1750.0620792592
 20
64.4303011318
 30
0.0
 11
-1749.8077967854
 21
36.483952529
 31
0.0
  0
ARC
  5
5F5
  8
0
  6
CONTINUOUS
 62
     7
 10
-1754.9183814462
 20
64.1650288504
 30
0.0
 40
4.863536856916572
 50
3.1266757595
 51
55.0843574503
  0
ARC
  5
5F6
  8
0
  6
CONTINUOUS
 62
     7
 10
-1753.9262961919
 20
63.8848791881
 30
0.0
 40
1.559950453463298
 50
246.4604639965
 51
280.3796215803
  0
ARC
  5
5F7
  8
0
  6
CONTINUOUS
 62
     7
 10
-1698.2314402008
 20
187.0501826113
 30
0.0
 40
133.958089856291
 50
235.3788349725
 51
244.6265415602
  0
ARC
  5
5F8
  8
0
  6
CONTINUOUS
 62
     7
 10
-1846.5156006811
 20
-72.7053053806
 30
0.0
 40
169.5548829270795
 50
56.1762798505
 51
63.8290966822
  0
POLYLINE
  5
5F9
  8
0
  6
CONTINUOUS
 62
     7
 66
     1
 10
0.0
 20
0.0
 30
0.0
  0
VERTEX
  5
96B
  8
0
  6
CONTINUOUS
 62
     7
 10
-1771.7333934393
 20
79.4672274091
 30
0.0
  0
VERTEX
  5
96C
  8
0
  6
CONTINUOUS
 62
     7
 10
-1772.4672280238
 20
79.6790022196
 30
0.0
  0
VERTEX
  5
96D
  8
0
  6
CONTINUOUS
 62
     7
 10
-1773.0988196221
 20
79.5625130449
 30
0.0
  0
VERTEX
  5
96E
  8
0
  6
CONTINUOUS
 62
     7
 10
-1773.2996888679
 20
79.37243779
 30
0.0
  0
SEQEND
  5
96F
  8
0
  6
CONTINUOUS
 62
     7
  0
ARC
  5
5FA
  8
0
  6
CONTINUOUS
 62
     7
 10
-1751.3667963854
 20
-59.84644179
 30
0.0
 40
1.321293884780115
 50
289.5425441978
 51
9.0868208997
  0
LINE
  5
5FB
  8
0
  6
CONTINUOUS
 62
     7
 10
-1750.0620792592
 20
-59.6377716468
 30
0.0
 11
-1749.8077967854
 21
-31.9850113391
 31
0.0
  0
LINE
  5
5FC
  8
0
  6
CONTINUOUS
 62
     7
 10
-1749.8077967854
 20
36.483952529
 30
0.0
 11
-1749.8077967854
 21
-31.9850113391
 31
0.0
  0
LINE
  5
5FD
  8
0
  6
CONTINUOUS
 62
     7
 10
-1764.1479353532
 20
44.2850010102
 30
0.0
 11
-1766.0704217012
 21
45.1980279245
 31
0.0
  0
ARC
  5
5FE
  8
0
  6
CONTINUOUS
 62
     7
 10
-1773.7696329628
 20
43.5565452923
 30
0.0
 40
7.872249950542392
 50
12.0353448658
 51
56.8103095712
  0
LINE
  5
5FF
  8
0
  6
CONTINUOUS
 62
     7
 10
-1773.1965528955
 20
49.3118558977
 30
0.0
 11
-1774.7854653767
 21
50.4259163798
 31
0.0
  0
LINE
  5
600
  8
0
  6
CONTINUOUS
 62
     7
 10
-1774.9918611281
 20
47.0174209718
 30
0.0
 11
-1773.3989394278
 21
45.9135899108
 31
0.0
  0
LINE
  5
601
  8
0
  6
CONTINUOUS
 62
     7
 10
-1766.2739435643
 20
41.8003686805
 30
0.0
 11
-1764.3549395996
 21
40.8768568791
 31
0.0
  0
ARC
  5
602
  8
0
  6
CONTINUOUS
 62
     7
 10
-1764.8556846549
 20
39.2620557402
 30
0.0
 40
5.790958748333016
 50
253.2227276989
 51
297.3411675098
  0
LINE
  5
603
  8
0
  6
CONTINUOUS
 62
     7
 10
-1774.3710933672
 20
58.2151186089
 30
0.0
 11
-1774.2349300706
 21
58.2852825073
 31
0.0
  0
LINE
  5
604
  8
0
  6
CONTINUOUS
 62
     7
 10
-1763.5355047658
 20
43.3381377146
 30
0.0
 11
-1763.6472360612
 21
41.5873314424
 31
0.0
  0
ARC
  5
605
  8
0
  6
CONTINUOUS
 62
     7
 10
-1773.1305264476
 20
43.9000889194
 30
0.0
 40
7.21355958236364
 50
11.7551789132
 51
56.7938415357
  0
LINE
  5
606
  8
0
  6
CONTINUOUS
 62
     7
 10
-1775.9579959706
 20
76.6253059675
 30
0.0
 11
-1776.0644009581
 21
76.4951819433
 31
0.0
  0
ARC
  5
607
  8
0
  6
CONTINUOUS
 62
     7
 10
-1763.5874371297
 20
41.4253188861
 30
0.0
 40
0.1726962089830049
 50
110.2591337607
 51
175.5163255768
  0
ARC
  5
608
  8
0
  6
CONTINUOUS
 62
     7
 10
-1765.8736180256
 20
45.1502038891
 30
0.0
 40
0.2025658970048566
 50
166.3263347066
 51
235.5149316586
  0
POLYLINE
  5
609
  8
0
  6
CONTINUOUS
 62
     7
 66
     1
 10
0.0
 20
0.0
 30
0.0
  0
VERTEX
  5
970
  8
0
  6
CONTINUOUS
 62
     7
 10
-1779.1300757909
 20
46.9523378083
 30
0.0
  0
VERTEX
  5
971
  8
0
  6
CONTINUOUS
 62
     7
 10
-1779.1385604783
 20
46.9237204581
 30
0.0
  0
VERTEX
  5
972
  8
0
  6
CONTINUOUS
 62
     7
 10
-1779.1441897168
 20
46.8872990407
 30
0.0
  0
SEQEND
  5
973
  8
0
  6
CONTINUOUS
 62
     7
  0
ARC
  5
60A
  8
0
  6
CONTINUOUS
 62
     7
 10
-1772.8145756253
 20
49.6160992969
 30
0.0
 40
0.4882953728963051
 50
218.5353745133
 51
291.3923485696
  0
POLYLINE
  5
60B
  8
0
  6
CONTINUOUS
 62
     7
 66
     1
 10
0.0
 20
0.0
 30
0.0
  0
VERTEX
  5
974
  8
0
  6
CONTINUOUS
 62
     7
 10
-1766.3814206621
 20
42.0875333549
 30
0.0
  0
VERTEX
  5
975
  8
0
  6
CONTINUOUS
 62
     7
 10
-1766.9123945622
 20
41.4122814217
 30
0.0
  0
VERTEX
  5
976
  8
0
  6
CONTINUOUS
 62
     7
 10
-1767.1189852427
 20
41.3139321551
 30
0.0
  0
SEQEND
  5
977
  8
0
  6
CONTINUOUS
 62
     7
  0
ARC
  5
60C
  8
0
  6
CONTINUOUS
 62
     7
 10
-1762.7747821307
 20
49.4566653168
 30
0.0
 40
6.460882291100866
 50
191.4448613503
 51
253.8911455516
  0
ARC
  5
60D
  8
0
  6
CONTINUOUS
 62
     7
 10
-1769.7088437651
 20
48.0075083318
 30
0.0
 40
0.6244361826583587
 50
15.5270752072
 51
57.1282593412
  0
LINE
  5
60E
  8
0
  6
CONTINUOUS
 62
     7
 10
-1771.1047863646
 20
49.5334789499
 30
0.0
 11
-1769.3699246153
 21
48.5319645799
 31
0.0
  0
ARC
  5
60F
  8
0
  6
CONTINUOUS
 62
     7
 10
-1770.7014613036
 20
50.1679823022
 30
0.0
 40
0.7518414785801334
 50
205.1742957603
 51
237.5577267314
  0
ARC
  5
610
  8
0
  6
CONTINUOUS
 62
     7
 10
-1772.7771330916
 20
49.2175181724
 30
0.0
 40
0.1514286767413311
 50
300.9676685033
 51
338.2663391166
  0
ARC
  5
611
  8
0
  6
CONTINUOUS
 62
     7
 10
-1772.9947198363
 20
49.2658029534
 30
0.0
 40
0.2070080067813555
 50
167.1355229362
 51
233.1213243389
  0
ARC
  5
612
  8
0
  6
CONTINUOUS
 62
     7
 10
-1774.5628412964
 20
50.3842945059
 30
0.0
 40
0.2264948578053109
 50
169.4175031792
 51
229.9610244093
  0
POLYLINE
  5
613
  8
0
  6
CONTINUOUS
 62
     7
 66
     1
 10
0.0
 20
0.0
 30
0.0
  0
VERTEX
  5
978
  8
0
  6
CONTINUOUS
 62
     7
 10
-1774.6744005284
 20
50.2511499856
 30
0.0
  0
VERTEX
  5
979
  8
0
  6
CONTINUOUS
 62
     7
 10
-1774.7375944593
 20
50.1913134187
 30
0.0
  0
VERTEX
  5
97A
  8
0
  6
CONTINUOUS
 62
     7
 10
-1774.7832737406
 20
50.0779426747
 30
0.0
  0
SEQEND
  5
97B
  8
0
  6
CONTINUOUS
 62
     7
  0
ARC
  5
614
  8
0
  6
CONTINUOUS
 62
     7
 10
-1778.7809166733
 20
-22.3091171656
 30
0.0
 40
0.3642339618662189
 50
182.2093759129
 51
234.8015687825
  0
ARC
  5
615
  8
0
  6
CONTINUOUS
 62
     7
 10
-1776.133815809
 20
-47.7123032477
 30
0.0
 40
0.3921513430862757
 50
181.6144479894
 51
233.0255886434
  0
LINE
  5
616
  8
0
  6
CONTINUOUS
 62
     7
 10
-1754.726560546
 20
-62.0222213026
 30
0.0
 11
-1754.6156985293
 21
-61.9935173575
 31
0.0
  0
POLYLINE
  5
617
  8
0
  6
CONTINUOUS
 62
     7
 66
     1
 10
0.0
 20
0.0
 30
0.0
  0
VERTEX
  5
97C
  8
0
  6
CONTINUOUS
 62
     7
 10
-1770.5767179629
 20
50.3129720331
 30
0.0
  0
VERTEX
  5
97D
  8
0
  6
CONTINUOUS
 62
     7
 10
-1770.5345263334
 20
50.0453645379
 30
0.0
  0
VERTEX
  5
97E
  8
0
  6
CONTINUOUS
 62
     7
 10
-1770.3221062169
 20
49.0816285549
 30
0.0
  0
SEQEND
  5
97F
  8
0
  6
CONTINUOUS
 62
     7
  0
LINE
  5
618
  8
0
  6
CONTINUOUS
 62
     7
 10
-1770.1364493492
 20
50.2432195816
 30
0.0
 11
-1770.1364493492
 21
49.995004494
 31
0.0
  0
LINE
  5
619
  8
0
  6
CONTINUOUS
 62
     7
 10
-1770.1364493492
 20
49.995004494
 30
0.0
 11
-1768.3826109814
 21
48.9825351552
 31
0.0
  0
ARC
  5
61A
  8
0
  6
CONTINUOUS
 62
     7
 10
-1760.3522811033
 20
50.9474338993
 30
0.0
 40
8.267225957029897
 50
193.7492562931
 51
225.5146520351
  0
ARC
  5
61B
  8
0
  6
CONTINUOUS
 62
     7
 10
-1762.859499007
 20
48.1157476658
 30
0.0
 40
4.486973049823924
 50
225.1939902774
 51
258.4972579163
  0
LINE
  5
61C
  8
0
  6
CONTINUOUS
 62
     7
 10
-1768.3826109814
 20
48.9825351552
 30
0.0
 11
-1768.1830667271
 21
49.0977296012
 31
0.0
  0
LINE
  5
61D
  8
0
  6
CONTINUOUS
 62
     7
 10
-1770.1364493492
 20
49.995004494
 30
0.0
 11
-1769.878447416
 21
50.1439458397
 31
0.0
  0
POLYLINE
  5
61E
  8
0
  6
CONTINUOUS
 62
     7
 66
     1
 10
0.0
 20
0.0
 30
0.0
  0
VERTEX
  5
980
  8
0
  6
CONTINUOUS
 62
     7
 10
-1343.1146427969
 20
313.6786744465
 30
0.0
  0
VERTEX
  5
981
  8
0
  6
CONTINUOUS
 62
     7
 10
-1341.6977921905
 20
313.0074104121
 30
0.0
  0
VERTEX
  5
982
  8
0
  6
CONTINUOUS
 62
     7
 10
-1340.0813024994
 20
312.5086217455
 30
0.0
  0
VERTEX
  5
983
  8
0
  6
CONTINUOUS
 62
     7
 10
-1338.3273192518
 20
312.2014689973
 30
0.0
  0
VERTEX
  5
984
  8
0
  6
CONTINUOUS
 62
     7
 10
-1336.5032247217
 20
312.0977587162
 30
0.0
  0
VERTEX
  5
985
  8
0
  6
CONTINUOUS
 62
     7
 10
-1334.6791091181
 20
312.2014568319
 30
0.0
  0
VERTEX
  5
986
  8
0
  6
CONTINUOUS
 62
     7
 10
-1332.9251153338
 20
312.5086156628
 30
0.0
  0
VERTEX
  5
987
  8
0
  6
CONTINUOUS
 62
     7
 10
-1331.3086467161
 20
313.0074286602
 30
0.0
  0
VERTEX
  5
988
  8
0
  6
CONTINUOUS
 62
     7
 10
-1329.8917486945
 20
313.6786714052
 30
0.0
  0
VERTEX
  5
989
  8
0
  6
CONTINUOUS
 62
     7
 10
-1328.7289909011
 20
314.4966322637
 30
0.0
  0
VERTEX
  5
98A
  8
0
  6
CONTINUOUS
 62
     7
 10
-1327.8649330914
 20
315.4297966922
 30
0.0
  0
VERTEX
  5
98B
  8
0
  6
CONTINUOUS
 62
     7
 10
-1327.3328607391
 20
316.442355751
 30
0.0
  0
VERTEX
  5
98C
  8
0
  6
CONTINUOUS
 62
     7
 10
-1327.1532256024
 20
317.4953983157
 30
0.0
  0
VERTEX
  5
98D
  8
0
  6
CONTINUOUS
 62
     7
 10
-1327.3328818125
 20
318.5484226323
 30
0.0
  0
VERTEX
  5
98E
  8
0
  6
CONTINUOUS
 62
     7
 10
-1327.8649383598
 20
319.5609786497
 30
0.0
  0
VERTEX
  5
98F
  8
0
  6
CONTINUOUS
 62
     7
 10
-1328.7289645593
 20
320.4941552437
 30
0.0
  0
VERTEX
  5
990
  8
0
  6
CONTINUOUS
 62
     7
 10
-1329.8917486945
 20
321.31208873
 30
0.0
  0
VERTEX
  5
991
  8
0
  6
CONTINUOUS
 62
     7
 10
-1331.3086467161
 20
321.9833740539
 30
0.0
  0
VERTEX
  5
992
  8
0
  6
CONTINUOUS
 62
     7
 10
-1332.9251311388
 20
322.4821657619
 30
0.0
  0
VERTEX
  5
993
  8
0
  6
CONTINUOUS
 62
     7
 10
-1334.6791196548
 20
322.7893154687
 30
0.0
  0
VERTEX
  5
994
  8
0
  6
CONTINUOUS
 62
     7
 10
-1336.5032089166
 20
322.8930287912
 30
0.0
  0
VERTEX
  5
995
  8
0
  6
CONTINUOUS
 62
     7
 10
-1338.3273297885
 20
322.7893276341
 30
0.0
  0
VERTEX
  5
996
  8
0
  6
CONTINUOUS
 62
     7
 10
-1340.0813235729
 20
322.4821688032
 30
0.0
  0
VERTEX
  5
997
  8
0
  6
CONTINUOUS
 62
     7
 10
-1341.6977869221
 20
321.9833588471
 30
0.0
  0
VERTEX
  5
998
  8
0
  6
CONTINUOUS
 62
     7
 10
-1343.1146480653
 20
321.31208873
 30
0.0
  0
VERTEX
  5
999
  8
0
  6
CONTINUOUS
 62
     7
 10
-1344.2774427372
 20
320.4941552437
 30
0.0
  0
VERTEX
  5
99A
  8
0
  6
CONTINUOUS
 62
     7
 10
-1345.1415058152
 20
319.5609877738
 30
0.0
  0
VERTEX
  5
99B
  8
0
  6
CONTINUOUS
 62
     7
 10
-1345.6735781675
 20
318.548428715
 30
0.0
  0
VERTEX
  5
99C
  8
0
  6
CONTINUOUS
 62
     7
 10
-1345.8532080359
 20
317.4953891917
 30
0.0
  0
VERTEX
  5
99D
  8
0
  6
CONTINUOUS
 62
     7
 10
-1345.6735570941
 20
316.4423618337
 30
0.0
  0
VERTEX
  5
99E
  8
0
  6
CONTINUOUS
 62
     7
 10
-1345.1414952785
 20
315.4298088577
 30
0.0
  0
VERTEX
  5
99F
  8
0
  6
CONTINUOUS
 62
     7
 10
-1344.2774743473
 20
314.4966292223
 30
0.0
  0
VERTEX
  5
9A0
  8
0
  6
CONTINUOUS
 62
     7
 10
-1343.1146427969
 20
313.6786744465
 30
0.0
  0
SEQEND
  5
9A1
  8
0
  6
CONTINUOUS
 62
     7
  0
POLYLINE
  5
61F
  8
0
  6
CONTINUOUS
 62
     7
 66
     1
 10
0.0
 20
0.0
 30
0.0
  0
VERTEX
  5
9A2
  8
0
  6
CONTINUOUS
 62
     7
 10
-1343.1146427969
 20
313.3587203315
 30
0.0
  0
VERTEX
  5
9A3
  8
0
  6
CONTINUOUS
 62
     7
 10
-1341.6977921905
 20
312.6874562971
 30
0.0
  0
VERTEX
  5
9A4
  8
0
  6
CONTINUOUS
 62
     7
 10
-1340.0813024994
 20
312.1886676305
 30
0.0
  0
VERTEX
  5
9A5
  8
0
  6
CONTINUOUS
 62
     7
 10
-1338.3273192518
 20
311.8815148823
 30
0.0
  0
VERTEX
  5
9A6
  8
0
  6
CONTINUOUS
 62
     7
 10
-1336.5032247217
 20
311.7778046012
 30
0.0
  0
VERTEX
  5
9A7
  8
0
  6
CONTINUOUS
 62
     7
 10
-1334.6791091181
 20
311.8815027169
 30
0.0
  0
VERTEX
  5
9A8
  8
0
  6
CONTINUOUS
 62
     7
 10
-1332.9251153338
 20
312.1886615478
 30
0.0
  0
VERTEX
  5
9A9
  8
0
  6
CONTINUOUS
 62
     7
 10
-1331.3086467161
 20
312.6874745452
 30
0.0
  0
VERTEX
  5
9AA
  8
0
  6
CONTINUOUS
 62
     7
 10
-1329.8917486945
 20
313.3587172902
 30
0.0
  0
VERTEX
  5
9AB
  8
0
  6
CONTINUOUS
 62
     7
 10
-1328.7289909011
 20
314.1766781487
 30
0.0
  0
VERTEX
  5
9AC
  8
0
  6
CONTINUOUS
 62
     7
 10
-1327.8649330914
 20
315.1098425772
 30
0.0
  0
VERTEX
  5
9AD
  8
0
  6
CONTINUOUS
 62
     7
 10
-1327.3328607391
 20
316.122401636
 30
0.0
  0
VERTEX
  5
9AE
  8
0
  6
CONTINUOUS
 62
     7
 10
-1327.1532256024
 20
317.1754442007
 30
0.0
  0
SEQEND
  5
9AF
  8
0
  6
CONTINUOUS
 62
     7
  0
ARC
  5
620
  8
0
  6
CONTINUOUS
 62
     7
 10
-1341.1739985136
 20
317.6420130516
 30
0.0
 40
4.70241392905274
 50
185.6943110618
 51
245.6260032773
  0
POLYLINE
  5
621
  8
0
  6
CONTINUOUS
 62
     7
 66
     1
 10
0.0
 20
0.0
 30
0.0
  0
VERTEX
  5
9B0
  8
0
  6
CONTINUOUS
 62
     7
 10
-2137.7728774659
 20
781.3860479657
 30
0.0
  0
VERTEX
  5
9B1
  8
0
  6
CONTINUOUS
 62
     7
 10
-2136.8741907519
 20
782.3082543843
 30
0.0
  0
VERTEX
  5
9B2
  8
0
  6
CONTINUOUS
 62
     7
 10
-2136.3044812638
 20
783.313976472
 30
0.0
  0
VERTEX
  5
9B3
  8
0
  6
CONTINUOUS
 62
     7
 10
-2136.0855283858
 20
784.364509917
 30
0.0
  0
VERTEX
  5
9B4
  8
0
  6
CONTINUOUS
 62
     7
 10
-2136.225872123
 20
785.4195476121
 30
0.0
  0
VERTEX
  5
9B5
  8
0
  6
CONTINUOUS
 62
     7
 10
-2136.7199965066
 20
786.4384783142
 30
0.0
  0
VERTEX
  5
9B6
  8
0
  6
CONTINUOUS
 62
     7
 10
-2137.548998675
 20
787.3821901696
 30
0.0
  0
VERTEX
  5
9B7
  8
0
  6
CONTINUOUS
 62
     7
 10
-2138.6809840007
 20
788.2143997867
 30
0.0
  0
VERTEX
  5
9B8
  8
0
  6
CONTINUOUS
 62
     7
 10
-2140.0724622043
 20
788.903133377
 30
0.0
  0
VERTEX
  5
9B9
  8
0
  6
CONTINUOUS
 62
     7
 10
-2141.6699700084
 20
789.4219311327
 30
0.0
  0
VERTEX
  5
9BA
  8
0
  6
CONTINUOUS
 62
     7
 10
-2143.4120783815
 20
789.750829585
 30
0.0
  0
VERTEX
  5
9BB
  8
0
  6
CONTINUOUS
 62
     7
 10
-2145.2318844698
 20
789.8772101429
 30
0.0
  0
VERTEX
  5
9BC
  8
0
  6
CONTINUOUS
 62
     7
 10
-2147.0594192364
 20
789.7962096761
 30
0.0
  0
VERTEX
  5
9BD
  8
0
  6
CONTINUOUS
 62
     7
 10
-2148.824513447
 20
789.5109638239
 30
0.0
  0
VERTEX
  5
9BE
  8
0
  6
CONTINUOUS
 62
     7
 10
-2150.459215845
 20
789.0323788933
 30
0.0
  0
VERTEX
  5
9BF
  8
0
  6
CONTINUOUS
 62
     7
 10
-2151.9008171882
 20
788.3788946332
 30
0.0
  0
VERTEX
  5
9C0
  8
0
  6
CONTINUOUS
 62
     7
 10
-2153.0938732973
 20
787.5756083233
 30
0.0
  0
VERTEX
  5
9C1
  8
0
  6
CONTINUOUS
 62
     7
 10
-2153.9925494747
 20
786.6534079875
 30
0.0
  0
VERTEX
  5
9C2
  8
0
  6
CONTINUOUS
 62
     7
 10
-2154.5622694994
 20
785.647679817
 30
0.0
  0
VERTEX
  5
9C3
  8
0
  6
CONTINUOUS
 62
     7
 10
-2154.7812118407
 20
784.5971524547
 30
0.0
  0
VERTEX
  5
9C4
  8
0
  6
CONTINUOUS
 62
     7
 10
-2154.6409155188
 20
783.5421360492
 30
0.0
  0
VERTEX
  5
9C5
  8
0
  6
CONTINUOUS
 62
     7
 10
-2154.14674372
 20
782.5231840575
 30
0.0
  0
VERTEX
  5
9C6
  8
0
  6
CONTINUOUS
 62
     7
 10
-2153.3177468199
 20
781.5794691608
 30
0.0
  0
VERTEX
  5
9C7
  8
0
  6
CONTINUOUS
 62
     7
 10
-2152.1857667626
 20
780.7472565023
 30
0.0
  0
VERTEX
  5
9C8
  8
0
  6
CONTINUOUS
 62
     7
 10
-2150.794288559
 20
780.058522912
 30
0.0
  0
VERTEX
  5
9C9
  8
0
  6
CONTINUOUS
 62
     7
 10
-2149.1967754865
 20
779.5397281977
 30
0.0
  0
VERTEX
  5
9CA
  8
0
  6
CONTINUOUS
 62
     7
 10
-2147.4546671134
 20
779.2108297454
 30
0.0
  0
VERTEX
  5
9CB
  8
0
  6
CONTINUOUS
 62
     7
 10
-2145.6348610251
 20
779.0844491875
 30
0.0
  0
VERTEX
  5
9CC
  8
0
  6
CONTINUOUS
 62
     7
 10
-2143.8073209901
 20
779.1654526957
 30
0.0
  0
VERTEX
  5
9CD
  8
0
  6
CONTINUOUS
 62
     7
 10
-2142.0422741948
 20
779.4507198373
 30
0.0
  0
VERTEX
  5
9CE
  8
0
  6
CONTINUOUS
 62
     7
 10
-2140.4075243816
 20
779.9292834784
 30
0.0
  0
VERTEX
  5
9CF
  8
0
  6
CONTINUOUS
 62
     7
 10
-2138.9659283067
 20
780.5827646972
 30
0.0
  0
VERTEX
  5
9D0
  8
0
  6
CONTINUOUS
 62
     7
 10
-2137.7728774659
 20
781.3860479657
 30
0.0
  0
SEQEND
  5
9D1
  8
0
  6
CONTINUOUS
 62
     7
  0
ARC
  5
622
  8
0
  6
CONTINUOUS
 62
     7
 10
-2140.0553157367
 20
784.320673912
 30
0.0
 40
3.975149787722835
 50
305.0419943125
 51
357.6962149544
  0
POLYLINE
  5
623
  8
0
  6
CONTINUOUS
 62
     7
 66
     1
 10
0.0
 20
0.0
 30
0.0
  0
VERTEX
  5
9D2
  8
0
  6
CONTINUOUS
 62
     7
 10
-2154.78336133
 20
784.1608725088
 30
0.0
  0
VERTEX
  5
9D3
  8
0
  6
CONTINUOUS
 62
     7
 10
-2154.6409155188
 20
783.2221819342
 30
0.0
  0
VERTEX
  5
9D4
  8
0
  6
CONTINUOUS
 62
     7
 10
-2154.14674372
 20
782.2032299425
 30
0.0
  0
VERTEX
  5
9D5
  8
0
  6
CONTINUOUS
 62
     7
 10
-2153.3177468199
 20
781.2595150458
 30
0.0
  0
VERTEX
  5
9D6
  8
0
  6
CONTINUOUS
 62
     7
 10
-2152.1857667626
 20
780.4273023873
 30
0.0
  0
VERTEX
  5
9D7
  8
0
  6
CONTINUOUS
 62
     7
 10
-2150.794288559
 20
779.7385687971
 30
0.0
  0
VERTEX
  5
9D8
  8
0
  6
CONTINUOUS
 62
     7
 10
-2149.1967754865
 20
779.2197740827
 30
0.0
  0
VERTEX
  5
9D9
  8
0
  6
CONTINUOUS
 62
     7
 10
-2147.4546671134
 20
778.8908756304
 30
0.0
  0
VERTEX
  5
9DA
  8
0
  6
CONTINUOUS
 62
     7
 10
-2145.6348610251
 20
778.7644950725
 30
0.0
  0
VERTEX
  5
9DB
  8
0
  6
CONTINUOUS
 62
     7
 10
-2143.8073209901
 20
778.8454985807
 30
0.0
  0
VERTEX
  5
9DC
  8
0
  6
CONTINUOUS
 62
     7
 10
-2142.0422741948
 20
779.1307657224
 30
0.0
  0
VERTEX
  5
9DD
  8
0
  6
CONTINUOUS
 62
     7
 10
-2140.4075243816
 20
779.6093293634
 30
0.0
  0
VERTEX
  5
9DE
  8
0
  6
CONTINUOUS
 62
     7
 10
-2138.9659283067
 20
780.2628105822
 30
0.0
  0
VERTEX
  5
9DF
  8
0
  6
CONTINUOUS
 62
     7
 10
-2137.7728774659
 20
781.0660938507
 30
0.0
  0
SEQEND
  5
9E0
  8
0
  6
CONTINUOUS
 62
     7
  0
POLYLINE
  5
624
  8
0
  6
CONTINUOUS
 62
     7
 66
     1
 10
0.0
 20
0.0
 30
0.0
  0
VERTEX
  5
9E1
  8
0
  6
CONTINUOUS
 62
     7
 10
-1166.3379527686
 20
415.729685383
 30
0.0
  0
VERTEX
  5
9E2
  8
0
  6
CONTINUOUS
 62
     7
 10
-1164.9210916255
 20
415.0584274313
 30
0.0
  0
VERTEX
  5
9E3
  8
0
  6
CONTINUOUS
 62
     7
 10
-1163.3046072028
 20
414.5596357234
 30
0.0
  0
VERTEX
  5
9E4
  8
0
  6
CONTINUOUS
 62
     7
 10
-1161.5506239552
 20
414.2524829752
 30
0.0
  0
VERTEX
  5
9E5
  8
0
  6
CONTINUOUS
 62
     7
 10
-1159.726529425
 20
414.148772694
 30
0.0
  0
VERTEX
  5
9E6
  8
0
  6
CONTINUOUS
 62
     7
 10
-1157.9024138215
 20
414.2524708097
 30
0.0
  0
VERTEX
  5
9E7
  8
0
  6
CONTINUOUS
 62
     7
 10
-1156.1484200371
 20
414.5596296407
 30
0.0
  0
VERTEX
  5
9E8
  8
0
  6
CONTINUOUS
 62
     7
 10
-1154.5319566878
 20
415.0584395967
 30
0.0
  0
VERTEX
  5
9E9
  8
0
  6
CONTINUOUS
 62
     7
 10
-1153.1150481295
 20
415.7296884243
 30
0.0
  0
VERTEX
  5
9EA
  8
0
  6
CONTINUOUS
 62
     7
 10
-1151.9523008728
 20
416.5476432001
 30
0.0
  0
VERTEX
  5
9EB
  8
0
  6
CONTINUOUS
 62
     7
 10
-1151.0882377948
 20
417.4808106701
 30
0.0
  0
VERTEX
  5
9EC
  8
0
  6
CONTINUOUS
 62
     7
 10
-1150.5561654425
 20
418.4933697289
 30
0.0
  0
VERTEX
  5
9ED
  8
0
  6
CONTINUOUS
 62
     7
 10
-1150.3765355741
 20
419.5464092522
 30
0.0
  0
VERTEX
  5
9EE
  8
0
  6
CONTINUOUS
 62
     7
 10
-1150.5561865159
 20
420.5994366101
 30
0.0
  0
VERTEX
  5
9EF
  8
0
  6
CONTINUOUS
 62
     7
 10
-1151.0882483315
 20
421.6119895862
 30
0.0
  0
VERTEX
  5
9F0
  8
0
  6
CONTINUOUS
 62
     7
 10
-1151.9522692627
 20
422.5451692216
 30
0.0
  0
VERTEX
  5
9F1
  8
0
  6
CONTINUOUS
 62
     7
 10
-1153.1150586663
 20
423.3630996665
 30
0.0
  0
VERTEX
  5
9F2
  8
0
  6
CONTINUOUS
 62
     7
 10
-1154.5319514195
 20
424.0343880318
 30
0.0
  0
VERTEX
  5
9F3
  8
0
  6
CONTINUOUS
 62
     7
 10
-1156.1484411106
 20
424.5331766983
 30
0.0
  0
VERTEX
  5
9F4
  8
0
  6
CONTINUOUS
 62
     7
 10
-1157.9024243582
 20
424.8403294465
 30
0.0
  0
VERTEX
  5
9F5
  8
0
  6
CONTINUOUS
 62
     7
 10
-1159.7265188883
 20
424.9440397277
 30
0.0
  0
VERTEX
  5
9F6
  8
0
  6
CONTINUOUS
 62
     7
 10
-1161.5506344919
 20
424.840341612
 30
0.0
  0
VERTEX
  5
9F7
  8
0
  6
CONTINUOUS
 62
     7
 10
-1163.3046282762
 20
424.533182781
 30
0.0
  0
VERTEX
  5
9F8
  8
0
  6
CONTINUOUS
 62
     7
 10
-1164.9210968939
 20
424.0343697836
 30
0.0
  0
VERTEX
  5
9F9
  8
0
  6
CONTINUOUS
 62
     7
 10
-1166.3379475003
 20
423.3631057492
 30
0.0
  0
VERTEX
  5
9FA
  8
0
  6
CONTINUOUS
 62
     7
 10
-1167.5007527089
 20
422.5451661802
 30
0.0
  0
VERTEX
  5
9FB
  8
0
  6
CONTINUOUS
 62
     7
 10
-1168.3648105186
 20
421.6120017516
 30
0.0
  0
VERTEX
  5
9FC
  8
0
  6
CONTINUOUS
 62
     7
 10
-1168.8968828709
 20
420.5994426928
 30
0.0
  0
VERTEX
  5
9FD
  8
0
  6
CONTINUOUS
 62
     7
 10
-1169.0765127392
 20
419.5464031695
 30
0.0
  0
VERTEX
  5
9FE
  8
0
  6
CONTINUOUS
 62
     7
 10
-1168.8968617975
 20
418.4933758116
 30
0.0
  0
VERTEX
  5
9FF
  8
0
  6
CONTINUOUS
 62
     7
 10
-1168.3647999819
 20
417.4808228355
 30
0.0
  0
VERTEX
  5
A00
  8
0
  6
CONTINUOUS
 62
     7
 10
-1167.5007737823
 20
416.5476462415
 30
0.0
  0
VERTEX
  5
A01
  8
0
  6
CONTINUOUS
 62
     7
 10
-1166.3379527686
 20
415.729685383
 30
0.0
  0
SEQEND
  5
A02
  8
0
  6
CONTINUOUS
 62
     7
  0
POLYLINE
  5
625
  8
0
  6
CONTINUOUS
 62
     7
 66
     1
 10
0.0
 20
0.0
 30
0.0
  0
VERTEX
  5
A03
  8
0
  6
CONTINUOUS
 62
     7
 10
-1166.3379527686
 20
415.409731268
 30
0.0
  0
VERTEX
  5
A04
  8
0
  6
CONTINUOUS
 62
     7
 10
-1164.9210916255
 20
414.7384733163
 30
0.0
  0
VERTEX
  5
A05
  8
0
  6
CONTINUOUS
 62
     7
 10
-1163.3046072028
 20
414.2396816084
 30
0.0
  0
VERTEX
  5
A06
  8
0
  6
CONTINUOUS
 62
     7
 10
-1161.5506239552
 20
413.9325288602
 30
0.0
  0
VERTEX
  5
A07
  8
0
  6
CONTINUOUS
 62
     7
 10
-1159.726529425
 20
413.828818579
 30
0.0
  0
VERTEX
  5
A08
  8
0
  6
CONTINUOUS
 62
     7
 10
-1157.9024138215
 20
413.9325166947
 30
0.0
  0
VERTEX
  5
A09
  8
0
  6
CONTINUOUS
 62
     7
 10
-1156.1484200371
 20
414.2396755257
 30
0.0
  0
VERTEX
  5
A0A
  8
0
  6
CONTINUOUS
 62
     7
 10
-1154.5319566878
 20
414.7384854817
 30
0.0
  0
VERTEX
  5
A0B
  8
0
  6
CONTINUOUS
 62
     7
 10
-1153.1150481295
 20
415.4097343094
 30
0.0
  0
VERTEX
  5
A0C
  8
0
  6
CONTINUOUS
 62
     7
 10
-1151.9523008728
 20
416.2276890851
 30
0.0
  0
VERTEX
  5
A0D
  8
0
  6
CONTINUOUS
 62
     7
 10
-1151.0882377948
 20
417.1608565551
 30
0.0
  0
VERTEX
  5
A0E
  8
0
  6
CONTINUOUS
 62
     7
 10
-1150.5561654425
 20
418.1734156139
 30
0.0
  0
VERTEX
  5
A0F
  8
0
  6
CONTINUOUS
 62
     7
 10
-1150.3765355741
 20
419.2264551372
 30
0.0
  0
SEQEND
  5
A10
  8
0
  6
CONTINUOUS
 62
     7
  0
ARC
  5
626
  8
0
  6
CONTINUOUS
 62
     7
 10
-1164.3972652663
 20
419.6930481678
 30
0.0
 40
4.702453789853604
 50
185.6945214658
 51
245.6256452046
  0
POLYLINE
  5
627
  8
0
  6
CONTINUOUS
 62
     7
 66
     1
 10
0.0
 20
0.0
 30
0.0
  0
VERTEX
  5
A11
  8
0
  6
CONTINUOUS
 62
     7
 10
-1960.996176901
 20
883.4370649849
 30
0.0
  0
VERTEX
  5
A12
  8
0
  6
CONTINUOUS
 62
     7
 10
-1960.0975007236
 20
884.3592653207
 30
0.0
  0
VERTEX
  5
A13
  8
0
  6
CONTINUOUS
 62
     7
 10
-1959.5277806988
 20
885.3649934912
 30
0.0
  0
VERTEX
  5
A14
  8
0
  6
CONTINUOUS
 62
     7
 10
-1959.3088383575
 20
886.4155208535
 30
0.0
  0
VERTEX
  5
A15
  8
0
  6
CONTINUOUS
 62
     7
 10
-1959.4491768264
 20
887.4705615899
 30
0.0
  0
VERTEX
  5
A16
  8
0
  6
CONTINUOUS
 62
     7
 10
-1959.9433064783
 20
888.4894892507
 30
0.0
  0
VERTEX
  5
A17
  8
0
  6
CONTINUOUS
 62
     7
 10
-1960.7723033784
 20
889.4332041475
 30
0.0
  0
VERTEX
  5
A18
  8
0
  6
CONTINUOUS
 62
     7
 10
-1961.9042834357
 20
890.2654168059
 30
0.0
  0
VERTEX
  5
A19
  8
0
  6
CONTINUOUS
 62
     7
 10
-1963.2957616393
 20
890.9541503962
 30
0.0
  0
VERTEX
  5
A1A
  8
0
  6
CONTINUOUS
 62
     7
 10
-1964.8932747118
 20
891.4729451105
 30
0.0
  0
VERTEX
  5
A1B
  8
0
  6
CONTINUOUS
 62
     7
 10
-1966.6353830849
 20
891.8018435628
 30
0.0
  0
VERTEX
  5
A1C
  8
0
  6
CONTINUOUS
 62
     7
 10
-1968.4551891732
 20
891.9282241207
 30
0.0
  0
VERTEX
  5
A1D
  8
0
  6
CONTINUOUS
 62
     7
 10
-1970.2827292081
 20
891.8472206125
 30
0.0
  0
VERTEX
  5
A1E
  8
0
  6
CONTINUOUS
 62
     7
 10
-1972.0478181504
 20
891.5619778017
 30
0.0
  0
VERTEX
  5
A1F
  8
0
  6
CONTINUOUS
 62
     7
 10
-1973.6825258167
 20
891.0833898298
 30
0.0
  0
VERTEX
  5
A20
  8
0
  6
CONTINUOUS
 62
     7
 10
-1975.1241166232
 20
890.4299116524
 30
0.0
  0
VERTEX
  5
A21
  8
0
  6
CONTINUOUS
 62
     7
 10
-1976.3171727323
 20
889.6266253425
 30
0.0
  0
VERTEX
  5
A22
  8
0
  6
CONTINUOUS
 62
     7
 10
-1977.2158594464
 20
888.704418924
 30
0.0
  0
VERTEX
  5
A23
  8
0
  6
CONTINUOUS
 62
     7
 10
-1977.7855689344
 20
887.6986968362
 30
0.0
  0
VERTEX
  5
A24
  8
0
  6
CONTINUOUS
 62
     7
 10
-1978.0045218125
 20
886.6481633912
 30
0.0
  0
VERTEX
  5
A25
  8
0
  6
CONTINUOUS
 62
     7
 10
-1977.8642202221
 20
885.593150027
 30
0.0
  0
VERTEX
  5
A26
  8
0
  6
CONTINUOUS
 62
     7
 10
-1977.3700536917
 20
884.574194994
 30
0.0
  0
VERTEX
  5
A27
  8
0
  6
CONTINUOUS
 62
     7
 10
-1976.5410515233
 20
883.6304831386
 30
0.0
  0
VERTEX
  5
A28
  8
0
  6
CONTINUOUS
 62
     7
 10
-1975.4090661976
 20
882.7982735215
 30
0.0
  0
VERTEX
  5
A29
  8
0
  6
CONTINUOUS
 62
     7
 10
-1974.017587994
 20
882.1095399312
 30
0.0
  0
VERTEX
  5
A2A
  8
0
  6
CONTINUOUS
 62
     7
 10
-1972.4200801898
 20
881.5907421755
 30
0.0
  0
VERTEX
  5
A2B
  8
0
  6
CONTINUOUS
 62
     7
 10
-1970.6779665484
 20
881.2618467646
 30
0.0
  0
VERTEX
  5
A2C
  8
0
  6
CONTINUOUS
 62
     7
 10
-1968.8581657285
 20
881.1354631654
 30
0.0
  0
VERTEX
  5
A2D
  8
0
  6
CONTINUOUS
 62
     7
 10
-1967.0306309618
 20
881.2164636322
 30
0.0
  0
VERTEX
  5
A2E
  8
0
  6
CONTINUOUS
 62
     7
 10
-1965.2655788981
 20
881.5017338152
 30
0.0
  0
VERTEX
  5
A2F
  8
0
  6
CONTINUOUS
 62
     7
 10
-1963.6308290849
 20
881.9802974562
 30
0.0
  0
VERTEX
  5
A30
  8
0
  6
CONTINUOUS
 62
     7
 10
-1962.1892382785
 20
882.6337756336
 30
0.0
  0
VERTEX
  5
A31
  8
0
  6
CONTINUOUS
 62
     7
 10
-1960.996176901
 20
883.4370649849
 30
0.0
  0
SEQEND
  5
A32
  8
0
  6
CONTINUOUS
 62
     7
  0
ARC
  5
628
  8
0
  6
CONTINUOUS
 62
     7
 10
-1963.2786061951
 20
886.3716728216
 30
0.0
 40
3.975129806669656
 50
305.0420382536
 51
357.6963768579
  0
POLYLINE
  5
629
  8
0
  6
CONTINUOUS
 62
     7
 66
     1
 10
0.0
 20
0.0
 30
0.0
  0
VERTEX
  5
A33
  8
0
  6
CONTINUOUS
 62
     7
 10
-1978.0066660334
 20
886.2118864867
 30
0.0
  0
VERTEX
  5
A34
  8
0
  6
CONTINUOUS
 62
     7
 10
-1977.8642202221
 20
885.273195912
 30
0.0
  0
VERTEX
  5
A35
  8
0
  6
CONTINUOUS
 62
     7
 10
-1977.3700536917
 20
884.254240879
 30
0.0
  0
VERTEX
  5
A36
  8
0
  6
CONTINUOUS
 62
     7
 10
-1976.5410515233
 20
883.3105290236
 30
0.0
  0
VERTEX
  5
A37
  8
0
  6
CONTINUOUS
 62
     7
 10
-1975.4090661976
 20
882.4783194065
 30
0.0
  0
VERTEX
  5
A38
  8
0
  6
CONTINUOUS
 62
     7
 10
-1974.017587994
 20
881.7895858162
 30
0.0
  0
VERTEX
  5
A39
  8
0
  6
CONTINUOUS
 62
     7
 10
-1972.4200801898
 20
881.2707880606
 30
0.0
  0
VERTEX
  5
A3A
  8
0
  6
CONTINUOUS
 62
     7
 10
-1970.6779665484
 20
880.9418926496
 30
0.0
  0
VERTEX
  5
A3B
  8
0
  6
CONTINUOUS
 62
     7
 10
-1968.8581657285
 20
880.8155090504
 30
0.0
  0
VERTEX
  5
A3C
  8
0
  6
CONTINUOUS
 62
     7
 10
-1967.0306309618
 20
880.8965095172
 30
0.0
  0
VERTEX
  5
A3D
  8
0
  6
CONTINUOUS
 62
     7
 10
-1965.2655788981
 20
881.1817797002
 30
0.0
  0
VERTEX
  5
A3E
  8
0
  6
CONTINUOUS
 62
     7
 10
-1963.6308290849
 20
881.6603433412
 30
0.0
  0
VERTEX
  5
A3F
  8
0
  6
CONTINUOUS
 62
     7
 10
-1962.1892382785
 20
882.3138215187
 30
0.0
  0
VERTEX
  5
A40
  8
0
  6
CONTINUOUS
 62
     7
 10
-1960.996176901
 20
883.1171108699
 30
0.0
  0
SEQEND
  5
A41
  8
0
  6
CONTINUOUS
 62
     7
  0
LINE
  5
62A
  8
0
  6
CONTINUOUS
 62
     7
 10
-2206.2081852644
 20
759.892338489
 30
0.0
 11
-2209.0729908514
 21
764.8663973719
 31
0.0
  0
LINE
  5
62B
  8
0
  6
CONTINUOUS
 62
     7
 10
-2209.0729908514
 20
764.8663973719
 30
0.0
 11
-2208.8508348129
 21
764.9946453231
 31
0.0
  0
ARC
  5
62C
  8
0
  6
CONTINUOUS
 62
     7
 10
-2207.7649571362
 20
767.162040896
 30
0.0
 40
2.178172396244213
 50
126.9074175744
 51
185.2360422735
  0
POLYLINE
  5
62D
  8
0
  6
CONTINUOUS
 62
     7
 66
     1
 10
0.0
 20
0.0
 30
0.0
  0
VERTEX
  5
A42
  8
0
  6
CONTINUOUS
 62
     7
 10
-2209.9340404298
 20
766.9632629968
 30
0.0
  0
VERTEX
  5
A43
  8
0
  6
CONTINUOUS
 62
     7
 10
-2209.6570513414
 20
765.872375879
 30
0.0
  0
VERTEX
  5
A44
  8
0
  6
CONTINUOUS
 62
     7
 10
-2209.0729908514
 20
764.8663973719
 30
0.0
  0
SEQEND
  5
A45
  8
0
  6
CONTINUOUS
 62
     7
  0
LINE
  5
62E
  8
0
  6
CONTINUOUS
 62
     7
 10
-2209.9340404298
 20
766.9632629968
 30
0.0
 11
-2209.3269782972
 21
767.0014016163
 31
0.0
  0
LINE
  5
62F
  8
0
  6
CONTINUOUS
 62
     7
 10
-2208.8164535212
 20
768.7556206875
 30
0.0
 11
-2209.0730013881
 21
768.9037226186
 31
0.0
  0
LINE
  5
630
  8
0
  6
CONTINUOUS
 62
     7
 10
-2209.0730013881
 20
768.9037226186
 30
0.0
 11
-2208.7225924896
 21
769.259416028
 31
0.0
  0
LINE
  5
631
  8
0
  6
CONTINUOUS
 62
     7
 10
-2208.5338167551
 20
769.1504381162
 30
0.0
 11
-2208.7225924896
 21
769.259416028
 31
0.0
  0
LINE
  5
632
  8
0
  6
CONTINUOUS
 62
     7
 10
-2207.6966749766
 20
769.8516656019
 30
0.0
 11
-2208.7225924896
 21
769.259416028
 31
0.0
  0
ARC
  5
633
  8
0
  6
CONTINUOUS
 62
     7
 10
-1363.5536459929
 20
282.8054329318
 30
0.0
 40
4.80520138103114
 50
276.7271363317
 51
308.7672391688
  0
POLYLINE
  5
634
  8
0
  6
CONTINUOUS
 62
     7
 66
     1
 10
0.0
 20
0.0
 30
0.0
  0
VERTEX
  5
A46
  8
0
  6
CONTINUOUS
 62
     7
 10
-1361.9382472054
 20
-697.2226462021
 30
0.0
  0
VERTEX
  5
A47
  8
0
  6
CONTINUOUS
 62
     7
 10
-1361.1879384715
 20
-697.1370897522
 30
0.0
  0
VERTEX
  5
A48
  8
0
  6
CONTINUOUS
 62
     7
 10
-1360.5448302468
 20
-696.9422267339
 30
0.0
  0
SEQEND
  5
A49
  8
0
  6
CONTINUOUS
 62
     7
  0
ARC
  5
635
  8
0
  6
CONTINUOUS
 62
     7
 10
-1359.6104475365
 20
-691.0076440541
 30
0.0
 40
6.636633408421535
 50
218.7329610788
 51
249.4668000621
  0
POLYLINE
  5
636
  8
0
  6
CONTINUOUS
 62
     7
 66
     1
 10
0.0
 20
0.0
 30
0.0
  0
VERTEX
  5
A4A
  8
0
  6
CONTINUOUS
 62
     7
 10
-1362.9907593798
 20
278.0333140132
 30
0.0
  0
VERTEX
  5
A4B
  8
0
  6
CONTINUOUS
 62
     7
 10
-1363.9626657065
 20
277.6633988722
 30
0.0
  0
VERTEX
  5
A4C
  8
0
  6
CONTINUOUS
 62
     7
 10
-1364.7874900686
 20
277.470752278
 30
0.0
  0
SEQEND
  5
A4D
  8
0
  6
CONTINUOUS
 62
     7
  0
LINE
  5
637
  8
0
  6
CONTINUOUS
 62
     7
 10
-1362.8284624029
 20
278.8941580085
 30
0.0
 11
-1362.9907593798
 21
278.0333140132
 31
0.0
  0
ARC
  5
638
  8
0
  6
CONTINUOUS
 62
     7
 10
-1363.6852918366
 20
281.5937461298
 30
0.0
 40
2.832301661701448
 50
287.60905579
 51
317.249139826
  0
LINE
  5
639
  8
0
  6
CONTINUOUS
 62
     7
 10
-1360.5448302468
 20
279.0588360603
 30
0.0
 11
-1361.6054978364
 21
279.6711464264
 31
0.0
  0
LINE
  5
63A
  8
0
  6
CONTINUOUS
 62
     7
 10
-1364.1413894176
 20
277.8437382446
 30
0.0
 11
-1364.7874900686
 21
277.470752278
 31
0.0
  0
POLYLINE
  5
63B
  8
0
  6
CONTINUOUS
 62
     7
 66
     1
 10
0.0
 20
0.0
 30
0.0
  0
VERTEX
  5
A4E
  8
0
  6
CONTINUOUS
 62
     7
 10
-1362.8284624029
 20
278.8941580085
 30
0.0
  0
VERTEX
  5
A4F
  8
0
  6
CONTINUOUS
 62
     7
 10
-1363.3144155663
 20
278.4442916689
 30
0.0
  0
VERTEX
  5
A50
  8
0
  6
CONTINUOUS
 62
     7
 10
-1363.4342285199
 20
278.3393824139
 30
0.0
  0
SEQEND
  5
A51
  8
0
  6
CONTINUOUS
 62
     7
  0
LINE
  5
63C
  8
0
  6
CONTINUOUS
 62
     7
 10
-1096.65257998
 20
431.553996112
 30
0.0
 11
-1360.1944213483
 21
279.4145294697
 31
0.0
  0
LINE
  5
63D
  8
0
  6
CONTINUOUS
 62
     7
 10
-1096.974202581
 20
-544.8062436214
 30
0.0
 11
-1096.65257998
 21
-544.620574846
 31
0.0
  0
ARC
  5
63E
  8
0
  6
CONTINUOUS
 62
     7
 10
-1362.3816277591
 20
-692.9813180409
 30
0.0
 40
4.36607635925988
 50
294.878632903
 51
300.0631816309
  0
LINE
  5
63F
  8
0
  6
CONTINUOUS
 62
     7
 10
-1360.1944213483
 20
279.4145294697
 30
0.0
 11
-1360.5448302468
 21
279.0588360603
 31
0.0
  0
LINE
  5
640
  8
0
  6
CONTINUOUS
 62
     7
 10
-1361.2550889379
 20
280.0268398358
 30
0.0
 11
-1361.6054978364
 21
279.6711464264
 31
0.0
  0
LINE
  5
641
  8
0
  6
CONTINUOUS
 62
     7
 10
-1360.1944213483
 20
279.4145294697
 30
0.0
 11
-1361.2550889379
 21
280.0268398358
 31
0.0
  0
LINE
  5
642
  8
0
  6
CONTINUOUS
 62
     7
 10
-1097.7132475696
 20
432.1663064781
 30
0.0
 11
-1361.2550889379
 21
280.0268398358
 31
0.0
  0
LINE
  5
643
  8
0
  6
CONTINUOUS
 62
     7
 10
-1097.7132475696
 20
432.1663064781
 30
0.0
 11
-1096.65257998
 21
431.553996112
 31
0.0
  0
LINE
  5
644
  8
0
  6
CONTINUOUS
 62
     7
 10
-1377.5154168504
 20
267.6852599077
 30
0.0
 11
-1378.2225145278
 21
268.208221684
 31
0.0
  0
LINE
  5
645
  8
0
  6
CONTINUOUS
 62
     7
 10
-1378.2225145278
 20
268.208221684
 30
0.0
 11
-1378.2225145278
 21
269.6557536718
 31
0.0
  0
LINE
  5
646
  8
0
  6
CONTINUOUS
 62
     7
 10
-1364.7874900686
 20
277.470752278
 30
0.0
 11
-1368.709127882
 21
275.1896039952
 31
0.0
  0
LINE
  5
647
  8
0
  6
CONTINUOUS
 62
     7
 10
-1376.2097074835
 20
270.8265200264
 30
0.0
 11
-1378.2225145278
 21
269.6557536718
 31
0.0
  0
LINE
  5
648
  8
0
  6
CONTINUOUS
 62
     7
 10
-1369.1163928791
 20
-687.6622531233
 30
0.0
 11
-1364.7874900686
 21
-695.1601292881
 31
0.0
  0
ARC
  5
649
  8
0
  6
CONTINUOUS
 62
     7
 10
-1378.906121132
 20
264.7114005434
 30
0.0
 40
4.022546799210842
 50
80.2154526258
 51
98.1964715703
  0
POLYLINE
  5
64A
  8
0
  6
CONTINUOUS
 62
     7
 66
     1
 10
0.0
 20
0.0
 30
0.0
  0
VERTEX
  5
A52
  8
0
  6
CONTINUOUS
 62
     7
 10
-1095.7769370554
 20
432.2088775741
 30
0.0
  0
VERTEX
  5
A53
  8
0
  6
CONTINUOUS
 62
     7
 10
-1095.8134994464
 20
432.0125173629
 30
0.0
  0
VERTEX
  5
A54
  8
0
  6
CONTINUOUS
 62
     7
 10
-1095.9771978061
 20
431.8282130917
 30
0.0
  0
VERTEX
  5
A55
  8
0
  6
CONTINUOUS
 62
     7
 10
-1096.2609514637
 20
431.6708065838
 30
0.0
  0
VERTEX
  5
A56
  8
0
  6
CONTINUOUS
 62
     7
 10
-1096.65257998
 20
431.553996112
 30
0.0
  0
SEQEND
  5
A57
  8
0
  6
CONTINUOUS
 62
     7
  0
POLYLINE
  5
64B
  8
0
  6
CONTINUOUS
 62
     7
 66
     1
 10
0.0
 20
0.0
 30
0.0
  0
VERTEX
  5
A58
  8
0
  6
CONTINUOUS
 62
     7
 10
-1097.2754261073
 20
432.1699968634
 30
0.0
  0
VERTEX
  5
A59
  8
0
  6
CONTINUOUS
 62
     7
 10
-1097.3755564827
 20
432.1415397951
 30
0.0
  0
VERTEX
  5
A5A
  8
0
  6
CONTINUOUS
 62
     7
 10
-1097.7132475696
 20
432.1663064781
 30
0.0
  0
SEQEND
  5
A5B
  8
0
  6
CONTINUOUS
 62
     7
  0
LINE
  5
64C
  8
0
  6
CONTINUOUS
 62
     7
 10
-1097.2754261073
 20
432.1699968634
 30
0.0
 11
-1095.7769370554
 21
432.2088775741
 31
0.0
  0
POLYLINE
  5
64D
  8
0
  6
CONTINUOUS
 62
     7
 66
     1
 10
0.0
 20
0.0
 30
0.0
  0
VERTEX
  5
A5C
  8
0
  6
CONTINUOUS
 62
     7
 10
-1096.65257998
 20
-544.620574846
 30
0.0
  0
VERTEX
  5
A5D
  8
0
  6
CONTINUOUS
 62
     7
 10
-1096.0022962543
 20
-544.0411904085
 30
0.0
  0
VERTEX
  5
A5E
  8
0
  6
CONTINUOUS
 62
     7
 10
-1095.773913019
 20
-543.3609361275
 30
0.0
  0
SEQEND
  5
A5F
  8
0
  6
CONTINUOUS
 62
     7
  0
POLYLINE
  5
64E
  8
0
  6
CONTINUOUS
 62
     7
 66
     1
 10
0.0
 20
0.0
 30
0.0
  0
VERTEX
  5
A60
  8
0
  6
CONTINUOUS
 62
     7
 10
-1096.6525905167
 20
432.2009952786
 30
0.0
  0
VERTEX
  5
A61
  8
0
  6
CONTINUOUS
 62
     7
 10
-1096.0287539385
 20
432.2523177383
 30
0.0
  0
VERTEX
  5
A62
  8
0
  6
CONTINUOUS
 62
     7
 10
-1095.7769370554
 20
432.2088775741
 30
0.0
  0
SEQEND
  5
A63
  8
0
  6
CONTINUOUS
 62
     7
  0
POLYLINE
  5
64F
  8
0
  6
CONTINUOUS
 62
     7
 66
     1
 10
0.0
 20
0.0
 30
0.0
  0
VERTEX
  5
A64
  8
0
  6
CONTINUOUS
 62
     7
 10
-1097.9652541136
 20
-546.3930529807
 30
0.0
  0
VERTEX
  5
A65
  8
0
  6
CONTINUOUS
 62
     7
 10
-1097.9650433794
 20
-546.3930174647
 30
0.0
  0
VERTEX
  5
A66
  8
0
  6
CONTINUOUS
 62
     7
 10
-1097.3204705517
 20
-545.7570980976
 30
0.0
  0
VERTEX
  5
A67
  8
0
  6
CONTINUOUS
 62
     7
 10
-1096.974202581
 20
-544.8062436214
 30
0.0
  0
SEQEND
  5
A68
  8
0
  6
CONTINUOUS
 62
     7
  0
POLYLINE
  5
650
  8
0
  6
CONTINUOUS
 62
     7
 66
     1
 10
0.0
 20
0.0
 30
0.0
  0
VERTEX
  5
A69
  8
0
  6
CONTINUOUS
 62
     7
 10
-1360.7364930404
 20
-697.9975161043
 30
0.0
  0
VERTEX
  5
A6A
  8
0
  6
CONTINUOUS
 62
     7
 10
-1360.8985792831
 20
-697.7455183595
 30
0.0
  0
VERTEX
  5
A6B
  8
0
  6
CONTINUOUS
 62
     7
 10
-1361.1055097725
 20
-697.2863826328
 30
0.0
  0
SEQEND
  5
A6C
  8
0
  6
CONTINUOUS
 62
     7
  0
POLYLINE
  5
651
  8
0
  6
CONTINUOUS
 62
     7
 66
     1
 10
0.0
 20
0.0
 30
0.0
  0
VERTEX
  5
A6D
  8
0
  6
CONTINUOUS
 62
     7
 10
-1360.1944213483
 20
-696.7600414883
 30
0.0
  0
VERTEX
  5
A6E
  8
0
  6
CONTINUOUS
 62
     7
 10
-1360.1476383464
 20
-697.2691561984
 30
0.0
  0
VERTEX
  5
A6F
  8
0
  6
CONTINUOUS
 62
     7
 10
-1360.2320900941
 20
-697.6632070332
 30
0.0
  0
VERTEX
  5
A70
  8
0
  6
CONTINUOUS
 62
     7
 10
-1360.4351430735
 20
-697.9127207807
 30
0.0
  0
VERTEX
  5
A71
  8
0
  6
CONTINUOUS
 62
     7
 10
-1360.7364930404
 20
-697.9975161043
 30
0.0
  0
SEQEND
  5
A72
  8
0
  6
CONTINUOUS
 62
     7
  0
LINE
  5
652
  8
0
  6
CONTINUOUS
 62
     7
 10
-1361.1009368395
 20
-697.1107335301
 30
0.0
 11
-1360.7364930404
 21
-697.9975161043
 31
0.0
  0
LINE
  5
653
  8
0
  6
CONTINUOUS
 62
     7
 10
-1364.7843290549
 20
277.9856042031
 30
0.0
 11
-1364.3629027167
 21
278.4528344848
 31
0.0
  0
LINE
  5
654
  8
0
  6
CONTINUOUS
 62
     7
 10
-2209.3555433238
 20
766.25670271
 30
0.0
 11
-2209.076151865
 21
765.3848989257
 31
0.0
  0
ARC
  5
655
  8
0
  6
CONTINUOUS
 62
     7
 10
-2205.7646745389
 20
766.7943829154
 30
0.0
 40
3.630900526555338
 50
127.896883482
 51
188.5159386681
  0
ARC
  5
656
  8
0
  6
CONTINUOUS
 62
     7
 10
-1357.9366170605
 20
274.4410489189
 30
0.0
 40
7.575722458062568
 50
119.116841496
 51
148.0243943707
  0
LINE
  5
657
  8
0
  6
CONTINUOUS
 62
     7
 10
-1361.6229044848
 20
279.8346017287
 30
0.0
 11
-1361.6229044848
 21
281.0594215124
 31
0.0
  0
ARC
  5
658
  8
0
  6
CONTINUOUS
 62
     7
 10
-1357.2822801983
 20
271.2102804854
 30
0.0
 40
9.655047182960436
 50
116.7161303315
 51
128.8425384226
  0
LINE
  5
659
  8
0
  6
CONTINUOUS
 62
     7
 10
-1363.3377543836
 20
278.730331582
 30
0.0
 11
-1364.3629027167
 21
278.4528344848
 31
0.0
  0
ARC
  5
65A
  8
0
  6
CONTINUOUS
 62
     7
 10
-1363.7972438156
 20
285.6676529755
 30
0.0
 40
5.095443920098577
 50
295.2597254604
 51
299.9277430452
  0
ARC
  5
65B
  8
0
  6
CONTINUOUS
 62
     7
 10
-1363.7972438157
 20
284.4428331919
 30
0.0
 40
5.095443920179514
 50
295.2597254604
 51
299.9277430451
  0
LINE
  5
65C
  8
0
  6
CONTINUOUS
 62
     7
 10
-1944.1200835317
 20
922.0113920879
 30
0.0
 11
-2207.6619249
 21
769.8719254456
 31
0.0
  0
LINE
  5
65D
  8
0
  6
CONTINUOUS
 62
     7
 10
-1361.2550889379
 20
281.2516596195
 30
0.0
 11
-1097.7132475696
 21
433.3911262618
 31
0.0
  0
ARC
  5
65E
  8
0
  6
CONTINUOUS
 62
     7
 10
-2205.4698793442
 20
766.0668862078
 30
0.0
 40
4.391285383579774
 50
119.9458200335
 51
125.1005684904
  0
LINE
  5
65F
  8
0
  6
CONTINUOUS
 62
     7
 10
-1364.7843290549
 20
277.9856042031
 30
0.0
 11
-1363.7236614653
 21
278.5979145692
 31
0.0
  0
LINE
  5
660
  8
0
  6
CONTINUOUS
 62
     7
 10
-1363.5314507627
 20
278.6638887962
 30
0.0
 11
-1363.3377543836
 21
278.730331582
 31
0.0
  0
LINE
  5
661
  8
0
  6
CONTINUOUS
 62
     7
 10
-1097.7132475696
 20
433.3911262618
 30
0.0
 11
-1097.7132475696
 21
432.1663064781
 31
0.0
  0
LINE
  5
662
  8
0
  6
CONTINUOUS
 62
     7
 10
-1364.7843290549
 20
277.9856042031
 30
0.0
 11
-1368.7826319858
 21
275.6766827055
 31
0.0
  0
LINE
  5
663
  8
0
  6
CONTINUOUS
 62
     7
 10
-1376.6261183468
 20
271.1472137822
 30
0.0
 11
-1377.5122558367
 21
270.6355398696
 31
0.0
  0
LINE
  5
664
  8
0
  6
CONTINUOUS
 62
     7
 10
-1368.7826319858
 20
275.676483654
 30
0.0
 11
-1364.1347196788
 21
278.3605872414
 31
0.0
  0
LINE
  5
665
  8
0
  6
CONTINUOUS
 62
     7
 10
-1376.4515882471
 20
271.2478502357
 30
0.0
 11
-1377.5122558367
 21
270.6355398696
 31
0.0
  0
LINE
  5
666
  8
0
  6
CONTINUOUS
 62
     7
 10
-2205.7534629158
 20
759.6298328648
 30
0.0
 11
-2209.076151865
 21
765.3848989257
 31
0.0
  0
LINE
  5
667
  8
0
  6
CONTINUOUS
 62
     7
 10
-1379.947490207
 20
269.0728793942
 30
0.0
 11
-1379.6357088951
 21
269.2533926069
 31
0.0
  0
LINE
  5
668
  8
0
  6
CONTINUOUS
 62
     7
 10
-1379.6357088951
 20
269.2533926069
 30
0.0
 11
-1379.6980019372
 21
268.7056218223
 31
0.0
  0
ARC
  5
669
  8
0
  6
CONTINUOUS
 62
     7
 10
-1380.7717284792
 20
270.8793283311
 30
0.0
 40
1.983483671323053
 50
304.9414860683
 51
337.2229624894
  0
POLYLINE
  5
66A
  8
0
  6
CONTINUOUS
 62
     7
 66
     1
 10
0.0
 20
0.0
 30
0.0
  0
VERTEX
  5
A73
  8
0
  6
CONTINUOUS
 62
     7
 10
-1378.9429200727
 20
270.1114303647
 30
0.0
  0
VERTEX
  5
A74
  8
0
  6
CONTINUOUS
 62
     7
 10
-1378.1402438796
 20
270.3777933048
 30
0.0
  0
VERTEX
  5
A75
  8
0
  6
CONTINUOUS
 62
     7
 10
-1377.5122558367
 20
270.6355398696
 30
0.0
  0
SEQEND
  5
A76
  8
0
  6
CONTINUOUS
 62
     7
  0
LINE
  5
66B
  8
0
  6
CONTINUOUS
 62
     7
 10
-1378.2490881158
 20
269.5855933847
 30
0.0
 11
-1378.9429200727
 21
270.1114303647
 31
0.0
  0
ARC
  5
66C
  8
0
  6
CONTINUOUS
 62
     7
 10
-1381.2238287894
 20
274.6893876244
 30
0.0
 40
5.883745354013536
 50
305.311233594
 51
324.2024566425
  0
ARC
  5
66D
  8
0
  6
CONTINUOUS
 62
     7
 10
-1381.6915692041
 20
271.2735169501
 30
0.0
 40
3.834020082809597
 50
306.8215935114
 51
333.8801284035
  0
ARC
  5
66E
  8
0
  6
CONTINUOUS
 62
     7
 10
-1943.2793507139
 20
920.1098255759
 30
0.0
 40
2.079131277793926
 50
55.6976200188
 51
113.8514884947
  0
POLYLINE
  5
66F
  8
0
  6
CONTINUOUS
 62
     7
 66
     1
 10
0.0
 20
0.0
 30
0.0
  0
VERTEX
  5
A77
  8
0
  6
CONTINUOUS
 62
     7
 10
-1096.6525905167
 20
432.77841171
 30
0.0
  0
VERTEX
  5
A78
  8
0
  6
CONTINUOUS
 62
     7
 10
-1096.5451055163
 20
433.4137858641
 30
0.0
  0
VERTEX
  5
A79
  8
0
  6
CONTINUOUS
 62
     7
 10
-1096.6845483646
 20
433.8013392143
 30
0.0
  0
VERTEX
  5
A7A
  8
0
  6
CONTINUOUS
 62
     7
 10
-1097.0239674724
 20
433.8755580319
 30
0.0
  0
VERTEX
  5
A7B
  8
0
  6
CONTINUOUS
 62
     7
 10
-1097.4915551465
 20
433.6102452368
 30
0.0
  0
VERTEX
  5
A7C
  8
0
  6
CONTINUOUS
 62
     7
 10
-1097.7132475696
 20
433.3911262618
 30
0.0
  0
SEQEND
  5
A7D
  8
0
  6
CONTINUOUS
 62
     7
  0
LINE
  5
670
  8
0
  6
CONTINUOUS
 62
     7
 10
-1097.6094082716
 20
432.2260525774
 30
0.0
 11
-1096.6525905167
 21
432.77841171
 31
0.0
  0
LINE
  5
671
  8
0
  6
CONTINUOUS
 62
     7
 10
-1097.582307848
 20
432.3602447223
 30
0.0
 11
-1097.5191929424
 21
432.4538847639
 31
0.0
  0
POLYLINE
  5
672
  8
0
  6
CONTINUOUS
 62
     7
 66
     1
 10
0.0
 20
0.0
 30
0.0
  0
VERTEX
  5
A7E
  8
0
  6
CONTINUOUS
 62
     7
 10
-1097.5002795441
 20
432.5365385439
 30
0.0
  0
VERTEX
  5
A7F
  8
0
  6
CONTINUOUS
 62
     7
 10
-1097.4978561003
 20
432.5472879418
 30
0.0
  0
VERTEX
  5
A80
  8
0
  6
CONTINUOUS
 62
     7
 10
-1097.5895781794
 20
432.4320915402
 30
0.0
  0
VERTEX
  5
A81
  8
0
  6
CONTINUOUS
 62
     7
 10
-1097.7132475696
 20
432.1663064781
 30
0.0
  0
SEQEND
  5
A82
  8
0
  6
CONTINUOUS
 62
     7
  0
LINE
  5
673
  8
0
  6
CONTINUOUS
 62
     7
 10
-1097.4480701355
 20
432.3190418162
 30
0.0
 11
-1096.6525905167
 21
432.77841171
 31
0.0
  0
ENDSEC
  0
EOF
