  0
SECTION
  2
HEADER
  9
$ACADVER
  1
AC1009
  9
$DWGCODEPAGE
  3
ansi_1252
  9
$INSBASE
 10
0.0
 20
0.0
 30
0.0
  9
$EXTMIN
 10
0.0
 20
0.0
 30
0.0
  9
$EXTMAX
 10
594.0
 20
420.0
 30
0.0
  9
$LIMMIN
 10
0.0
 20
0.0
  9
$LIMMAX
 10
594.0
 20
420.0
  9
$ORTHOMODE
 70
     0
  9
$REGENMODE
 70
     1
  9
$FILLMODE
 70
     1
  9
$QTEXTMODE
 70
     0
  9
$MIRRTEXT
 70
     1
  9
$DRAGMODE
 70
     2
  9
$LTSCALE
 40
1.0
  9
$OSMODE
 70
    37
  9
$ATTMODE
 70
     1
  9
$TEXTSIZE
 40
4.2333333333
  9
$TRACEWID
 40
1.0
  9
$TEXTSTYLE
  7
STANDARD
  9
$CLAYER
  8
0
  9
$CELTYPE
  6
BYLAYER
  9
$CECOLOR
 62
   256
  9
$DIMSCALE
 40
1.0
  9
$DIMASZ
 40
2.0
  9
$DIMEXO
 40
1.0
  9
$DIMDLI
 40
3.75
  9
$DIMRND
 40
0.0
  9
$DIMDLE
 40
0.0
  9
$DIMEXE
 40
0.5
  9
$DIMTP
 40
0.0
  9
$DIMTM
 40
0.0
  9
$DIMTXT
 40
3.175
  9
$DIMCEN
 40
2.5
  9
$DIMTSZ
 40
0.0
  9
$DIMTOL
 70
     0
  9
$DIMLIM
 70
     0
  9
$DIMTIH
 70
     1
  9
$DIMTOH
 70
     1
  9
$DIMSE1
 70
     0
  9
$DIMSE2
 70
     0
  9
$DIMTAD
 70
     1
  9
$DIMZIN
 70
     0
  9
$DIMBLK
  1

  9
$DIMASO
 70
     1
  9
$DIMSHO
 70
     1
  9
$DIMPOST
  1

  9
$DIMAPOST
  1

  9
$DIMALT
 70
     0
  9
$DIMALTD
 70
     3
  9
$DIMALTF
 40
0.0393700787
  9
$DIMLFAC
 40
1.0
  9
$DIMTOFL
 70
     1
  9
$DIMTVP
 40
0.0
  9
$DIMTIX
 70
     0
  9
$DIMSOXD
 70
     0
  9
$DIMSAH
 70
     0
  9
$DIMBLK1
  1

  9
$DIMBLK2
  1

  9
$DIMSTYLE
  2
ISO-25
  9
$DIMCLRD
 70
     0
  9
$DIMCLRE
 70
     0
  9
$DIMCLRT
 70
     0
  9
$DIMTFAC
 40
1.0
  9
$DIMGAP
 40
2.0
  9
$LUNITS
 70
     2
  9
$LUPREC
 70
     2
  9
$SKETCHINC
 40
1.0
  9
$FILLETRAD
 40
10.0
  9
$AUNITS
 70
     0
  9
$AUPREC
 70
     2
  9
$MENU
  1
.
  9
$ELEVATION
 40
0.0
  9
$PELEVATION
 40
0.0
  9
$THICKNESS
 40
0.0
  9
$LIMCHECK
 70
     0
  9
$CHAMFERA
 40
10.0
  9
$CHAMFERB
 40
10.0
  9
$SKPOLY
 70
     0
  9
$TDCREATE
 40
2456630.673763438
  9
$TDUPDATE
 40
2456630.673763449
  9
$TDINDWG
 40
0.0000000116
  9
$TDUSRTIMER
 40
0.0000000116
  9
$USRTIMER
 70
     1
  9
$ANGBASE
 50
0.0
  9
$ANGDIR
 70
     0
  9
$PDMODE
 70
     0
  9
$PDSIZE
 40
-1.0
  9
$PLINEWID
 40
0.0
  9
$COORDS
 70
     1
  9
$SPLFRAME
 70
     0
  9
$SPLINETYPE
 70
     6
  9
$SPLINESEGS
 70
     8
  9
$ATTDIA
 70
     0
  9
$ATTREQ
 70
     1
  9
$HANDLING
 70
     1
  9
$HANDSEED
  5
970
  9
$SURFTAB1
 70
     6
  9
$SURFTAB2
 70
     6
  9
$SURFTYPE
 70
     6
  9
$SURFU
 70
     6
  9
$SURFV
 70
     6
  9
$UCSNAME
  2

  9
$UCSORG
 10
0.0
 20
0.0
 30
0.0
  9
$UCSXDIR
 10
1.0
 20
0.0
 30
0.0
  9
$UCSYDIR
 10
0.0
 20
1.0
 30
0.0
  9
$PUCSNAME
  2

  9
$PUCSORG
 10
0.0
 20
0.0
 30
0.0
  9
$PUCSXDIR
 10
1.0
 20
0.0
 30
0.0
  9
$PUCSYDIR
 10
0.0
 20
1.0
 30
0.0
  9
$USERI1
 70
     0
  9
$USERI2
 70
     0
  9
$USERI3
 70
     0
  9
$USERI4
 70
     0
  9
$USERI5
 70
     0
  9
$USERR1
 40
0.0
  9
$USERR2
 40
0.0
  9
$USERR3
 40
0.0
  9
$USERR4
 40
0.0
  9
$USERR5
 40
0.0
  9
$WORLDVIEW
 70
     1
  9
$SHADEDGE
 70
     3
  9
$SHADEDIF
 70
    70
  9
$TILEMODE
 70
     1
  9
$MAXACTVP
 70
    64
  9
$PLIMCHECK
 70
     0
  9
$PEXTMIN
 10
1.0000000000E+20
 20
1.0000000000E+20
 30
1.0000000000E+20
  9
$PEXTMAX
 10
-1.0000000000E+20
 20
-1.0000000000E+20
 30
-1.0000000000E+20
  9
$PLIMMIN
 10
0.0
 20
0.0
  9
$PLIMMAX
 10
420.0
 20
297.0
  9
$UNITMODE
 70
     0
  9
$VISRETAIN
 70
     1
  9
$PLINEGEN
 70
     0
  9
$PSLTSCALE
 70
     1
  0
ENDSEC
  0
SECTION
  2
TABLES
  0
TABLE
  2
VPORT
 70
     1
  0
VPORT
  2
*ACTIVE
 70
     0
 10
0.0
 20
0.0
 11
1.0
 21
1.0
 12
297.0
 22
210.0
 13
0.0
 23
0.0
 14
10.0
 24
10.0
 15
10.0
 25
10.0
 16
0.0
 26
0.0
 36
1.0
 17
0.0
 27
0.0
 37
0.0
 40
420.0
 41
1.4142857143
 42
50.0
 43
0.0
 44
0.0
 50
0.0
 51
0.0
 71
     0
 72
  2000
 73
     1
 74
     3
 75
     0
 76
     0
 77
     0
 78
     0
  0
ENDTAB
  0
TABLE
  2
LTYPE
 70
     6
  0
LTYPE
  2
CONTINUOUS
 70
     0
  3
Solid line
 72
    65
 73
     0
 40
0.0
  0
LTYPE
  2
HIDDEN
 70
     0
  3
Hidden __ __ __ __ __ __ __ __ __ __ __ __ __ __
 72
    65
 73
     2
 40
1.905
 49
1.27
 49
-0.635
  0
LTYPE
  2
PHANTOM
 70
     0
  3
Phantom ______  __  __  ______  __  __  ______
 72
    65
 73
     6
 40
12.7
 49
6.35
 49
-1.27
 49
1.27
 49
-1.27
 49
1.27
 49
-1.27
  0
LTYPE
  2
CENTER
 70
     0
  3
Center ____ _ ____ _ ____ _ ____ _ ____ _ ____
 72
    65
 73
     4
 40
10.16
 49
6.35
 49
-1.27
 49
1.27
 49
-1.27
  0
LTYPE
  2
CENTERX2
 70
     0
  3
Center (2x) ________  __  ________  __  _____
 72
    65
 73
     4
 40
20.32
 49
12.7
 49
-2.54
 49
2.54
 49
-2.54
  0
LTYPE
  2
DOT2
 70
     0
  3
Dot (.5x) ........................................
 72
    65
 73
     2
 40
0.635
 49
0.0
 49
-0.635
  0
ENDTAB
  0
TABLE
  2
LAYER
 70
     8
  0
LAYER
  2
0
 70
     0
 62
     7
  6
CONTINUOUS
  0
LAYER
  2
SLD-0
 70
     0
 62
     7
  6
CONTINUOUS
  0
LAYER
  2
AM_BOR
 70
     0
 62
     7
  6
CONTINUOUS
  0
LAYER
  2
BIEGLINIE__ZU_
 70
     0
 62
     8
  6
CONTINUOUS
  0
LAYER
  2
BIEGELINIE__WEG_
 70
     0
 62
     8
  6
HIDDEN
  0
LAYER
  2
LAYER0
 70
     0
 62
     7
  6
CONTINUOUS
  0
LAYER
  2
BIEGELINIE__ZU_
 70
     0
 62
     8
  6
CONTINUOUS
  0
LAYER
  2
CK_LEVEL_1
 70
     0
 62
     7
  6
CONTINUOUS
  0
ENDTAB
  0
TABLE
  2
STYLE
 70
     1
  0
STYLE
  2
STANDARD
 70
     0
 40
0.0
 41
1.0
 50
0.0
 71
     0
 42
2.5
  3
txt
  4

  0
ENDTAB
  0
TABLE
  2
VIEW
 70
     0
  0
ENDTAB
  0
TABLE
  2
UCS
 70
     0
  0
ENDTAB
  0
TABLE
  2
APPID
 70
     1
  0
APPID
  2
ACAD
 70
     0
  0
ENDTAB
  0
TABLE
  2
DIMSTYLE
 70
     1
  0
DIMSTYLE
  2
ISO-25
 70
     0
  3

  4

  5

  6

  7

 40
1.0
 41
2.5
 42
0.625
 43
3.75
 44
1.25
 45
0.0
 46
0.0
 47
0.0
 48
0.0
140
2.5
141
2.5
142
0.0
143
0.0393700787
144
1.0
145
0.0
146
1.0
147
0.625
 71
     0
 72
     0
 73
     0
 74
     0
 75
     0
 76
     0
 77
     1
 78
     8
170
     0
171
     3
172
     1
173
     0
174
     0
175
     0
176
     0
177
     0
178
     0
  0
ENDTAB
  0
ENDSEC
  0
SECTION
  2
BLOCKS
  0
BLOCK
  8
0
  2
$MODEL_SPACE
 70
     0
 10
0.0
 20
0.0
 30
0.0
  3
$MODEL_SPACE
  1

  0
ENDBLK
  5
21
  8
0
  0
BLOCK
 67
     1
  8
0
  2
$PAPER_SPACE
 70
     0
 10
0.0
 20
0.0
 30
0.0
  3
$PAPER_SPACE
  1

  0
ENDBLK
  5
1D
 67
     1
  8
0
  0
BLOCK
  8
0
  2
ERDUNG2
 70
     0
 10
0.0
 20
0.0
 30
0.0
  3
ERDUNG2
  1

  0
CIRCLE
  5
4E
  8
CK_LEVEL_1
  6
CONTINUOUS
 62
     7
 10
7.882894401
 20
8.75
 30
0.0
 40
9.354800019675764
  0
LINE
  5
4F
  8
CK_LEVEL_1
  6
CONTINUOUS
 62
     7
 10
8.7487451733
 20
3.8098753807
 30
0.0
 11
9.700327903
 21
3.8098753807
 31
0.0
  0
LINE
  5
50
  8
CK_LEVEL_1
  6
CONTINUOUS
 62
     7
 10
8.7487451733
 20
3.8098753807
 30
0.0
 11
6.6709551936
 21
3.8098753807
 31
0.0
  0
LINE
  5
51
  8
CK_LEVEL_1
  6
CONTINUOUS
 62
     7
 10
7.882894401
 20
8.75
 30
0.0
 11
12.815547
 21
8.75
 31
0.0
  0
LINE
  5
52
  8
CK_LEVEL_1
  6
CONTINUOUS
 62
     7
 10
11.24812514
 20
6.3492067038
 30
0.0
 11
4.4479159892
 21
6.3492067038
 31
0.0
  0
LINE
  5
53
  8
CK_LEVEL_1
  6
CONTINUOUS
 62
     7
 10
7.882894401
 20
8.75
 30
0.0
 11
2.6893228315
 21
8.75
 31
0.0
  0
LINE
  5
54
  8
CK_LEVEL_1
  6
CONTINUOUS
 62
     7
 10
7.882894401
 20
8.75
 30
0.0
 11
7.882894401
 21
15.2853511284
 31
0.0
  0
ENDBLK
  5
4D
  8
0
  0
ENDSEC
  0
SECTION
  2
ENTITIES
  0
ARC
  5
55
  8
0
  6
CONTINUOUS
 62
     7
 10
51.8655624094
 20
283.4411583941
 30
0.0
 40
9.623841156521674
 50
68.6142338056
 51
85.3075756207
  0
POLYLINE
  5
56
  8
0
  6
CONTINUOUS
 62
     7
 66
     1
 10
0.0
 20
0.0
 30
0.0
  0
VERTEX
  5
593
  8
0
  6
CONTINUOUS
 62
     7
 10
47.8642351531
 20
292.7755484329
 30
0.0
  0
VERTEX
  5
594
  8
0
  6
CONTINUOUS
 62
     7
 10
46.6806955241
 20
292.4479017005
 30
0.0
  0
VERTEX
  5
595
  8
0
  6
CONTINUOUS
 62
     7
 10
46.5711719894
 20
292.4043903099
 30
0.0
  0
SEQEND
  5
596
  8
0
  6
CONTINUOUS
 62
     7
  0
ARC
  5
57
  8
0
  6
CONTINUOUS
 62
     7
 10
50.7295557676
 20
281.9883602017
 30
0.0
 40
11.1612495787265
 50
88.7479471651
 51
104.8755517177
  0
ARC
  5
58
  8
0
  6
CONTINUOUS
 62
     7
 10
564.9234422349
 20
783.1813692794
 30
0.0
 40
40.0
 50
76.4820489901
 51
103.5179510099
  0
LINE
  5
59
  8
0
  6
CONTINUOUS
 62
     7
 10
555.5734552049
 20
822.0732578979
 30
0.0
 11
555.5734552049
 21
821.6814169632
 31
0.0
  0
LINE
  5
5A
  8
0
  6
CONTINUOUS
 62
     7
 10
574.2734290265
 20
821.6814169632
 30
0.0
 11
574.2734290265
 21
822.0732578979
 31
0.0
  0
LINE
  5
5B
  8
0
  6
CONTINUOUS
 62
     7
 10
11.5734554433
 20
822.0732578979
 30
0.0
 11
11.5734554433
 21
821.6814169632
 31
0.0
  0
LINE
  5
5C
  8
0
  6
CONTINUOUS
 62
     7
 10
30.273429265
 20
821.6814169632
 30
0.0
 11
30.273429265
 21
822.0732578979
 31
0.0
  0
ARC
  5
5D
  8
0
  6
CONTINUOUS
 62
     7
 10
20.9234422349
 20
783.1813692794
 30
0.0
 40
39.99999999999999
 50
76.4820489901
 51
103.5179510099
  0
LINE
  5
5E
  8
0
  6
CONTINUOUS
 62
     7
 10
-2.0765446521
 20
816.6768917785
 30
0.0
 11
-2.0765446521
 21
816.0703549133
 31
0.0
  0
POLYLINE
  5
5F
  8
0
  6
CONTINUOUS
 62
     7
 66
     1
 10
0.0
 20
0.0
 30
0.0
  0
VERTEX
  5
597
  8
0
  6
CONTINUOUS
 62
     7
 10
587.8753579759
 20
817.1813854919
 30
0.0
  0
VERTEX
  5
598
  8
0
  6
CONTINUOUS
 62
     7
 10
587.6957095765
 20
817.8785214172
 30
0.0
  0
VERTEX
  5
599
  8
0
  6
CONTINUOUS
 62
     7
 10
587.5670529508
 20
818.4690842376
 30
0.0
  0
VERTEX
  5
59A
  8
0
  6
CONTINUOUS
 62
     7
 10
587.4627150201
 20
819.3030724273
 30
0.0
  0
VERTEX
  5
59B
  8
0
  6
CONTINUOUS
 62
     7
 10
587.564668765
 20
819.8998341308
 30
0.0
  0
VERTEX
  5
59C
  8
0
  6
CONTINUOUS
 62
     7
 10
587.6939214372
 20
820.1027283416
 30
0.0
  0
VERTEX
  5
59D
  8
0
  6
CONTINUOUS
 62
     7
 10
587.8753579759
 20
820.1814064727
 30
0.0
  0
SEQEND
  5
59E
  8
0
  6
CONTINUOUS
 62
     7
  0
POLYLINE
  5
60
  8
0
  6
CONTINUOUS
 62
     7
 66
     1
 10
0.0
 20
0.0
 30
0.0
  0
VERTEX
  5
59F
  8
0
  6
CONTINUOUS
 62
     7
 10
-0.9284697867
 20
820.1814064727
 30
0.0
  0
VERTEX
  5
5A0
  8
0
  6
CONTINUOUS
 62
     7
 10
-0.7488213874
 20
820.0992712722
 30
0.0
  0
VERTEX
  5
5A1
  8
0
  6
CONTINUOUS
 62
     7
 10
-0.6201647616
 20
819.8908934341
 30
0.0
  0
VERTEX
  5
5A2
  8
0
  6
CONTINUOUS
 62
     7
 10
-0.5158566333
 20
819.3022379623
 30
0.0
  0
VERTEX
  5
5A3
  8
0
  6
CONTINUOUS
 62
     7
 10
-0.6177805758
 20
818.4502491699
 30
0.0
  0
VERTEX
  5
5A4
  8
0
  6
CONTINUOUS
 62
     7
 10
-0.747033248
 20
817.8635010467
 30
0.0
  0
VERTEX
  5
5A5
  8
0
  6
CONTINUOUS
 62
     7
 10
-0.9284697867
 20
817.1813854919
 30
0.0
  0
SEQEND
  5
5A6
  8
0
  6
CONTINUOUS
 62
     7
  0
LINE
  5
61
  8
0
  6
CONTINUOUS
 62
     7
 10
587.8753579759
 20
820.1814064727
 30
0.0
 11
-0.9284697867
 21
820.1814064727
 31
0.0
  0
POLYLINE
  5
62
  8
0
  6
CONTINUOUS
 62
     7
 66
     1
 10
0.0
 20
0.0
 30
0.0
  0
VERTEX
  5
5A7
  8
0
  6
CONTINUOUS
 62
     7
 10
588.9734543466
 20
-356.2205551221
 30
0.0
  0
VERTEX
  5
5A8
  8
0
  6
CONTINUOUS
 62
     7
 10
589.6706200742
 20
-356.0409067227
 30
0.0
  0
VERTEX
  5
5A9
  8
0
  6
CONTINUOUS
 62
     7
 10
590.2611530923
 20
-355.9122519596
 30
0.0
  0
VERTEX
  5
5AA
  8
0
  6
CONTINUOUS
 62
     7
 10
591.0951710843
 20
-355.8079158916
 30
0.0
  0
VERTEX
  5
5AB
  8
0
  6
CONTINUOUS
 62
     7
 10
591.6918731832
 20
-355.9098472847
 30
0.0
  0
VERTEX
  5
5AC
  8
0
  6
CONTINUOUS
 62
     7
 10
591.894856801
 20
-356.0391036822
 30
0.0
  0
VERTEX
  5
5AD
  8
0
  6
CONTINUOUS
 62
     7
 10
591.9734455251
 20
-356.2205551221
 30
0.0
  0
SEQEND
  5
5AE
  8
0
  6
CONTINUOUS
 62
     7
  0
LINE
  5
63
  8
0
  6
CONTINUOUS
 62
     7
 10
591.9734455251
 20
-356.2205551221
 30
0.0
 11
590.4734350347
 21
-356.2205551221
 31
0.0
  0
LINE
  5
64
  8
0
  6
CONTINUOUS
 62
     7
 10
-3.5265468455
 20
-356.2205551221
 30
0.0
 11
-5.0265573359
 21
-356.2205551221
 31
0.0
  0
POLYLINE
  5
65
  8
0
  6
CONTINUOUS
 62
     7
 66
     1
 10
0.0
 20
0.0
 30
0.0
  0
VERTEX
  5
5AF
  8
0
  6
CONTINUOUS
 62
     7
 10
-5.0265573359
 20
-356.2205551221
 30
0.0
  0
VERTEX
  5
5B0
  8
0
  6
CONTINUOUS
 62
     7
 10
-4.9444221354
 20
-356.0409067227
 30
0.0
  0
VERTEX
  5
5B1
  8
0
  6
CONTINUOUS
 62
     7
 10
-4.7361337043
 20
-355.9122519596
 30
0.0
  0
VERTEX
  5
5B2
  8
0
  6
CONTINUOUS
 62
     7
 10
-4.1474782324
 20
-355.8079158916
 30
0.0
  0
VERTEX
  5
5B3
  8
0
  6
CONTINUOUS
 62
     7
 10
-3.2954596377
 20
-355.9098472847
 30
0.0
  0
VERTEX
  5
5B4
  8
0
  6
CONTINUOUS
 62
     7
 10
-2.7087115145
 20
-356.0391036822
 30
0.0
  0
VERTEX
  5
5B5
  8
0
  6
CONTINUOUS
 62
     7
 10
-2.0265661574
 20
-356.2205551221
 30
0.0
  0
SEQEND
  5
5B6
  8
0
  6
CONTINUOUS
 62
     7
  0
ARC
  5
66
  8
0
  6
CONTINUOUS
 62
     7
 10
-3.1141780086
 20
-356.2195240869
 30
0.0
 40
0.4123701258216305
 50
85.9419332975
 51
180.1432548598
  0
ARC
  5
67
  8
0
  6
CONTINUOUS
 62
     7
 10
590.4734420152
 20
818.6813692795
 30
0.0
 40
2.999999999999936
 50
210.0
 51
240.0
  0
ARC
  5
68
  8
0
  6
CONTINUOUS
 62
     7
 10
590.4734420152
 20
-358.8186307205
 30
0.0
 40
2.999999999999964
 50
120.0
 51
150.0
  0
ARC
  5
69
  8
0
  6
CONTINUOUS
 62
     7
 10
-3.5265579848
 20
-358.8186307205
 30
0.0
 40
2.999999999999902
 50
30.0
 51
60.0
  0
ARC
  5
6A
  8
0
  6
CONTINUOUS
 62
     7
 10
-3.5265579848
 20
818.6813692795
 30
0.0
 40
2.999999999999867
 50
300.0
 51
330.0
  0
LINE
  5
6B
  8
0
  6
CONTINUOUS
 62
     7
 10
-0.9284697867
 20
818.6813959823
 30
0.0
 11
-0.9284697867
 21
820.1814064727
 31
0.0
  0
ARC
  5
6C
  8
0
  6
CONTINUOUS
 62
     7
 10
-0.9277427967
 20
818.2687640329
 30
0.0
 40
0.4126325898212529
 50
355.9811440081
 51
90.1009456868
  0
LINE
  5
6D
  8
0
  6
CONTINUOUS
 62
     7
 10
590.4734350347
 20
816.0833487258
 30
0.0
 11
591.9734455251
 21
816.0833487258
 31
0.0
  0
POLYLINE
  5
6E
  8
0
  6
CONTINUOUS
 62
     7
 66
     1
 10
0.0
 20
0.0
 30
0.0
  0
VERTEX
  5
5B7
  8
0
  6
CONTINUOUS
 62
     7
 10
591.9734455251
 20
816.0833487258
 30
0.0
  0
VERTEX
  5
5B8
  8
0
  6
CONTINUOUS
 62
     7
 10
591.8913103246
 20
815.9037003265
 30
0.0
  0
VERTEX
  5
5B9
  8
0
  6
CONTINUOUS
 62
     7
 10
591.6829920911
 20
815.7749542938
 30
0.0
  0
VERTEX
  5
5BA
  8
0
  6
CONTINUOUS
 62
     7
 10
591.0943664216
 20
815.6706461654
 30
0.0
  0
VERTEX
  5
5BB
  8
0
  6
CONTINUOUS
 62
     7
 10
590.2423478269
 20
815.772570108
 30
0.0
  0
VERTEX
  5
5BC
  8
0
  6
CONTINUOUS
 62
     7
 10
589.6555699014
 20
815.9017929779
 30
0.0
  0
VERTEX
  5
5BD
  8
0
  6
CONTINUOUS
 62
     7
 10
588.9734543466
 20
816.0833487258
 30
0.0
  0
SEQEND
  5
5BE
  8
0
  6
CONTINUOUS
 62
     7
  0
LINE
  5
6F
  8
0
  6
CONTINUOUS
 62
     7
 10
587.8753579759
 20
820.1814064727
 30
0.0
 11
587.8753579759
 21
818.6813959823
 31
0.0
  0
POLYLINE
  5
70
  8
0
  6
CONTINUOUS
 62
     7
 66
     1
 10
0.0
 20
0.0
 30
0.0
  0
VERTEX
  5
5BF
  8
0
  6
CONTINUOUS
 62
     7
 10
-2.0265661574
 20
816.0833487258
 30
0.0
  0
VERTEX
  5
5C0
  8
0
  6
CONTINUOUS
 62
     7
 10
-2.7237616873
 20
815.9037003265
 30
0.0
  0
VERTEX
  5
5C1
  8
0
  6
CONTINUOUS
 62
     7
 10
-3.3142947055
 20
815.7749542938
 30
0.0
  0
VERTEX
  5
5C2
  8
0
  6
CONTINUOUS
 62
     7
 10
-4.1482828952
 20
815.6706461654
 30
0.0
  0
VERTEX
  5
5C3
  8
0
  6
CONTINUOUS
 62
     7
 10
-4.744984994
 20
815.772570108
 30
0.0
  0
VERTEX
  5
5C4
  8
0
  6
CONTINUOUS
 62
     7
 10
-4.9479686118
 20
815.9017929779
 30
0.0
  0
VERTEX
  5
5C5
  8
0
  6
CONTINUOUS
 62
     7
 10
-5.0265573359
 20
816.0833487258
 30
0.0
  0
SEQEND
  5
5C6
  8
0
  6
CONTINUOUS
 62
     7
  0
LINE
  5
71
  8
0
  6
CONTINUOUS
 62
     7
 10
-5.0265573359
 20
816.0833487258
 30
0.0
 11
-3.5265468455
 21
816.0833487258
 31
0.0
  0
LINE
  5
72
  8
0
  6
CONTINUOUS
 62
     7
 10
591.9734455251
 20
-356.2205551221
 30
0.0
 11
591.9734455251
 21
816.0833487258
 31
0.0
  0
LINE
  5
73
  8
0
  6
CONTINUOUS
 62
     7
 10
-5.0265573359
 20
816.0833487258
 30
0.0
 11
-5.0265573359
 21
-356.2205551221
 31
0.0
  0
POLYLINE
  5
74
  8
0
  6
CONTINUOUS
 62
     7
 66
     1
 10
0.0
 20
0.0
 30
0.0
  0
VERTEX
  5
5C7
  8
0
  6
CONTINUOUS
 62
     7
 10
-0.9284697867
 20
-357.3186310037
 30
0.0
  0
VERTEX
  5
5C8
  8
0
  6
CONTINUOUS
 62
     7
 10
-0.7488213874
 20
-358.0158321216
 30
0.0
  0
VERTEX
  5
5C9
  8
0
  6
CONTINUOUS
 62
     7
 10
-0.6201647616
 20
-358.606368865
 30
0.0
  0
VERTEX
  5
5CA
  8
0
  6
CONTINUOUS
 62
     7
 10
-0.5158566333
 20
-359.4403533294
 30
0.0
  0
VERTEX
  5
5CB
  8
0
  6
CONTINUOUS
 62
     7
 10
-0.6177805758
 20
-360.0370628788
 30
0.0
  0
VERTEX
  5
5CC
  8
0
  6
CONTINUOUS
 62
     7
 10
-0.747033248
 20
-360.2400483592
 30
0.0
  0
VERTEX
  5
5CD
  8
0
  6
CONTINUOUS
 62
     7
 10
-0.9284697867
 20
-360.3186314954
 30
0.0
  0
SEQEND
  5
5CE
  8
0
  6
CONTINUOUS
 62
     7
  0
LINE
  5
75
  8
0
  6
CONTINUOUS
 62
     7
 10
-0.9284697867
 20
-360.3186314954
 30
0.0
 11
-0.9284697867
 21
-358.8186303182
 31
0.0
  0
POLYLINE
  5
76
  8
0
  6
CONTINUOUS
 62
     7
 66
     1
 10
0.0
 20
0.0
 30
0.0
  0
VERTEX
  5
5CF
  8
0
  6
CONTINUOUS
 62
     7
 10
587.8753579759
 20
-360.3186314954
 30
0.0
  0
VERTEX
  5
5D0
  8
0
  6
CONTINUOUS
 62
     7
 10
587.6957095765
 20
-360.236490707
 30
0.0
  0
VERTEX
  5
5D1
  8
0
  6
CONTINUOUS
 62
     7
 10
587.5670529508
 20
-360.0281929626
 30
0.0
  0
VERTEX
  5
5D2
  8
0
  6
CONTINUOUS
 62
     7
 10
587.4627150201
 20
-359.4395486667
 30
0.0
  0
VERTEX
  5
5D3
  8
0
  6
CONTINUOUS
 62
     7
 10
587.564668765
 20
-358.5875375225
 30
0.0
  0
VERTEX
  5
5D4
  8
0
  6
CONTINUOUS
 62
     7
 10
587.6939214372
 20
-358.0007763608
 30
0.0
  0
VERTEX
  5
5D5
  8
0
  6
CONTINUOUS
 62
     7
 10
587.8753579759
 20
-357.3186310037
 30
0.0
  0
SEQEND
  5
5D6
  8
0
  6
CONTINUOUS
 62
     7
  0
LINE
  5
77
  8
0
  6
CONTINUOUS
 62
     7
 10
-0.9284697867
 20
-360.3186314954
 30
0.0
 11
587.8753579759
 21
-360.3186314954
 31
0.0
  0
LINE
  5
78
  8
0
  6
CONTINUOUS
 62
     7
 10
587.8753579759
 20
-358.8186303182
 30
0.0
 11
587.8753579759
 21
-360.3186314954
 31
0.0
  0
LINE
  5
79
  8
0
  6
CONTINUOUS
 62
     7
 10
-1.4052473403
 20
820.1814064727
 30
0.0
 11
-1.4052473403
 21
818.6813959823
 31
0.0
  0
LINE
  5
7A
  8
0
  6
CONTINUOUS
 62
     7
 10
-1.4052473403
 20
820.1814064727
 30
0.0
 11
-0.9284697867
 21
820.1814064727
 31
0.0
  0
LINE
  5
7B
  8
0
  6
CONTINUOUS
 62
     7
 10
-1.4052473403
 20
818.6813959823
 30
0.0
 11
-0.9284697867
 21
818.6813959823
 31
0.0
  0
LINE
  5
7C
  8
0
  6
CONTINUOUS
 62
     7
 10
588.3521355295
 20
820.1814064727
 30
0.0
 11
588.3521355295
 21
818.6813959823
 31
0.0
  0
LINE
  5
7D
  8
0
  6
CONTINUOUS
 62
     7
 10
587.8753579759
 20
818.6813959823
 30
0.0
 11
588.3521355295
 21
818.6813959823
 31
0.0
  0
LINE
  5
7E
  8
0
  6
CONTINUOUS
 62
     7
 10
587.8753579759
 20
820.1814064727
 30
0.0
 11
588.3521355295
 21
820.1814064727
 31
0.0
  0
LINE
  5
7F
  8
0
  6
CONTINUOUS
 62
     7
 10
-5.0265573359
 20
817.1813854919
 30
0.0
 11
-3.5265468455
 21
817.1813854919
 31
0.0
  0
LINE
  5
80
  8
0
  6
CONTINUOUS
 62
     7
 10
-3.5265468455
 20
816.0833487258
 30
0.0
 11
-3.5265468455
 21
817.1813854919
 31
0.0
  0
LINE
  5
81
  8
0
  6
CONTINUOUS
 62
     7
 10
-5.0265573359
 20
816.0833487258
 30
0.0
 11
-5.0265573359
 21
817.1813854919
 31
0.0
  0
LINE
  5
82
  8
0
  6
CONTINUOUS
 62
     7
 10
-3.5265468455
 20
-357.3186310037
 30
0.0
 11
-5.0265573359
 21
-357.3186310037
 31
0.0
  0
LINE
  5
83
  8
0
  6
CONTINUOUS
 62
     7
 10
-5.0265573359
 20
-357.3186310037
 30
0.0
 11
-5.0265573359
 21
-356.2205551221
 31
0.0
  0
LINE
  5
84
  8
0
  6
CONTINUOUS
 62
     7
 10
-3.5265468455
 20
-357.3186310037
 30
0.0
 11
-3.5265468455
 21
-356.2205551221
 31
0.0
  0
LINE
  5
85
  8
0
  6
CONTINUOUS
 62
     7
 10
591.9734455251
 20
-357.3186310037
 30
0.0
 11
590.4734350347
 21
-357.3186310037
 31
0.0
  0
LINE
  5
86
  8
0
  6
CONTINUOUS
 62
     7
 10
590.4734350347
 20
-356.2205551221
 30
0.0
 11
590.4734350347
 21
-357.3186310037
 31
0.0
  0
LINE
  5
87
  8
0
  6
CONTINUOUS
 62
     7
 10
591.9734455251
 20
-356.2205551221
 30
0.0
 11
591.9734455251
 21
-357.3186310037
 31
0.0
  0
LINE
  5
88
  8
0
  6
CONTINUOUS
 62
     7
 10
590.4734350347
 20
817.1813854919
 30
0.0
 11
591.9734455251
 21
817.1813854919
 31
0.0
  0
LINE
  5
89
  8
0
  6
CONTINUOUS
 62
     7
 10
590.4734350347
 20
817.1813854919
 30
0.0
 11
590.4734350347
 21
816.0833487258
 31
0.0
  0
LINE
  5
8A
  8
0
  6
CONTINUOUS
 62
     7
 10
591.9734455251
 20
817.1813854919
 30
0.0
 11
591.9734455251
 21
816.0833487258
 31
0.0
  0
LINE
  5
8B
  8
0
  6
CONTINUOUS
 62
     7
 10
588.3521355295
 20
-360.3186314954
 30
0.0
 11
588.3521355295
 21
-358.8186303182
 31
0.0
  0
LINE
  5
8C
  8
0
  6
CONTINUOUS
 62
     7
 10
588.3521355295
 20
-360.3186314954
 30
0.0
 11
587.8753579759
 21
-360.3186314954
 31
0.0
  0
LINE
  5
8D
  8
0
  6
CONTINUOUS
 62
     7
 10
588.3521355295
 20
-358.8186303182
 30
0.0
 11
587.8753579759
 21
-358.8186303182
 31
0.0
  0
LINE
  5
8E
  8
0
  6
CONTINUOUS
 62
     7
 10
-1.4052473403
 20
-360.3186314954
 30
0.0
 11
-1.4052473403
 21
-358.8186303182
 31
0.0
  0
LINE
  5
8F
  8
0
  6
CONTINUOUS
 62
     7
 10
-0.9284697867
 20
-358.8186303182
 30
0.0
 11
-1.4052473403
 21
-358.8186303182
 31
0.0
  0
LINE
  5
90
  8
0
  6
CONTINUOUS
 62
     7
 10
-0.9284697867
 20
-360.3186314954
 30
0.0
 11
-1.4052473403
 21
-360.3186314954
 31
0.0
  0
LINE
  5
91
  8
0
  6
CONTINUOUS
 62
     7
 10
588.9734543466
 20
-358.8186303182
 30
0.0
 11
588.3521355295
 21
-358.8186303182
 31
0.0
  0
LINE
  5
92
  8
0
  6
CONTINUOUS
 62
     7
 10
588.9734543466
 20
-360.3186314954
 30
0.0
 11
588.9734543466
 21
-358.8186303182
 31
0.0
  0
LINE
  5
93
  8
0
  6
CONTINUOUS
 62
     7
 10
588.9734543466
 20
-360.3186314954
 30
0.0
 11
588.3521355295
 21
-360.3186314954
 31
0.0
  0
LINE
  5
94
  8
0
  6
CONTINUOUS
 62
     7
 10
588.9734543466
 20
818.6813959823
 30
0.0
 11
588.9734543466
 21
820.1814064727
 31
0.0
  0
LINE
  5
95
  8
0
  6
CONTINUOUS
 62
     7
 10
588.3521355295
 20
820.1814064727
 30
0.0
 11
588.9734543466
 21
820.1814064727
 31
0.0
  0
LINE
  5
96
  8
0
  6
CONTINUOUS
 62
     7
 10
588.3521355295
 20
818.6813959823
 30
0.0
 11
588.9734543466
 21
818.6813959823
 31
0.0
  0
LINE
  5
97
  8
0
  6
CONTINUOUS
 62
     7
 10
-2.0265661574
 20
818.6813959823
 30
0.0
 11
-1.4052473403
 21
818.6813959823
 31
0.0
  0
LINE
  5
98
  8
0
  6
CONTINUOUS
 62
     7
 10
-2.0265661574
 20
820.1814064727
 30
0.0
 11
-2.0265661574
 21
818.6813959823
 31
0.0
  0
LINE
  5
99
  8
0
  6
CONTINUOUS
 62
     7
 10
-2.0265661574
 20
820.1814064727
 30
0.0
 11
-1.4052473403
 21
820.1814064727
 31
0.0
  0
LINE
  5
9A
  8
0
  6
CONTINUOUS
 62
     7
 10
-1.4052473403
 20
-360.3186314954
 30
0.0
 11
-2.0265661574
 21
-360.3186314954
 31
0.0
  0
LINE
  5
9B
  8
0
  6
CONTINUOUS
 62
     7
 10
-2.0265661574
 20
-358.8186303182
 30
0.0
 11
-2.0265661574
 21
-360.3186314954
 31
0.0
  0
LINE
  5
9C
  8
0
  6
CONTINUOUS
 62
     7
 10
-1.4052473403
 20
-358.8186303182
 30
0.0
 11
-2.0265661574
 21
-358.8186303182
 31
0.0
  0
ARC
  5
9D
  8
0
  6
CONTINUOUS
 62
     7
 10
588.9734486786
 20
817.181409626
 30
0.0
 40
1.499986356284375
 50
359.9990781352
 51
89.9997834966
  0
ARC
  5
9E
  8
0
  6
CONTINUOUS
 62
     7
 10
588.9733773272
 20
817.1813382755
 30
0.0
 40
3.000068198262759
 50
0.0009017471
 51
89.9985290717
  0
ARC
  5
9F
  8
0
  6
CONTINUOUS
 62
     7
 10
-2.0263504821
 20
817.1811996209
 30
0.0
 40
3.000206859589374
 50
90.0041188112
 51
179.9964503701
  0
ARC
  5
A0
  8
0
  6
CONTINUOUS
 62
     7
 10
-2.026543469
 20
817.181392606
 30
0.0
 40
1.500003376535267
 50
90.000866632
 51
180.0002717362
  0
ARC
  5
A1
  8
0
  6
CONTINUOUS
 62
     7
 10
-2.0265461332
 20
-357.318629606
 30
0.0
 40
1.500000712319963
 50
180.0000533859
 51
269.9992351313
  0
ARC
  5
A2
  8
0
  6
CONTINUOUS
 62
     7
 10
-2.0265479982
 20
-357.3186221577
 30
0.0
 40
3.000009337752707
 50
180.0001689449
 51
269.9996531854
  0
ARC
  5
A3
  8
0
  6
CONTINUOUS
 62
     7
 10
588.9734561398
 20
-357.3186421101
 30
0.0
 40
2.999989385280653
 50
269.9999657513
 51
0.0002121185
  0
ARC
  5
A4
  8
0
  6
CONTINUOUS
 62
     7
 10
588.9734628972
 20
-357.3186581806
 30
0.0
 40
1.499972137690928
 50
269.9996733831
 51
0.0010380996
  0
LINE
  5
A5
  8
0
  6
CONTINUOUS
 62
     7
 10
-1.7006479598
 20
816.3010248886
 30
0.0
 11
-3.3230863906
 21
817.9234633194
 31
0.0
  0
LINE
  5
A6
  8
0
  6
CONTINUOUS
 62
     7
 10
589.7211052083
 20
818.4745678649
 30
0.0
 11
588.0969680452
 21
816.8504605041
 31
0.0
  0
LINE
  5
A7
  8
0
  6
CONTINUOUS
 62
     7
 10
-4.5765720702
 20
819.4511303649
 30
0.0
 11
-4.322060237
 21
819.0557131515
 31
0.0
  0
LINE
  5
A8
  8
0
  6
CONTINUOUS
 62
     7
 10
-4.5765720702
 20
819.066203569
 30
0.0
 11
-4.5765720702
 21
819.4511303649
 31
0.0
  0
ARC
  5
A9
  8
0
  6
CONTINUOUS
 62
     7
 10
-28.8633767531
 20
810.1582136084
 30
0.0
 40
26.00398399380524
 50
20.9384666841
 51
26.3039010192
  0
LINE
  5
AA
  8
0
  6
CONTINUOUS
 62
     7
 10
-5.5519424773
 20
821.6814169632
 30
0.0
 11
591.3988269471
 21
821.6814169632
 31
0.0
  0
ARC
  5
AB
  8
0
  6
CONTINUOUS
 62
     7
 10
605.6886683933
 20
814.1036234397
 30
0.0
 40
16.17474955726514
 50
152.0633350396
 51
160.6942972571
  0
ARC
  5
AC
  8
0
  6
CONTINUOUS
 62
     7
 10
-14.0050142565
 20
811.8041071446
 30
0.0
 40
11.90099014944364
 50
37.6046477119
 51
44.7420489253
  0
LINE
  5
AD
  8
0
  6
CONTINUOUS
 62
     7
 10
-5.5519424773
 20
821.6814169632
 30
0.0
 11
-5.5519424773
 21
820.1814064727
 31
0.0
  0
LINE
  5
AE
  8
0
  6
CONTINUOUS
 62
     7
 10
591.3988269471
 20
820.1814064727
 30
0.0
 11
591.3988269471
 21
821.6814169632
 31
0.0
  0
ARC
  5
AF
  8
0
  6
CONTINUOUS
 62
     7
 10
594.3432571462
 20
816.9299716537
 30
0.0
 40
4.386513145955256
 50
132.1633186881
 51
143.5068313047
  0
LINE
  5
B0
  8
0
  6
CONTINUOUS
 62
     7
 10
-5.5765591956
 20
820.1814064727
 30
0.0
 11
-5.5765591956
 21
821.6814169632
 31
0.0
  0
LINE
  5
B1
  8
0
  6
CONTINUOUS
 62
     7
 10
-5.5519424773
 20
821.6814169632
 30
0.0
 11
-5.5765591956
 21
821.6814169632
 31
0.0
  0
LINE
  5
B2
  8
0
  6
CONTINUOUS
 62
     7
 10
-5.5765591956
 20
820.1814064727
 30
0.0
 11
-5.5519424773
 21
820.1814064727
 31
0.0
  0
LINE
  5
B3
  8
0
  6
CONTINUOUS
 62
     7
 10
591.4234436654
 20
821.6814169632
 30
0.0
 11
591.4234436654
 21
820.1814064727
 31
0.0
  0
LINE
  5
B4
  8
0
  6
CONTINUOUS
 62
     7
 10
591.3988269471
 20
821.6814169632
 30
0.0
 11
591.4234436654
 21
821.6814169632
 31
0.0
  0
LINE
  5
B5
  8
0
  6
CONTINUOUS
 62
     7
 10
591.3988269471
 20
820.1814064727
 30
0.0
 11
591.4234436654
 21
820.1814064727
 31
0.0
  0
LINE
  5
B6
  8
0
  6
CONTINUOUS
 62
     7
 10
58.4953046941
 20
281.974113916
 30
0.0
 11
56.0123689079
 21
281.9689283119
 31
0.0
  0
LINE
  5
B7
  8
0
  6
CONTINUOUS
 62
     7
 10
45.9345049762
 20
281.9689283119
 30
0.0
 11
43.45156919
 21
281.974113916
 31
0.0
  0
LINE
  5
B8
  8
0
  6
CONTINUOUS
 62
     7
 10
43.4520013236
 20
277.9461512313
 30
0.0
 11
45.9353096389
 21
277.9510388122
 31
0.0
  0
LINE
  5
B9
  8
0
  6
CONTINUOUS
 62
     7
 10
56.0115791463
 20
277.9509792076
 30
0.0
 11
58.4948874616
 21
277.9461512313
 31
0.0
  0
ARC
  5
BA
  8
0
  6
CONTINUOUS
 62
     7
 10
50.9733744269
 20
279.9314154145
 30
0.0
 40
5.000067116328477
 50
270.0007163612
 51
338.261634464
  0
ARC
  5
BB
  8
0
  6
CONTINUOUS
 62
     7
 10
50.973528122
 20
279.9314357191
 30
0.0
 40
5.000087421369273
 50
201.7385232458
 51
269.9989551731
  0
ARC
  5
BC
  8
0
  6
CONTINUOUS
 62
     7
 10
55.9894164968
 20
277.9313692795
 30
0.0
 40
0.4000000000008868
 50
89.9999999997
 51
158.2615392082
  0
ARC
  5
BD
  8
0
  6
CONTINUOUS
 62
     7
 10
45.9574675336
 20
277.9313692795
 30
0.0
 40
0.4000000000008868
 50
21.7384607918
 51
90.0000000003
  0
LINE
  5
BE
  8
0
  6
CONTINUOUS
 62
     7
 10
58.442882409
 20
278.3313760505
 30
0.0
 11
55.9894211196
 21
278.3313760505
 31
0.0
  0
LINE
  5
BF
  8
0
  6
CONTINUOUS
 62
     7
 10
45.9574676656
 20
278.3313760505
 30
0.0
 11
43.5040063762
 21
278.3313760505
 31
0.0
  0
ARC
  5
C0
  8
0
  6
CONTINUOUS
 62
     7
 10
50.9734443926
 20
280.0490874233
 30
0.0
 40
13.75555877206524
 50
227.897128071
 51
312.102871929
  0
ARC
  5
C1
  8
0
  6
CONTINUOUS
 62
     7
 10
58.4428858447
 20
278.8313696892
 30
0.0
 40
0.4999936386928042
 50
269.9996062942
 51
351.6201352819
  0
ARC
  5
C2
  8
0
  6
CONTINUOUS
 62
     7
 10
43.5040315087
 20
278.8314200325
 30
0.0
 40
0.5000439826358296
 50
188.3848456687
 51
269.9971202812
  0
ARC
  5
C3
  8
0
  6
CONTINUOUS
 62
     7
 10
50.9734951507
 20
279.9313595871
 30
0.0
 40
5.000038779731462
 50
90.0006670173
 51
158.2618545638
  0
ARC
  5
C4
  8
0
  6
CONTINUOUS
 62
     7
 10
50.9733944002
 20
279.9313607165
 30
0.0
 40
5.000037650232334
 50
21.7381366648
 51
89.99951251
  0
LINE
  5
C5
  8
0
  6
CONTINUOUS
 62
     7
 10
43.5040063762
 20
281.5313706146
 30
0.0
 11
45.9574676656
 21
281.5313706146
 31
0.0
  0
ARC
  5
C6
  8
0
  6
CONTINUOUS
 62
     7
 10
45.9574675336
 20
281.9313692795
 30
0.0
 40
0.4000000000005273
 50
296.7075131236
 51
338.2615392082
  0
ARC
  5
C7
  8
0
  6
CONTINUOUS
 62
     7
 10
54.0385235002
 20
281.853014947
 30
0.0
 40
1.977234583458523
 50
350.6378706167
 51
3.362563886
  0
LINE
  5
C8
  8
0
  6
CONTINUOUS
 62
     7
 10
55.9894211196
 20
281.5313706146
 30
0.0
 11
58.442882409
 21
281.5313706146
 31
0.0
  0
ARC
  5
C9
  8
0
  6
CONTINUOUS
 62
     7
 10
55.9894164968
 20
281.9313692795
 30
0.0
 40
0.400000000000432
 50
201.7384607918
 51
270.0000000003
  0
LINE
  5
CA
  8
0
  6
CONTINUOUS
 62
     7
 10
58.937541356
 20
281.1042437301
 30
0.0
 11
58.937541356
 21
278.758502935
 31
0.0
  0
ARC
  5
CB
  8
0
  6
CONTINUOUS
 62
     7
 10
58.4428989944
 20
281.0313922047
 30
0.0
 40
0.4999784101792327
 50
8.3783577957
 51
90.0019006283
  0
ARC
  5
CC
  8
0
  6
CONTINUOUS
 62
     7
 10
43.5040307378
 20
281.0313275254
 30
0.0
 40
0.5000430897701921
 50
90.0027913914
 51
171.6152426587
  0
ARC
  5
CD
  8
0
  6
CONTINUOUS
 62
     7
 10
51.0177053199
 20
279.6799583945
 30
0.0
 40
13.45372342934007
 50
313.017041225
 51
69.5934314495
  0
ARC
  5
CE
  8
0
  6
CONTINUOUS
 62
     7
 10
50.9291566787
 20
279.6799668637
 30
0.0
 40
13.45371134740871
 50
110.4065336864
 51
226.9830667888
  0
ARC
  5
CF
  8
0
  6
CONTINUOUS
 62
     7
 10
50.973436942
 20
279.6517454917
 30
0.0
 40
13.49563834291621
 50
69.4590487307
 51
110.5409512693
  0
LINE
  5
D0
  8
0
  6
CONTINUOUS
 62
     7
 10
33.8243759775
 20
188.055134748
 30
0.0
 11
33.8243759775
 21
271.9076046691
 31
0.0
  0
LINE
  5
D1
  8
0
  6
CONTINUOUS
 62
     7
 10
68.1224979066
 20
271.9076046691
 30
0.0
 11
68.1224979066
 21
188.055134748
 31
0.0
  0
ARC
  5
D2
  8
0
  6
CONTINUOUS
 62
     7
 10
35.4602513375
 20
156.1860841992
 30
0.0
 40
1.571811474204398
 50
248.5021729822
 51
273.0586019247
  0
ARC
  5
D3
  8
0
  6
CONTINUOUS
 62
     7
 10
66.4866241071
 20
303.776573029
 30
0.0
 40
1.571892834432161
 50
68.5028184046
 51
93.0579565023
  0
LINE
  5
D4
  8
0
  6
CONTINUOUS
 62
     7
 10
33.8243759775
 20
188.055134748
 30
0.0
 11
34.1839707994
 21
154.0096173034
 31
0.0
  0
LINE
  5
D5
  8
0
  6
CONTINUOUS
 62
     7
 10
67.7629030847
 20
305.9531221138
 30
0.0
 11
68.1224979066
 21
271.9076046691
 31
0.0
  0
LINE
  5
D6
  8
0
  6
CONTINUOUS
 62
     7
 10
67.7629030847
 20
154.0096173034
 30
0.0
 11
68.1224979066
 21
188.055134748
 31
0.0
  0
LINE
  5
D7
  8
0
  6
CONTINUOUS
 62
     7
 10
33.8243759775
 20
271.9076046691
 30
0.0
 11
34.1839707994
 21
305.9531221138
 31
0.0
  0
ARC
  5
D8
  8
0
  6
CONTINUOUS
 62
     7
 10
50.973436942
 20
-39.2167551131
 30
0.0
 40
347.7388075888623
 50
87.8202300162
 51
92.1797699838
  0
ARC
  5
D9
  8
0
  6
CONTINUOUS
 62
     7
 10
50.973436942
 20
499.179347166
 30
0.0
 40
347.7386603312053
 50
267.8202290927
 51
272.1797709073
  0
ARC
  5
DA
  8
0
  6
CONTINUOUS
 62
     7
 10
50.9734420152
 20
330.3813692795
 30
0.0
 40
180.0000000000178
 50
265.5843621468
 51
274.4156379362
  0
ARC
  5
DB
  8
0
  6
CONTINUOUS
 62
     7
 10
50.9734420152
 20
129.5813692795
 30
0.0
 40
180.0000000000178
 50
85.5843602115
 51
94.415639811
  0
ARC
  5
DC
  8
0
  6
CONTINUOUS
 62
     7
 10
37.3544788028
 20
154.0778180409
 30
0.0
 40
3.171211655560411
 50
181.2323099587
 51
265.6696294945
  0
ARC
  5
DD
  8
0
  6
CONTINUOUS
 62
     7
 10
64.5924555823
 20
305.8849645749
 30
0.0
 40
3.171165137424254
 50
1.2315473567
 51
85.6703920965
  0
ARC
  5
DE
  8
0
  6
CONTINUOUS
 62
     7
 10
64.5927922566
 20
154.0774570488
 30
0.0
 40
3.170821725815921
 50
274.3237066915
 51
358.7740629937
  0
ARC
  5
DF
  8
0
  6
CONTINUOUS
 62
     7
 10
37.3540764501
 20
305.8853025409
 30
0.0
 40
3.170801220384122
 50
94.3236408854
 51
178.7744196615
  0
LINE
  5
E0
  8
0
  6
CONTINUOUS
 62
     7
 10
43.0558390521
 20
278.7860998855
 30
0.0
 11
43.1300021314
 21
278.3564100013
 31
0.0
  0
POLYLINE
  5
E1
  8
0
  6
CONTINUOUS
 62
     7
 66
     1
 10
0.0
 20
0.0
 30
0.0
  0
VERTEX
  5
5D7
  8
0
  6
CONTINUOUS
 62
     7
 10
58.8205821418
 20
278.3749470459
 30
0.0
  0
VERTEX
  5
5D8
  8
0
  6
CONTINUOUS
 62
     7
 10
58.9265442991
 20
279.0664205299
 30
0.0
  0
VERTEX
  5
5D9
  8
0
  6
CONTINUOUS
 62
     7
 10
58.9651234054
 20
280.2961239563
 30
0.0
  0
SEQEND
  5
5DA
  8
0
  6
CONTINUOUS
 62
     7
  0
POLYLINE
  5
E2
  8
0
  6
CONTINUOUS
 62
     7
 66
     1
 10
0.0
 20
0.0
 30
0.0
  0
VERTEX
  5
5DB
  8
0
  6
CONTINUOUS
 62
     7
 10
58.9519954824
 20
280.5167207466
 30
0.0
  0
VERTEX
  5
5DC
  8
0
  6
CONTINUOUS
 62
     7
 10
58.9265442991
 20
280.7963261352
 30
0.0
  0
VERTEX
  5
5DD
  8
0
  6
CONTINUOUS
 62
     7
 10
58.8188238048
 20
281.4966211067
 30
0.0
  0
SEQEND
  5
5DE
  8
0
  6
CONTINUOUS
 62
     7
  0
LINE
  5
E3
  8
0
  6
CONTINUOUS
 62
     7
 10
43.1123740577
 20
281.4157972084
 30
0.0
 11
43.0627829933
 21
281.1236152397
 31
0.0
  0
LINE
  5
E4
  8
0
  6
CONTINUOUS
 62
     7
 10
58.2234479093
 20
278.4313926445
 30
0.0
 11
58.2234479093
 21
281.4313540206
 31
0.0
  0
LINE
  5
E5
  8
0
  6
CONTINUOUS
 62
     7
 10
55.8457888269
 20
281.4313540206
 30
0.0
 11
55.7431347274
 21
281.4313540206
 31
0.0
  0
LINE
  5
E6
  8
0
  6
CONTINUOUS
 62
     7
 10
55.7431347274
 20
281.4313540206
 30
0.0
 11
55.6178606653
 21
281.7832002388
 31
0.0
  0
LINE
  5
E7
  8
0
  6
CONTINUOUS
 62
     7
 10
46.3510818385
 20
281.8376192794
 30
0.0
 11
46.2037391567
 21
281.4313540206
 31
0.0
  0
LINE
  5
E8
  8
0
  6
CONTINUOUS
 62
     7
 10
46.2037391567
 20
281.4313540206
 30
0.0
 11
46.1010999584
 21
281.4313540206
 31
0.0
  0
LINE
  5
E9
  8
0
  6
CONTINUOUS
 62
     7
 10
46.1010999584
 20
278.4313926445
 30
0.0
 11
46.2037391567
 21
278.4313926445
 31
0.0
  0
LINE
  5
EA
  8
0
  6
CONTINUOUS
 62
     7
 10
46.2037391567
 20
278.4313926445
 30
0.0
 11
46.32902812
 21
278.0795464263
 31
0.0
  0
LINE
  5
EB
  8
0
  6
CONTINUOUS
 62
     7
 10
55.6178606653
 20
278.0795464263
 30
0.0
 11
55.7431347274
 21
278.4313926445
 31
0.0
  0
LINE
  5
EC
  8
0
  6
CONTINUOUS
 62
     7
 10
55.7431347274
 20
278.4313926445
 30
0.0
 11
55.8457888269
 21
278.4313926445
 31
0.0
  0
LINE
  5
ED
  8
0
  6
CONTINUOUS
 62
     7
 10
43.7234408759
 20
281.4313540206
 30
0.0
 11
43.7234408759
 21
278.4313926445
 31
0.0
  0
CIRCLE
  5
EE
  8
0
  6
CONTINUOUS
 62
     7
 10
50.9734420152
 20
279.9313692795
 30
0.0
 40
1.500000000000007
  0
LINE
  5
EF
  8
0
  6
CONTINUOUS
 62
     7
 10
564.9234570169
 20
822.0732578979
 30
0.0
 11
574.2734290265
 21
822.0732578979
 31
0.0
  0
LINE
  5
F0
  8
0
  6
CONTINUOUS
 62
     7
 10
555.5734552049
 20
822.0732578979
 30
0.0
 11
564.9234570169
 21
822.0732578979
 31
0.0
  0
LINE
  5
F1
  8
0
  6
CONTINUOUS
 62
     7
 10
11.5734554433
 20
822.0732578979
 30
0.0
 11
30.273429265
 21
822.0732578979
 31
0.0
  0
LINE
  5
F2
  8
0
  6
CONTINUOUS
 62
     7
 10
-5.0765656329
 20
-375.3186306945
 30
0.0
 11
-5.0765656329
 21
-374.8186306125
 31
0.0
  0
LINE
  5
F3
  8
0
  6
CONTINUOUS
 62
     7
 10
-5.0765656329
 20
-374.8186306125
 30
0.0
 11
9.4234563016
 21
-360.3186314954
 31
0.0
  0
LINE
  5
F4
  8
0
  6
CONTINUOUS
 62
     7
 10
576.4234281682
 20
-360.3186314954
 30
0.0
 11
590.9234501027
 21
-374.8186306125
 31
0.0
  0
LINE
  5
F5
  8
0
  6
CONTINUOUS
 62
     7
 10
590.9234501027
 20
-374.8186306125
 30
0.0
 11
590.9234501027
 21
-375.3186306945
 31
0.0
  0
LINE
  5
F6
  8
0
  6
CONTINUOUS
 62
     7
 10
590.9234501027
 20
-375.3186306945
 30
0.0
 11
590.9234501027
 21
-378.3186307206
 31
0.0
  0
LINE
  5
F7
  8
0
  6
CONTINUOUS
 62
     7
 10
590.9234501027
 20
-378.3186307206
 30
0.0
 11
-5.0765656329
 21
-378.3186307206
 31
0.0
  0
LINE
  5
F8
  8
0
  6
CONTINUOUS
 62
     7
 10
-5.0765656329
 20
-378.3186307206
 30
0.0
 11
-5.0765656329
 21
-375.3186306945
 31
0.0
  0
LINE
  5
F9
  8
0
  6
CONTINUOUS
 62
     7
 10
-2.0996116496
 20
816.0645136581
 30
0.0
 11
-3.4933470584
 21
817.4633154617
 31
0.0
  0
LINE
  5
FA
  8
0
  6
CONTINUOUS
 62
     7
 10
-4.0765487052
 20
-373.1854982703
 30
0.0
 11
8.743486514
 21
-360.3186314954
 31
0.0
  0
POLYLINE
  5
FB
  8
0
  6
CONTINUOUS
 62
     7
 66
     1
 10
0.0
 20
0.0
 30
0.0
  0
VERTEX
  5
5DF
  8
0
  6
CONTINUOUS
 62
     7
 10
-4.0765487052
 20
-373.1854982703
 30
0.0
  0
VERTEX
  5
5E0
  8
0
  6
CONTINUOUS
 62
     7
 10
-4.7738336421
 20
-374.1122159204
 30
0.0
  0
VERTEX
  5
5E1
  8
0
  6
CONTINUOUS
 62
     7
 10
-5.3112589217
 20
-375.0389333377
 30
0.0
  0
SEQEND
  5
5E2
  8
0
  6
CONTINUOUS
 62
     7
  0
LINE
  5
FC
  8
0
  6
CONTINUOUS
 62
     7
 10
-6.5459989405
 20
-375.0389333377
 30
0.0
 11
-5.3112589217
 21
-375.0389333377
 31
0.0
  0
ARC
  5
FD
  8
0
  6
CONTINUOUS
 62
     7
 10
2.2265877625
 20
-384.1553949586
 30
0.0
 40
12.6518047204187
 50
119.88102266
 51
133.8987567074
  0
POLYLINE
  5
FE
  8
0
  6
CONTINUOUS
 62
     7
 66
     1
 10
0.0
 20
0.0
 30
0.0
  0
VERTEX
  5
5E3
  8
0
  6
CONTINUOUS
 62
     7
 10
-6.5459989405
 20
-375.0389333377
 30
0.0
  0
VERTEX
  5
5E4
  8
0
  6
CONTINUOUS
 62
     7
 10
-6.9408499098
 20
-375.1664730749
 30
0.0
  0
VERTEX
  5
5E5
  8
0
  6
CONTINUOUS
 62
     7
 10
-7.076569686
 20
-375.294012812
 30
0.0
  0
SEQEND
  5
5E6
  8
0
  6
CONTINUOUS
 62
     7
  0
LINE
  5
FF
  8
0
  6
CONTINUOUS
 62
     7
 10
-7.076569686
 20
-375.294012812
 30
0.0
 11
-7.076569686
 21
819.9935326324
 31
0.0
  0
ARC
  5
100
  8
0
  6
CONTINUOUS
 62
     7
 10
-5.8361042509
 20
820.8476510379
 30
0.0
 40
1.506078598988958
 50
214.5492271828
 51
265.4372939319
  0
POLYLINE
  5
101
  8
0
  6
CONTINUOUS
 62
     7
 66
     1
 10
0.0
 20
0.0
 30
0.0
  0
VERTEX
  5
5E7
  8
0
  6
CONTINUOUS
 62
     7
 10
-5.9559129573
 20
819.3463453994
 30
0.0
  0
VERTEX
  5
5E8
  8
0
  6
CONTINUOUS
 62
     7
 10
-5.0727807379
 20
818.6974892364
 30
0.0
  0
VERTEX
  5
5E9
  8
0
  6
CONTINUOUS
 62
     7
 10
-4.7317229605
 20
818.47540233
 30
0.0
  0
SEQEND
  5
5EA
  8
0
  6
CONTINUOUS
 62
     7
  0
LINE
  5
102
  8
0
  6
CONTINUOUS
 62
     7
 10
-5.0162457324
 20
819.3463453994
 30
0.0
 11
-4.5747839308
 21
818.697727655
 31
0.0
  0
LINE
  5
103
  8
0
  6
CONTINUOUS
 62
     7
 10
-5.9559129573
 20
819.3463453994
 30
0.0
 11
-5.0162457324
 21
819.3463453994
 31
0.0
  0
ARC
  5
104
  8
0
  6
CONTINUOUS
 62
     7
 10
-4.6597695502
 20
820.221114896
 30
0.0
 40
0.9446147048094033
 50
193.9412013908
 51
247.8286767792
  0
LINE
  5
105
  8
0
  6
CONTINUOUS
 62
     7
 10
-5.5765591956
 20
819.9935326324
 30
0.0
 11
-7.076569686
 21
819.9935326324
 31
0.0
  0
POLYLINE
  5
106
  8
0
  6
CONTINUOUS
 62
     7
 66
     1
 10
0.0
 20
0.0
 30
0.0
  0
VERTEX
  5
5EB
  8
0
  6
CONTINUOUS
 62
     7
 10
-5.3112589217
 20
-375.0389333377
 30
0.0
  0
VERTEX
  5
5EC
  8
0
  6
CONTINUOUS
 62
     7
 10
-5.5086993075
 20
-375.1664730749
 30
0.0
  0
VERTEX
  5
5ED
  8
0
  6
CONTINUOUS
 62
     7
 10
-5.5765591956
 20
-375.294012812
 30
0.0
  0
SEQEND
  5
5EE
  8
0
  6
CONTINUOUS
 62
     7
  0
LINE
  5
107
  8
0
  6
CONTINUOUS
 62
     7
 10
-7.076569686
 20
-375.294012812
 30
0.0
 11
-5.5765591956
 21
-375.294012812
 31
0.0
  0
LINE
  5
108
  8
0
  6
CONTINUOUS
 62
     7
 10
-5.5765591956
 20
820.1814064727
 30
0.0
 11
-7.076569686
 21
820.1814064727
 31
0.0
  0
LINE
  5
109
  8
0
  6
CONTINUOUS
 62
     7
 10
-5.5765591956
 20
819.9935326324
 30
0.0
 11
-5.5765591956
 21
820.1814064727
 31
0.0
  0
LINE
  5
10A
  8
0
  6
CONTINUOUS
 62
     7
 10
-7.076569686
 20
819.9935326324
 30
0.0
 11
-7.076569686
 21
820.1814064727
 31
0.0
  0
LINE
  5
10B
  8
0
  6
CONTINUOUS
 62
     7
 10
-7.076569686
 20
-375.3186306945
 30
0.0
 11
-5.5765591956
 21
-375.3186306945
 31
0.0
  0
LINE
  5
10C
  8
0
  6
CONTINUOUS
 62
     7
 10
-5.5765591956
 20
-375.3186306945
 30
0.0
 11
-5.5765591956
 21
-375.294012812
 31
0.0
  0
LINE
  5
10D
  8
0
  6
CONTINUOUS
 62
     7
 10
-7.076569686
 20
-375.294012812
 30
0.0
 11
-7.076569686
 21
-375.3186306945
 31
0.0
  0
ARC
  5
10E
  8
0
  6
CONTINUOUS
 62
     7
 10
-4.2043299099
 20
-375.3698686528
 30
0.0
 40
1.373185544969115
 50
177.8616142414
 51
230.5658142968
  0
LINE
  5
10F
  8
0
  6
CONTINUOUS
 62
     7
 10
-5.4787181712
 20
-377.9707956797
 30
0.0
 11
-5.0765656329
 21
-377.2101312439
 31
0.0
  0
ARC
  5
110
  8
0
  6
CONTINUOUS
 62
     7
 10
-4.076527622
 20
-375.3186052547
 30
0.0
 40
3.000042064130418
 50
180.000485857
 51
242.1349720671
  0
LINE
  5
111
  8
0
  6
CONTINUOUS
 62
     7
 10
-5.4787181712
 20
-377.9707962327
 30
0.0
 11
-5.0765656329
 21
-378.1243486388
 31
0.0
  0
POLYLINE
  5
112
  8
0
  6
CONTINUOUS
 62
     7
 66
     1
 10
0.0
 20
0.0
 30
0.0
  0
VERTEX
  5
5EF
  8
0
  6
CONTINUOUS
 62
     7
 10
-5.5765591956
 20
-375.3186306945
 30
0.0
  0
VERTEX
  5
5F0
  8
0
  6
CONTINUOUS
 62
     7
 10
-5.4623864985
 20
-375.2971841982
 30
0.0
  0
VERTEX
  5
5F1
  8
0
  6
CONTINUOUS
 62
     7
 10
-5.1409088469
 20
-375.2759800787
 30
0.0
  0
SEQEND
  5
5F2
  8
0
  6
CONTINUOUS
 62
     7
  0
LINE
  5
113
  8
0
  6
CONTINUOUS
 62
     7
 10
589.923433175
 20
818.0486330734
 30
0.0
 11
588.3967198037
 21
816.5163168655
 31
0.0
  0
LINE
  5
114
  8
0
  6
CONTINUOUS
 62
     7
 10
577.1305478715
 20
-360.3186314954
 30
0.0
 11
589.923433175
 21
-373.1115237838
 31
0.0
  0
ARC
  5
115
  8
0
  6
CONTINUOUS
 62
     7
 10
584.3197693669
 20
-383.1021200563
 30
0.0
 40
11.45482701541635
 50
44.4560306351
 51
60.7122020001
  0
LINE
  5
116
  8
0
  6
CONTINUOUS
 62
     7
 10
591.2097610139
 20
-375.0795979081
 30
0.0
 11
592.4960888528
 21
-375.0795979081
 31
0.0
  0
POLYLINE
  5
117
  8
0
  6
CONTINUOUS
 62
     7
 66
     1
 10
0.0
 20
0.0
 30
0.0
  0
VERTEX
  5
5F3
  8
0
  6
CONTINUOUS
 62
     7
 10
589.923433175
 20
-373.1115237838
 30
0.0
  0
VERTEX
  5
5F4
  8
0
  6
CONTINUOUS
 62
     7
 10
590.6625605726
 20
-374.0955610788
 30
0.0
  0
VERTEX
  5
5F5
  8
0
  6
CONTINUOUS
 62
     7
 10
591.2097610139
 20
-375.0795979081
 30
0.0
  0
SEQEND
  5
5F6
  8
0
  6
CONTINUOUS
 62
     7
  0
ARC
  5
118
  8
0
  6
CONTINUOUS
 62
     7
 10
591.6829887208
 20
820.8476510379
 30
0.0
 40
1.506078598988954
 50
274.5627060681
 51
325.4507728172
  0
LINE
  5
119
  8
0
  6
CONTINUOUS
 62
     7
 10
592.9234541559
 20
819.9935326324
 30
0.0
 11
592.9234541559
 21
-375.294012812
 31
0.0
  0
POLYLINE
  5
11A
  8
0
  6
CONTINUOUS
 62
     7
 66
     1
 10
0.0
 20
0.0
 30
0.0
  0
VERTEX
  5
5F7
  8
0
  6
CONTINUOUS
 62
     7
 10
592.4960888528
 20
-375.0795979081
 30
0.0
  0
VERTEX
  5
5F8
  8
0
  6
CONTINUOUS
 62
     7
 10
592.8146160745
 20
-375.1868054765
 30
0.0
  0
VERTEX
  5
5F9
  8
0
  6
CONTINUOUS
 62
     7
 10
592.9234541559
 20
-375.294012812
 30
0.0
  0
SEQEND
  5
5FA
  8
0
  6
CONTINUOUS
 62
     7
  0
LINE
  5
11B
  8
0
  6
CONTINUOUS
 62
     7
 10
591.8027974271
 20
819.3463453994
 30
0.0
 11
591.3152016305
 21
818.9881214843
 31
0.0
  0
LINE
  5
11C
  8
0
  6
CONTINUOUS
 62
     7
 10
590.8631302022
 20
819.3463453994
 30
0.0
 11
591.8027974271
 21
819.3463453994
 31
0.0
  0
ARC
  5
11D
  8
0
  6
CONTINUOUS
 62
     7
 10
590.5066540201
 20
820.221114896
 30
0.0
 40
0.9446147048093327
 50
292.1713232208
 51
346.0587986092
  0
LINE
  5
11E
  8
0
  6
CONTINUOUS
 62
     7
 10
592.9234541559
 20
819.9935326324
 30
0.0
 11
591.4234436654
 21
819.9935326324
 31
0.0
  0
LINE
  5
11F
  8
0
  6
CONTINUOUS
 62
     7
 10
591.4234436654
 20
-375.294012812
 30
0.0
 11
592.9234541559
 21
-375.294012812
 31
0.0
  0
POLYLINE
  5
120
  8
0
  6
CONTINUOUS
 62
     7
 66
     1
 10
0.0
 20
0.0
 30
0.0
  0
VERTEX
  5
5FB
  8
0
  6
CONTINUOUS
 62
     7
 10
591.2097610139
 20
-375.0795979081
 30
0.0
  0
VERTEX
  5
5FC
  8
0
  6
CONTINUOUS
 62
     7
 10
591.3690246248
 20
-375.1868054765
 30
0.0
  0
VERTEX
  5
5FD
  8
0
  6
CONTINUOUS
 62
     7
 10
591.4234436654
 20
-375.294012812
 30
0.0
  0
SEQEND
  5
5FE
  8
0
  6
CONTINUOUS
 62
     7
  0
LINE
  5
121
  8
0
  6
CONTINUOUS
 62
     7
 10
591.4234436654
 20
820.1814064727
 30
0.0
 11
591.4234436654
 21
819.9935326324
 31
0.0
  0
LINE
  5
122
  8
0
  6
CONTINUOUS
 62
     7
 10
592.9234541559
 20
820.1814064727
 30
0.0
 11
591.4234436654
 21
820.1814064727
 31
0.0
  0
LINE
  5
123
  8
0
  6
CONTINUOUS
 62
     7
 10
592.9234541559
 20
820.1814064727
 30
0.0
 11
592.9234541559
 21
819.9935326324
 31
0.0
  0
LINE
  5
124
  8
0
  6
CONTINUOUS
 62
     7
 10
591.4234436654
 20
-375.3186306945
 30
0.0
 11
592.9234541559
 21
-375.3186306945
 31
0.0
  0
LINE
  5
125
  8
0
  6
CONTINUOUS
 62
     7
 10
591.4234436654
 20
-375.294012812
 30
0.0
 11
591.4234436654
 21
-375.3186306945
 31
0.0
  0
LINE
  5
126
  8
0
  6
CONTINUOUS
 62
     7
 10
592.9234541559
 20
-375.3186306945
 30
0.0
 11
592.9234541559
 21
-375.294012812
 31
0.0
  0
LINE
  5
127
  8
0
  6
CONTINUOUS
 62
     7
 10
590.9234501027
 20
-376.9257780892
 30
0.0
 11
591.5083504819
 21
-377.8658025054
 31
0.0
  0
ARC
  5
128
  8
0
  6
CONTINUOUS
 62
     7
 10
590.0458636073
 20
-375.360522543
 30
0.0
 40
1.378216870985447
 50
309.5502720409
 51
1.7418128569
  0
ARC
  5
129
  8
0
  6
CONTINUOUS
 62
     7
 10
589.9233960316
 20
-375.3185945946
 30
0.0
 40
3.000058124430648
 50
301.8911985443
 51
359.9993105568
  0
LINE
  5
12A
  8
0
  6
CONTINUOUS
 62
     7
 10
591.5083504819
 20
-377.8658025054
 30
0.0
 11
590.9234501027
 21
-378.1252159766
 31
0.0
  0
POLYLINE
  5
12B
  8
0
  6
CONTINUOUS
 62
     7
 66
     1
 10
0.0
 20
0.0
 30
0.0
  0
VERTEX
  5
5FF
  8
0
  6
CONTINUOUS
 62
     7
 10
591.4234436654
 20
-375.3186306945
 30
0.0
  0
VERTEX
  5
600
  8
0
  6
CONTINUOUS
 62
     7
 10
591.3092709684
 20
-375.2971841982
 30
0.0
  0
VERTEX
  5
601
  8
0
  6
CONTINUOUS
 62
     7
 10
590.9877933168
 20
-375.2759800787
 30
0.0
  0
SEQEND
  5
602
  8
0
  6
CONTINUOUS
 62
     7
  0
ARC
  5
12C
  8
0
  6
CONTINUOUS
 62
     7
 10
1067.3637977737
 20
257.7717620445
 30
0.0
 40
279.9999999999779
 50
7.2582600318
 51
10.3102613261
  0
ARC
  5
12D
  8
0
  6
CONTINUOUS
 62
     7
 10
1067.3637977736
 20
202.1909765145
 30
0.0
 40
280.0000000002276
 50
349.689847532
 51
357.0
  0
ARC
  5
12E
  8
0
  6
CONTINUOUS
 62
     7
 10
537.0915148189
 20
229.9813692795
 30
0.0
 40
811.0000000004947
 50
357.0
 51
0.0
  0
ARC
  5
12F
  8
0
  6
CONTINUOUS
 62
     7
 10
537.0915148189
 20
229.9813692795
 30
0.0
 40
811.0000000004901
 50
0.0
 51
2.5676082653
  0
ARC
  5
130
  8
0
  6
CONTINUOUS
 62
     7
 10
1333.0915148189
 20
276.8246905712
 30
0.0
 40
32.99999999999997
 50
73.9885793219
 51
83.0379373089
  0
ARC
  5
131
  8
0
  6
CONTINUOUS
 62
     7
 10
1333.091514819
 20
183.1380479878
 30
0.0
 40
33.00000000000003
 50
276.9620626911
 51
286.0038114314
  0
ARC
  5
132
  8
0
  6
CONTINUOUS
 62
     7
 10
1345.1109666918
 20
292.3469684755
 30
0.0
 40
0.800000000000193
 50
21.3050835821
 51
89.368240118
  0
ARC
  5
133
  8
0
  6
CONTINUOUS
 62
     7
 10
1346.8827811251
 20
267.008841599
 30
0.0
 40
0.8000000000005993
 50
299.5405628497
 51
346.6949164185
  0
ARC
  5
134
  8
0
  6
CONTINUOUS
 62
     7
 10
1342.0537144352
 20
152.2101312531
 30
0.0
 40
0.8000233075589321
 50
284.5511000343
 51
350.061114004
  0
ARC
  5
135
  8
0
  6
CONTINUOUS
 62
     7
 10
1342.0536985235
 20
307.7525934843
 30
0.0
 40
0.8000415142642687
 50
9.9397248444
 51
75.4480611174
  0
ARC
  5
136
  8
0
  6
CONTINUOUS
 62
     7
 10
1316.2960849376
 20
281.1095701956
 30
0.0
 40
31.72857142857137
 50
7.7404456693
 51
21.3050835822
  0
ARC
  5
137
  8
0
  6
CONTINUOUS
 62
     7
 10
1316.7843802539
 20
274.1266218438
 30
0.0
 40
31.72857142862248
 50
346.6949164182
 51
0.7440974729
  0
LINE
  5
138
  8
0
  6
CONTINUOUS
 62
     7
 10
1315.8915209905
 20
-275.3186306014
 30
0.0
 11
1316.8915081159
 21
-275.3186306014
 31
0.0
  0
LINE
  5
139
  8
0
  6
CONTINUOUS
 62
     7
 10
1316.8915081159
 20
-265.3186326875
 30
0.0
 11
1315.8915209905
 21
-265.3186326875
 31
0.0
  0
LINE
  5
13A
  8
0
  6
CONTINUOUS
 62
     7
 10
1315.8915209905
 20
-235.3186240448
 30
0.0
 11
1316.8915081159
 21
-235.3186240448
 31
0.0
  0
LINE
  5
13B
  8
0
  6
CONTINUOUS
 62
     7
 10
1316.8915081159
 20
-225.3186335816
 30
0.0
 11
1315.8915209905
 21
-225.3186335816
 31
0.0
  0
LINE
  5
13C
  8
0
  6
CONTINUOUS
 62
     7
 10
1315.8915209905
 20
725.1813778625
 30
0.0
 11
1316.8915081159
 21
725.1813778625
 31
0.0
  0
LINE
  5
13D
  8
0
  6
CONTINUOUS
 62
     7
 10
1316.8915081159
 20
735.1813683258
 30
0.0
 11
1315.8915209905
 21
735.1813683258
 31
0.0
  0
LINE
  5
13E
  8
0
  6
CONTINUOUS
 62
     7
 10
1315.8915209905
 20
685.1814160095
 30
0.0
 11
1316.8915081159
 21
685.1814160095
 31
0.0
  0
LINE
  5
13F
  8
0
  6
CONTINUOUS
 62
     7
 10
1316.8915081159
 20
695.1814064727
 30
0.0
 11
1315.8915209905
 21
695.1814064727
 31
0.0
  0
LINE
  5
140
  8
0
  6
CONTINUOUS
 62
     7
 10
1315.8915209905
 20
204.9313554512
 30
0.0
 11
1316.8915081159
 21
204.9313554512
 31
0.0
  0
LINE
  5
141
  8
0
  6
CONTINUOUS
 62
     7
 10
1316.8915081159
 20
214.9313459144
 30
0.0
 11
1315.8915209905
 21
214.9313459144
 31
0.0
  0
LINE
  5
142
  8
0
  6
CONTINUOUS
 62
     7
 10
1315.8915209905
 20
244.9313769088
 30
0.0
 11
1316.8915081159
 21
244.9313769088
 31
0.0
  0
LINE
  5
143
  8
0
  6
CONTINUOUS
 62
     7
 10
1316.8915081159
 20
254.9313673721
 30
0.0
 11
1315.8915209905
 21
254.9313673721
 31
0.0
  0
LINE
  5
144
  8
0
  6
CONTINUOUS
 62
     7
 10
991.5415215627
 20
822.0732578979
 30
0.0
 11
991.5415215627
 21
821.6814169632
 31
0.0
  0
LINE
  5
145
  8
0
  6
CONTINUOUS
 62
     7
 10
1010.2415177361
 20
821.6814169632
 30
0.0
 11
1010.2415177361
 21
822.0732578979
 31
0.0
  0
ARC
  5
146
  8
0
  6
CONTINUOUS
 62
     7
 10
1000.8915152446
 20
783.1813692794
 30
0.0
 40
40.0
 50
76.4820489901
 51
103.5179510099
  0
LINE
  5
147
  8
0
  6
CONTINUOUS
 62
     7
 10
1241.5415141121
 20
822.0732578979
 30
0.0
 11
1241.5415141121
 21
821.6814169632
 31
0.0
  0
LINE
  5
148
  8
0
  6
CONTINUOUS
 62
     7
 10
1260.2415102855
 20
821.6814169632
 30
0.0
 11
1260.2415102855
 21
822.0732578979
 31
0.0
  0
ARC
  5
149
  8
0
  6
CONTINUOUS
 62
     7
 10
1250.8915152446
 20
783.1813692794
 30
0.0
 40
39.99999999999997
 50
76.4820489901
 51
103.5179510099
  0
POLYLINE
  5
14A
  8
0
  6
CONTINUOUS
 62
     7
 66
     1
 10
0.0
 20
0.0
 30
0.0
  0
VERTEX
  5
603
  8
0
  6
CONTINUOUS
 62
     7
 10
932.6915162936
 20
815.1814112411
 30
0.0
  0
VERTEX
  5
604
  8
0
  6
CONTINUOUS
 62
     7
 10
931.9849032298
 20
815.0045046554
 30
0.0
  0
VERTEX
  5
605
  8
0
  6
CONTINUOUS
 62
     7
 10
931.7446816102
 20
814.7926697479
 30
0.0
  0
SEQEND
  5
606
  8
0
  6
CONTINUOUS
 62
     7
  0
ARC
  5
14B
  8
0
  6
CONTINUOUS
 62
     7
 10
932.6915611824
 20
813.6813707632
 30
0.0
 40
3.000050968647995
 50
90.0008572988
 51
179.9994272911
  0
LINE
  5
14C
  8
0
  6
CONTINUOUS
 62
     7
 10
932.6915162936
 20
816.6814217315
 30
0.0
 11
932.6915162936
 21
815.1814112411
 31
0.0
  0
LINE
  5
14D
  8
0
  6
CONTINUOUS
 62
     7
 10
932.6915162936
 20
-360.3186314954
 30
0.0
 11
936.6915094987
 21
-360.3186314954
 31
0.0
  0
LINE
  5
14E
  8
0
  6
CONTINUOUS
 62
     7
 10
932.6915162936
 20
-360.3186314954
 30
0.0
 11
932.6915162936
 21
-358.8186303182
 31
0.0
  0
LINE
  5
14F
  8
0
  6
CONTINUOUS
 62
     7
 10
932.6915162936
 20
-358.8186303182
 30
0.0
 11
936.6915094987
 21
-358.8186303182
 31
0.0
  0
ARC
  5
150
  8
0
  6
CONTINUOUS
 62
     7
 10
932.6915283288
 20
-357.3186133806
 30
0.0
 40
3.000018114883613
 50
180.0003365748
 51
269.9997701468
  0
POLYLINE
  5
151
  8
0
  6
CONTINUOUS
 62
     7
 66
     1
 10
0.0
 20
0.0
 30
0.0
  0
VERTEX
  5
607
  8
0
  6
CONTINUOUS
 62
     7
 10
931.7008274928
 20
-358.4181411221
 30
0.0
  0
VERTEX
  5
608
  8
0
  6
CONTINUOUS
 62
     7
 10
932.097049369
 20
-358.6958037718
 30
0.0
  0
VERTEX
  5
609
  8
0
  6
CONTINUOUS
 62
     7
 10
932.6915162936
 20
-358.8186303182
 30
0.0
  0
SEQEND
  5
60A
  8
0
  6
CONTINUOUS
 62
     7
  0
LINE
  5
152
  8
0
  6
CONTINUOUS
 62
     7
 10
932.6915162936
 20
816.6814217315
 30
0.0
 11
936.6915094987
 21
816.6814217315
 31
0.0
  0
LINE
  5
153
  8
0
  6
CONTINUOUS
 62
     7
 10
932.6915162936
 20
815.1814112411
 30
0.0
 11
936.6915094987
 21
815.1814112411
 31
0.0
  0
POLYLINE
  5
154
  8
0
  6
CONTINUOUS
 62
     7
 66
     1
 10
0.0
 20
0.0
 30
0.0
  0
VERTEX
  5
60B
  8
0
  6
CONTINUOUS
 62
     7
 10
929.691510214
 20
813.6814007507
 30
0.0
  0
VERTEX
  5
60C
  8
0
  6
CONTINUOUS
 62
     7
 10
929.9198705092
 20
814.0313992248
 30
0.0
  0
VERTEX
  5
60D
  8
0
  6
CONTINUOUS
 62
     7
 10
930.5702018872
 20
814.3813976989
 30
0.0
  0
VERTEX
  5
60E
  8
0
  6
CONTINUOUS
 62
     7
 10
931.5434712306
 20
814.7313961731
 30
0.0
  0
VERTEX
  5
60F
  8
0
  6
CONTINUOUS
 62
     7
 10
932.6915162936
 20
815.0813946472
 30
0.0
  0
SEQEND
  5
610
  8
0
  6
CONTINUOUS
 62
     7
  0
POLYLINE
  5
155
  8
0
  6
CONTINUOUS
 62
     7
 66
     1
 10
0.0
 20
0.0
 30
0.0
  0
VERTEX
  5
611
  8
0
  6
CONTINUOUS
 62
     7
 10
932.6915162936
 20
-358.7186304881
 30
0.0
  0
VERTEX
  5
612
  8
0
  6
CONTINUOUS
 62
     7
 10
931.6572266952
 20
-358.4049163415
 30
0.0
  0
VERTEX
  5
613
  8
0
  6
CONTINUOUS
 62
     7
 10
930.7496267692
 20
-358.0911537661
 30
0.0
  0
VERTEX
  5
614
  8
0
  6
CONTINUOUS
 62
     7
 10
930.0802219049
 20
-357.7773893281
 30
0.0
  0
VERTEX
  5
615
  8
0
  6
CONTINUOUS
 62
     7
 10
929.7311324016
 20
-357.46362489
 30
0.0
  0
VERTEX
  5
616
  8
0
  6
CONTINUOUS
 62
     7
 10
929.691510214
 20
-357.3186310037
 30
0.0
  0
SEQEND
  5
617
  8
0
  6
CONTINUOUS
 62
     7
  0
LINE
  5
156
  8
0
  6
CONTINUOUS
 62
     7
 10
929.691510214
 20
-357.3186310037
 30
0.0
 11
929.691510214
 21
813.6814007507
 31
0.0
  0
LINE
  5
157
  8
0
  6
CONTINUOUS
 62
     7
 10
932.6915162936
 20
815.0813946472
 30
0.0
 11
936.6915094987
 21
815.0813946472
 31
0.0
  0
LINE
  5
158
  8
0
  6
CONTINUOUS
 62
     7
 10
932.6915162936
 20
-358.7186304881
 30
0.0
 11
936.6915094987
 21
-358.7186304881
 31
0.0
  0
LINE
  5
159
  8
0
  6
CONTINUOUS
 62
     7
 10
1322.0915216342
 20
-357.3186310037
 30
0.0
 11
1322.0915216342
 21
-360.3186314954
 31
0.0
  0
POLYLINE
  5
15A
  8
0
  6
CONTINUOUS
 62
     7
 66
     1
 10
0.0
 20
0.0
 30
0.0
  0
VERTEX
  5
618
  8
0
  6
CONTINUOUS
 62
     7
 10
1332.993434681
 20
-360.3186314954
 30
0.0
  0
VERTEX
  5
619
  8
0
  6
CONTINUOUS
 62
     7
 10
1332.8137862817
 20
-360.236490707
 30
0.0
  0
VERTEX
  5
61A
  8
0
  6
CONTINUOUS
 62
     7
 10
1332.6851296559
 20
-360.0281929626
 30
0.0
  0
VERTEX
  5
61B
  8
0
  6
CONTINUOUS
 62
     7
 10
1332.5808066264
 20
-359.4395486667
 30
0.0
  0
VERTEX
  5
61C
  8
0
  6
CONTINUOUS
 62
     7
 10
1332.682730569
 20
-358.5875375225
 30
0.0
  0
VERTEX
  5
61D
  8
0
  6
CONTINUOUS
 62
     7
 10
1332.8119832412
 20
-358.0007763608
 30
0.0
  0
VERTEX
  5
61E
  8
0
  6
CONTINUOUS
 62
     7
 10
1332.993434681
 20
-357.3186310037
 30
0.0
  0
SEQEND
  5
61F
  8
0
  6
CONTINUOUS
 62
     7
  0
LINE
  5
15B
  8
0
  6
CONTINUOUS
 62
     7
 10
1322.0915216342
 20
-360.3186314954
 30
0.0
 11
1332.993434681
 21
-360.3186314954
 31
0.0
  0
ARC
  5
15C
  8
0
  6
CONTINUOUS
 62
     7
 10
1335.591514819
 20
-358.8186307205
 30
0.0
 40
3.000000000000078
 50
120.0
 51
150.0
  0
LINE
  5
15D
  8
0
  6
CONTINUOUS
 62
     7
 10
1322.0915216342
 20
817.1813854919
 30
0.0
 11
1322.0915216342
 21
-357.3186310037
 31
0.0
  0
ARC
  5
15E
  8
0
  6
CONTINUOUS
 62
     7
 10
1335.591514819
 20
818.6813692795
 30
0.0
 40
3.000000000000049
 50
210.0
 51
240.0
  0
POLYLINE
  5
15F
  8
0
  6
CONTINUOUS
 62
     7
 66
     1
 10
0.0
 20
0.0
 30
0.0
  0
VERTEX
  5
620
  8
0
  6
CONTINUOUS
 62
     7
 10
1332.993434681
 20
817.1813854919
 30
0.0
  0
VERTEX
  5
621
  8
0
  6
CONTINUOUS
 62
     7
 10
1332.8137862817
 20
817.8785214172
 30
0.0
  0
VERTEX
  5
622
  8
0
  6
CONTINUOUS
 62
     7
 10
1332.6851296559
 20
818.4690842376
 30
0.0
  0
VERTEX
  5
623
  8
0
  6
CONTINUOUS
 62
     7
 10
1332.5808066264
 20
819.3030724273
 30
0.0
  0
VERTEX
  5
624
  8
0
  6
CONTINUOUS
 62
     7
 10
1332.682730569
 20
819.8998341308
 30
0.0
  0
VERTEX
  5
625
  8
0
  6
CONTINUOUS
 62
     7
 10
1332.8119832412
 20
820.1027283416
 30
0.0
  0
VERTEX
  5
626
  8
0
  6
CONTINUOUS
 62
     7
 10
1332.993434681
 20
820.1814064727
 30
0.0
  0
SEQEND
  5
627
  8
0
  6
CONTINUOUS
 62
     7
  0
LINE
  5
160
  8
0
  6
CONTINUOUS
 62
     7
 10
1322.0915216342
 20
820.1814064727
 30
0.0
 11
1322.0915216342
 21
817.1813854919
 31
0.0
  0
LINE
  5
161
  8
0
  6
CONTINUOUS
 62
     7
 10
1332.993434681
 20
820.1814064727
 30
0.0
 11
1322.0915216342
 21
820.1814064727
 31
0.0
  0
LINE
  5
162
  8
0
  6
CONTINUOUS
 62
     7
 10
1332.993434681
 20
820.1814064727
 30
0.0
 11
1332.993434681
 21
818.6813959823
 31
0.0
  0
POLYLINE
  5
163
  8
0
  6
CONTINUOUS
 62
     7
 66
     1
 10
0.0
 20
0.0
 30
0.0
  0
VERTEX
  5
628
  8
0
  6
CONTINUOUS
 62
     7
 10
1334.0915161506
 20
-356.2205551221
 30
0.0
  0
VERTEX
  5
629
  8
0
  6
CONTINUOUS
 62
     7
 10
1334.7887116805
 20
-356.0409067227
 30
0.0
  0
VERTEX
  5
62A
  8
0
  6
CONTINUOUS
 62
     7
 10
1335.3792595998
 20
-355.9122519596
 30
0.0
  0
VERTEX
  5
62B
  8
0
  6
CONTINUOUS
 62
     7
 10
1336.2132328883
 20
-355.8079158916
 30
0.0
  0
VERTEX
  5
62C
  8
0
  6
CONTINUOUS
 62
     7
 10
1336.8099498883
 20
-355.9098472847
 30
0.0
  0
VERTEX
  5
62D
  8
0
  6
CONTINUOUS
 62
     7
 10
1337.0129335061
 20
-356.0391036822
 30
0.0
  0
VERTEX
  5
62E
  8
0
  6
CONTINUOUS
 62
     7
 10
1337.0915222302
 20
-356.2205551221
 30
0.0
  0
SEQEND
  5
62F
  8
0
  6
CONTINUOUS
 62
     7
  0
LINE
  5
164
  8
0
  6
CONTINUOUS
 62
     7
 10
1335.5915117398
 20
-356.2205551221
 30
0.0
 11
1337.0915222302
 21
-356.2205551221
 31
0.0
  0
POLYLINE
  5
165
  8
0
  6
CONTINUOUS
 62
     7
 66
     1
 10
0.0
 20
0.0
 30
0.0
  0
VERTEX
  5
630
  8
0
  6
CONTINUOUS
 62
     7
 10
1337.0915222302
 20
816.0833487258
 30
0.0
  0
VERTEX
  5
631
  8
0
  6
CONTINUOUS
 62
     7
 10
1337.0093721286
 20
815.9037003265
 30
0.0
  0
VERTEX
  5
632
  8
0
  6
CONTINUOUS
 62
     7
 10
1336.8010836974
 20
815.7749542938
 30
0.0
  0
VERTEX
  5
633
  8
0
  6
CONTINUOUS
 62
     7
 10
1336.2124282256
 20
815.6706461654
 30
0.0
  0
VERTEX
  5
634
  8
0
  6
CONTINUOUS
 62
     7
 10
1335.360424532
 20
815.772570108
 30
0.0
  0
VERTEX
  5
635
  8
0
  6
CONTINUOUS
 62
     7
 10
1334.7736615077
 20
815.9017929779
 30
0.0
  0
VERTEX
  5
636
  8
0
  6
CONTINUOUS
 62
     7
 10
1334.0915161506
 20
816.0833487258
 30
0.0
  0
SEQEND
  5
637
  8
0
  6
CONTINUOUS
 62
     7
  0
LINE
  5
166
  8
0
  6
CONTINUOUS
 62
     7
 10
1337.0915222302
 20
816.0833487258
 30
0.0
 11
1337.0915222302
 21
-356.2205551221
 31
0.0
  0
LINE
  5
167
  8
0
  6
CONTINUOUS
 62
     7
 10
1337.0915222302
 20
816.0833487258
 30
0.0
 11
1335.5915117398
 21
816.0833487258
 31
0.0
  0
LINE
  5
168
  8
0
  6
CONTINUOUS
 62
     7
 10
1332.993434681
 20
-358.8186303182
 30
0.0
 11
1332.993434681
 21
-360.3186314954
 31
0.0
  0
ARC
  5
169
  8
0
  6
CONTINUOUS
 62
     7
 10
1332.9926464594
 20
-358.4060406835
 30
0.0
 40
0.4125903876751462
 50
175.9727671625
 51
270.1094591624
  0
LINE
  5
16A
  8
0
  6
CONTINUOUS
 62
     7
 10
1333.4701973334
 20
820.1814064727
 30
0.0
 11
1333.4701973334
 21
818.6813959823
 31
0.0
  0
LINE
  5
16B
  8
0
  6
CONTINUOUS
 62
     7
 10
1332.993434681
 20
818.6813959823
 30
0.0
 11
1333.4701973334
 21
818.6813959823
 31
0.0
  0
LINE
  5
16C
  8
0
  6
CONTINUOUS
 62
     7
 10
1332.993434681
 20
820.1814064727
 30
0.0
 11
1333.4701973334
 21
820.1814064727
 31
0.0
  0
LINE
  5
16D
  8
0
  6
CONTINUOUS
 62
     7
 10
1333.4701973334
 20
-360.3186314954
 30
0.0
 11
1333.4701973334
 21
-358.8186303182
 31
0.0
  0
LINE
  5
16E
  8
0
  6
CONTINUOUS
 62
     7
 10
1333.4701973334
 20
-358.8186303182
 30
0.0
 11
1332.993434681
 21
-358.8186303182
 31
0.0
  0
LINE
  5
16F
  8
0
  6
CONTINUOUS
 62
     7
 10
1333.4701973334
 20
-360.3186314954
 30
0.0
 11
1332.993434681
 21
-360.3186314954
 31
0.0
  0
LINE
  5
170
  8
0
  6
CONTINUOUS
 62
     7
 10
1337.0915222302
 20
-356.2205551221
 30
0.0
 11
1337.0915222302
 21
-357.3186310037
 31
0.0
  0
LINE
  5
171
  8
0
  6
CONTINUOUS
 62
     7
 10
1337.0915222302
 20
-357.3186310037
 30
0.0
 11
1335.5915117398
 21
-357.3186310037
 31
0.0
  0
LINE
  5
172
  8
0
  6
CONTINUOUS
 62
     7
 10
1335.5915117398
 20
-356.2205551221
 30
0.0
 11
1335.5915117398
 21
-357.3186310037
 31
0.0
  0
LINE
  5
173
  8
0
  6
CONTINUOUS
 62
     7
 10
1335.5915117398
 20
817.1813854919
 30
0.0
 11
1337.0915222302
 21
817.1813854919
 31
0.0
  0
LINE
  5
174
  8
0
  6
CONTINUOUS
 62
     7
 10
1337.0915222302
 20
817.1813854919
 30
0.0
 11
1337.0915222302
 21
816.0833487258
 31
0.0
  0
LINE
  5
175
  8
0
  6
CONTINUOUS
 62
     7
 10
1335.5915117398
 20
817.1813854919
 30
0.0
 11
1335.5915117398
 21
816.0833487258
 31
0.0
  0
LINE
  5
176
  8
0
  6
CONTINUOUS
 62
     7
 10
1334.0915161506
 20
-360.3186314954
 30
0.0
 11
1334.0915161506
 21
-358.8186303182
 31
0.0
  0
LINE
  5
177
  8
0
  6
CONTINUOUS
 62
     7
 10
1334.0915161506
 20
-358.8186303182
 30
0.0
 11
1333.4701973334
 21
-358.8186303182
 31
0.0
  0
LINE
  5
178
  8
0
  6
CONTINUOUS
 62
     7
 10
1334.0915161506
 20
-360.3186314954
 30
0.0
 11
1333.4701973334
 21
-360.3186314954
 31
0.0
  0
LINE
  5
179
  8
0
  6
CONTINUOUS
 62
     7
 10
1334.0915161506
 20
818.6813959823
 30
0.0
 11
1334.0915161506
 21
820.1814064727
 31
0.0
  0
LINE
  5
17A
  8
0
  6
CONTINUOUS
 62
     7
 10
1333.4701973334
 20
820.1814064727
 30
0.0
 11
1334.0915161506
 21
820.1814064727
 31
0.0
  0
LINE
  5
17B
  8
0
  6
CONTINUOUS
 62
     7
 10
1333.4701973334
 20
818.6813959823
 30
0.0
 11
1334.0915161506
 21
818.6813959823
 31
0.0
  0
ARC
  5
17C
  8
0
  6
CONTINUOUS
 62
     7
 10
1334.0914399205
 20
817.1813241634
 30
0.0
 40
3.000082310347103
 50
0.0011712568
 51
89.9985441533
  0
ARC
  5
17D
  8
0
  6
CONTINUOUS
 62
     7
 10
1334.0915253835
 20
817.1814096258
 30
0.0
 40
1.499986356553764
 50
359.9990781448
 51
90.0003526739
  0
ARC
  5
17E
  8
0
  6
CONTINUOUS
 62
     7
 10
1334.0915176303
 20
-357.3186362087
 30
0.0
 40
1.499994109510617
 50
269.9999434773
 51
0.0001988186
  0
ARC
  5
17F
  8
0
  6
CONTINUOUS
 62
     7
 10
1334.0914951895
 20
-357.3186044547
 30
0.0
 40
3.000027040828094
 50
270.0004003227
 51
359.9994929557
  0
LINE
  5
180
  8
0
  6
CONTINUOUS
 62
     7
 10
939.5831692353
 20
-376.8147126335
 30
0.0
 11
939.6915155784
 21
-376.8186307075
 31
0.0
  0
LINE
  5
181
  8
0
  6
CONTINUOUS
 62
     7
 10
939.6915155784
 20
-378.3186307206
 30
0.0
 11
939.6915155784
 21
-376.8186307075
 31
0.0
  0
LINE
  5
182
  8
0
  6
CONTINUOUS
 62
     7
 10
939.4748228923
 20
-378.3107945215
 30
0.0
 11
939.6915155784
 21
-378.3186307206
 31
0.0
  0
LINE
  5
183
  8
0
  6
CONTINUOUS
 62
     7
 10
939.4748228923
 20
-378.3107945215
 30
0.0
 11
939.5831692353
 21
-376.8147126335
 31
0.0
  0
ARC
  5
184
  8
0
  6
CONTINUOUS
 62
     7
 10
939.6914992879
 20
-375.3186503029
 30
0.0
 40
1.499979298960551
 50
179.9992510048
 51
265.8584340353
  0
ARC
  5
185
  8
0
  6
CONTINUOUS
 62
     7
 10
939.6915181405
 20
-375.3186221921
 30
0.0
 40
3.000008641827888
 50
180.000162384
 51
265.8578303052
  0
LINE
  5
186
  8
0
  6
CONTINUOUS
 62
     7
 10
938.1915199891
 20
-375.3186306945
 30
0.0
 11
936.6915094987
 21
-375.3186306945
 31
0.0
  0
LINE
  5
187
  8
0
  6
CONTINUOUS
 62
     7
 10
940.5021238462
 20
-376.8186307075
 30
0.0
 11
939.6915155784
 21
-376.8186307075
 31
0.0
  0
LINE
  5
188
  8
0
  6
CONTINUOUS
 62
     7
 10
941.1915111676
 20
-378.3186307206
 30
0.0
 11
939.6915155784
 21
-378.3186307206
 31
0.0
  0
LINE
  5
189
  8
0
  6
CONTINUOUS
 62
     7
 10
936.6915094987
 20
-375.2328442438
 30
0.0
 11
936.6915094987
 21
-375.3186306945
 31
0.0
  0
ARC
  5
18A
  8
0
  6
CONTINUOUS
 62
     7
 10
939.6916794874
 20
818.6812469752
 30
0.0
 40
3.000169992384369
 50
90.0031302541
 51
179.9971543358
  0
LINE
  5
18B
  8
0
  6
CONTINUOUS
 62
     7
 10
939.6915155784
 20
821.6814169632
 30
0.0
 11
939.6915155784
 21
820.1814064727
 31
0.0
  0
POLYLINE
  5
18C
  8
0
  6
CONTINUOUS
 62
     7
 66
     1
 10
0.0
 20
0.0
 30
0.0
  0
VERTEX
  5
638
  8
0
  6
CONTINUOUS
 62
     7
 10
939.6915155784
 20
820.1814064727
 30
0.0
  0
VERTEX
  5
639
  8
0
  6
CONTINUOUS
 62
     7
 10
939.0645641223
 20
820.0440773712
 30
0.0
  0
VERTEX
  5
63A
  8
0
  6
CONTINUOUS
 62
     7
 10
938.9035570756
 20
819.9262985931
 30
0.0
  0
SEQEND
  5
63B
  8
0
  6
CONTINUOUS
 62
     7
  0
LINE
  5
18D
  8
0
  6
CONTINUOUS
 62
     7
 10
936.8947911397
 20
818.6813959823
 30
0.0
 11
936.6915094987
 21
818.6813959823
 31
0.0
  0
LINE
  5
18E
  8
0
  6
CONTINUOUS
 62
     7
 10
1312.8915149108
 20
821.6814169632
 30
0.0
 11
1312.8915149108
 21
820.1814064727
 31
0.0
  0
LINE
  5
18F
  8
0
  6
CONTINUOUS
 62
     7
 10
1312.8915149108
 20
821.6814169632
 30
0.0
 11
1312.3959618941
 21
821.6814169632
 31
0.0
  0
LINE
  5
190
  8
0
  6
CONTINUOUS
 62
     7
 10
939.6915155784
 20
821.6814169632
 30
0.0
 11
1312.3959618941
 21
821.6814169632
 31
0.0
  0
ARC
  5
191
  8
0
  6
CONTINUOUS
 62
     7
 10
1312.89140937
 20
818.681284689
 30
0.0
 40
3.000132276030707
 50
14.8686452268
 51
89.9979844091
  0
LINE
  5
192
  8
0
  6
CONTINUOUS
 62
     7
 10
1314.9860370294
 20
819.2373881088
 30
0.0
 11
1315.791087164
 21
819.4511303649
 31
0.0
  0
ARC
  5
193
  8
0
  6
CONTINUOUS
 62
     7
 10
1312.9261526129
 20
818.8053142559
 30
0.0
 40
1.376528081646383
 50
42.3410614903
 51
91.4418911353
  0
LINE
  5
194
  8
0
  6
CONTINUOUS
 62
     7
 10
1315.791087164
 20
819.4511303649
 30
0.0
 11
1315.8915209905
 21
818.6813959823
 31
0.0
  0
LINE
  5
195
  8
0
  6
CONTINUOUS
 62
     7
 10
1315.8915209905
 20
818.0486330734
 30
0.0
 11
1315.8915209905
 21
818.6813959823
 31
0.0
  0
LINE
  5
196
  8
0
  6
CONTINUOUS
 62
     7
 10
936.6915094987
 20
818.6813959823
 30
0.0
 11
936.6915094987
 21
817.9742464767
 31
0.0
  0
LINE
  5
197
  8
0
  6
CONTINUOUS
 62
     7
 10
1322.0915216342
 20
799.8271355377
 30
0.0
 11
1317.6002818481
 21
799.1959223495
 31
0.0
  0
LINE
  5
198
  8
0
  6
CONTINUOUS
 62
     7
 10
1317.8090322152
 20
797.7105746017
 30
0.0
 11
1322.0915216342
 21
798.3124623046
 31
0.0
  0
LINE
  5
199
  8
0
  6
CONTINUOUS
 62
     7
 10
1317.8090322152
 20
797.7105746017
 30
0.0
 11
1317.6002818481
 21
799.1959223495
 31
0.0
  0
POLYLINE
  5
19A
  8
0
  6
CONTINUOUS
 62
     7
 66
     1
 10
0.0
 20
0.0
 30
0.0
  0
VERTEX
  5
63C
  8
0
  6
CONTINUOUS
 62
     7
 10
1315.8915209905
 20
800.6813893066
 30
0.0
  0
VERTEX
  5
63D
  8
0
  6
CONTINUOUS
 62
     7
 10
1316.0273599759
 20
800.0575670944
 30
0.0
  0
VERTEX
  5
63E
  8
0
  6
CONTINUOUS
 62
     7
 10
1316.4103049174
 20
799.5467552887
 30
0.0
  0
SEQEND
  5
63F
  8
0
  6
CONTINUOUS
 62
     7
  0
LINE
  5
19B
  8
0
  6
CONTINUOUS
 62
     7
 10
1315.8915209905
 20
798.9470133529
 30
0.0
 11
1316.4103049174
 21
799.5467552887
 31
0.0
  0
ARC
  5
19C
  8
0
  6
CONTINUOUS
 62
     7
 10
1317.3918149442
 20
800.6823666332
 30
0.0
 40
1.500991358549616
 50
229.1631111245
 51
277.9833974085
  0
ARC
  5
19D
  8
0
  6
CONTINUOUS
 62
     7
 10
1317.3491263582
 20
800.4124740483
 30
0.0
 40
2.740761576092628
 50
237.8711580343
 51
279.6600595721
  0
POLYLINE
  5
19E
  8
0
  6
CONTINUOUS
 62
     7
 66
     1
 10
0.0
 20
0.0
 30
0.0
  0
VERTEX
  5
640
  8
0
  6
CONTINUOUS
 62
     7
 10
1342.0773017541
 20
154.6165117965
 30
0.0
  0
VERTEX
  5
641
  8
0
  6
CONTINUOUS
 62
     7
 10
1342.0500475303
 20
154.6212205635
 30
0.0
  0
VERTEX
  5
642
  8
0
  6
CONTINUOUS
 62
     7
 10
1342.0055973664
 20
154.6289095626
 30
0.0
  0
VERTEX
  5
643
  8
0
  6
CONTINUOUS
 62
     7
 10
1341.9449645415
 20
154.6393999801
 30
0.0
  0
VERTEX
  5
644
  8
0
  6
CONTINUOUS
 62
     7
 10
1341.8695348636
 20
154.6524533973
 30
0.0
  0
VERTEX
  5
645
  8
0
  6
CONTINUOUS
 62
     7
 10
1341.7810368672
 20
154.6678313957
 30
0.0
  0
VERTEX
  5
646
  8
0
  6
CONTINUOUS
 62
     7
 10
1341.6815120116
 20
154.685057138
 30
0.0
  0
VERTEX
  5
647
  8
0
  6
CONTINUOUS
 62
     7
 10
1341.5732103721
 20
154.7037729965
 30
0.0
  0
VERTEX
  5
648
  8
0
  6
CONTINUOUS
 62
     7
 10
1341.4586353437
 20
154.7236213432
 30
0.0
  0
SEQEND
  5
649
  8
0
  6
CONTINUOUS
 62
     7
  0
POLYLINE
  5
19F
  8
0
  6
CONTINUOUS
 62
     7
 66
     1
 10
0.0
 20
0.0
 30
0.0
  0
VERTEX
  5
64A
  8
0
  6
CONTINUOUS
 62
     7
 10
1345.1149928704
 20
292.2893533454
 30
0.0
  0
VERTEX
  5
64B
  8
0
  6
CONTINUOUS
 62
     7
 10
1345.1171833411
 20
292.7619585739
 30
0.0
  0
VERTEX
  5
64C
  8
0
  6
CONTINUOUS
 62
     7
 10
1345.1201635734
 20
293.1467065559
 30
0.0
  0
SEQEND
  5
64D
  8
0
  6
CONTINUOUS
 62
     7
  0
ARC
  5
1A0
  8
0
  6
CONTINUOUS
 62
     7
 10
1499.9498121296
 20
291.7849333999
 30
0.0
 40
154.8356409051071
 50
179.8133428135
 51
187.1951250706
  0
LINE
  5
1A1
  8
0
  6
CONTINUOUS
 62
     7
 10
1346.3334459201
 20
272.3919520126
 30
0.0
 11
1346.6845768825
 21
269.843257402
 31
0.0
  0
ARC
  5
1A2
  8
0
  6
CONTINUOUS
 62
     7
 10
1440.0329678777
 20
283.7009635174
 30
0.0
 40
94.37138401115159
 50
188.4439742437
 51
190.6174351732
  0
LINE
  5
1A3
  8
0
  6
CONTINUOUS
 62
     7
 10
1341.4091932908
 20
308.2704314933
 30
0.0
 11
1342.1797025338
 21
308.4939489112
 31
0.0
  0
LINE
  5
1A4
  8
0
  6
CONTINUOUS
 62
     7
 10
1341.4091932908
 20
151.6923079238
 30
0.0
 11
1342.1797025338
 21
151.4687905059
 31
0.0
  0
POLYLINE
  5
1A5
  8
0
  6
CONTINUOUS
 62
     7
 66
     1
 10
0.0
 20
0.0
 30
0.0
  0
VERTEX
  5
64E
  8
0
  6
CONTINUOUS
 62
     7
 10
1347.7352428571
 20
285.3852877365
 30
0.0
  0
VERTEX
  5
64F
  8
0
  6
CONTINUOUS
 62
     7
 10
1347.7524536983
 20
285.1456770645
 30
0.0
  0
VERTEX
  5
650
  8
0
  6
CONTINUOUS
 62
     7
 10
1347.8024768964
 20
284.448898767
 30
0.0
  0
VERTEX
  5
651
  8
0
  6
CONTINUOUS
 62
     7
 10
1347.8807526961
 20
283.3575973259
 30
0.0
  0
VERTEX
  5
652
  8
0
  6
CONTINUOUS
 62
     7
 10
1347.9802179471
 20
281.9689283119
 30
0.0
  0
SEQEND
  5
653
  8
0
  6
CONTINUOUS
 62
     7
  0
LINE
  5
1A6
  8
0
  6
CONTINUOUS
 62
     7
 10
1347.9802179471
 20
281.9689283119
 30
0.0
 11
1347.7443474666
 21
281.974113916
 31
0.0
  0
LINE
  5
1A7
  8
0
  6
CONTINUOUS
 62
     7
 10
1347.6922381059
 20
281.2004456268
 30
0.0
 11
1347.8731084004
 21
278.7197599159
 31
0.0
  0
LINE
  5
1A8
  8
0
  6
CONTINUOUS
 62
     7
 10
1348.0366635457
 20
277.9461512313
 30
0.0
 11
1348.267244114
 21
277.9510388122
 31
0.0
  0
POLYLINE
  5
1A9
  8
0
  6
CONTINUOUS
 62
     7
 66
     1
 10
0.0
 20
0.0
 30
0.0
  0
VERTEX
  5
654
  8
0
  6
CONTINUOUS
 62
     7
 10
1348.267244114
 20
277.9510388122
 30
0.0
  0
VERTEX
  5
655
  8
0
  6
CONTINUOUS
 62
     7
 10
1348.3661431209
 20
276.563085054
 30
0.0
  0
VERTEX
  5
656
  8
0
  6
CONTINUOUS
 62
     7
 10
1348.4437632695
 20
275.4723796592
 30
0.0
  0
VERTEX
  5
657
  8
0
  6
CONTINUOUS
 62
     7
 10
1348.4932947293
 20
274.7759589897
 30
0.0
  0
VERTEX
  5
658
  8
0
  6
CONTINUOUS
 62
     7
 10
1348.5102969543
 20
274.5365271316
 30
0.0
  0
SEQEND
  5
659
  8
0
  6
CONTINUOUS
 62
     7
  0
ARC
  5
1AA
  8
0
  6
CONTINUOUS
 62
     7
 10
1347.8680709634
 20
277.9317395978
 30
0.0
 40
0.3996365432986445
 50
2.7594441145
 51
89.9614241608
  0
ARC
  5
1AB
  8
0
  6
CONTINUOUS
 62
     7
 10
1347.5823154207
 20
281.9310751128
 30
0.0
 40
0.3997046424386418
 50
270.0486722883
 51
5.4428043043
  0
ARC
  5
1AC
  8
0
  6
CONTINUOUS
 62
     7
 10
1347.8680709634
 20
277.9317395978
 30
0.0
 40
0.3996365432986445
 50
2.7594441145
 51
89.9614241608
  0
ARC
  5
1AD
  8
0
  6
CONTINUOUS
 62
     7
 10
1313.2514981706
 20
280.020245386
 30
0.0
 40
2.791433945040648
 50
358.1749299065
 51
18.9577033796
  0
LINE
  5
1AE
  8
0
  6
CONTINUOUS
 62
     7
 10
1315.8915209905
 20
279.9313435302
 30
0.0
 11
1316.041516079
 21
279.9313435302
 31
0.0
  0
LINE
  5
1AF
  8
0
  6
CONTINUOUS
 62
     7
 10
1316.041516079
 20
287.238992189
 30
0.0
 11
1316.041516079
 21
279.9313435302
 31
0.0
  0
POLYLINE
  5
1B0
  8
0
  6
CONTINUOUS
 62
     7
 66
     1
 10
0.0
 20
0.0
 30
0.0
  0
VERTEX
  5
65A
  8
0
  6
CONTINUOUS
 62
     7
 10
1315.8915209905
 20
278.897441362
 30
0.0
  0
VERTEX
  5
65B
  8
0
  6
CONTINUOUS
 62
     7
 10
1315.9613925353
 20
279.1598210083
 30
0.0
  0
VERTEX
  5
65C
  8
0
  6
CONTINUOUS
 62
     7
 10
1316.041516079
 20
279.9313435302
 30
0.0
  0
SEQEND
  5
65D
  8
0
  6
CONTINUOUS
 62
     7
  0
LINE
  5
1B1
  8
0
  6
CONTINUOUS
 62
     7
 10
1316.041516079
 20
279.9313435302
 30
0.0
 11
1316.041516079
 21
272.6237544761
 31
0.0
  0
LINE
  5
1B2
  8
0
  6
CONTINUOUS
 62
     7
 10
1316.8915081159
 20
-266.1426370992
 30
0.0
 11
1316.8915081159
 21
-275.3186306014
 31
0.0
  0
LINE
  5
1B3
  8
0
  6
CONTINUOUS
 62
     7
 10
1316.8915081159
 20
-265.3186326875
 30
0.0
 11
1316.8915081159
 21
-266.1426370992
 31
0.0
  0
LINE
  5
1B4
  8
0
  6
CONTINUOUS
 62
     7
 10
1316.8915081159
 20
-225.3186335816
 30
0.0
 11
1316.8915081159
 21
-235.3186240448
 31
0.0
  0
LINE
  5
1B5
  8
0
  6
CONTINUOUS
 62
     7
 10
1316.8915081159
 20
735.1813683258
 30
0.0
 11
1316.8915081159
 21
725.1813778625
 31
0.0
  0
LINE
  5
1B6
  8
0
  6
CONTINUOUS
 62
     7
 10
1316.8915081159
 20
695.1814064727
 30
0.0
 11
1316.8915081159
 21
685.1814160095
 31
0.0
  0
LINE
  5
1B7
  8
0
  6
CONTINUOUS
 62
     7
 10
1316.8915081159
 20
214.9313459144
 30
0.0
 11
1316.8915081159
 21
204.9313554512
 31
0.0
  0
LINE
  5
1B8
  8
0
  6
CONTINUOUS
 62
     7
 10
1316.8915081159
 20
254.9313673721
 30
0.0
 11
1316.8915081159
 21
244.9313769088
 31
0.0
  0
LINE
  5
1B9
  8
0
  6
CONTINUOUS
 62
     7
 10
991.5415215627
 20
822.0732578979
 30
0.0
 11
1010.2415177361
 21
822.0732578979
 31
0.0
  0
LINE
  5
1BA
  8
0
  6
CONTINUOUS
 62
     7
 10
1241.5415141121
 20
822.0732578979
 30
0.0
 11
1260.2415102855
 21
822.0732578979
 31
0.0
  0
LINE
  5
1BB
  8
0
  6
CONTINUOUS
 62
     7
 10
1312.3915213481
 20
-376.8186307075
 30
0.0
 11
1312.3915213481
 21
-378.3186307206
 31
0.0
  0
LINE
  5
1BC
  8
0
  6
CONTINUOUS
 62
     7
 10
1312.0604473487
 20
-376.8186307075
 30
0.0
 11
1312.3915213481
 21
-376.8186307075
 31
0.0
  0
LINE
  5
1BD
  8
0
  6
CONTINUOUS
 62
     7
 10
1310.7770550386
 20
-378.3186307206
 30
0.0
 11
1312.3915213481
 21
-378.3186307206
 31
0.0
  0
LINE
  5
1BE
  8
0
  6
CONTINUOUS
 62
     7
 10
1315.8915209905
 20
-374.8186306125
 30
0.0
 11
1315.8915209905
 21
-373.1854982703
 31
0.0
  0
LINE
  5
1BF
  8
0
  6
CONTINUOUS
 62
     7
 10
1315.8915209905
 20
-374.8186306125
 30
0.0
 11
1314.8525226251
 21
-374.8186306125
 31
0.0
  0
LINE
  5
1C0
  8
0
  6
CONTINUOUS
 62
     7
 10
1312.3915213481
 20
-376.8186307075
 30
0.0
 11
1312.8915149108
 21
-376.8186307075
 31
0.0
  0
LINE
  5
1C1
  8
0
  6
CONTINUOUS
 62
     7
 10
1312.3915213481
 20
-378.3186307206
 30
0.0
 11
1312.8915149108
 21
-378.3186307206
 31
0.0
  0
ARC
  5
1C2
  8
0
  6
CONTINUOUS
 62
     7
 10
1312.8915152446
 20
-375.3186307206
 30
0.0
 40
3.0
 50
270.0
 51
0.0
  0
ARC
  5
1C3
  8
0
  6
CONTINUOUS
 62
     7
 10
1312.8915152446
 20
-375.3186307206
 30
0.0
 40
1.5
 50
270.0
 51
0.0
  0
LINE
  5
1C4
  8
0
  6
CONTINUOUS
 62
     7
 10
1315.8915209905
 20
-375.3186306945
 30
0.0
 11
1315.8915209905
 21
-374.8186306125
 31
0.0
  0
LINE
  5
1C5
  8
0
  6
CONTINUOUS
 62
     7
 10
1314.3915105001
 20
-375.3186306945
 30
0.0
 11
1314.3915105001
 21
-375.0709205429
 31
0.0
  0
LINE
  5
1C6
  8
0
  6
CONTINUOUS
 62
     7
 10
1317.6002818481
 20
-339.5332289888
 30
0.0
 11
1317.8090322152
 21
-338.0478253617
 31
0.0
  0
LINE
  5
1C7
  8
0
  6
CONTINUOUS
 62
     7
 10
1322.0915216342
 20
-338.6496907129
 30
0.0
 11
1317.8090322152
 21
-338.0478253617
 31
0.0
  0
LINE
  5
1C8
  8
0
  6
CONTINUOUS
 62
     7
 10
1322.0915216342
 20
-340.1644310011
 30
0.0
 11
1317.6002818481
 21
-339.5332289888
 31
0.0
  0
ARC
  5
1C9
  8
0
  6
CONTINUOUS
 62
     7
 10
1317.3486238882
 20
-340.750238152
 30
0.0
 40
2.741351987073622
 50
80.3313878119
 51
122.1086936403
  0
ARC
  5
1CA
  8
0
  6
CONTINUOUS
 62
     7
 10
1317.3915114948
 20
-341.0186199988
 30
0.0
 40
1.499990504314586
 50
81.9995362234
 51
180.0003396461
  0
ARC
  5
1CB
  8
0
  6
CONTINUOUS
 62
     7
 10
1312.3959626338
 20
-370.3186307206
 30
0.0
 40
4.999999999973056
 50
270.0
 51
275.6879527016
  0
LINE
  5
1CC
  8
0
  6
CONTINUOUS
 62
     7
 10
940.1463586227
 20
-375.3186306945
 30
0.0
 11
939.6915155784
 21
-375.3186306945
 31
0.0
  0
LINE
  5
1CD
  8
0
  6
CONTINUOUS
 62
     7
 10
939.6915155784
 20
820.1814064727
 30
0.0
 11
1312.3959618941
 21
820.1814064727
 31
0.0
  0
LINE
  5
1CE
  8
0
  6
CONTINUOUS
 62
     7
 10
1312.8915149108
 20
819.9935326324
 30
0.0
 11
1312.3959618941
 21
820.1814064727
 31
0.0
  0
POLYLINE
  5
1CF
  8
0
  6
CONTINUOUS
 62
     7
 66
     1
 10
0.0
 20
0.0
 30
0.0
  0
VERTEX
  5
65E
  8
0
  6
CONTINUOUS
 62
     7
 10
936.6915094987
 20
817.9742464767
 30
0.0
  0
VERTEX
  5
65F
  8
0
  6
CONTINUOUS
 62
     7
 10
936.8947911397
 20
818.6813959823
 30
0.0
  0
VERTEX
  5
660
  8
0
  6
CONTINUOUS
 62
     7
 10
937.4770838157
 20
819.3884262786
 30
0.0
  0
SEQEND
  5
661
  8
0
  6
CONTINUOUS
 62
     7
  0
ARC
  5
1D0
  8
0
  6
CONTINUOUS
 62
     7
 10
939.7854956077
 20
-319.5331480292
 30
0.0
 40
55.78556182782469
 50
266.8206225916
 51
269.9034757129
  0
LINE
  5
1D1
  8
0
  6
CONTINUOUS
 62
     7
 10
936.6915094987
 20
817.9742464767
 30
0.0
 11
936.6915094987
 21
-375.2328442438
 31
0.0
  0
ARC
  5
1D2
  8
0
  6
CONTINUOUS
 62
     7
 10
945.4011245243
 20
800.7486358599
 30
0.0
 40
20.25418988770688
 50
106.373496312
 51
113.0310368182
  0
ARC
  5
1D3
  8
0
  6
CONTINUOUS
 62
     7
 10
1295.9026801451
 20
-372.4228229115
 30
0.0
 40
16.74556793808112
 50
340.6516984265
 51
350.0417920457
  0
POLYLINE
  5
1D4
  8
0
  6
CONTINUOUS
 62
     7
 66
     1
 10
0.0
 20
0.0
 30
0.0
  0
VERTEX
  5
662
  8
0
  6
CONTINUOUS
 62
     7
 10
1311.7024916545
 20
-377.9707962327
 30
0.0
  0
VERTEX
  5
663
  8
0
  6
CONTINUOUS
 62
     7
 10
1311.2397807971
 20
-378.2303737476
 30
0.0
  0
VERTEX
  5
664
  8
0
  6
CONTINUOUS
 62
     7
 10
1310.7770550386
 20
-378.3186307206
 30
0.0
  0
SEQEND
  5
665
  8
0
  6
CONTINUOUS
 62
     7
  0
LINE
  5
1D5
  8
0
  6
CONTINUOUS
 62
     7
 10
1310.7770550386
 20
-378.3186307206
 30
0.0
 11
941.1915111676
 21
-378.3186307206
 31
0.0
  0
ARC
  5
1D6
  8
0
  6
CONTINUOUS
 62
     7
 10
945.8841757798
 20
-375.0017232955
 30
0.0
 40
5.746562105197182
 50
183.1613114461
 51
215.2537451831
  0
LINE
  5
1D7
  8
0
  6
CONTINUOUS
 62
     7
 10
1315.8915209905
 20
818.0486330734
 30
0.0
 11
1315.8915209905
 21
-373.1854982703
 31
0.0
  0
ARC
  5
1D8
  8
0
  6
CONTINUOUS
 62
     7
 10
1313.2594655112
 20
-372.7245154272
 30
0.0
 40
2.672119238997738
 50
299.9873866888
 51
350.0658734886
  0
POLYLINE
  5
1D9
  8
0
  6
CONTINUOUS
 62
     7
 66
     1
 10
0.0
 20
0.0
 30
0.0
  0
VERTEX
  5
666
  8
0
  6
CONTINUOUS
 62
     7
 10
1314.5950156585
 20
-375.0389333377
 30
0.0
  0
VERTEX
  5
667
  8
0
  6
CONTINUOUS
 62
     7
 10
1313.7836176292
 20
-375.1664730749
 30
0.0
  0
VERTEX
  5
668
  8
0
  6
CONTINUOUS
 62
     7
 10
1312.8915149108
 20
-375.294012812
 30
0.0
  0
SEQEND
  5
669
  8
0
  6
CONTINUOUS
 62
     7
  0
ARC
  5
1DA
  8
0
  6
CONTINUOUS
 62
     7
 10
1308.2059239545
 20
798.5157824805
 30
0.0
 40
21.98291414251362
 50
71.3661289051
 51
77.6931647839
  0
POLYLINE
  5
1DB
  8
0
  6
CONTINUOUS
 62
     7
 66
     1
 10
0.0
 20
0.0
 30
0.0
  0
VERTEX
  5
66A
  8
0
  6
CONTINUOUS
 62
     7
 10
1315.2298945323
 20
819.3463453994
 30
0.0
  0
VERTEX
  5
66B
  8
0
  6
CONTINUOUS
 62
     7
 10
1315.7212752238
 20
818.6974892364
 30
0.0
  0
VERTEX
  5
66C
  8
0
  6
CONTINUOUS
 62
     7
 10
1315.8915209905
 20
818.0486330734
 30
0.0
  0
SEQEND
  5
66D
  8
0
  6
CONTINUOUS
 62
     7
  0
LINE
  5
1DC
  8
0
  6
CONTINUOUS
 62
     7
 10
1322.0915216342
 20
797.8220352874
 30
0.0
 11
1317.6002818481
 21
797.1846232162
 31
0.0
  0
LINE
  5
1DD
  8
0
  6
CONTINUOUS
 62
     7
 10
1317.6002818481
 20
-337.5239042594
 30
0.0
 11
1322.0915216342
 21
-338.16130888
 31
0.0
  0
ARC
  5
1DE
  8
0
  6
CONTINUOUS
 62
     7
 10
1330.4320239881
 20
636.6141923168
 30
0.0
 40
161.0648817300115
 50
94.6440284958
 51
95.1591912464
  0
ARC
  5
1DF
  8
0
  6
CONTINUOUS
 62
     7
 10
1317.7851297449
 20
792.7610702636
 30
0.0
 40
4.427413406207069
 50
92.3928381421
 51
115.3217425254
  0
ARC
  5
1E0
  8
0
  6
CONTINUOUS
 62
     7
 10
1326.0381936927
 20
-228.5316731489
 30
0.0
 40
109.3003919362698
 50
264.6733969521
 51
265.4625830674
  0
ARC
  5
1E1
  8
0
  6
CONTINUOUS
 62
     7
 10
1317.7851781644
 20
-333.1011097851
 30
0.0
 40
4.426657611478447
 50
244.6729353171
 51
267.6061258171
  0
LINE
  5
1E2
  8
0
  6
CONTINUOUS
 62
     7
 10
1317.8090322152
 20
-337.5239042594
 30
0.0
 11
1317.3914271728
 21
-337.4895049288
 31
0.0
  0
ARC
  5
1E3
  8
0
  6
CONTINUOUS
 62
     7
 10
-487.1616015886
 20
257.7717620445
 30
0.0
 40
279.9999999999777
 50
169.6893026751
 51
172.7420376961
  0
ARC
  5
1E4
  8
0
  6
CONTINUOUS
 62
     7
 10
-487.1616015886
 20
202.1909765145
 30
0.0
 40
280.0000000002275
 50
183.0
 51
190.3096605428
  0
ARC
  5
1E5
  8
0
  6
CONTINUOUS
 62
     7
 10
43.1106813661
 20
229.9813692795
 30
0.0
 40
811.0000000004949
 50
177.4323496779
 51
183.0
  0
ARC
  5
1E6
  8
0
  6
CONTINUOUS
 62
     7
 10
-752.8893186339
 20
276.8246905712
 30
0.0
 40
33.00000000000004
 50
96.9620626911
 51
106.0038114363
  0
ARC
  5
1E7
  8
0
  6
CONTINUOUS
 62
     7
 10
-752.8893186339
 20
183.1380479878
 30
0.0
 40
33.00000000000006
 50
253.9885793286
 51
263.0379373089
  0
ARC
  5
1E8
  8
0
  6
CONTINUOUS
 62
     7
 10
-766.68058494
 20
267.008841599
 30
0.0
 40
0.8000000000004888
 50
193.3050835815
 51
240.4801028819
  0
ARC
  5
1E9
  8
0
  6
CONTINUOUS
 62
     7
 10
-764.9087705067
 20
292.3469684755
 30
0.0
 40
0.8000000000002989
 50
90.63381958
 51
158.6949164179
  0
ARC
  5
1EA
  8
0
  6
CONTINUOUS
 62
     7
 10
-761.8515023384
 20
307.7525934843
 30
0.0
 40
0.8000415142642884
 50
104.5519388826
 51
170.0602751556
  0
ARC
  5
1EB
  8
0
  6
CONTINUOUS
 62
     7
 10
-761.8515182501
 20
152.2101312531
 30
0.0
 40
0.8000233075588201
 50
189.938885996
 51
255.4488999658
  0
ARC
  5
1EC
  8
0
  6
CONTINUOUS
 62
     7
 10
-736.5821840688
 20
274.1266218438
 30
0.0
 40
31.72857142862259
 50
179.2551359542
 51
193.3050835818
  0
ARC
  5
1ED
  8
0
  6
CONTINUOUS
 62
     7
 10
-736.0938887525
 20
281.1095701956
 30
0.0
 40
31.72857142857147
 50
158.6949164178
 51
172.2587626394
  0
ARC
  5
1EE
  8
0
  6
CONTINUOUS
 62
     7
 10
-420.6893190595
 20
783.1813692794
 30
0.0
 40
40.0
 50
76.4820489901
 51
103.5179510099
  0
LINE
  5
1EF
  8
0
  6
CONTINUOUS
 62
     7
 10
-430.039321551
 20
822.0732578979
 30
0.0
 11
-430.039321551
 21
821.6814169632
 31
0.0
  0
LINE
  5
1F0
  8
0
  6
CONTINUOUS
 62
     7
 10
-411.3393253776
 20
821.6814169632
 30
0.0
 11
-411.3393253776
 21
822.0732578979
 31
0.0
  0
LINE
  5
1F1
  8
0
  6
CONTINUOUS
 62
     7
 10
-680.0393141004
 20
822.0732578979
 30
0.0
 11
-680.0393141004
 21
821.6814169632
 31
0.0
  0
LINE
  5
1F2
  8
0
  6
CONTINUOUS
 62
     7
 10
-661.339317927
 20
821.6814169632
 30
0.0
 11
-661.339317927
 21
822.0732578979
 31
0.0
  0
ARC
  5
1F3
  8
0
  6
CONTINUOUS
 62
     7
 10
-670.6893190595
 20
783.1813692794
 30
0.0
 40
40.0
 50
76.4820489901
 51
103.5179510099
  0
LINE
  5
1F4
  8
0
  6
CONTINUOUS
 62
     7
 10
-737.6893139573
 20
732.6813111053
 30
0.0
 11
-737.9093147012
 21
732.6813111053
 31
0.0
  0
LINE
  5
1F5
  8
0
  6
CONTINUOUS
 62
     7
 10
-737.9093147012
 20
727.6813158737
 30
0.0
 11
-737.6893139573
 21
727.6813158737
 31
0.0
  0
LINE
  5
1F6
  8
0
  6
CONTINUOUS
 62
     7
 10
-737.9093147012
 20
732.6813111053
 30
0.0
 11
-738.3093214723
 21
732.2813639389
 31
0.0
  0
LINE
  5
1F7
  8
0
  6
CONTINUOUS
 62
     7
 10
-738.3093214723
 20
728.0813822494
 30
0.0
 11
-737.9093147012
 21
727.6813158737
 31
0.0
  0
LINE
  5
1F8
  8
0
  6
CONTINUOUS
 62
     7
 10
-737.9093147012
 20
212.4313482986
 30
0.0
 11
-738.3093214723
 21
212.0313415275
 31
0.0
  0
LINE
  5
1F9
  8
0
  6
CONTINUOUS
 62
     7
 10
-738.3093214723
 20
207.8313598381
 30
0.0
 11
-737.9093147012
 21
207.431353067
 31
0.0
  0
LINE
  5
1FA
  8
0
  6
CONTINUOUS
 62
     7
 10
-737.6893139573
 20
212.4313482986
 30
0.0
 11
-737.9093147012
 21
212.4313482986
 31
0.0
  0
LINE
  5
1FB
  8
0
  6
CONTINUOUS
 62
     7
 10
-737.9093147012
 20
207.431353067
 30
0.0
 11
-737.6893139573
 21
207.431353067
 31
0.0
  0
LINE
  5
1FC
  8
0
  6
CONTINUOUS
 62
     7
 10
-737.9093147012
 20
-227.8186311974
 30
0.0
 11
-738.3093214723
 21
-228.2186379685
 31
0.0
  0
LINE
  5
1FD
  8
0
  6
CONTINUOUS
 62
     7
 10
-738.3093214723
 20
-232.4186345591
 30
0.0
 11
-737.9093147012
 21
-232.818626429
 31
0.0
  0
LINE
  5
1FE
  8
0
  6
CONTINUOUS
 62
     7
 10
-737.6893139573
 20
-227.8186311974
 30
0.0
 11
-737.9093147012
 21
-227.8186311974
 31
0.0
  0
LINE
  5
1FF
  8
0
  6
CONTINUOUS
 62
     7
 10
-737.9093147012
 20
-232.818626429
 30
0.0
 11
-737.6893139573
 21
-232.818626429
 31
0.0
  0
LINE
  5
200
  8
0
  6
CONTINUOUS
 62
     7
 10
-737.9093147012
 20
-267.8186303033
 30
0.0
 11
-738.3093214723
 21
-268.2186296238
 31
0.0
  0
LINE
  5
201
  8
0
  6
CONTINUOUS
 62
     7
 10
-738.3093214723
 20
-272.418633665
 30
0.0
 11
-737.9093147012
 21
-272.8186329855
 31
0.0
  0
LINE
  5
202
  8
0
  6
CONTINUOUS
 62
     7
 10
-737.6893139573
 20
-267.8186303033
 30
0.0
 11
-737.9093147012
 21
-267.8186303033
 31
0.0
  0
LINE
  5
203
  8
0
  6
CONTINUOUS
 62
     7
 10
-737.9093147012
 20
-272.8186329855
 30
0.0
 11
-737.6893139573
 21
-272.8186329855
 31
0.0
  0
LINE
  5
204
  8
0
  6
CONTINUOUS
 62
     7
 10
-737.9093147012
 20
252.4313697563
 30
0.0
 11
-738.3093214723
 21
252.0313629852
 31
0.0
  0
LINE
  5
205
  8
0
  6
CONTINUOUS
 62
     7
 10
-738.3093214723
 20
247.8313812957
 30
0.0
 11
-737.9093147012
 21
247.4313745246
 31
0.0
  0
LINE
  5
206
  8
0
  6
CONTINUOUS
 62
     7
 10
-737.6893139573
 20
252.4313697563
 30
0.0
 11
-737.9093147012
 21
252.4313697563
 31
0.0
  0
LINE
  5
207
  8
0
  6
CONTINUOUS
 62
     7
 10
-737.9093147012
 20
247.4313745246
 30
0.0
 11
-737.6893139573
 21
247.4313745246
 31
0.0
  0
LINE
  5
208
  8
0
  6
CONTINUOUS
 62
     7
 10
-737.6893139573
 20
692.6813492523
 30
0.0
 11
-737.9093147012
 21
692.6813492523
 31
0.0
  0
LINE
  5
209
  8
0
  6
CONTINUOUS
 62
     7
 10
-737.9093147012
 20
687.6813540206
 30
0.0
 11
-737.6893139573
 21
687.6813540206
 31
0.0
  0
LINE
  5
20A
  8
0
  6
CONTINUOUS
 62
     7
 10
-737.9093147012
 20
692.6813492523
 30
0.0
 11
-738.3093214723
 21
692.2814020858
 31
0.0
  0
LINE
  5
20B
  8
0
  6
CONTINUOUS
 62
     7
 10
-738.3093214723
 20
688.0814203964
 30
0.0
 11
-737.9093147012
 21
687.6813540206
 31
0.0
  0
POLYLINE
  5
20C
  8
0
  6
CONTINUOUS
 62
     7
 66
     1
 10
0.0
 20
0.0
 30
0.0
  0
VERTEX
  5
66E
  8
0
  6
CONTINUOUS
 62
     7
 10
-351.5747464391
 20
814.8025641189
 30
0.0
  0
VERTEX
  5
66F
  8
0
  6
CONTINUOUS
 62
     7
 10
-351.8036729785
 20
815.0154719101
 30
0.0
  0
VERTEX
  5
670
  8
0
  6
CONTINUOUS
 62
     7
 10
-352.4893201085
 20
815.1814112411
 30
0.0
  0
SEQEND
  5
671
  8
0
  6
CONTINUOUS
 62
     7
  0
LINE
  5
20D
  8
0
  6
CONTINUOUS
 62
     7
 10
-352.4893201085
 20
816.6814217315
 30
0.0
 11
-352.4893201085
 21
815.1814112411
 31
0.0
  0
ARC
  5
20E
  8
0
  6
CONTINUOUS
 62
     7
 10
-352.4894304837
 20
813.6813052772
 30
0.0
 40
3.000116456381114
 50
0.0018233391
 51
89.997892071
  0
LINE
  5
20F
  8
0
  6
CONTINUOUS
 62
     7
 10
-352.4893201085
 20
-360.3186314954
 30
0.0
 11
-352.4893201085
 21
-358.8186303182
 31
0.0
  0
LINE
  5
210
  8
0
  6
CONTINUOUS
 62
     7
 10
-352.4893201085
 20
-360.3186314954
 30
0.0
 11
-356.4893133136
 21
-360.3186314954
 31
0.0
  0
LINE
  5
211
  8
0
  6
CONTINUOUS
 62
     7
 10
-352.4893201085
 20
-358.8186303182
 30
0.0
 11
-356.4893133136
 21
-358.8186303182
 31
0.0
  0
LINE
  5
212
  8
0
  6
CONTINUOUS
 62
     7
 10
-352.4893201085
 20
816.6814217315
 30
0.0
 11
-356.4893133136
 21
816.6814217315
 31
0.0
  0
LINE
  5
213
  8
0
  6
CONTINUOUS
 62
     7
 10
-352.4893201085
 20
815.1814112411
 30
0.0
 11
-356.4893133136
 21
815.1814112411
 31
0.0
  0
POLYLINE
  5
214
  8
0
  6
CONTINUOUS
 62
     7
 66
     1
 10
0.0
 20
0.0
 30
0.0
  0
VERTEX
  5
672
  8
0
  6
CONTINUOUS
 62
     7
 10
-352.4893201085
 20
-358.8186303182
 30
0.0
  0
VERTEX
  5
673
  8
0
  6
CONTINUOUS
 62
     7
 10
-351.8948531839
 20
-358.6958037718
 30
0.0
  0
VERTEX
  5
674
  8
0
  6
CONTINUOUS
 62
     7
 10
-351.4873511287
 20
-358.4102379187
 30
0.0
  0
SEQEND
  5
675
  8
0
  6
CONTINUOUS
 62
     7
  0
ARC
  5
215
  8
0
  6
CONTINUOUS
 62
     7
 10
-352.4893321437
 20
-357.3186133806
 30
0.0
 40
3.000018114883722
 50
270.0002298532
 51
359.9996634252
  0
LINE
  5
216
  8
0
  6
CONTINUOUS
 62
     7
 10
-349.4893140289
 20
813.6814007507
 30
0.0
 11
-349.4893140289
 21
-357.3186310037
 31
0.0
  0
POLYLINE
  5
217
  8
0
  6
CONTINUOUS
 62
     7
 66
     1
 10
0.0
 20
0.0
 30
0.0
  0
VERTEX
  5
676
  8
0
  6
CONTINUOUS
 62
     7
 10
-352.4893201085
 20
815.0813946472
 30
0.0
  0
VERTEX
  5
677
  8
0
  6
CONTINUOUS
 62
     7
 10
-351.3412750455
 20
814.7313961731
 30
0.0
  0
VERTEX
  5
678
  8
0
  6
CONTINUOUS
 62
     7
 10
-350.3680057021
 20
814.3813976989
 30
0.0
  0
VERTEX
  5
679
  8
0
  6
CONTINUOUS
 62
     7
 10
-349.7176743242
 20
814.0313992248
 30
0.0
  0
VERTEX
  5
67A
  8
0
  6
CONTINUOUS
 62
     7
 10
-349.4893140289
 20
813.6814007507
 30
0.0
  0
SEQEND
  5
67B
  8
0
  6
CONTINUOUS
 62
     7
  0
POLYLINE
  5
218
  8
0
  6
CONTINUOUS
 62
     7
 66
     1
 10
0.0
 20
0.0
 30
0.0
  0
VERTEX
  5
67C
  8
0
  6
CONTINUOUS
 62
     7
 10
-349.4893140289
 20
-357.3186310037
 30
0.0
  0
VERTEX
  5
67D
  8
0
  6
CONTINUOUS
 62
     7
 10
-349.6732539626
 20
-357.6323451503
 30
0.0
  0
VERTEX
  5
67E
  8
0
  6
CONTINUOUS
 62
     7
 10
-350.2026028129
 20
-357.9461077257
 30
0.0
  0
VERTEX
  5
67F
  8
0
  6
CONTINUOUS
 62
     7
 10
-351.0124362203
 20
-358.2598703011
 30
0.0
  0
VERTEX
  5
680
  8
0
  6
CONTINUOUS
 62
     7
 10
-352.0034230443
 20
-358.5736347391
 30
0.0
  0
VERTEX
  5
681
  8
0
  6
CONTINUOUS
 62
     7
 10
-352.4893201085
 20
-358.7186304881
 30
0.0
  0
SEQEND
  5
682
  8
0
  6
CONTINUOUS
 62
     7
  0
LINE
  5
219
  8
0
  6
CONTINUOUS
 62
     7
 10
-352.4893201085
 20
815.0813946472
 30
0.0
 11
-356.4893133136
 21
815.0813946472
 31
0.0
  0
LINE
  5
21A
  8
0
  6
CONTINUOUS
 62
     7
 10
-352.4893201085
 20
-358.7186304881
 30
0.0
 11
-356.4893133136
 21
-358.7186304881
 31
0.0
  0
LINE
  5
21B
  8
0
  6
CONTINUOUS
 62
     7
 10
-741.8893254491
 20
817.1813854919
 30
0.0
 11
-741.8893254491
 21
820.1814064727
 31
0.0
  0
POLYLINE
  5
21C
  8
0
  6
CONTINUOUS
 62
     7
 66
     1
 10
0.0
 20
0.0
 30
0.0
  0
VERTEX
  5
683
  8
0
  6
CONTINUOUS
 62
     7
 10
-752.791238496
 20
820.1814064727
 30
0.0
  0
VERTEX
  5
684
  8
0
  6
CONTINUOUS
 62
     7
 10
-752.6115900966
 20
820.0992712722
 30
0.0
  0
VERTEX
  5
685
  8
0
  6
CONTINUOUS
 62
     7
 10
-752.4829334709
 20
819.8908934341
 30
0.0
  0
VERTEX
  5
686
  8
0
  6
CONTINUOUS
 62
     7
 10
-752.3786104413
 20
819.3022379623
 30
0.0
  0
VERTEX
  5
687
  8
0
  6
CONTINUOUS
 62
     7
 10
-752.4805343839
 20
818.4502491699
 30
0.0
  0
VERTEX
  5
688
  8
0
  6
CONTINUOUS
 62
     7
 10
-752.6097870561
 20
817.8635010467
 30
0.0
  0
VERTEX
  5
689
  8
0
  6
CONTINUOUS
 62
     7
 10
-752.791238496
 20
817.1813854919
 30
0.0
  0
SEQEND
  5
68A
  8
0
  6
CONTINUOUS
 62
     7
  0
LINE
  5
21D
  8
0
  6
CONTINUOUS
 62
     7
 10
-741.8893254491
 20
820.1814064727
 30
0.0
 11
-752.791238496
 21
820.1814064727
 31
0.0
  0
ARC
  5
21E
  8
0
  6
CONTINUOUS
 62
     7
 10
-755.3893186339
 20
818.6813692795
 30
0.0
 40
2.999999999999837
 50
300.0
 51
330.0
  0
LINE
  5
21F
  8
0
  6
CONTINUOUS
 62
     7
 10
-741.8893254491
 20
-357.3186310037
 30
0.0
 11
-741.8893254491
 21
817.1813854919
 31
0.0
  0
ARC
  5
220
  8
0
  6
CONTINUOUS
 62
     7
 10
-755.3893186339
 20
-358.8186307205
 30
0.0
 40
2.999999999999865
 50
30.0
 51
60.0
  0
POLYLINE
  5
221
  8
0
  6
CONTINUOUS
 62
     7
 66
     1
 10
0.0
 20
0.0
 30
0.0
  0
VERTEX
  5
68B
  8
0
  6
CONTINUOUS
 62
     7
 10
-752.791238496
 20
-357.3186310037
 30
0.0
  0
VERTEX
  5
68C
  8
0
  6
CONTINUOUS
 62
     7
 10
-752.6115900966
 20
-358.0158321216
 30
0.0
  0
VERTEX
  5
68D
  8
0
  6
CONTINUOUS
 62
     7
 10
-752.4829334709
 20
-358.606368865
 30
0.0
  0
VERTEX
  5
68E
  8
0
  6
CONTINUOUS
 62
     7
 10
-752.3786104413
 20
-359.4403533294
 30
0.0
  0
VERTEX
  5
68F
  8
0
  6
CONTINUOUS
 62
     7
 10
-752.4805343839
 20
-360.0370628788
 30
0.0
  0
VERTEX
  5
690
  8
0
  6
CONTINUOUS
 62
     7
 10
-752.6097870561
 20
-360.2400483592
 30
0.0
  0
VERTEX
  5
691
  8
0
  6
CONTINUOUS
 62
     7
 10
-752.791238496
 20
-360.3186314954
 30
0.0
  0
SEQEND
  5
692
  8
0
  6
CONTINUOUS
 62
     7
  0
LINE
  5
222
  8
0
  6
CONTINUOUS
 62
     7
 10
-741.8893254491
 20
-360.3186314954
 30
0.0
 11
-741.8893254491
 21
-357.3186310037
 31
0.0
  0
LINE
  5
223
  8
0
  6
CONTINUOUS
 62
     7
 10
-752.791238496
 20
-360.3186314954
 30
0.0
 11
-741.8893254491
 21
-360.3186314954
 31
0.0
  0
POLYLINE
  5
224
  8
0
  6
CONTINUOUS
 62
     7
 66
     1
 10
0.0
 20
0.0
 30
0.0
  0
VERTEX
  5
693
  8
0
  6
CONTINUOUS
 62
     7
 10
-756.8893260452
 20
-356.2205551221
 30
0.0
  0
VERTEX
  5
694
  8
0
  6
CONTINUOUS
 62
     7
 10
-756.8071759435
 20
-356.0409067227
 30
0.0
  0
VERTEX
  5
695
  8
0
  6
CONTINUOUS
 62
     7
 10
-756.5988875123
 20
-355.9122519596
 30
0.0
  0
VERTEX
  5
696
  8
0
  6
CONTINUOUS
 62
     7
 10
-756.0102320405
 20
-355.8079158916
 30
0.0
  0
VERTEX
  5
697
  8
0
  6
CONTINUOUS
 62
     7
 10
-755.1582283469
 20
-355.9098472847
 30
0.0
  0
VERTEX
  5
698
  8
0
  6
CONTINUOUS
 62
     7
 10
-754.5714653226
 20
-356.0391036822
 30
0.0
  0
VERTEX
  5
699
  8
0
  6
CONTINUOUS
 62
     7
 10
-753.8893199655
 20
-356.2205551221
 30
0.0
  0
SEQEND
  5
69A
  8
0
  6
CONTINUOUS
 62
     7
  0
LINE
  5
225
  8
0
  6
CONTINUOUS
 62
     7
 10
-756.8893260452
 20
-356.2205551221
 30
0.0
 11
-756.8893260452
 21
816.0833487258
 31
0.0
  0
POLYLINE
  5
226
  8
0
  6
CONTINUOUS
 62
     7
 66
     1
 10
0.0
 20
0.0
 30
0.0
  0
VERTEX
  5
69B
  8
0
  6
CONTINUOUS
 62
     7
 10
-753.8893199655
 20
816.0833487258
 30
0.0
  0
VERTEX
  5
69C
  8
0
  6
CONTINUOUS
 62
     7
 10
-754.5865154954
 20
815.9037003265
 30
0.0
  0
VERTEX
  5
69D
  8
0
  6
CONTINUOUS
 62
     7
 10
-755.1770634147
 20
815.7749542938
 30
0.0
  0
VERTEX
  5
69E
  8
0
  6
CONTINUOUS
 62
     7
 10
-756.0110367032
 20
815.6706461654
 30
0.0
  0
VERTEX
  5
69F
  8
0
  6
CONTINUOUS
 62
     7
 10
-756.6077537032
 20
815.772570108
 30
0.0
  0
VERTEX
  5
6A0
  8
0
  6
CONTINUOUS
 62
     7
 10
-756.810737321
 20
815.9017929779
 30
0.0
  0
VERTEX
  5
6A1
  8
0
  6
CONTINUOUS
 62
     7
 10
-756.8893260452
 20
816.0833487258
 30
0.0
  0
SEQEND
  5
6A2
  8
0
  6
CONTINUOUS
 62
     7
  0
LINE
  5
227
  8
0
  6
CONTINUOUS
 62
     7
 10
-752.791238496
 20
818.6813959823
 30
0.0
 11
-752.791238496
 21
820.1814064727
 31
0.0
  0
ARC
  5
228
  8
0
  6
CONTINUOUS
 62
     7
 10
-752.79050285
 20
818.2687582254
 30
0.0
 40
0.4126384126801177
 50
355.9820091881
 51
90.1021461658
  0
LINE
  5
229
  8
0
  6
CONTINUOUS
 62
     7
 10
-752.791238496
 20
-360.3186314954
 30
0.0
 11
-752.791238496
 21
-358.8186303182
 31
0.0
  0
LINE
  5
22A
  8
0
  6
CONTINUOUS
 62
     7
 10
-756.8893260452
 20
-356.2205551221
 30
0.0
 11
-755.3893155547
 21
-356.2205551221
 31
0.0
  0
LINE
  5
22B
  8
0
  6
CONTINUOUS
 62
     7
 10
-755.3893155547
 20
816.0833487258
 30
0.0
 11
-756.8893260452
 21
816.0833487258
 31
0.0
  0
LINE
  5
22C
  8
0
  6
CONTINUOUS
 62
     7
 10
-753.2680011483
 20
820.1814064727
 30
0.0
 11
-753.2680011483
 21
818.6813959823
 31
0.0
  0
LINE
  5
22D
  8
0
  6
CONTINUOUS
 62
     7
 10
-753.2680011483
 20
820.1814064727
 30
0.0
 11
-752.791238496
 21
820.1814064727
 31
0.0
  0
LINE
  5
22E
  8
0
  6
CONTINUOUS
 62
     7
 10
-753.2680011483
 20
818.6813959823
 30
0.0
 11
-752.791238496
 21
818.6813959823
 31
0.0
  0
LINE
  5
22F
  8
0
  6
CONTINUOUS
 62
     7
 10
-756.8893260452
 20
816.0833487258
 30
0.0
 11
-756.8893260452
 21
817.1813854919
 31
0.0
  0
LINE
  5
230
  8
0
  6
CONTINUOUS
 62
     7
 10
-756.8893260452
 20
817.1813854919
 30
0.0
 11
-755.3893155547
 21
817.1813854919
 31
0.0
  0
LINE
  5
231
  8
0
  6
CONTINUOUS
 62
     7
 10
-755.3893155547
 20
816.0833487258
 30
0.0
 11
-755.3893155547
 21
817.1813854919
 31
0.0
  0
LINE
  5
232
  8
0
  6
CONTINUOUS
 62
     7
 10
-755.3893155547
 20
-357.3186310037
 30
0.0
 11
-755.3893155547
 21
-356.2205551221
 31
0.0
  0
LINE
  5
233
  8
0
  6
CONTINUOUS
 62
     7
 10
-755.3893155547
 20
-357.3186310037
 30
0.0
 11
-756.8893260452
 21
-357.3186310037
 31
0.0
  0
LINE
  5
234
  8
0
  6
CONTINUOUS
 62
     7
 10
-756.8893260452
 20
-357.3186310037
 30
0.0
 11
-756.8893260452
 21
-356.2205551221
 31
0.0
  0
LINE
  5
235
  8
0
  6
CONTINUOUS
 62
     7
 10
-753.2680011483
 20
-360.3186314954
 30
0.0
 11
-753.2680011483
 21
-358.8186303182
 31
0.0
  0
LINE
  5
236
  8
0
  6
CONTINUOUS
 62
     7
 10
-752.791238496
 20
-358.8186303182
 30
0.0
 11
-753.2680011483
 21
-358.8186303182
 31
0.0
  0
LINE
  5
237
  8
0
  6
CONTINUOUS
 62
     7
 10
-752.791238496
 20
-360.3186314954
 30
0.0
 11
-753.2680011483
 21
-360.3186314954
 31
0.0
  0
LINE
  5
238
  8
0
  6
CONTINUOUS
 62
     7
 10
-753.8893199655
 20
820.1814064727
 30
0.0
 11
-753.8893199655
 21
818.6813959823
 31
0.0
  0
LINE
  5
239
  8
0
  6
CONTINUOUS
 62
     7
 10
-753.8893199655
 20
820.1814064727
 30
0.0
 11
-753.2680011483
 21
820.1814064727
 31
0.0
  0
LINE
  5
23A
  8
0
  6
CONTINUOUS
 62
     7
 10
-753.8893199655
 20
818.6813959823
 30
0.0
 11
-753.2680011483
 21
818.6813959823
 31
0.0
  0
LINE
  5
23B
  8
0
  6
CONTINUOUS
 62
     7
 10
-753.8893199655
 20
-358.8186303182
 30
0.0
 11
-753.8893199655
 21
-360.3186314954
 31
0.0
  0
LINE
  5
23C
  8
0
  6
CONTINUOUS
 62
     7
 10
-753.2680011483
 20
-358.8186303182
 30
0.0
 11
-753.8893199655
 21
-358.8186303182
 31
0.0
  0
LINE
  5
23D
  8
0
  6
CONTINUOUS
 62
     7
 10
-753.2680011483
 20
-360.3186314954
 30
0.0
 11
-753.8893199655
 21
-360.3186314954
 31
0.0
  0
ARC
  5
23E
  8
0
  6
CONTINUOUS
 62
     7
 10
-753.8890815312
 20
817.1811619599
 30
0.0
 40
3.000244522321826
 50
90.004553389
 51
179.995731201
  0
ARC
  5
23F
  8
0
  6
CONTINUOUS
 62
     7
 10
-753.8892902049
 20
817.1813706326
 30
0.0
 40
1.500025349966887
 50
90.0011367534
 51
179.9994324279
  0
ARC
  5
240
  8
0
  6
CONTINUOUS
 62
     7
 10
-753.8893025961
 20
-357.3186080464
 30
0.0
 40
3.000023449109863
 50
180.0004384491
 51
269.9996682725
  0
ARC
  5
241
  8
0
  6
CONTINUOUS
 62
     7
 10
-753.8893148427
 20
-357.3186296062
 30
0.0
 40
1.500000712082934
 50
180.0000533816
 51
269.9998043226
  0
LINE
  5
242
  8
0
  6
CONTINUOUS
 62
     7
 10
-359.4893193933
 20
-376.8186307075
 30
0.0
 11
-359.3809730502
 21
-376.8147126335
 31
0.0
  0
LINE
  5
243
  8
0
  6
CONTINUOUS
 62
     7
 10
-359.2726267072
 20
-378.3107945215
 30
0.0
 11
-359.3809730502
 21
-376.8147126335
 31
0.0
  0
LINE
  5
244
  8
0
  6
CONTINUOUS
 62
     7
 10
-359.4893193933
 20
-378.3186307206
 30
0.0
 11
-359.2726267072
 21
-378.3107945588
 31
0.0
  0
LINE
  5
245
  8
0
  6
CONTINUOUS
 62
     7
 10
-359.4893193933
 20
-376.8186307075
 30
0.0
 11
-359.4893193933
 21
-378.3186307206
 31
0.0
  0
LINE
  5
246
  8
0
  6
CONTINUOUS
 62
     7
 10
-357.989323804
 20
-375.3186306945
 30
0.0
 11
-356.4893133136
 21
-375.3186306945
 31
0.0
  0
ARC
  5
247
  8
0
  6
CONTINUOUS
 62
     7
 10
-359.4893220387
 20
-375.3186221528
 30
0.0
 40
3.00000872509673
 50
274.1421711741
 51
359.9998368662
  0
ARC
  5
248
  8
0
  6
CONTINUOUS
 62
     7
 10
-359.4893031029
 20
-375.3186503029
 30
0.0
 40
1.499979298960437
 50
274.1415659647
 51
0.0007489952
  0
LINE
  5
249
  8
0
  6
CONTINUOUS
 62
     7
 10
-359.4893193933
 20
-378.3186307206
 30
0.0
 11
-360.9893149825
 21
-378.3186307206
 31
0.0
  0
LINE
  5
24A
  8
0
  6
CONTINUOUS
 62
     7
 10
-359.4893193933
 20
-376.8186307075
 30
0.0
 11
-360.2999276611
 21
-376.8186307075
 31
0.0
  0
LINE
  5
24B
  8
0
  6
CONTINUOUS
 62
     7
 10
-356.4893133136
 20
-375.3186306945
 30
0.0
 11
-356.4893133136
 21
-375.2328442438
 31
0.0
  0
LINE
  5
24C
  8
0
  6
CONTINUOUS
 62
     7
 10
-359.4893193933
 20
821.6814169632
 30
0.0
 11
-359.4893193933
 21
820.1814064727
 31
0.0
  0
LINE
  5
24D
  8
0
  6
CONTINUOUS
 62
     7
 10
-356.6925949546
 20
818.6813959823
 30
0.0
 11
-356.4893133136
 21
818.6813959823
 31
0.0
  0
POLYLINE
  5
24E
  8
0
  6
CONTINUOUS
 62
     7
 66
     1
 10
0.0
 20
0.0
 30
0.0
  0
VERTEX
  5
6A3
  8
0
  6
CONTINUOUS
 62
     7
 10
-358.7139225694
 20
819.9304709182
 30
0.0
  0
VERTEX
  5
6A4
  8
0
  6
CONTINUOUS
 62
     7
 10
-358.9910692664
 20
820.0961718307
 30
0.0
  0
VERTEX
  5
6A5
  8
0
  6
CONTINUOUS
 62
     7
 10
-359.4893193933
 20
820.1814064727
 30
0.0
  0
SEQEND
  5
6A6
  8
0
  6
CONTINUOUS
 62
     7
  0
ARC
  5
24F
  8
0
  6
CONTINUOUS
 62
     7
 10
-359.4894864189
 20
818.6812438586
 30
0.0
 40
3.000173109180071
 50
0.0029051809
 51
89.9968102291
  0
LINE
  5
250
  8
0
  6
CONTINUOUS
 62
     7
 10
-732.6893187257
 20
820.1814064727
 30
0.0
 11
-732.6893187257
 21
821.6814169632
 31
0.0
  0
LINE
  5
251
  8
0
  6
CONTINUOUS
 62
     7
 10
-732.6893187257
 20
821.6814169632
 30
0.0
 11
-732.193765709
 21
821.6814169632
 31
0.0
  0
LINE
  5
252
  8
0
  6
CONTINUOUS
 62
     7
 10
-732.193765709
 20
821.6814169632
 30
0.0
 11
-359.4893193933
 21
821.6814169632
 31
0.0
  0
ARC
  5
253
  8
0
  6
CONTINUOUS
 62
     7
 10
-732.6892138784
 20
818.6812855905
 30
0.0
 40
3.000131374460507
 50
90.0020023482
 51
165.1313680159
  0
ARC
  5
254
  8
0
  6
CONTINUOUS
 62
     7
 10
-732.7239564278
 20
818.8053142559
 30
0.0
 40
1.376528081646246
 50
88.5581088647
 51
137.6589385097
  0
LINE
  5
255
  8
0
  6
CONTINUOUS
 62
     7
 10
-734.7838408443
 20
819.2373881088
 30
0.0
 11
-735.5888909789
 21
819.4511303649
 31
0.0
  0
LINE
  5
256
  8
0
  6
CONTINUOUS
 62
     7
 10
-735.6893248054
 20
818.6813959823
 30
0.0
 11
-735.5888909789
 21
819.4511303649
 31
0.0
  0
LINE
  5
257
  8
0
  6
CONTINUOUS
 62
     7
 10
-735.6893248054
 20
818.6813959823
 30
0.0
 11
-735.6893248054
 21
818.0486330734
 31
0.0
  0
LINE
  5
258
  8
0
  6
CONTINUOUS
 62
     7
 10
-356.4893133136
 20
817.9742464767
 30
0.0
 11
-356.4893133136
 21
818.6813959823
 31
0.0
  0
LINE
  5
259
  8
0
  6
CONTINUOUS
 62
     7
 10
-741.8893254491
 20
798.3124623046
 30
0.0
 11
-737.6068360301
 21
797.7105746017
 31
0.0
  0
LINE
  5
25A
  8
0
  6
CONTINUOUS
 62
     7
 10
-737.398085663
 20
799.1959223495
 30
0.0
 11
-737.6068360301
 21
797.7105746017
 31
0.0
  0
LINE
  5
25B
  8
0
  6
CONTINUOUS
 62
     7
 10
-741.8893254491
 20
799.8271355377
 30
0.0
 11
-737.398085663
 21
799.1959223495
 31
0.0
  0
POLYLINE
  5
25C
  8
0
  6
CONTINUOUS
 62
     7
 66
     1
 10
0.0
 20
0.0
 30
0.0
  0
VERTEX
  5
6A7
  8
0
  6
CONTINUOUS
 62
     7
 10
-736.2081087323
 20
799.5467552887
 30
0.0
  0
VERTEX
  5
6A8
  8
0
  6
CONTINUOUS
 62
     7
 10
-735.8251637908
 20
800.0575670944
 30
0.0
  0
VERTEX
  5
6A9
  8
0
  6
CONTINUOUS
 62
     7
 10
-735.6893248054
 20
800.6813893066
 30
0.0
  0
SEQEND
  5
6AA
  8
0
  6
CONTINUOUS
 62
     7
  0
LINE
  5
25D
  8
0
  6
CONTINUOUS
 62
     7
 10
-735.6893248054
 20
798.9470133529
 30
0.0
 11
-736.2081087323
 21
799.5467552887
 31
0.0
  0
ARC
  5
25E
  8
0
  6
CONTINUOUS
 62
     7
 10
-737.1896187591
 20
800.6823666332
 30
0.0
 40
1.5009913585496
 50
262.0166025915
 51
310.8368888755
  0
ARC
  5
25F
  8
0
  6
CONTINUOUS
 62
     7
 10
-737.1469301732
 20
800.4124740483
 30
0.0
 40
2.740761576092613
 50
260.3399404279
 51
302.1288419657
  0
POLYLINE
  5
260
  8
0
  6
CONTINUOUS
 62
     7
 66
     1
 10
0.0
 20
0.0
 30
0.0
  0
VERTEX
  5
6AB
  8
0
  6
CONTINUOUS
 62
     7
 10
-761.875105569
 20
305.3462276207
 30
0.0
  0
VERTEX
  5
6AC
  8
0
  6
CONTINUOUS
 62
     7
 10
-761.8478513452
 20
305.3415188537
 30
0.0
  0
VERTEX
  5
6AD
  8
0
  6
CONTINUOUS
 62
     7
 10
-761.8034011813
 20
305.3338298545
 30
0.0
  0
VERTEX
  5
6AE
  8
0
  6
CONTINUOUS
 62
     7
 10
-761.7427683564
 20
305.3233394371
 30
0.0
  0
VERTEX
  5
6AF
  8
0
  6
CONTINUOUS
 62
     7
 10
-761.6673386785
 20
305.3102860199
 30
0.0
  0
VERTEX
  5
6B0
  8
0
  6
CONTINUOUS
 62
     7
 10
-761.5788406822
 20
305.2949080215
 30
0.0
  0
VERTEX
  5
6B1
  8
0
  6
CONTINUOUS
 62
     7
 10
-761.4793158265
 20
305.2776822792
 30
0.0
  0
VERTEX
  5
6B2
  8
0
  6
CONTINUOUS
 62
     7
 10
-761.371014187
 20
305.2589664207
 30
0.0
  0
VERTEX
  5
6B3
  8
0
  6
CONTINUOUS
 62
     7
 10
-761.2564391586
 20
305.239118074
 30
0.0
  0
SEQEND
  5
6B4
  8
0
  6
CONTINUOUS
 62
     7
  0
ARC
  5
261
  8
0
  6
CONTINUOUS
 62
     7
 10
-919.6065365523
 20
291.7762941503
 30
0.0
 40
154.6945906738697
 50
352.8015049127
 51
0.1900272032
  0
POLYLINE
  5
262
  8
0
  6
CONTINUOUS
 62
     7
 66
     1
 10
0.0
 20
0.0
 30
0.0
  0
VERTEX
  5
6B5
  8
0
  6
CONTINUOUS
 62
     7
 10
-764.9179673883
 20
293.1465873466
 30
0.0
  0
VERTEX
  5
6B6
  8
0
  6
CONTINUOUS
 62
     7
 10
-764.9179673883
 20
293.1469449745
 30
0.0
  0
VERTEX
  5
6B7
  8
0
  6
CONTINUOUS
 62
     7
 10
-764.9171329233
 20
293.05205438
 30
0.0
  0
VERTEX
  5
6B8
  8
0
  6
CONTINUOUS
 62
     7
 10
-764.9127966853
 20
292.2893533454
 30
0.0
  0
SEQEND
  5
6B9
  8
0
  6
CONTINUOUS
 62
     7
  0
POLYLINE
  5
263
  8
0
  6
CONTINUOUS
 62
     7
 66
     1
 10
0.0
 20
0.0
 30
0.0
  0
VERTEX
  5
6BA
  8
0
  6
CONTINUOUS
 62
     7
 10
-767.0750147792
 20
266.3134107338
 30
0.0
  0
VERTEX
  5
6BB
  8
0
  6
CONTINUOUS
 62
     7
 10
-767.0751190873
 20
266.3128742919
 30
0.0
  0
VERTEX
  5
6BC
  8
0
  6
CONTINUOUS
 62
     7
 10
-767.058265874
 20
266.402638887
 30
0.0
  0
VERTEX
  5
6BD
  8
0
  6
CONTINUOUS
 62
     7
 10
-766.977561185
 20
266.8404946075
 30
0.0
  0
VERTEX
  5
6BE
  8
0
  6
CONTINUOUS
 62
     7
 10
-766.8310678693
 20
267.6691779838
 30
0.0
  0
VERTEX
  5
6BF
  8
0
  6
CONTINUOUS
 62
     7
 10
-766.4823806974
 20
269.843257402
 30
0.0
  0
SEQEND
  5
6C0
  8
0
  6
CONTINUOUS
 62
     7
  0
LINE
  5
264
  8
0
  6
CONTINUOUS
 62
     7
 10
-766.4823806974
 20
269.843257402
 30
0.0
 11
-766.131249735
 21
272.3919520126
 31
0.0
  0
LINE
  5
265
  8
0
  6
CONTINUOUS
 62
     7
 10
-761.2069971057
 20
308.2704314933
 30
0.0
 11
-761.9775063487
 21
308.4939489112
 31
0.0
  0
LINE
  5
266
  8
0
  6
CONTINUOUS
 62
     7
 10
-761.2069971057
 20
151.6923079238
 30
0.0
 11
-761.9775063487
 21
151.4687905059
 31
0.0
  0
LINE
  5
267
  8
0
  6
CONTINUOUS
 62
     7
 10
-767.5421512815
 20
281.974113916
 30
0.0
 11
-767.778021762
 21
281.9689283119
 31
0.0
  0
POLYLINE
  5
268
  8
0
  6
CONTINUOUS
 62
     7
 66
     1
 10
0.0
 20
0.0
 30
0.0
  0
VERTEX
  5
6C1
  8
0
  6
CONTINUOUS
 62
     7
 10
-767.778021762
 20
281.9689283119
 30
0.0
  0
VERTEX
  5
6C2
  8
0
  6
CONTINUOUS
 62
     7
 10
-767.6785118076
 20
283.3581337677
 30
0.0
  0
VERTEX
  5
6C3
  8
0
  6
CONTINUOUS
 62
     7
 10
-767.6002360078
 20
284.4494948135
 30
0.0
  0
VERTEX
  5
6C4
  8
0
  6
CONTINUOUS
 62
     7
 10
-767.550242612
 20
285.1459750877
 30
0.0
  0
VERTEX
  5
6C5
  8
0
  6
CONTINUOUS
 62
     7
 10
-767.533046672
 20
285.3852877365
 30
0.0
  0
SEQEND
  5
6C6
  8
0
  6
CONTINUOUS
 62
     7
  0
POLYLINE
  5
269
  8
0
  6
CONTINUOUS
 62
     7
 66
     1
 10
0.0
 20
0.0
 30
0.0
  0
VERTEX
  5
6C7
  8
0
  6
CONTINUOUS
 62
     7
 10
-767.5502575132
 20
285.1456770645
 30
0.0
  0
VERTEX
  5
6C8
  8
0
  6
CONTINUOUS
 62
     7
 10
-767.6002807113
 20
284.448898767
 30
0.0
  0
VERTEX
  5
6C9
  8
0
  6
CONTINUOUS
 62
     7
 10
-767.6785565111
 20
283.3575973259
 30
0.0
  0
VERTEX
  5
6CA
  8
0
  6
CONTINUOUS
 62
     7
 10
-767.778021762
 20
281.9689283119
 30
0.0
  0
SEQEND
  5
6CB
  8
0
  6
CONTINUOUS
 62
     7
  0
POLYLINE
  5
26A
  8
0
  6
CONTINUOUS
 62
     7
 66
     1
 10
0.0
 20
0.0
 30
0.0
  0
VERTEX
  5
6CC
  8
0
  6
CONTINUOUS
 62
     7
 10
-768.3081007692
 20
274.5365271316
 30
0.0
  0
VERTEX
  5
6CD
  8
0
  6
CONTINUOUS
 62
     7
 10
-768.2910836431
 20
274.7759589897
 30
0.0
  0
VERTEX
  5
6CE
  8
0
  6
CONTINUOUS
 62
     7
 10
-768.2415670844
 20
275.4723200546
 30
0.0
  0
VERTEX
  5
6CF
  8
0
  6
CONTINUOUS
 62
     7
 10
-768.1639469358
 20
276.5629658447
 30
0.0
  0
VERTEX
  5
6D0
  8
0
  6
CONTINUOUS
 62
     7
 10
-768.0650479289
 20
277.9509792076
 30
0.0
  0
SEQEND
  5
6D1
  8
0
  6
CONTINUOUS
 62
     7
  0
LINE
  5
26B
  8
0
  6
CONTINUOUS
 62
     7
 10
-768.0650479289
 20
277.9509792076
 30
0.0
 11
-767.8344673606
 21
277.9461512313
 31
0.0
  0
LINE
  5
26C
  8
0
  6
CONTINUOUS
 62
     7
 10
-767.6709122154
 20
278.7197599159
 30
0.0
 11
-767.4900419208
 21
281.2004456268
 31
0.0
  0
ARC
  5
26D
  8
0
  6
CONTINUOUS
 62
     7
 10
-767.3800828622
 20
281.931108157
 30
0.0
 40
0.3997377192159816
 50
174.5624051993
 51
269.9461182081
  0
ARC
  5
26E
  8
0
  6
CONTINUOUS
 62
     7
 10
-767.6658747783
 20
277.9317395978
 30
0.0
 40
0.3996365432987581
 50
90.0385758392
 51
177.2405558855
  0
ARC
  5
26F
  8
0
  6
CONTINUOUS
 62
     7
 10
-767.6658747783
 20
277.9317395978
 30
0.0
 40
0.399636543298531
 50
90.0385758392
 51
177.2405558855
  0
LINE
  5
270
  8
0
  6
CONTINUOUS
 62
     7
 10
-430.039321551
 20
822.0732578979
 30
0.0
 11
-411.3393253776
 21
822.0732578979
 31
0.0
  0
LINE
  5
271
  8
0
  6
CONTINUOUS
 62
     7
 10
-680.0393141004
 20
822.0732578979
 30
0.0
 11
-661.339317927
 21
822.0732578979
 31
0.0
  0
LINE
  5
272
  8
0
  6
CONTINUOUS
 62
     7
 10
-737.6893139573
 20
-222.8186359658
 30
0.0
 11
-737.6893139573
 21
-277.8186282172
 31
0.0
  0
LINE
  5
273
  8
0
  6
CONTINUOUS
 62
     7
 10
-737.6893139573
 20
-222.8186359658
 30
0.0
 11
-735.6893248054
 21
-222.8186359658
 31
0.0
  0
LINE
  5
274
  8
0
  6
CONTINUOUS
 62
     7
 10
-737.6893139573
 20
-277.8186282172
 30
0.0
 11
-735.6893248054
 21
-277.8186282172
 31
0.0
  0
LINE
  5
275
  8
0
  6
CONTINUOUS
 62
     7
 10
-739.9676717016
 20
-277.8186282172
 30
0.0
 11
-737.6893139573
 21
-277.8186282172
 31
0.0
  0
LINE
  5
276
  8
0
  6
CONTINUOUS
 62
     7
 10
-739.9676717016
 20
-222.8186359658
 30
0.0
 11
-737.6893139573
 21
-222.8186359658
 31
0.0
  0
LINE
  5
277
  8
0
  6
CONTINUOUS
 62
     7
 10
-741.8893254491
 20
-277.8186282172
 30
0.0
 11
-739.9676717016
 21
-277.8186282172
 31
0.0
  0
LINE
  5
278
  8
0
  6
CONTINUOUS
 62
     7
 10
-741.8893254491
 20
-222.8186359658
 30
0.0
 11
-739.9676717016
 21
-222.8186359658
 31
0.0
  0
LINE
  5
279
  8
0
  6
CONTINUOUS
 62
     7
 10
-737.6893139573
 20
257.4313649879
 30
0.0
 11
-737.6893139573
 21
202.4313578353
 31
0.0
  0
LINE
  5
27A
  8
0
  6
CONTINUOUS
 62
     7
 10
-737.6893139573
 20
257.4313649879
 30
0.0
 11
-735.6893248054
 21
257.4313649879
 31
0.0
  0
LINE
  5
27B
  8
0
  6
CONTINUOUS
 62
     7
 10
-737.6893139573
 20
202.4313578353
 30
0.0
 11
-735.6893248054
 21
202.4313578353
 31
0.0
  0
LINE
  5
27C
  8
0
  6
CONTINUOUS
 62
     7
 10
-739.9676717016
 20
202.4313578353
 30
0.0
 11
-737.6893139573
 21
202.4313578353
 31
0.0
  0
LINE
  5
27D
  8
0
  6
CONTINUOUS
 62
     7
 10
-739.9676717016
 20
257.4313649879
 30
0.0
 11
-737.6893139573
 21
257.4313649879
 31
0.0
  0
LINE
  5
27E
  8
0
  6
CONTINUOUS
 62
     7
 10
-741.8893254491
 20
202.4313578353
 30
0.0
 11
-739.9676717016
 21
202.4313578353
 31
0.0
  0
LINE
  5
27F
  8
0
  6
CONTINUOUS
 62
     7
 10
-741.8893254491
 20
257.4313649879
 30
0.0
 11
-739.9676717016
 21
257.4313649879
 31
0.0
  0
LINE
  5
280
  8
0
  6
CONTINUOUS
 62
     7
 10
-737.6893139573
 20
737.6814255462
 30
0.0
 11
-737.6893139573
 21
682.681358789
 31
0.0
  0
LINE
  5
281
  8
0
  6
CONTINUOUS
 62
     7
 10
-737.6893139573
 20
737.6814255462
 30
0.0
 11
-735.6893248054
 21
737.6814255462
 31
0.0
  0
LINE
  5
282
  8
0
  6
CONTINUOUS
 62
     7
 10
-737.6893139573
 20
682.681358789
 30
0.0
 11
-735.6893248054
 21
682.681358789
 31
0.0
  0
LINE
  5
283
  8
0
  6
CONTINUOUS
 62
     7
 10
-739.9676717016
 20
682.681358789
 30
0.0
 11
-737.6893139573
 21
682.681358789
 31
0.0
  0
LINE
  5
284
  8
0
  6
CONTINUOUS
 62
     7
 10
-739.9676717016
 20
737.6814255462
 30
0.0
 11
-737.6893139573
 21
737.6814255462
 31
0.0
  0
LINE
  5
285
  8
0
  6
CONTINUOUS
 62
     7
 10
-741.8893254491
 20
682.681358789
 30
0.0
 11
-739.9676717016
 21
682.681358789
 31
0.0
  0
LINE
  5
286
  8
0
  6
CONTINUOUS
 62
     7
 10
-741.8893254491
 20
737.6814255462
 30
0.0
 11
-739.9676717016
 21
737.6814255462
 31
0.0
  0
LINE
  5
287
  8
0
  6
CONTINUOUS
 62
     7
 10
-737.9093147012
 20
732.6813111053
 30
0.0
 11
-737.9093147012
 21
727.6813158737
 31
0.0
  0
LINE
  5
288
  8
0
  6
CONTINUOUS
 62
     7
 10
-738.3093214723
 20
728.0813822494
 30
0.0
 11
-738.3093214723
 21
732.2813639389
 31
0.0
  0
LINE
  5
289
  8
0
  6
CONTINUOUS
 62
     7
 10
-738.3093214723
 20
207.8313598381
 30
0.0
 11
-738.3093214723
 21
212.0313415275
 31
0.0
  0
LINE
  5
28A
  8
0
  6
CONTINUOUS
 62
     7
 10
-737.9093147012
 20
212.4313482986
 30
0.0
 11
-737.9093147012
 21
207.431353067
 31
0.0
  0
LINE
  5
28B
  8
0
  6
CONTINUOUS
 62
     7
 10
-738.3093214723
 20
-232.4186345591
 30
0.0
 11
-738.3093214723
 21
-228.2186379685
 31
0.0
  0
LINE
  5
28C
  8
0
  6
CONTINUOUS
 62
     7
 10
-737.9093147012
 20
-227.8186311974
 30
0.0
 11
-737.9093147012
 21
-232.818626429
 31
0.0
  0
LINE
  5
28D
  8
0
  6
CONTINUOUS
 62
     7
 10
-738.3093214723
 20
-272.418633665
 30
0.0
 11
-738.3093214723
 21
-268.2186296238
 31
0.0
  0
LINE
  5
28E
  8
0
  6
CONTINUOUS
 62
     7
 10
-737.9093147012
 20
-267.8186303033
 30
0.0
 11
-737.9093147012
 21
-272.8186329855
 31
0.0
  0
LINE
  5
28F
  8
0
  6
CONTINUOUS
 62
     7
 10
-738.3093214723
 20
247.8313812957
 30
0.0
 11
-738.3093214723
 21
252.0313629852
 31
0.0
  0
LINE
  5
290
  8
0
  6
CONTINUOUS
 62
     7
 10
-737.9093147012
 20
252.4313697563
 30
0.0
 11
-737.9093147012
 21
247.4313745246
 31
0.0
  0
LINE
  5
291
  8
0
  6
CONTINUOUS
 62
     7
 10
-737.9093147012
 20
692.6813492523
 30
0.0
 11
-737.9093147012
 21
687.6813540206
 31
0.0
  0
LINE
  5
292
  8
0
  6
CONTINUOUS
 62
     7
 10
-738.3093214723
 20
688.0814203964
 30
0.0
 11
-738.3093214723
 21
692.2814020858
 31
0.0
  0
LINE
  5
293
  8
0
  6
CONTINUOUS
 62
     7
 10
-732.189325163
 20
-376.8186307075
 30
0.0
 11
-732.189325163
 21
-378.3186307206
 31
0.0
  0
LINE
  5
294
  8
0
  6
CONTINUOUS
 62
     7
 10
-732.189325163
 20
-376.8186307075
 30
0.0
 11
-731.8580723497
 21
-376.8186307075
 31
0.0
  0
LINE
  5
295
  8
0
  6
CONTINUOUS
 62
     7
 10
-732.189325163
 20
-378.3186307206
 30
0.0
 11
-730.4822183343
 21
-378.3186307206
 31
0.0
  0
LINE
  5
296
  8
0
  6
CONTINUOUS
 62
     7
 10
-732.6893187257
 20
-376.8186307075
 30
0.0
 11
-732.189325163
 21
-376.8186307075
 31
0.0
  0
LINE
  5
297
  8
0
  6
CONTINUOUS
 62
     7
 10
-732.6893187257
 20
-378.3186307206
 30
0.0
 11
-732.189325163
 21
-378.3186307206
 31
0.0
  0
ARC
  5
298
  8
0
  6
CONTINUOUS
 62
     7
 10
-732.6893190595
 20
-375.3186307206
 30
0.0
 40
3.0
 50
180.0
 51
270.0
  0
ARC
  5
299
  8
0
  6
CONTINUOUS
 62
     7
 10
-732.6893190595
 20
-375.3186307206
 30
0.0
 40
1.500000000000114
 50
180.0
 51
270.0
  0
LINE
  5
29A
  8
0
  6
CONTINUOUS
 62
     7
 10
-735.6893248054
 20
-374.8186306125
 30
0.0
 11
-734.5531857702
 21
-374.8186306125
 31
0.0
  0
LINE
  5
29B
  8
0
  6
CONTINUOUS
 62
     7
 10
-734.189314315
 20
-374.9740869767
 30
0.0
 11
-734.189314315
 21
-375.3186306945
 31
0.0
  0
LINE
  5
29C
  8
0
  6
CONTINUOUS
 62
     7
 10
-735.6893248054
 20
-374.8186306125
 30
0.0
 11
-735.6893248054
 21
-375.3186306945
 31
0.0
  0
LINE
  5
29D
  8
0
  6
CONTINUOUS
 62
     7
 10
-735.6893248054
 20
-373.1115237838
 30
0.0
 11
-735.6893248054
 21
-374.8186306125
 31
0.0
  0
LINE
  5
29E
  8
0
  6
CONTINUOUS
 62
     7
 10
-737.6068360301
 20
-338.0478253617
 30
0.0
 11
-741.8893254491
 21
-338.6496907129
 31
0.0
  0
LINE
  5
29F
  8
0
  6
CONTINUOUS
 62
     7
 10
-737.398085663
 20
-339.5332289888
 30
0.0
 11
-737.6068360301
 21
-338.0478253617
 31
0.0
  0
LINE
  5
2A0
  8
0
  6
CONTINUOUS
 62
     7
 10
-737.398085663
 20
-339.5332289888
 30
0.0
 11
-741.8893254491
 21
-340.1644310011
 31
0.0
  0
ARC
  5
2A1
  8
0
  6
CONTINUOUS
 62
     7
 10
-737.1893153097
 20
-341.0186199988
 30
0.0
 40
1.499990504314586
 50
359.9996603539
 51
98.0004637766
  0
ARC
  5
2A2
  8
0
  6
CONTINUOUS
 62
     7
 10
-737.1464277031
 20
-340.750238152
 30
0.0
 40
2.74135198707364
 50
57.8913063597
 51
99.6686121882
  0
LINE
  5
2A3
  8
0
  6
CONTINUOUS
 62
     7
 10
-737.6068360301
 20
-337.5239042594
 30
0.0
 11
-737.1892309877
 21
-337.4895049288
 31
0.0
  0
LINE
  5
2A4
  8
0
  6
CONTINUOUS
 62
     7
 10
-737.1892309877
 20
797.1502909408
 30
0.0
 11
-737.6068360301
 21
797.1846232162
 31
0.0
  0
LINE
  5
2A5
  8
0
  6
CONTINUOUS
 62
     7
 10
-734.189314315
 20
-375.0389333377
 30
0.0
 11
-733.5410690996
 21
-375.0389333377
 31
0.0
  0
LINE
  5
2A6
  8
0
  6
CONTINUOUS
 62
     7
 10
-359.4893193933
 20
820.1814064727
 30
0.0
 11
-732.193765709
 21
820.1814064727
 31
0.0
  0
LINE
  5
2A7
  8
0
  6
CONTINUOUS
 62
     7
 10
-359.9441624376
 20
-375.3186306945
 30
0.0
 11
-359.4893193933
 21
-375.3186306945
 31
0.0
  0
ARC
  5
2A8
  8
0
  6
CONTINUOUS
 62
     7
 10
-732.1937664487
 20
-370.3186307206
 30
0.0
 40
4.999999999973056
 50
264.3120472984
 51
270.0
  0
LINE
  5
2A9
  8
0
  6
CONTINUOUS
 62
     7
 10
-732.193765709
 20
820.1814064727
 30
0.0
 11
-732.6893187257
 21
819.9935326324
 31
0.0
  0
ARC
  5
2AA
  8
0
  6
CONTINUOUS
 62
     7
 10
-359.5832994226
 20
-319.5331480292
 30
0.0
 40
55.78556182782469
 50
270.0965242871
 51
273.1793774084
  0
POLYLINE
  5
2AB
  8
0
  6
CONTINUOUS
 62
     7
 66
     1
 10
0.0
 20
0.0
 30
0.0
  0
VERTEX
  5
6D2
  8
0
  6
CONTINUOUS
 62
     7
 10
-356.4893133136
 20
817.9742464767
 30
0.0
  0
VERTEX
  5
6D3
  8
0
  6
CONTINUOUS
 62
     7
 10
-356.6925949546
 20
818.6813959823
 30
0.0
  0
VERTEX
  5
6D4
  8
0
  6
CONTINUOUS
 62
     7
 10
-357.2748876306
 20
819.3884262786
 30
0.0
  0
SEQEND
  5
6D5
  8
0
  6
CONTINUOUS
 62
     7
  0
LINE
  5
2AC
  8
0
  6
CONTINUOUS
 62
     7
 10
-356.4893133136
 20
817.9742464767
 30
0.0
 11
-356.4893133136
 21
-375.2328442438
 31
0.0
  0
ARC
  5
2AD
  8
0
  6
CONTINUOUS
 62
     7
 10
-365.1989283392
 20
800.7486358599
 30
0.0
 40
20.25418988770689
 50
66.9689631818
 51
73.626503688
  0
ARC
  5
2AE
  8
0
  6
CONTINUOUS
 62
     7
 10
-365.6819795948
 20
-375.0017232956
 30
0.0
 40
5.746562105194533
 50
324.7462548169
 51
356.8386885539
  0
LINE
  5
2AF
  8
0
  6
CONTINUOUS
 62
     7
 10
-360.9893149825
 20
-378.3186307206
 30
0.0
 11
-730.4822183343
 21
-378.3186307206
 31
0.0
  0
POLYLINE
  5
2B0
  8
0
  6
CONTINUOUS
 62
     7
 66
     1
 10
0.0
 20
0.0
 30
0.0
  0
VERTEX
  5
6D6
  8
0
  6
CONTINUOUS
 62
     7
 10
-731.5452373716
 20
-377.8658025054
 30
0.0
  0
VERTEX
  5
6D7
  8
0
  6
CONTINUOUS
 62
     7
 10
-731.0137278529
 20
-378.2032030736
 30
0.0
  0
VERTEX
  5
6D8
  8
0
  6
CONTINUOUS
 62
     7
 10
-730.4822183343
 20
-378.3186307206
 30
0.0
  0
SEQEND
  5
6D9
  8
0
  6
CONTINUOUS
 62
     7
  0
ARC
  5
2B1
  8
0
  6
CONTINUOUS
 62
     7
 10
-713.3025581294
 20
-371.8649387261
 30
0.0
 40
19.20431493253434
 50
190.3604039162
 51
198.2084347312
  0
ARC
  5
2B2
  8
0
  6
CONTINUOUS
 62
     7
 10
-728.0037277694
 20
798.5157824805
 30
0.0
 40
21.98291414251355
 50
102.3068352161
 51
108.6338710949
  0
POLYLINE
  5
2B3
  8
0
  6
CONTINUOUS
 62
     7
 66
     1
 10
0.0
 20
0.0
 30
0.0
  0
VERTEX
  5
6DA
  8
0
  6
CONTINUOUS
 62
     7
 10
-734.2325425836
 20
-375.0795979081
 30
0.0
  0
VERTEX
  5
6DB
  8
0
  6
CONTINUOUS
 62
     7
 10
-733.4899730178
 20
-375.1868054765
 30
0.0
  0
VERTEX
  5
6DC
  8
0
  6
CONTINUOUS
 62
     7
 10
-732.6893187257
 20
-375.294012812
 30
0.0
  0
SEQEND
  5
6DD
  8
0
  6
CONTINUOUS
 62
     7
  0
ARC
  5
2B4
  8
0
  6
CONTINUOUS
 62
     7
 10
-732.878446287
 20
-372.5540891123
 30
0.0
 40
2.865618861324074
 50
191.2169800697
 51
241.8012270946
  0
LINE
  5
2B5
  8
0
  6
CONTINUOUS
 62
     7
 10
-735.6893248054
 20
-373.1115237838
 30
0.0
 11
-735.6893248054
 21
818.0486330734
 31
0.0
  0
POLYLINE
  5
2B6
  8
0
  6
CONTINUOUS
 62
     7
 66
     1
 10
0.0
 20
0.0
 30
0.0
  0
VERTEX
  5
6DE
  8
0
  6
CONTINUOUS
 62
     7
 10
-735.0276983472
 20
819.3463453994
 30
0.0
  0
VERTEX
  5
6DF
  8
0
  6
CONTINUOUS
 62
     7
 10
-735.5190790387
 20
818.6974892364
 30
0.0
  0
VERTEX
  5
6E0
  8
0
  6
CONTINUOUS
 62
     7
 10
-735.6893248054
 20
818.0486330734
 30
0.0
  0
SEQEND
  5
6E1
  8
0
  6
CONTINUOUS
 62
     7
  0
LINE
  5
2B7
  8
0
  6
CONTINUOUS
 62
     7
 10
-741.8893254491
 20
-338.16130888
 30
0.0
 11
-737.398085663
 21
-337.5239042594
 31
0.0
  0
LINE
  5
2B8
  8
0
  6
CONTINUOUS
 62
     7
 10
-737.398085663
 20
797.1846232162
 30
0.0
 11
-741.8893254491
 21
797.8220352874
 31
0.0
  0
ARC
  5
2B9
  8
0
  6
CONTINUOUS
 62
     7
 10
-745.8359975076
 20
-228.5316731489
 30
0.0
 40
109.3003919362698
 50
274.5374169326
 51
275.3266030479
  0
ARC
  5
2BA
  8
0
  6
CONTINUOUS
 62
     7
 10
-746.1448733648
 20
684.638953131
 30
0.0
 40
112.8671992482322
 50
84.6847363233
 51
85.4489836573
  0
ARC
  5
2BB
  8
0
  6
CONTINUOUS
 62
     7
 10
-737.5829335599
 20
792.7610702636
 30
0.0
 40
4.427413406207074
 50
64.6782574746
 51
87.6071618579
  0
ARC
  5
2BC
  8
0
  6
CONTINUOUS
 62
     7
 10
-737.5829819793
 20
-333.1011097851
 30
0.0
 40
4.426657611478513
 50
272.3938741829
 51
295.3270646829
  0
ARC
  5
2BD
  8
0
  6
CONTINUOUS
 62
     7
 10
50.9734420152
 20
1345.5270308358
 30
0.0
 40
100.0000000000041
 50
81.1241878669
 51
98.8758121331
  0
ARC
  5
2BE
  8
0
  6
CONTINUOUS
 62
     7
 10
35.6675468713
 20
1443.5391197522
 30
0.0
 40
0.8000000002423878
 50
98.8758094368
 51
168.2772923332
  0
ARC
  5
2BF
  8
0
  6
CONTINUOUS
 62
     7
 10
66.2793371592
 20
1443.5391197522
 30
0.0
 40
0.8000000002458959
 50
11.7227076668
 51
81.1241905629
  0
ARC
  5
2C0
  8
0
  6
CONTINUOUS
 62
     7
 10
88.7370663499
 20
1432.5270308352
 30
0.0
 40
55.00000000001666
 50
168.2773094144
 51
177.9136198395
  0
ARC
  5
2C1
  8
0
  6
CONTINUOUS
 62
     7
 10
13.2098176806
 20
1432.5270308352
 30
0.0
 40
55.00000000002023
 50
2.0863170139
 51
11.7226905855
  0
LINE
  5
2C2
  8
0
  6
CONTINUOUS
 62
     7
 10
51.6362256908
 20
1445.9413277211
 30
0.0
 11
50.973436942
 21
1445.9484653773
 31
0.0
  0
ARC
  5
2C3
  8
0
  6
CONTINUOUS
 62
     7
 10
52.0407135778
 20
1401.5254588376
 30
0.0
 40
44.41771064707045
 50
76.5535213061
 51
90.5217686543
  0
ARC
  5
2C4
  8
0
  6
CONTINUOUS
 62
     7
 10
49.745615803
 20
1402.9067940513
 30
0.0
 40
43.0382228905622
 50
89.2482798051
 51
103.369888038
  0
LINE
  5
2C5
  8
0
  6
CONTINUOUS
 62
     7
 10
50.973436942
 20
1445.9484653773
 30
0.0
 11
50.3102607631
 21
1445.9413128199
 31
0.0
  0
LINE
  5
2C6
  8
0
  6
CONTINUOUS
 62
     7
 10
43.273440709
 20
1398.0270313325
 30
0.0
 11
47.0432109737
 21
1398.0270313325
 31
0.0
  0
LINE
  5
2C7
  8
0
  6
CONTINUOUS
 62
     7
 10
11.6734422349
 20
1413.3270370068
 30
0.0
 11
11.6734422349
 21
1414.3270241322
 31
0.0
  0
LINE
  5
2C8
  8
0
  6
CONTINUOUS
 62
     7
 10
1.6734517717
 20
1414.3270241322
 30
0.0
 11
1.6734517717
 21
1413.3270370068
 31
0.0
  0
LINE
  5
2C9
  8
0
  6
CONTINUOUS
 62
     7
 10
581.6734350824
 20
1415.3270261588
 30
0.0
 11
581.6734350824
 21
1415.5470269027
 31
0.0
  0
LINE
  5
2CA
  8
0
  6
CONTINUOUS
 62
     7
 10
576.6734398507
 20
1415.5470269027
 30
0.0
 11
576.6734398507
 21
1415.3270261588
 31
0.0
  0
LINE
  5
2CB
  8
0
  6
CONTINUOUS
 62
     7
 10
581.6734350824
 20
1415.5470269027
 30
0.0
 11
581.2734283113
 21
1415.9470336738
 31
0.0
  0
LINE
  5
2CC
  8
0
  6
CONTINUOUS
 62
     7
 10
577.0734466218
 20
1415.9470336738
 30
0.0
 11
576.6734398507
 21
1415.5470269027
 31
0.0
  0
LINE
  5
2CD
  8
0
  6
CONTINUOUS
 62
     7
 10
15.4050506257
 20
1414.7815989556
 30
0.0
 11
15.4050506257
 21
1414.7353308501
 31
0.0
  0
LINE
  5
2CE
  8
0
  6
CONTINUOUS
 62
     7
 10
570.4418338441
 20
1414.7353308501
 30
0.0
 11
570.4418338441
 21
1414.7815989556
 31
0.0
  0
LINE
  5
2CF
  8
0
  6
CONTINUOUS
 62
     7
 10
4.9234546327
 20
1399.8270320001
 30
0.0
 11
4.3395973348
 21
1399.8270320001
 31
0.0
  0
LINE
  5
2D0
  8
0
  6
CONTINUOUS
 62
     7
 10
581.6305495405
 20
1399.8270320001
 30
0.0
 11
580.9234298372
 21
1399.8270320001
 31
0.0
  0
LINE
  5
2D1
  8
0
  6
CONTINUOUS
 62
     7
 10
46.92343544
 20
1049.3246900143
 30
0.0
 11
46.92343544
 21
1051.7270254197
 31
0.0
  0
LINE
  5
2D2
  8
0
  6
CONTINUOUS
 62
     7
 10
38.9234341287
 20
1051.7270254197
 30
0.0
 11
38.9234341287
 21
1049.3246900143
 31
0.0
  0
LINE
  5
2D3
  8
0
  6
CONTINUOUS
 62
     7
 10
546.9234503412
 20
1049.3246900143
 30
0.0
 11
546.9234503412
 21
1051.7270254197
 31
0.0
  0
LINE
  5
2D4
  8
0
  6
CONTINUOUS
 62
     7
 10
538.9234490299
 20
1051.7270254197
 30
0.0
 11
538.9234490299
 21
1049.3246900143
 31
0.0
  0
ARC
  5
2D5
  8
0
  6
CONTINUOUS
 62
     7
 10
2.4462141542
 20
1031.6497774729
 30
0.0
 40
4.772221710128149
 50
198.6076087106
 51
251.392106698
  0
LINE
  5
2D6
  8
0
  6
CONTINUOUS
 62
     7
 10
584.9234379434
 20
1027.1270262303
 30
0.0
 11
0.9234465265
 21
1027.1270262303
 31
0.0
  0
ARC
  5
2D7
  8
0
  6
CONTINUOUS
 62
     7
 10
583.4006703157
 20
1031.6497774729
 30
0.0
 40
4.772221710128256
 50
288.607893302
 51
341.3923912894
  0
LINE
  5
2D8
  8
0
  6
CONTINUOUS
 62
     7
 10
-2.0765446521
 20
1030.12703231
 30
0.0
 11
-2.0765446521
 21
1034.1270255151
 31
0.0
  0
LINE
  5
2D9
  8
0
  6
CONTINUOUS
 62
     7
 10
587.9234291219
 20
1030.12703231
 30
0.0
 11
587.9234291219
 21
1034.1270255151
 31
0.0
  0
LINE
  5
2DA
  8
0
  6
CONTINUOUS
 62
     7
 10
-5.0265573359
 20
1419.5270376506
 30
0.0
 11
-2.0265661574
 21
1419.5270376506
 31
0.0
  0
LINE
  5
2DB
  8
0
  6
CONTINUOUS
 62
     7
 10
-5.0265573359
 20
1419.5270376506
 30
0.0
 11
-5.0265573359
 21
1430.4289506974
 31
0.0
  0
POLYLINE
  5
2DC
  8
0
  6
CONTINUOUS
 62
     7
 66
     1
 10
0.0
 20
0.0
 30
0.0
  0
VERTEX
  5
6E2
  8
0
  6
CONTINUOUS
 62
     7
 10
-2.0265661574
 20
1430.4289506974
 30
0.0
  0
VERTEX
  5
6E3
  8
0
  6
CONTINUOUS
 62
     7
 10
-2.7237616873
 20
1430.2493022981
 30
0.0
  0
VERTEX
  5
6E4
  8
0
  6
CONTINUOUS
 62
     7
 10
-3.3142947055
 20
1430.1206456723
 30
0.0
  0
VERTEX
  5
6E5
  8
0
  6
CONTINUOUS
 62
     7
 10
-4.1482828952
 20
1430.0163226428
 30
0.0
  0
VERTEX
  5
6E6
  8
0
  6
CONTINUOUS
 62
     7
 10
-4.744984994
 20
1430.1182465854
 30
0.0
  0
VERTEX
  5
6E7
  8
0
  6
CONTINUOUS
 62
     7
 10
-4.9479686118
 20
1430.2474992576
 30
0.0
  0
VERTEX
  5
6E8
  8
0
  6
CONTINUOUS
 62
     7
 10
-5.0265573359
 20
1430.4289506974
 30
0.0
  0
SEQEND
  5
6E9
  8
0
  6
CONTINUOUS
 62
     7
  0
ARC
  5
2DD
  8
0
  6
CONTINUOUS
 62
     7
 10
590.4734420152
 20
1433.0270308353
 30
0.0
 40
2.999999999999944
 50
210.0
 51
225.0
  0
LINE
  5
2DE
  8
0
  6
CONTINUOUS
 62
     7
 10
583.9734293126
 20
1426.5270369353
 30
0.0
 11
588.3521355295
 21
1430.9057133498
 31
0.0
  0
LINE
  5
2DF
  8
0
  6
CONTINUOUS
 62
     7
 10
576.9734300279
 20
1426.5270369353
 30
0.0
 11
583.9734293126
 21
1426.5270369353
 31
0.0
  0
LINE
  5
2E0
  8
0
  6
CONTINUOUS
 62
     7
 10
576.9734300279
 20
1419.5270376506
 30
0.0
 11
576.9734300279
 21
1426.5270369353
 31
0.0
  0
LINE
  5
2E1
  8
0
  6
CONTINUOUS
 62
     7
 10
9.973428359
 20
1419.5270376506
 30
0.0
 11
576.9734300279
 21
1419.5270376506
 31
0.0
  0
LINE
  5
2E2
  8
0
  6
CONTINUOUS
 62
     7
 10
9.973428359
 20
1426.5270369353
 30
0.0
 11
9.973428359
 21
1419.5270376506
 31
0.0
  0
LINE
  5
2E3
  8
0
  6
CONTINUOUS
 62
     7
 10
2.9734290742
 20
1426.5270369353
 30
0.0
 11
9.973428359
 21
1426.5270369353
 31
0.0
  0
LINE
  5
2E4
  8
0
  6
CONTINUOUS
 62
     7
 10
-1.4052473403
 20
1430.9057133498
 30
0.0
 11
2.9734290742
 21
1426.5270369353
 31
0.0
  0
ARC
  5
2E5
  8
0
  6
CONTINUOUS
 62
     7
 10
-3.5265579848
 20
1433.0270308353
 30
0.0
 40
2.99999999999995
 50
315.0
 51
330.0
  0
LINE
  5
2E6
  8
0
  6
CONTINUOUS
 62
     7
 10
576.9734300279
 20
1419.5270376506
 30
0.0
 11
588.9734543466
 21
1419.5270376506
 31
0.0
  0
ARC
  5
2E7
  8
0
  6
CONTINUOUS
 62
     7
 10
590.4734420152
 20
1433.0270308353
 30
0.0
 40
3.000000000000106
 50
225.0
 51
240.0
  0
ARC
  5
2E8
  8
0
  6
CONTINUOUS
 62
     7
 10
-3.5265579848
 20
1433.0270308353
 30
0.0
 40
2.999999999999883
 50
300.0
 51
315.0
  0
LINE
  5
2E9
  8
0
  6
CONTINUOUS
 62
     7
 10
-2.0265661574
 20
1419.5270376506
 30
0.0
 11
9.973428359
 21
1419.5270376506
 31
0.0
  0
POLYLINE
  5
2EA
  8
0
  6
CONTINUOUS
 62
     7
 66
     1
 10
0.0
 20
0.0
 30
0.0
  0
VERTEX
  5
6EA
  8
0
  6
CONTINUOUS
 62
     7
 10
591.9734455251
 20
1430.4289506974
 30
0.0
  0
VERTEX
  5
6EB
  8
0
  6
CONTINUOUS
 62
     7
 10
591.8913103246
 20
1430.2493022981
 30
0.0
  0
VERTEX
  5
6EC
  8
0
  6
CONTINUOUS
 62
     7
 10
591.6829920911
 20
1430.1206456723
 30
0.0
  0
VERTEX
  5
6ED
  8
0
  6
CONTINUOUS
 62
     7
 10
591.0943664216
 20
1430.0163226428
 30
0.0
  0
VERTEX
  5
6EE
  8
0
  6
CONTINUOUS
 62
     7
 10
590.2423478269
 20
1430.1182465854
 30
0.0
  0
VERTEX
  5
6EF
  8
0
  6
CONTINUOUS
 62
     7
 10
589.6555997037
 20
1430.2474992576
 30
0.0
  0
VERTEX
  5
6F0
  8
0
  6
CONTINUOUS
 62
     7
 10
588.9734543466
 20
1430.4289506974
 30
0.0
  0
SEQEND
  5
6F1
  8
0
  6
CONTINUOUS
 62
     7
  0
LINE
  5
2EB
  8
0
  6
CONTINUOUS
 62
     7
 10
591.9734455251
 20
1430.4289506974
 30
0.0
 11
591.9734455251
 21
1419.5270376506
 31
0.0
  0
LINE
  5
2EC
  8
0
  6
CONTINUOUS
 62
     7
 10
588.9734543466
 20
1419.5270376506
 30
0.0
 11
591.9734455251
 21
1419.5270376506
 31
0.0
  0
LINE
  5
2ED
  8
0
  6
CONTINUOUS
 62
     7
 10
-3.5265468455
 20
1430.4289506974
 30
0.0
 11
-5.0265573359
 21
1430.4289506974
 31
0.0
  0
LINE
  5
2EE
  8
0
  6
CONTINUOUS
 62
     7
 10
591.9734455251
 20
1430.4289506974
 30
0.0
 11
590.4734350347
 21
1430.4289506974
 31
0.0
  0
POLYLINE
  5
2EF
  8
0
  6
CONTINUOUS
 62
     7
 66
     1
 10
0.0
 20
0.0
 30
0.0
  0
VERTEX
  5
6F2
  8
0
  6
CONTINUOUS
 62
     7
 10
-0.9284697867
 20
1434.5270382466
 30
0.0
  0
VERTEX
  5
6F3
  8
0
  6
CONTINUOUS
 62
     7
 10
-0.7488213874
 20
1434.444888145
 30
0.0
  0
VERTEX
  5
6F4
  8
0
  6
CONTINUOUS
 62
     7
 10
-0.6201647616
 20
1434.2365997138
 30
0.0
  0
VERTEX
  5
6F5
  8
0
  6
CONTINUOUS
 62
     7
 10
-0.5158566333
 20
1433.647944242
 30
0.0
  0
VERTEX
  5
6F6
  8
0
  6
CONTINUOUS
 62
     7
 10
-0.6177805758
 20
1432.7959405484
 30
0.0
  0
VERTEX
  5
6F7
  8
0
  6
CONTINUOUS
 62
     7
 10
-0.747033248
 20
1432.2091775241
 30
0.0
  0
VERTEX
  5
6F8
  8
0
  6
CONTINUOUS
 62
     7
 10
-0.9284697867
 20
1431.5270321669
 30
0.0
  0
SEQEND
  5
6F9
  8
0
  6
CONTINUOUS
 62
     7
  0
LINE
  5
2F0
  8
0
  6
CONTINUOUS
 62
     7
 10
-0.9284697867
 20
1434.5270382466
 30
0.0
 11
587.8753579759
 21
1434.5270382466
 31
0.0
  0
POLYLINE
  5
2F1
  8
0
  6
CONTINUOUS
 62
     7
 66
     1
 10
0.0
 20
0.0
 30
0.0
  0
VERTEX
  5
6FA
  8
0
  6
CONTINUOUS
 62
     7
 10
587.8753579759
 20
1431.5270321669
 30
0.0
  0
VERTEX
  5
6FB
  8
0
  6
CONTINUOUS
 62
     7
 10
587.6957095765
 20
1432.2242276969
 30
0.0
  0
VERTEX
  5
6FC
  8
0
  6
CONTINUOUS
 62
     7
 10
587.5670529508
 20
1432.8147756162
 30
0.0
  0
VERTEX
  5
6FD
  8
0
  6
CONTINUOUS
 62
     7
 10
587.4627150201
 20
1433.6487489047
 30
0.0
  0
VERTEX
  5
6FE
  8
0
  6
CONTINUOUS
 62
     7
 10
587.564668765
 20
1434.2454659047
 30
0.0
  0
VERTEX
  5
6FF
  8
0
  6
CONTINUOUS
 62
     7
 10
587.6939214372
 20
1434.4484495225
 30
0.0
  0
VERTEX
  5
700
  8
0
  6
CONTINUOUS
 62
     7
 10
587.8753579759
 20
1434.5270382466
 30
0.0
  0
SEQEND
  5
701
  8
0
  6
CONTINUOUS
 62
     7
  0
LINE
  5
2F2
  8
0
  6
CONTINUOUS
 62
     7
 10
587.8753579759
 20
1433.0270277562
 30
0.0
 11
587.8753579759
 21
1434.5270382466
 31
0.0
  0
LINE
  5
2F3
  8
0
  6
CONTINUOUS
 62
     7
 10
-0.9284697867
 20
1434.5270382466
 30
0.0
 11
-0.9284697867
 21
1433.0270277562
 31
0.0
  0
LINE
  5
2F4
  8
0
  6
CONTINUOUS
 62
     7
 10
587.8753579759
 20
1433.0270277562
 30
0.0
 11
588.9734543466
 21
1433.0270277562
 31
0.0
  0
LINE
  5
2F5
  8
0
  6
CONTINUOUS
 62
     7
 10
587.8753579759
 20
1434.5270382466
 30
0.0
 11
588.9734543466
 21
1434.5270382466
 31
0.0
  0
LINE
  5
2F6
  8
0
  6
CONTINUOUS
 62
     7
 10
588.9734543466
 20
1434.5270382466
 30
0.0
 11
588.9734543466
 21
1433.0270277562
 31
0.0
  0
LINE
  5
2F7
  8
0
  6
CONTINUOUS
 62
     7
 10
591.9734455251
 20
1431.5270321669
 30
0.0
 11
590.4734350347
 21
1431.5270321669
 31
0.0
  0
LINE
  5
2F8
  8
0
  6
CONTINUOUS
 62
     7
 10
591.9734455251
 20
1431.5270321669
 30
0.0
 11
591.9734455251
 21
1430.4289506974
 31
0.0
  0
LINE
  5
2F9
  8
0
  6
CONTINUOUS
 62
     7
 10
590.4734350347
 20
1431.5270321669
 30
0.0
 11
590.4734350347
 21
1430.4289506974
 31
0.0
  0
LINE
  5
2FA
  8
0
  6
CONTINUOUS
 62
     7
 10
-3.5265468455
 20
1431.5270321669
 30
0.0
 11
-5.0265573359
 21
1431.5270321669
 31
0.0
  0
LINE
  5
2FB
  8
0
  6
CONTINUOUS
 62
     7
 10
-5.0265573359
 20
1430.4289506974
 30
0.0
 11
-5.0265573359
 21
1431.5270321669
 31
0.0
  0
LINE
  5
2FC
  8
0
  6
CONTINUOUS
 62
     7
 10
-3.5265468455
 20
1430.4289506974
 30
0.0
 11
-3.5265468455
 21
1431.5270321669
 31
0.0
  0
LINE
  5
2FD
  8
0
  6
CONTINUOUS
 62
     7
 10
-2.0265661574
 20
1433.0270277562
 30
0.0
 11
-2.0265661574
 21
1434.5270382466
 31
0.0
  0
LINE
  5
2FE
  8
0
  6
CONTINUOUS
 62
     7
 10
-2.0265661574
 20
1433.0270277562
 30
0.0
 11
-0.9284697867
 21
1433.0270277562
 31
0.0
  0
LINE
  5
2FF
  8
0
  6
CONTINUOUS
 62
     7
 10
-2.0265661574
 20
1434.5270382466
 30
0.0
 11
-0.9284697867
 21
1434.5270382466
 31
0.0
  0
ARC
  5
300
  8
0
  6
CONTINUOUS
 62
     7
 10
-2.0265483514
 20
1431.5270292622
 30
0.0
 40
3.000008984488295
 50
90.000340068
 51
179.9999445233
  0
ARC
  5
301
  8
0
  6
CONTINUOUS
 62
     7
 10
-2.0265732571
 20
1431.5270541676
 30
0.0
 40
1.499973588584657
 50
89.9997288077
 51
180.0008403792
  0
ARC
  5
302
  8
0
  6
CONTINUOUS
 62
     7
 10
588.9734017339
 20
1431.5269944557
 30
0.0
 40
3.000043791393182
 50
0.0007202215
 51
89.9989951872
  0
ARC
  5
303
  8
0
  6
CONTINUOUS
 62
     7
 10
588.9734394741
 20
1431.5270321957
 30
0.0
 40
1.499995560612495
 50
359.9999989031
 51
89.99943191
  0
LINE
  5
304
  8
0
  6
CONTINUOUS
 62
     7
 10
538.1734437846
 20
1050.0650095048
 30
0.0
 11
538.1734437846
 21
1051.7270254197
 31
0.0
  0
LINE
  5
305
  8
0
  6
CONTINUOUS
 62
     7
 10
47.6734406852
 20
1051.7270254197
 30
0.0
 11
48.6942745351
 21
1051.7270254197
 31
0.0
  0
LINE
  5
306
  8
0
  6
CONTINUOUS
 62
     7
 10
537.1526099347
 20
1051.7270254197
 30
0.0
 11
538.1734437846
 21
1051.7270254197
 31
0.0
  0
LINE
  5
307
  8
0
  6
CONTINUOUS
 62
     7
 10
47.6734406852
 20
1050.0650095048
 30
0.0
 11
47.6734406852
 21
1051.7270254197
 31
0.0
  0
LINE
  5
308
  8
0
  6
CONTINUOUS
 62
     7
 10
38.1734288835
 20
1050.0650095048
 30
0.0
 11
38.1734288835
 21
1051.7270254197
 31
0.0
  0
LINE
  5
309
  8
0
  6
CONTINUOUS
 62
     7
 10
38.0030192041
 20
1051.7270254197
 30
0.0
 11
37.1526099347
 21
1051.7270254197
 31
0.0
  0
LINE
  5
30A
  8
0
  6
CONTINUOUS
 62
     7
 10
547.6734555864
 20
1050.0650095048
 30
0.0
 11
547.6734555864
 21
1051.7270254197
 31
0.0
  0
LINE
  5
30B
  8
0
  6
CONTINUOUS
 62
     7
 10
547.8438652658
 20
1051.7270254197
 30
0.0
 11
548.6942745351
 21
1051.7270254197
 31
0.0
  0
LINE
  5
30C
  8
0
  6
CONTINUOUS
 62
     7
 10
590.7163239621
 20
1037.1270315947
 30
0.0
 11
590.8543981218
 21
1036.9103389087
 31
0.0
  0
POLYLINE
  5
30D
  8
0
  6
CONTINUOUS
 62
     7
 66
     1
 10
0.0
 20
0.0
 30
0.0
  0
VERTEX
  5
702
  8
0
  6
CONTINUOUS
 62
     7
 10
590.8543981218
 20
1036.9103389087
 30
0.0
  0
VERTEX
  5
703
  8
0
  6
CONTINUOUS
 62
     7
 10
590.4966510438
 20
1035.8304666581
 30
0.0
  0
VERTEX
  5
704
  8
0
  6
CONTINUOUS
 62
     7
 10
590.1389337682
 20
1034.930436522
 30
0.0
  0
VERTEX
  5
705
  8
0
  6
CONTINUOUS
 62
     7
 10
589.7811866903
 20
1034.3350904288
 30
0.0
  0
VERTEX
  5
706
  8
0
  6
CONTINUOUS
 62
     7
 10
589.4234396123
 20
1034.1270255151
 30
0.0
  0
SEQEND
  5
707
  8
0
  6
CONTINUOUS
 62
     7
  0
LINE
  5
30E
  8
0
  6
CONTINUOUS
 62
     7
 10
589.4234396123
 20
1034.1270255151
 30
0.0
 11
-3.5765551425
 21
1034.1270255151
 31
0.0
  0
POLYLINE
  5
30F
  8
0
  6
CONTINUOUS
 62
     7
 66
     1
 10
0.0
 20
0.0
 30
0.0
  0
VERTEX
  5
708
  8
0
  6
CONTINUOUS
 62
     7
 10
-3.5765551425
 20
1034.1270255151
 30
0.0
  0
VERTEX
  5
709
  8
0
  6
CONTINUOUS
 62
     7
 10
-3.9343022204
 20
1034.3350904288
 30
0.0
  0
VERTEX
  5
70A
  8
0
  6
CONTINUOUS
 62
     7
 10
-4.2920492984
 20
1034.930436522
 30
0.0
  0
VERTEX
  5
70B
  8
0
  6
CONTINUOUS
 62
     7
 10
-4.649766574
 20
1035.8304666581
 30
0.0
  0
VERTEX
  5
70C
  8
0
  6
CONTINUOUS
 62
     7
 10
-5.0075136519
 20
1036.9103389087
 30
0.0
  0
SEQEND
  5
70D
  8
0
  6
CONTINUOUS
 62
     7
  0
LINE
  5
310
  8
0
  6
CONTINUOUS
 62
     7
 10
-5.0075136519
 20
1036.9103389087
 30
0.0
 11
-4.8694394923
 21
1037.1270315947
 31
0.0
  0
LINE
  5
311
  8
0
  6
CONTINUOUS
 62
     7
 10
-5.0075136519
 20
1037.0186852517
 30
0.0
 11
-4.8694394923
 21
1037.1270315947
 31
0.0
  0
LINE
  5
312
  8
0
  6
CONTINUOUS
 62
     7
 10
-5.0075136519
 20
1036.9103389087
 30
0.0
 11
-5.0075136519
 21
1037.0186852517
 31
0.0
  0
LINE
  5
313
  8
0
  6
CONTINUOUS
 62
     7
 10
590.7163239621
 20
1037.1270315947
 30
0.0
 11
562.0163298749
 21
1065.827025682
 31
0.0
  0
LINE
  5
314
  8
0
  6
CONTINUOUS
 62
     7
 10
100.923440566
 20
1065.827025682
 30
0.0
 11
23.8305545949
 21
1065.827025682
 31
0.0
  0
LINE
  5
315
  8
0
  6
CONTINUOUS
 62
     7
 10
100.923440566
 20
1095.7270251813
 30
0.0
 11
100.923440566
 21
1065.827025682
 31
0.0
  0
LINE
  5
316
  8
0
  6
CONTINUOUS
 62
     7
 10
484.9234439039
 20
1065.827025682
 30
0.0
 11
484.9234439039
 21
1095.7270251813
 31
0.0
  0
LINE
  5
317
  8
0
  6
CONTINUOUS
 62
     7
 10
562.0163298749
 20
1065.827025682
 30
0.0
 11
484.9234439039
 21
1065.827025682
 31
0.0
  0
CIRCLE
  5
318
  8
0
  6
CONTINUOUS
 62
     7
 10
542.9234422349
 20
1054.127031261
 30
0.0
 40
6.250000000000227
  0
CIRCLE
  5
319
  8
0
  6
CONTINUOUS
 62
     7
 10
42.9234422349
 20
1054.127031261
 30
0.0
 40
6.25
  0
LINE
  5
31A
  8
0
  6
CONTINUOUS
 62
     7
 10
23.8305545949
 20
1065.827025682
 30
0.0
 11
-4.8694394923
 21
1037.1270315947
 31
0.0
  0
LINE
  5
31B
  8
0
  6
CONTINUOUS
 62
     7
 10
590.7163239621
 20
1037.1270315947
 30
0.0
 11
590.8543981218
 21
1037.0186852517
 31
0.0
  0
LINE
  5
31C
  8
0
  6
CONTINUOUS
 62
     7
 10
590.8543981218
 20
1036.9103389087
 30
0.0
 11
590.8543981218
 21
1037.0186852517
 31
0.0
  0
LINE
  5
31D
  8
0
  6
CONTINUOUS
 62
     7
 10
100.923440566
 20
1098.727031261
 30
0.0
 11
484.9234439039
 21
1098.727031261
 31
0.0
  0
LINE
  5
31E
  8
0
  6
CONTINUOUS
 62
     7
 10
484.9234439039
 20
1098.727031261
 30
0.0
 11
484.9234439039
 21
1095.7270251813
 31
0.0
  0
LINE
  5
31F
  8
0
  6
CONTINUOUS
 62
     7
 10
100.923440566
 20
1095.7270251813
 30
0.0
 11
100.923440566
 21
1098.727031261
 31
0.0
  0
LINE
  5
320
  8
0
  6
CONTINUOUS
 62
     7
 10
570.633641591
 20
1415.0357978644
 30
0.0
 11
570.5987430715
 21
1414.8240374627
 31
0.0
  0
ARC
  5
321
  8
0
  6
CONTINUOUS
 62
     7
 10
434.5146346119
 20
1425.9124043155
 30
0.0
 40
136.5363952006927
 50
354.7112016358
 51
355.5188012483
  0
LINE
  5
322
  8
0
  6
CONTINUOUS
 62
     7
 10
570.633641591
 20
1415.0357978644
 30
0.0
 11
570.633641591
 21
1415.2445482316
 31
0.0
  0
ARC
  5
323
  8
0
  6
CONTINUOUS
 62
     7
 10
151.3322498579
 20
1425.9124043155
 30
0.0
 40
136.5363952006928
 50
184.4811987517
 51
185.2887983642
  0
LINE
  5
324
  8
0
  6
CONTINUOUS
 62
     7
 10
15.2481413984
 20
1414.8240374627
 30
0.0
 11
15.2132428788
 21
1415.0357978644
 31
0.0
  0
LINE
  5
325
  8
0
  6
CONTINUOUS
 62
     7
 10
15.2132428788
 20
1415.2445482316
 30
0.0
 11
15.2132428788
 21
1415.0357978644
 31
0.0
  0
LINE
  5
326
  8
0
  6
CONTINUOUS
 62
     7
 10
14.5758606099
 20
1419.5270376506
 30
0.0
 11
15.2132428788
 21
1415.0357978644
 31
0.0
  0
LINE
  5
327
  8
0
  6
CONTINUOUS
 62
     7
 10
15.2132428788
 20
1415.2445482316
 30
0.0
 11
14.6054841184
 21
1419.5270376506
 31
0.0
  0
LINE
  5
328
  8
0
  6
CONTINUOUS
 62
     7
 10
571.2414003515
 20
1419.5270376506
 30
0.0
 11
570.633641591
 21
1415.2445482316
 31
0.0
  0
LINE
  5
329
  8
0
  6
CONTINUOUS
 62
     7
 10
571.2710238599
 20
1419.5270376506
 30
0.0
 11
570.633641591
 21
1415.0357978644
 31
0.0
  0
POLYLINE
  5
32A
  8
0
  6
CONTINUOUS
 62
     7
 66
     1
 10
0.0
 20
0.0
 30
0.0
  0
VERTEX
  5
70E
  8
0
  6
CONTINUOUS
 62
     7
 10
570.4234458112
 20
1413.8458209338
 30
0.0
  0
VERTEX
  5
70F
  8
0
  6
CONTINUOUS
 62
     7
 10
571.1756564283
 20
1413.4628759923
 30
0.0
  0
VERTEX
  5
710
  8
0
  6
CONTINUOUS
 62
     7
 10
571.9278968477
 20
1413.3270370068
 30
0.0
  0
SEQEND
  5
711
  8
0
  6
CONTINUOUS
 62
     7
  0
LINE
  5
32B
  8
0
  6
CONTINUOUS
 62
     7
 10
14.699003806
 20
1413.4770320954
 30
0.0
 11
15.4234386586
 21
1413.8458209338
 31
0.0
  0
LINE
  5
32C
  8
0
  6
CONTINUOUS
 62
     7
 10
-5.519934783
 20
1036.9528221192
 30
0.0
 11
-5.321361909
 21
1036.3419639172
 31
0.0
  0
POLYLINE
  5
32D
  8
0
  6
CONTINUOUS
 62
     7
 66
     1
 10
0.0
 20
0.0
 30
0.0
  0
VERTEX
  5
712
  8
0
  6
CONTINUOUS
 62
     7
 10
591.1646104955
 20
1036.3365249934
 30
0.0
  0
VERTEX
  5
713
  8
0
  6
CONTINUOUS
 62
     7
 10
591.2761903905
 20
1036.666228086
 30
0.0
  0
VERTEX
  5
714
  8
0
  6
CONTINUOUS
 62
     7
 10
591.3678921365
 20
1036.9532244506
 30
0.0
  0
SEQEND
  5
715
  8
0
  6
CONTINUOUS
 62
     7
  0
POLYLINE
  5
32E
  8
0
  6
CONTINUOUS
 62
     7
 66
     1
 10
0.0
 20
0.0
 30
0.0
  0
VERTEX
  5
716
  8
0
  6
CONTINUOUS
 62
     7
 10
-5.5519424773
 20
1410.3270309272
 30
0.0
  0
VERTEX
  5
717
  8
0
  6
CONTINUOUS
 62
     7
 10
-5.4796420432
 20
1410.9786289039
 30
0.0
  0
VERTEX
  5
718
  8
0
  6
CONTINUOUS
 62
     7
 10
-5.438485036
 20
1411.2698124947
 30
0.0
  0
SEQEND
  5
719
  8
0
  6
CONTINUOUS
 62
     7
  0
LINE
  5
32F
  8
0
  6
CONTINUOUS
 62
     7
 10
591.3492954873
 20
1410.7733505072
 30
0.0
 11
591.3988269471
 21
1410.3270309272
 31
0.0
  0
ARC
  5
330
  8
0
  6
CONTINUOUS
 62
     7
 10
-3.5918076041
 20
1410.1572211911
 30
0.0
 40
1.967476573600403
 50
138.9948782716
 51
175.0487333626
  0
ARC
  5
331
  8
0
  6
CONTINUOUS
 62
     7
 10
589.4386920739
 20
1410.1572211911
 30
0.0
 40
1.967476573600157
 50
4.9512666373
 51
41.0051217284
  0
ARC
  5
332
  8
0
  6
CONTINUOUS
 62
     7
 10
586.4234422349
 20
1409.8314786501
 30
0.0
 40
5.000000000006594
 50
0.0
 51
5.6879527015
  0
ARC
  5
333
  8
0
  6
CONTINUOUS
 62
     7
 10
-0.5765577651
 20
1409.8314786501
 30
0.0
 40
5.0000000000065
 50
174.3120472985
 51
180.0
  0
ARC
  5
334
  8
0
  6
CONTINUOUS
 62
     7
 10
50.973436942
 20
1338.3948519679
 30
0.0
 40
101.3168657584544
 50
82.4990096992
 51
97.5009903008
  0
LINE
  5
335
  8
0
  6
CONTINUOUS
 62
     7
 10
34.8842359685
 20
1438.89415136
 30
0.0
 11
34.5779873037
 21
1436.9842546286
 31
0.0
  0
LINE
  5
336
  8
0
  6
CONTINUOUS
 62
     7
 10
67.3688865804
 20
1436.9842546286
 30
0.0
 11
67.0626528167
 21
1438.89415136
 31
0.0
  0
ARC
  5
337
  8
0
  6
CONTINUOUS
 62
     7
 10
35.6613216064
 20
1438.7265509339
 30
0.0
 40
0.7949540812825696
 50
98.4782052908
 51
167.82898425
  0
LINE
  5
338
  8
0
  6
CONTINUOUS
 62
     7
 10
67.0626528167
 20
1442.5927089753
 30
0.0
 11
67.0626528167
 21
1438.89415136
 31
0.0
  0
POLYLINE
  5
339
  8
0
  6
CONTINUOUS
 62
     7
 66
     1
 10
0.0
 20
0.0
 30
0.0
  0
VERTEX
  5
71A
  8
0
  6
CONTINUOUS
 62
     7
 10
-1.1172973014
 20
1413.3270370068
 30
0.0
  0
VERTEX
  5
71B
  8
0
  6
CONTINUOUS
 62
     7
 10
-1.0394536353
 20
1413.3969085517
 30
0.0
  0
VERTEX
  5
71C
  8
0
  6
CONTINUOUS
 62
     7
 10
-0.8072041369
 20
1413.4770320954
 30
0.0
  0
SEQEND
  5
71D
  8
0
  6
CONTINUOUS
 62
     7
  0
LINE
  5
33A
  8
0
  6
CONTINUOUS
 62
     7
 10
-0.8072041369
 20
1413.4770320954
 30
0.0
 11
1.6734517717
 21
1413.4770320954
 31
0.0
  0
LINE
  5
33B
  8
0
  6
CONTINUOUS
 62
     7
 10
11.6734422349
 20
1413.4770320954
 30
0.0
 11
15.4670990609
 21
1413.4770320954
 31
0.0
  0
LINE
  5
33C
  8
0
  6
CONTINUOUS
 62
     7
 10
43.273440709
 20
1398.0270313325
 30
0.0
 11
43.273440709
 21
1399.5672302546
 31
0.0
  0
LINE
  5
33D
  8
0
  6
CONTINUOUS
 62
     7
 10
588.2373667859
 20
1431.0270237031
 30
0.0
 11
588.4734309816
 21
1431.0270237031
 31
0.0
  0
LINE
  5
33E
  8
0
  6
CONTINUOUS
 62
     7
 10
588.4734309816
 20
1431.0270237031
 30
0.0
 11
588.4734309816
 21
1432.9765277209
 31
0.0
  0
ARC
  5
33F
  8
0
  6
CONTINUOUS
 62
     7
 10
587.9734420152
 20
1430.5270308353
 30
0.0
 40
2.5
 50
78.4630409672
 51
90.0
  0
ARC
  5
340
  8
0
  6
CONTINUOUS
 62
     7
 10
587.9734420152
 20
1430.5270308353
 30
0.0
 40
2.500000000000114
 50
0.0
 51
78.4630409672
  0
LINE
  5
341
  8
0
  6
CONTINUOUS
 62
     7
 10
545.6167675161
 20
1053.907586843
 30
0.0
 11
541.9098950528
 21
1053.3270376029
 31
0.0
  0
POLYLINE
  5
342
  8
0
  6
CONTINUOUS
 62
     7
 66
     1
 10
0.0
 20
0.0
 30
0.0
  0
VERTEX
  5
71E
  8
0
  6
CONTINUOUS
 62
     7
 10
541.9098950528
 20
1053.3270376029
 30
0.0
  0
VERTEX
  5
71F
  8
0
  6
CONTINUOUS
 62
     7
 10
541.6463382148
 20
1053.3301966491
 30
0.0
  0
VERTEX
  5
720
  8
0
  6
CONTINUOUS
 62
     7
 10
538.2030225896
 20
1053.907586843
 30
0.0
  0
SEQEND
  5
721
  8
0
  6
CONTINUOUS
 62
     7
  0
LINE
  5
343
  8
0
  6
CONTINUOUS
 62
     7
 10
538.2030225896
 20
1053.907586843
 30
0.0
 11
538.2030225896
 21
1058.2233803573
 31
0.0
  0
POLYLINE
  5
344
  8
0
  6
CONTINUOUS
 62
     7
 66
     1
 10
0.0
 20
0.0
 30
0.0
  0
VERTEX
  5
722
  8
0
  6
CONTINUOUS
 62
     7
 10
541.9098950528
 20
1059.8270284238
 30
0.0
  0
VERTEX
  5
723
  8
0
  6
CONTINUOUS
 62
     7
 10
541.6463382148
 20
1059.8238693776
 30
0.0
  0
VERTEX
  5
724
  8
0
  6
CONTINUOUS
 62
     7
 10
539.9976588392
 20
1059.547408134
 30
0.0
  0
SEQEND
  5
725
  8
0
  6
CONTINUOUS
 62
     7
  0
LINE
  5
345
  8
0
  6
CONTINUOUS
 62
     7
 10
545.6167675161
 20
1059.2464791837
 30
0.0
 11
541.9098950528
 21
1059.8270284238
 31
0.0
  0
LINE
  5
346
  8
0
  6
CONTINUOUS
 62
     7
 10
545.6167675161
 20
1053.907586843
 30
0.0
 11
545.6167675161
 21
1059.2464791837
 31
0.0
  0
POLYLINE
  5
347
  8
0
  6
CONTINUOUS
 62
     7
 66
     1
 10
0.0
 20
0.0
 30
0.0
  0
VERTEX
  5
726
  8
0
  6
CONTINUOUS
 62
     7
 10
547.9769922399
 20
1053.3270376029
 30
0.0
  0
VERTEX
  5
727
  8
0
  6
CONTINUOUS
 62
     7
 10
547.3346627855
 20
1053.3730672898
 30
0.0
  0
VERTEX
  5
728
  8
0
  6
CONTINUOUS
 62
     7
 10
545.6167675161
 20
1053.907586843
 30
0.0
  0
SEQEND
  5
729
  8
0
  6
CONTINUOUS
 62
     7
  0
LINE
  5
348
  8
0
  6
CONTINUOUS
 62
     7
 10
546.081564536
 20
1059.391094953
 30
0.0
 11
545.6167675161
 21
1059.2464791837
 31
0.0
  0
LINE
  5
349
  8
0
  6
CONTINUOUS
 62
     7
 10
541.9098950528
 20
1059.8270284238
 30
0.0
 11
545.4871274137
 21
1059.8270284238
 31
0.0
  0
LINE
  5
34A
  8
0
  6
CONTINUOUS
 62
     7
 10
540.3597570562
 20
1059.8270284238
 30
0.0
 11
541.9098950528
 21
1059.8270284238
 31
0.0
  0
LINE
  5
34B
  8
0
  6
CONTINUOUS
 62
     7
 10
538.2030225896
 20
1053.907586843
 30
0.0
 11
536.856359949
 21
1053.3270376029
 31
0.0
  0
LINE
  5
34C
  8
0
  6
CONTINUOUS
 62
     7
 10
549.0188516282
 20
1053.5245673957
 30
0.0
 11
547.9769922399
 21
1053.3270376029
 31
0.0
  0
LINE
  5
34D
  8
0
  6
CONTINUOUS
 62
     7
 10
49.0465081834
 20
1053.5985069575
 30
0.0
 11
47.9260153674
 21
1053.3270376029
 31
0.0
  0
POLYLINE
  5
34E
  8
0
  6
CONTINUOUS
 62
     7
 66
     1
 10
0.0
 20
0.0
 30
0.0
  0
VERTEX
  5
72A
  8
0
  6
CONTINUOUS
 62
     7
 10
47.9260153674
 20
1053.3270376029
 30
0.0
  0
VERTEX
  5
72B
  8
0
  6
CONTINUOUS
 62
     7
 10
47.7556503915
 20
1053.3301966491
 30
0.0
  0
VERTEX
  5
72C
  8
0
  6
CONTINUOUS
 62
     7
 10
45.5298937463
 20
1053.907586843
 30
0.0
  0
SEQEND
  5
72D
  8
0
  6
CONTINUOUS
 62
     7
  0
LINE
  5
34F
  8
0
  6
CONTINUOUS
 62
     7
 10
45.5298937463
 20
1053.907586843
 30
0.0
 11
45.5298937463
 21
1059.2464791837
 31
0.0
  0
LINE
  5
350
  8
0
  6
CONTINUOUS
 62
     7
 10
46.0646666192
 20
1059.3852089944
 30
0.0
 11
45.5298937463
 21
1059.2464791837
 31
0.0
  0
POLYLINE
  5
351
  8
0
  6
CONTINUOUS
 62
     7
 66
     1
 10
0.0
 20
0.0
 30
0.0
  0
VERTEX
  5
72E
  8
0
  6
CONTINUOUS
 62
     7
 10
45.5298937463
 20
1053.907586843
 30
0.0
  0
VERTEX
  5
72F
  8
0
  6
CONTINUOUS
 62
     7
 10
44.5950693988
 20
1053.6614345612
 30
0.0
  0
VERTEX
  5
730
  8
0
  6
CONTINUOUS
 62
     7
 10
41.8305314683
 20
1053.3270376029
 30
0.0
  0
SEQEND
  5
731
  8
0
  6
CONTINUOUS
 62
     7
  0
POLYLINE
  5
352
  8
0
  6
CONTINUOUS
 62
     7
 66
     1
 10
0.0
 20
0.0
 30
0.0
  0
VERTEX
  5
732
  8
0
  6
CONTINUOUS
 62
     7
 10
45.5298937463
 20
1059.2464791837
 30
0.0
  0
VERTEX
  5
733
  8
0
  6
CONTINUOUS
 62
     7
 10
44.5950693988
 20
1059.4926314654
 30
0.0
  0
VERTEX
  5
734
  8
0
  6
CONTINUOUS
 62
     7
 10
41.8305314683
 20
1059.8270284238
 30
0.0
  0
SEQEND
  5
735
  8
0
  6
CONTINUOUS
 62
     7
  0
LINE
  5
353
  8
0
  6
CONTINUOUS
 62
     7
 10
41.8305314683
 20
1059.8270284238
 30
0.0
 11
45.4871274137
 21
1059.8270284238
 31
0.0
  0
POLYLINE
  5
354
  8
0
  6
CONTINUOUS
 62
     7
 66
     1
 10
0.0
 20
0.0
 30
0.0
  0
VERTEX
  5
736
  8
0
  6
CONTINUOUS
 62
     7
 10
41.8305314683
 20
1053.3270376029
 30
0.0
  0
VERTEX
  5
737
  8
0
  6
CONTINUOUS
 62
     7
 10
40.8238090181
 20
1053.3730672898
 30
0.0
  0
VERTEX
  5
738
  8
0
  6
CONTINUOUS
 62
     7
 10
38.1311989927
 20
1053.907586843
 30
0.0
  0
SEQEND
  5
739
  8
0
  6
CONTINUOUS
 62
     7
  0
LINE
  5
355
  8
0
  6
CONTINUOUS
 62
     7
 10
38.1311989927
 20
1053.907586843
 30
0.0
 11
38.1311989927
 21
1058.1391142907
 31
0.0
  0
POLYLINE
  5
356
  8
0
  6
CONTINUOUS
 62
     7
 66
     1
 10
0.0
 20
0.0
 30
0.0
  0
VERTEX
  5
73A
  8
0
  6
CONTINUOUS
 62
     7
 10
41.8305314683
 20
1059.8270284238
 30
0.0
  0
VERTEX
  5
73B
  8
0
  6
CONTINUOUS
 62
     7
 10
40.8238090181
 20
1059.7809987368
 30
0.0
  0
VERTEX
  5
73C
  8
0
  6
CONTINUOUS
 62
     7
 10
39.9993277692
 20
1059.6173243823
 30
0.0
  0
SEQEND
  5
73D
  8
0
  6
CONTINUOUS
 62
     7
  0
LINE
  5
357
  8
0
  6
CONTINUOUS
 62
     7
 10
38.1311989927
 20
1053.907586843
 30
0.0
 11
36.827973237
 21
1053.3270376029
 31
0.0
  0
LINE
  5
358
  8
0
  6
CONTINUOUS
 62
     7
 10
40.3597570562
 20
1059.8270284238
 30
0.0
 11
41.8305314683
 21
1059.8270284238
 31
0.0
  0
LINE
  5
359
  8
0
  6
CONTINUOUS
 62
     7
 10
38.9234341287
 20
1049.2270278039
 30
0.0
 11
46.92343544
 21
1049.2270278039
 31
0.0
  0
LINE
  5
35A
  8
0
  6
CONTINUOUS
 62
     7
 10
549.1220272683
 20
1053.3270376029
 30
0.0
 11
536.7248572015
 21
1053.3270376029
 31
0.0
  0
LINE
  5
35B
  8
0
  6
CONTINUOUS
 62
     7
 10
547.8438652658
 20
1051.7270254197
 30
0.0
 11
538.1734437846
 21
1051.7270254197
 31
0.0
  0
LINE
  5
35C
  8
0
  6
CONTINUOUS
 62
     7
 10
538.9234490299
 20
1049.2270278039
 30
0.0
 11
546.9234503412
 21
1049.2270278039
 31
0.0
  0
LINE
  5
35D
  8
0
  6
CONTINUOUS
 62
     7
 10
38.0030192041
 20
1051.7270254197
 30
0.0
 11
47.6734406852
 21
1051.7270254197
 31
0.0
  0
LINE
  5
35E
  8
0
  6
CONTINUOUS
 62
     7
 10
36.7248572015
 20
1053.3270376029
 30
0.0
 11
49.1220272683
 21
1053.3270376029
 31
0.0
  0
LINE
  5
35F
  8
0
  6
CONTINUOUS
 62
     7
 10
1.6734517717
 20
1414.3270241322
 30
0.0
 11
11.6734422349
 21
1414.3270241322
 31
0.0
  0
LINE
  5
360
  8
0
  6
CONTINUOUS
 62
     7
 10
573.4240628385
 20
1419.5270376506
 30
0.0
 11
573.1539643907
 21
1417.605383903
 31
0.0
  0
ARC
  5
361
  8
0
  6
CONTINUOUS
 62
     7
 10
575.1345145666
 20
1417.3270312609
 30
0.0
 40
2.000000082123279
 50
172.0000011903
 51
269.9999999999
  0
LINE
  5
362
  8
0
  6
CONTINUOUS
 62
     7
 10
575.1345075273
 20
1415.3270261588
 30
0.0
 11
584.1734326982
 21
1415.3270261588
 31
0.0
  0
ARC
  5
363
  8
0
  6
CONTINUOUS
 62
     7
 10
575.1345145666
 20
1417.3270312609
 30
0.0
 40
4.0
 50
172.0000011904
 51
270.0000000001
  0
LINE
  5
364
  8
0
  6
CONTINUOUS
 62
     7
 10
571.1734510564
 20
1417.883722693
 30
0.0
 11
571.4043892526
 21
1419.5270376506
 31
0.0
  0
LINE
  5
365
  8
0
  6
CONTINUOUS
 62
     7
 10
584.1734326982
 20
1415.3270261588
 30
0.0
 11
584.1734326982
 21
1413.3270370068
 31
0.0
  0
LINE
  5
366
  8
0
  6
CONTINUOUS
 62
     7
 10
577.7012027406
 20
1415.5470269027
 30
0.0
 11
576.6734398507
 21
1415.5470269027
 31
0.0
  0
LINE
  5
367
  8
0
  6
CONTINUOUS
 62
     7
 10
581.6734350824
 20
1415.5470269027
 30
0.0
 11
577.7012027406
 21
1415.5470269027
 31
0.0
  0
LINE
  5
368
  8
0
  6
CONTINUOUS
 62
     7
 10
577.9367602968
 20
1415.9470336738
 30
0.0
 11
581.2734283113
 21
1415.9470336738
 31
0.0
  0
LINE
  5
369
  8
0
  6
CONTINUOUS
 62
     7
 10
577.0734466218
 20
1415.9470336738
 30
0.0
 11
577.9367602968
 21
1415.9470336738
 31
0.0
  0
LINE
  5
36A
  8
0
  6
CONTINUOUS
 62
     7
 10
485.4234374666
 20
1351.7270373406
 30
0.0
 11
485.4234374666
 21
1348.727031261
 31
0.0
  0
LINE
  5
36B
  8
0
  6
CONTINUOUS
 62
     7
 10
485.4234374666
 20
1348.727031261
 30
0.0
 11
100.4234470033
 21
1348.727031261
 31
0.0
  0
LINE
  5
36C
  8
0
  6
CONTINUOUS
 62
     7
 10
100.4234470033
 20
1348.727031261
 30
0.0
 11
100.4234470033
 21
1351.7270373406
 31
0.0
  0
LINE
  5
36D
  8
0
  6
CONTINUOUS
 62
     7
 10
590.9234501027
 20
1410.3270309272
 30
0.0
 11
590.9234501027
 21
1409.8270373645
 31
0.0
  0
LINE
  5
36E
  8
0
  6
CONTINUOUS
 62
     7
 10
590.9234501027
 20
1409.8270373645
 30
0.0
 11
562.2234560155
 21
1381.1270283761
 31
0.0
  0
LINE
  5
36F
  8
0
  6
CONTINUOUS
 62
     7
 10
562.2234560155
 20
1381.1270283761
 30
0.0
 11
485.4234374666
 21
1381.1270283761
 31
0.0
  0
LINE
  5
370
  8
0
  6
CONTINUOUS
 62
     7
 10
485.4234374666
 20
1381.1270283761
 30
0.0
 11
485.4234374666
 21
1351.7270373406
 31
0.0
  0
LINE
  5
371
  8
0
  6
CONTINUOUS
 62
     7
 10
100.4234470033
 20
1351.7270373406
 30
0.0
 11
100.4234470033
 21
1381.1270283761
 31
0.0
  0
LINE
  5
372
  8
0
  6
CONTINUOUS
 62
     7
 10
100.4234470033
 20
1381.1270283761
 30
0.0
 11
23.6234284543
 21
1381.1270283761
 31
0.0
  0
LINE
  5
373
  8
0
  6
CONTINUOUS
 62
     7
 10
23.6234284543
 20
1381.1270283761
 30
0.0
 11
-5.0765656329
 21
1409.8270373645
 31
0.0
  0
LINE
  5
374
  8
0
  6
CONTINUOUS
 62
     7
 10
-5.0765656329
 20
1409.8270373645
 30
0.0
 11
-5.0765656329
 21
1410.3270309272
 31
0.0
  0
CIRCLE
  5
375
  8
0
  6
CONTINUOUS
 62
     7
 10
42.9234422349
 20
1393.327031261
 30
0.0
 40
6.250000000000227
  0
CIRCLE
  5
376
  8
0
  6
CONTINUOUS
 62
     7
 10
542.9234422349
 20
1393.327031261
 30
0.0
 40
6.25
  0
LINE
  5
377
  8
0
  6
CONTINUOUS
 62
     7
 10
590.9234501027
 20
1413.3270370068
 30
0.0
 11
-5.0765656329
 21
1413.3270370068
 31
0.0
  0
LINE
  5
378
  8
0
  6
CONTINUOUS
 62
     7
 10
-5.0765656329
 20
1410.3270309272
 30
0.0
 11
-5.0765656329
 21
1413.3270370068
 31
0.0
  0
LINE
  5
379
  8
0
  6
CONTINUOUS
 62
     7
 10
590.9234501027
 20
1413.3270370068
 30
0.0
 11
590.9234501027
 21
1410.3270309272
 31
0.0
  0
ARC
  5
37A
  8
0
  6
CONTINUOUS
 62
     7
 10
390.6825863472
 20
1422.9805458681
 30
0.0
 40
179.9482454088157
 50
356.9248327218
 51
357.3739917034
  0
ARC
  5
37B
  8
0
  6
CONTINUOUS
 62
     7
 10
195.1642981226
 20
1422.9805458681
 30
0.0
 40
179.9482454088156
 50
182.6260082966
 51
183.0751672782
  0
ARC
  5
37C
  8
0
  6
CONTINUOUS
 62
     7
 10
22.5046780426
 20
1415.1751864076
 30
0.0
 40
7.125101057051969
 50
181.12095038
 51
195.0336155162
  0
ARC
  5
37D
  8
0
  6
CONTINUOUS
 62
     7
 10
563.3422064273
 20
1415.1751864076
 30
0.0
 40
7.125101057051944
 50
344.9663844838
 51
358.87904962
  0
LINE
  5
37E
  8
0
  6
CONTINUOUS
 62
     7
 10
570.4659439229
 20
1415.0357978644
 30
0.0
 11
571.1033559942
 21
1419.5270376506
 31
0.0
  0
LINE
  5
37F
  8
0
  6
CONTINUOUS
 62
     7
 10
14.7435284757
 20
1419.5270376506
 30
0.0
 11
15.3809405469
 21
1415.0357978644
 31
0.0
  0
ARC
  5
380
  8
0
  6
CONTINUOUS
 62
     7
 10
-5.3952986904
 20
1411.5177884715
 30
0.0
 40
2.381242421245062
 50
225.0857427223
 51
267.9924083795
  0
POLYLINE
  5
381
  8
0
  6
CONTINUOUS
 62
     7
 66
     1
 10
0.0
 20
0.0
 30
0.0
  0
VERTEX
  5
73E
  8
0
  6
CONTINUOUS
 62
     7
 10
-5.4787181712
 20
1409.1380076709
 30
0.0
  0
VERTEX
  5
73F
  8
0
  6
CONTINUOUS
 62
     7
 10
-4.7988675929
 20
1408.6752968135
 30
0.0
  0
VERTEX
  5
740
  8
0
  6
CONTINUOUS
 62
     7
 10
-4.0765487052
 20
1408.2125710549
 30
0.0
  0
SEQEND
  5
741
  8
0
  6
CONTINUOUS
 62
     7
  0
ARC
  5
382
  8
0
  6
CONTINUOUS
 62
     7
 10
-3.759550637
 20
1032.888883266
 30
0.0
 40
5.746893369356113
 50
93.1620343743
 51
125.2527735867
  0
LINE
  5
383
  8
0
  6
CONTINUOUS
 62
     7
 10
-7.076569686
 20
1409.8314779105
 30
0.0
 11
-7.076569686
 21
1037.581874639
 31
0.0
  0
CIRCLE
  5
384
  8
0
  6
CONTINUOUS
 62
     7
 10
37.9234422349
 20
1078.727031261
 30
0.0
 40
6.250000000705768
  0
CIRCLE
  5
385
  8
0
  6
CONTINUOUS
 62
     7
 10
12.9234422349
 20
1083.727031261
 30
0.0
 40
6.250000000705995
  0
CIRCLE
  5
386
  8
0
  6
CONTINUOUS
 62
     7
 10
12.9234422349
 20
1363.727031261
 30
0.0
 40
6.249999999999773
  0
CIRCLE
  5
387
  8
0
  6
CONTINUOUS
 62
     7
 10
37.9234422349
 20
1368.727031261
 30
0.0
 40
6.250000000000227
  0
LINE
  5
388
  8
0
  6
CONTINUOUS
 62
     7
 10
99.9234385394
 20
1380.6270348134
 30
0.0
 11
23.609719386
 21
1380.6270348134
 31
0.0
  0
LINE
  5
389
  8
0
  6
CONTINUOUS
 62
     7
 10
99.9234385394
 20
1348.2270302477
 30
0.0
 11
99.9234385394
 21
1380.6270348134
 31
0.0
  0
LINE
  5
38A
  8
0
  6
CONTINUOUS
 62
     7
 10
98.9234365129
 20
1348.2270302477
 30
0.0
 11
99.9234385394
 21
1348.2270302477
 31
0.0
  0
LINE
  5
38B
  8
0
  6
CONTINUOUS
 62
     7
 10
100.4234470033
 20
1099.2270322742
 30
0.0
 11
98.9234365129
 21
1099.2270322742
 31
0.0
  0
LINE
  5
38C
  8
0
  6
CONTINUOUS
 62
     7
 10
100.4234470033
 20
1066.3270341458
 30
0.0
 11
100.4234470033
 21
1099.2270322742
 31
0.0
  0
LINE
  5
38D
  8
0
  6
CONTINUOUS
 62
     7
 10
23.6234284543
 20
1066.3270341458
 30
0.0
 11
100.4234470033
 21
1066.3270341458
 31
0.0
  0
LINE
  5
38E
  8
0
  6
CONTINUOUS
 62
     7
 10
-4.0765487052
 20
1038.627027184
 30
0.0
 11
23.6234284543
 21
1066.3270341458
 31
0.0
  0
LINE
  5
38F
  8
0
  6
CONTINUOUS
 62
     7
 10
23.609719386
 20
1380.6270348134
 30
0.0
 11
-4.0765487052
 21
1408.2125710549
 31
0.0
  0
ARC
  5
390
  8
0
  6
CONTINUOUS
 62
     7
 10
-3.5813858504
 20
1036.3173766502
 30
0.0
 40
2.362132900792015
 50
102.1003956906
 51
147.6343555308
  0
LINE
  5
391
  8
0
  6
CONTINUOUS
 62
     7
 10
-7.076569686
 20
1037.581874639
 30
0.0
 11
-5.5765591956
 21
1037.581874639
 31
0.0
  0
LINE
  5
392
  8
0
  6
CONTINUOUS
 62
     7
 10
-4.777618537
 20
1409.1380076709
 30
0.0
 11
-4.0765487052
 21
1408.2125710549
 31
0.0
  0
LINE
  5
393
  8
0
  6
CONTINUOUS
 62
     7
 10
-5.4787181712
 20
1409.1380076709
 30
0.0
 11
-4.777618537
 21
1409.1380076709
 31
0.0
  0
LINE
  5
394
  8
0
  6
CONTINUOUS
 62
     7
 10
99.9234385394
 20
1348.2270302477
 30
0.0
 11
101.9234425926
 21
1348.2270302477
 31
0.0
  0
LINE
  5
395
  8
0
  6
CONTINUOUS
 62
     7
 10
101.9234425926
 20
1099.2270322742
 30
0.0
 11
101.9234425926
 21
1348.2270302477
 31
0.0
  0
LINE
  5
396
  8
0
  6
CONTINUOUS
 62
     7
 10
101.9234425926
 20
1099.2270322742
 30
0.0
 11
100.4234470033
 21
1099.2270322742
 31
0.0
  0
LINE
  5
397
  8
0
  6
CONTINUOUS
 62
     7
 10
-7.076569686
 20
1409.8314779105
 30
0.0
 11
-5.5765591956
 21
1409.8314779105
 31
0.0
  0
ARC
  5
398
  8
0
  6
CONTINUOUS
 62
     7
 10
-4.4897893207
 20
1410.2765742496
 30
0.0
 40
1.174384737645705
 50
202.2719925933
 51
255.8128846818
  0
ARC
  5
399
  8
0
  6
CONTINUOUS
 62
     7
 10
-4.1980029115
 20
1037.0507551221
 30
0.0
 40
1.380664886460905
 50
176.8330141501
 51
252.5858945071
  0
LINE
  5
39A
  8
0
  6
CONTINUOUS
 62
     7
 10
-4.0765487052
 20
1034.1270255151
 30
0.0
 11
-4.0765487052
 21
1034.5718400779
 31
0.0
  0
LINE
  5
39B
  8
0
  6
CONTINUOUS
 62
     7
 10
-7.076569686
 20
1037.1270315947
 30
0.0
 11
-5.5765591956
 21
1037.1270315947
 31
0.0
  0
ARC
  5
39C
  8
0
  6
CONTINUOUS
 62
     7
 10
-4.0765276493
 20
1037.1270675519
 30
0.0
 40
3.000042036911695
 50
180.0006867216
 51
269.9995978683
  0
LINE
  5
39D
  8
0
  6
CONTINUOUS
 62
     7
 10
-7.076569686
 20
1037.581874639
 30
0.0
 11
-7.076569686
 21
1037.1270315947
 31
0.0
  0
LINE
  5
39E
  8
0
  6
CONTINUOUS
 62
     7
 10
-5.5765591956
 20
1037.581874639
 30
0.0
 11
-5.5765591956
 21
1037.1270315947
 31
0.0
  0
LINE
  5
39F
  8
0
  6
CONTINUOUS
 62
     7
 10
-7.076569686
 20
1410.3270309272
 30
0.0
 11
-5.5765591956
 21
1410.3270309272
 31
0.0
  0
LINE
  5
3A0
  8
0
  6
CONTINUOUS
 62
     7
 10
-7.076569686
 20
1410.3270309272
 30
0.0
 11
-7.076569686
 21
1409.8314779105
 31
0.0
  0
LINE
  5
3A1
  8
0
  6
CONTINUOUS
 62
     7
 10
-5.5765591956
 20
1409.8314779105
 30
0.0
 11
-5.5765591956
 21
1410.3270309272
 31
0.0
  0
POLYLINE
  5
3A2
  8
0
  6
CONTINUOUS
 62
     7
 66
     1
 10
0.0
 20
0.0
 30
0.0
  0
VERTEX
  5
742
  8
0
  6
CONTINUOUS
 62
     7
 10
-5.3112589217
 20
1411.178781301
 30
0.0
  0
VERTEX
  5
743
  8
0
  6
CONTINUOUS
 62
     7
 10
-5.5086993075
 20
1410.7730822863
 30
0.0
  0
VERTEX
  5
744
  8
0
  6
CONTINUOUS
 62
     7
 10
-5.5765591956
 20
1410.3270309272
 30
0.0
  0
SEQEND
  5
745
  8
0
  6
CONTINUOUS
 62
     7
  0
LINE
  5
3A3
  8
0
  6
CONTINUOUS
 62
     7
 10
-6.5459989405
 20
1412.0305316748
 30
0.0
 11
-5.3112589217
 21
1411.178781301
 31
0.0
  0
POLYLINE
  5
3A4
  8
0
  6
CONTINUOUS
 62
     7
 66
     1
 10
0.0
 20
0.0
 30
0.0
  0
VERTEX
  5
746
  8
0
  6
CONTINUOUS
 62
     7
 10
-6.5459989405
 20
1412.0305316748
 30
0.0
  0
VERTEX
  5
747
  8
0
  6
CONTINUOUS
 62
     7
 10
-6.9408499098
 20
1411.2191336455
 30
0.0
  0
VERTEX
  5
748
  8
0
  6
CONTINUOUS
 62
     7
 10
-7.076569686
 20
1410.3270309272
 30
0.0
  0
SEQEND
  5
749
  8
0
  6
CONTINUOUS
 62
     7
  0
LINE
  5
3A5
  8
0
  6
CONTINUOUS
 62
     7
 10
-3.5765551425
 20
1034.1270255151
 30
0.0
 11
-4.0765487052
 21
1034.1270255151
 31
0.0
  0
LINE
  5
3A6
  8
0
  6
CONTINUOUS
 62
     7
 10
-5.0765656329
 20
1411.3868164124
 30
0.0
 11
-5.3112589217
 21
1411.178781301
 31
0.0
  0
ARC
  5
3A7
  8
0
  6
CONTINUOUS
 62
     7
 10
-4.2819029357
 20
1410.5430269768
 30
0.0
 40
2.709022138283825
 50
107.0579820885
 51
146.6951987861
  0
LINE
  5
3A8
  8
0
  6
CONTINUOUS
 62
     7
 10
101.9234425926
 20
1348.2270302477
 30
0.0
 11
103.4234381818
 21
1348.2270302477
 31
0.0
  0
LINE
  5
3A9
  8
0
  6
CONTINUOUS
 62
     7
 10
103.4234381818
 20
1099.2270322742
 30
0.0
 11
101.9234425926
 21
1099.2270322742
 31
0.0
  0
LINE
  5
3AA
  8
0
  6
CONTINUOUS
 62
     7
 10
116.4234496259
 20
1348.2270302477
 30
0.0
 11
116.4234496259
 21
1099.2270322742
 31
0.0
  0
LINE
  5
3AB
  8
0
  6
CONTINUOUS
 62
     7
 10
116.4234496259
 20
1099.2270322742
 30
0.0
 11
103.4234381818
 21
1099.2270322742
 31
0.0
  0
LINE
  5
3AC
  8
0
  6
CONTINUOUS
 62
     7
 10
103.4234381818
 20
1348.2270302477
 30
0.0
 11
116.4234496259
 21
1348.2270302477
 31
0.0
  0
CIRCLE
  5
3AD
  8
0
  6
CONTINUOUS
 62
     7
 10
109.9234422349
 20
1223.727031261
 30
0.0
 40
2.100000000000136
  0
CIRCLE
  5
3AE
  8
0
  6
CONTINUOUS
 62
     7
 10
109.9234422349
 20
1328.727031261
 30
0.0
 40
2.100000000000136
  0
CIRCLE
  5
3AF
  8
0
  6
CONTINUOUS
 62
     7
 10
109.9234422349
 20
1118.727031261
 30
0.0
 40
2.100000000000136
  0
ARC
  5
3B0
  8
0
  6
CONTINUOUS
 62
     7
 10
13.9234486241
 20
1414.8270239353
 30
0.0
 40
1.499986928579417
 50
269.9992186352
 51
8.0006209044
  0
LINE
  5
3B1
  8
0
  6
CONTINUOUS
 62
     7
 10
5.9234417581
 20
1398.2489543261
 30
0.0
 11
5.9234417581
 21
1398.8270299735
 31
0.0
  0
LINE
  5
3B2
  8
0
  6
CONTINUOUS
 62
     7
 10
6.4234353208
 20
1397.7507787051
 30
0.0
 11
6.4234353208
 21
1398.3270364108
 31
0.0
  0
LINE
  5
3B3
  8
0
  6
CONTINUOUS
 62
     7
 10
579.9234427118
 20
1398.8270299735
 30
0.0
 11
579.9234427118
 21
1398.1199251714
 31
0.0
  0
LINE
  5
3B4
  8
0
  6
CONTINUOUS
 62
     7
 10
579.4234491491
 20
1398.3270364108
 30
0.0
 11
579.4234491491
 21
1397.6199316087
 31
0.0
  0
ARC
  5
3B5
  8
0
  6
CONTINUOUS
 62
     7
 10
589.6064351068
 20
1032.888883266
 30
0.0
 40
5.7468933693561
 50
54.7472264133
 51
86.8379656257
  0
POLYLINE
  5
3B6
  8
0
  6
CONTINUOUS
 62
     7
 66
     1
 10
0.0
 20
0.0
 30
0.0
  0
VERTEX
  5
74A
  8
0
  6
CONTINUOUS
 62
     7
 10
591.5083504819
 20
1409.182949573
 30
0.0
  0
VERTEX
  5
74B
  8
0
  6
CONTINUOUS
 62
     7
 10
590.7476164007
 20
1408.6514400544
 30
0.0
  0
VERTEX
  5
74C
  8
0
  6
CONTINUOUS
 62
     7
 10
589.923433175
 20
1408.1199305358
 30
0.0
  0
SEQEND
  5
74D
  8
0
  6
CONTINUOUS
 62
     7
  0
ARC
  5
3B7
  8
0
  6
CONTINUOUS
 62
     7
 10
591.4304546916
 20
1411.2210784394
 30
0.0
 40
2.039616883203992
 50
272.1887373762
 51
317.0543203056
  0
LINE
  5
3B8
  8
0
  6
CONTINUOUS
 62
     7
 10
592.9234541559
 20
1409.8314779105
 30
0.0
 11
592.9234541559
 21
1037.581874639
 31
0.0
  0
LINE
  5
3B9
  8
0
  6
CONTINUOUS
 62
     7
 10
591.4234436654
 20
1037.581874639
 30
0.0
 11
592.9234541559
 21
1037.581874639
 31
0.0
  0
ARC
  5
3BA
  8
0
  6
CONTINUOUS
 62
     7
 10
589.4282703203
 20
1036.3173766502
 30
0.0
 40
2.362132900792018
 50
32.3656444692
 51
77.8996043094
  0
CIRCLE
  5
3BB
  8
0
  6
CONTINUOUS
 62
     7
 10
572.9234422349
 20
1083.727031261
 30
0.0
 40
6.249999999999886
  0
CIRCLE
  5
3BC
  8
0
  6
CONTINUOUS
 62
     7
 10
547.9234422349
 20
1078.727031261
 30
0.0
 40
6.249999999999886
  0
CIRCLE
  5
3BD
  8
0
  6
CONTINUOUS
 62
     7
 10
547.9234422349
 20
1368.727031261
 30
0.0
 40
6.249999999999886
  0
CIRCLE
  5
3BE
  8
0
  6
CONTINUOUS
 62
     7
 10
572.9234422349
 20
1363.727031261
 30
0.0
 40
6.25
  0
LINE
  5
3BF
  8
0
  6
CONTINUOUS
 62
     7
 10
562.4305523538
 20
1380.6270348134
 30
0.0
 11
485.9234459304
 21
1380.6270348134
 31
0.0
  0
LINE
  5
3C0
  8
0
  6
CONTINUOUS
 62
     7
 10
589.923433175
 20
1408.1199305358
 30
0.0
 11
562.4305523538
 21
1380.6270348134
 31
0.0
  0
LINE
  5
3C1
  8
0
  6
CONTINUOUS
 62
     7
 10
485.4234374666
 20
1066.3270341458
 30
0.0
 11
562.2234560155
 21
1066.3270341458
 31
0.0
  0
LINE
  5
3C2
  8
0
  6
CONTINUOUS
 62
     7
 10
485.4234374666
 20
1099.2270322742
 30
0.0
 11
485.4234374666
 21
1066.3270341458
 31
0.0
  0
LINE
  5
3C3
  8
0
  6
CONTINUOUS
 62
     7
 10
486.923447957
 20
1099.2270322742
 30
0.0
 11
485.4234374666
 21
1099.2270322742
 31
0.0
  0
LINE
  5
3C4
  8
0
  6
CONTINUOUS
 62
     7
 10
485.9234459304
 20
1348.2270302477
 30
0.0
 11
486.923447957
 21
1348.2270302477
 31
0.0
  0
LINE
  5
3C5
  8
0
  6
CONTINUOUS
 62
     7
 10
485.9234459304
 20
1380.6270348134
 30
0.0
 11
485.9234459304
 21
1348.2270302477
 31
0.0
  0
LINE
  5
3C6
  8
0
  6
CONTINUOUS
 62
     7
 10
562.2234560155
 20
1066.3270341458
 30
0.0
 11
589.923433175
 21
1038.627027184
 31
0.0
  0
LINE
  5
3C7
  8
0
  6
CONTINUOUS
 62
     7
 10
590.7159067296
 20
1409.182949573
 30
0.0
 11
589.923433175
 21
1408.1199305358
 31
0.0
  0
LINE
  5
3C8
  8
0
  6
CONTINUOUS
 62
     7
 10
590.7159067296
 20
1409.182949573
 30
0.0
 11
591.5083504819
 21
1409.182949573
 31
0.0
  0
LINE
  5
3C9
  8
0
  6
CONTINUOUS
 62
     7
 10
483.9234418773
 20
1099.2270322742
 30
0.0
 11
485.4234374666
 21
1099.2270322742
 31
0.0
  0
LINE
  5
3CA
  8
0
  6
CONTINUOUS
 62
     7
 10
483.9234418773
 20
1099.2270322742
 30
0.0
 11
483.9234418773
 21
1348.2270302477
 31
0.0
  0
LINE
  5
3CB
  8
0
  6
CONTINUOUS
 62
     7
 10
485.9234459304
 20
1348.2270302477
 30
0.0
 11
483.9234418773
 21
1348.2270302477
 31
0.0
  0
LINE
  5
3CC
  8
0
  6
CONTINUOUS
 62
     7
 10
591.4234436654
 20
1409.8314779105
 30
0.0
 11
592.9234541559
 21
1409.8314779105
 31
0.0
  0
ARC
  5
3CD
  8
0
  6
CONTINUOUS
 62
     7
 10
590.4367667391
 20
1410.1977095697
 30
0.0
 40
1.052452842227459
 50
285.3805026161
 51
339.6362385869
  0
ARC
  5
3CE
  8
0
  6
CONTINUOUS
 62
     7
 10
589.9234121192
 20
1037.1270675519
 30
0.0
 40
3.000042036911556
 50
270.0004021317
 51
359.9993132784
  0
LINE
  5
3CF
  8
0
  6
CONTINUOUS
 62
     7
 10
589.923433175
 20
1034.5718400779
 30
0.0
 11
589.923433175
 21
1034.1270255151
 31
0.0
  0
ARC
  5
3D0
  8
0
  6
CONTINUOUS
 62
     7
 10
590.0448873813
 20
1037.0507551221
 30
0.0
 40
1.380664886460835
 50
287.4141054929
 51
3.1669858499
  0
LINE
  5
3D1
  8
0
  6
CONTINUOUS
 62
     7
 10
591.4234436654
 20
1037.1270315947
 30
0.0
 11
592.9234541559
 21
1037.1270315947
 31
0.0
  0
LINE
  5
3D2
  8
0
  6
CONTINUOUS
 62
     7
 10
592.9234541559
 20
1037.581874639
 30
0.0
 11
592.9234541559
 21
1037.1270315947
 31
0.0
  0
LINE
  5
3D3
  8
0
  6
CONTINUOUS
 62
     7
 10
591.4234436654
 20
1037.581874639
 30
0.0
 11
591.4234436654
 21
1037.1270315947
 31
0.0
  0
LINE
  5
3D4
  8
0
  6
CONTINUOUS
 62
     7
 10
591.4234436654
 20
1410.3270309272
 30
0.0
 11
592.9234541559
 21
1410.3270309272
 31
0.0
  0
LINE
  5
3D5
  8
0
  6
CONTINUOUS
 62
     7
 10
592.9234541559
 20
1409.8314779105
 30
0.0
 11
592.9234541559
 21
1410.3270309272
 31
0.0
  0
LINE
  5
3D6
  8
0
  6
CONTINUOUS
 62
     7
 10
591.4234436654
 20
1410.3270309272
 30
0.0
 11
591.4234436654
 21
1409.8314779105
 31
0.0
  0
LINE
  5
3D7
  8
0
  6
CONTINUOUS
 62
     7
 10
591.2097610139
 20
1411.0986428561
 30
0.0
 11
592.4960888528
 21
1411.870254785
 31
0.0
  0
POLYLINE
  5
3D8
  8
0
  6
CONTINUOUS
 62
     7
 66
     1
 10
0.0
 20
0.0
 30
0.0
  0
VERTEX
  5
74E
  8
0
  6
CONTINUOUS
 62
     7
 10
591.2097610139
 20
1411.0986428561
 30
0.0
  0
VERTEX
  5
74F
  8
0
  6
CONTINUOUS
 62
     7
 10
591.3690246248
 20
1410.7273506226
 30
0.0
  0
VERTEX
  5
750
  8
0
  6
CONTINUOUS
 62
     7
 10
591.4234436654
 20
1410.3270309272
 30
0.0
  0
SEQEND
  5
751
  8
0
  6
CONTINUOUS
 62
     7
  0
POLYLINE
  5
3D9
  8
0
  6
CONTINUOUS
 62
     7
 66
     1
 10
0.0
 20
0.0
 30
0.0
  0
VERTEX
  5
752
  8
0
  6
CONTINUOUS
 62
     7
 10
592.4960888528
 20
1411.870254785
 30
0.0
  0
VERTEX
  5
753
  8
0
  6
CONTINUOUS
 62
     7
 10
592.8146160745
 20
1411.1276852193
 30
0.0
  0
VERTEX
  5
754
  8
0
  6
CONTINUOUS
 62
     7
 10
592.9234541559
 20
1410.3270309272
 30
0.0
  0
SEQEND
  5
755
  8
0
  6
CONTINUOUS
 62
     7
  0
LINE
  5
3DA
  8
0
  6
CONTINUOUS
 62
     7
 10
589.4234396123
 20
1034.1270255151
 30
0.0
 11
589.923433175
 21
1034.1270255151
 31
0.0
  0
LINE
  5
3DB
  8
0
  6
CONTINUOUS
 62
     7
 10
590.9234501027
 20
1411.3778757157
 30
0.0
 11
591.2097610139
 21
1411.0986428561
 31
0.0
  0
ARC
  5
3DC
  8
0
  6
CONTINUOUS
 62
     7
 10
590.0983580849
 20
1410.4929675528
 30
0.0
 40
2.765146100241752
 50
29.8736107904
 51
72.6390699858
  0
LINE
  5
3DD
  8
0
  6
CONTINUOUS
 62
     7
 10
482.423446288
 20
1099.2270322742
 30
0.0
 11
483.9234418773
 21
1099.2270322742
 31
0.0
  0
LINE
  5
3DE
  8
0
  6
CONTINUOUS
 62
     7
 10
483.9234418773
 20
1348.2270302477
 30
0.0
 11
482.423446288
 21
1348.2270302477
 31
0.0
  0
LINE
  5
3DF
  8
0
  6
CONTINUOUS
 62
     7
 10
469.423434844
 20
1348.2270302477
 30
0.0
 11
469.423434844
 21
1099.2270322742
 31
0.0
  0
LINE
  5
3E0
  8
0
  6
CONTINUOUS
 62
     7
 10
482.423446288
 20
1348.2270302477
 30
0.0
 11
469.423434844
 21
1348.2270302477
 31
0.0
  0
CIRCLE
  5
3E1
  8
0
  6
CONTINUOUS
 62
     7
 10
475.9234422349
 20
1118.727031261
 30
0.0
 40
2.099999999999909
  0
CIRCLE
  5
3E2
  8
0
  6
CONTINUOUS
 62
     7
 10
475.9234422349
 20
1223.727031261
 30
0.0
 40
2.099999999999909
  0
CIRCLE
  5
3E3
  8
0
  6
CONTINUOUS
 62
     7
 10
475.9234422349
 20
1328.727031261
 30
0.0
 40
2.100000000000136
  0
LINE
  5
3E4
  8
0
  6
CONTINUOUS
 62
     7
 10
469.423434844
 20
1099.2270322742
 30
0.0
 11
482.423446288
 21
1099.2270322742
 31
0.0
  0
ARC
  5
3E5
  8
0
  6
CONTINUOUS
 62
     7
 10
571.9234358457
 20
1414.8270239353
 30
0.0
 40
1.499986928579454
 50
171.9993790956
 51
270.0007813648
  0
ARC
  5
3E6
  8
0
  6
CONTINUOUS
 62
     7
 10
63.7781142937
 20
-986.2624078478
 30
0.0
 40
0.6802386454675552
 50
304.7656932263
 51
10.2841588489
  0
LINE
  5
3E7
  8
0
  6
CONTINUOUS
 62
     7
 10
50.3106630945
 20
-988.6753393123
 30
0.0
 11
50.973436942
 21
-988.6824769685
 31
0.0
  0
ARC
  5
3E8
  8
0
  6
CONTINUOUS
 62
     7
 10
49.6406421727
 20
-947.4286701859
 30
0.0
 40
41.25211075885677
 50
254.3923761546
 51
270.9306447206
  0
ARC
  5
3E9
  8
0
  6
CONTINUOUS
 62
     7
 10
52.2349051853
 20
-946.7316606692
 30
0.0
 40
41.94793038594957
 50
269.1827983322
 51
285.4539487104
  0
LINE
  5
3EA
  8
0
  6
CONTINUOUS
 62
     7
 10
50.973436942
 20
-988.6824769685
 30
0.0
 11
51.6366280221
 21
-988.6753244111
 31
0.0
  0
LINE
  5
3EB
  8
0
  6
CONTINUOUS
 62
     7
 10
64.4734419488
 20
-986.1664009998
 30
0.0
 11
64.4734419488
 21
-985.7617748687
 31
0.0
  0
LINE
  5
3EC
  8
0
  6
CONTINUOUS
 62
     7
 10
37.4734319352
 20
-985.763190479
 30
0.0
 11
37.4734319352
 21
-986.1664009998
 31
0.0
  0
ARC
  5
3ED
  8
0
  6
CONTINUOUS
 62
     7
 10
13.2098176806
 20
-975.2610424264
 30
0.0
 40
55.00000000002025
 50
348.2773094145
 51
357.9136198395
  0
ARC
  5
3EE
  8
0
  6
CONTINUOUS
 62
     7
 10
88.7370663499
 20
-975.2610424264
 30
0.0
 40
55.00000000001666
 50
182.0863170139
 51
191.7226905856
  0
POLYLINE
  5
3EF
  8
0
  6
CONTINUOUS
 62
     7
 66
     1
 10
0.0
 20
0.0
 30
0.0
  0
VERTEX
  5
756
  8
0
  6
CONTINUOUS
 62
     7
 10
35.5441189908
 20
-987.0635552118
 30
0.0
  0
VERTEX
  5
757
  8
0
  6
CONTINUOUS
 62
     7
 10
39.3811381959
 20
-987.5868690917
 30
0.0
  0
VERTEX
  5
758
  8
0
  6
CONTINUOUS
 62
     7
 10
39.5626641416
 20
-987.607879729
 30
0.0
  0
SEQEND
  5
759
  8
0
  6
CONTINUOUS
 62
     7
  0
POLYLINE
  5
3F0
  8
0
  6
CONTINUOUS
 62
     7
 66
     1
 10
0.0
 20
0.0
 30
0.0
  0
VERTEX
  5
75A
  8
0
  6
CONTINUOUS
 62
     7
 10
62.1692306899
 20
-987.6323325345
 30
0.0
  0
VERTEX
  5
75B
  8
0
  6
CONTINUOUS
 62
     7
 10
62.5657356881
 20
-987.5868690917
 30
0.0
  0
VERTEX
  5
75C
  8
0
  6
CONTINUOUS
 62
     7
 10
66.4027697944
 20
-987.0635552118
 30
0.0
  0
SEQEND
  5
75D
  8
0
  6
CONTINUOUS
 62
     7
  0
ARC
  5
3F1
  8
0
  6
CONTINUOUS
 62
     7
 10
35.6675468713
 20
-986.2731313434
 30
0.0
 40
0.8000000002425002
 50
191.7227076668
 51
261.1241905632
  0
ARC
  5
3F2
  8
0
  6
CONTINUOUS
 62
     7
 10
66.2793371592
 20
-986.2731313434
 30
0.0
 40
0.8000000002458959
 50
278.8758094371
 51
348.2772923332
  0
LINE
  5
3F3
  8
0
  6
CONTINUOUS
 62
     7
 10
1.6734517717
 20
-956.061048598
 30
0.0
 11
1.6734517717
 21
-957.0610357234
 31
0.0
  0
LINE
  5
3F4
  8
0
  6
CONTINUOUS
 62
     7
 10
11.6734422349
 20
-957.0610357234
 30
0.0
 11
11.6734422349
 21
-956.061048598
 31
0.0
  0
LINE
  5
3F5
  8
0
  6
CONTINUOUS
 62
     7
 10
576.6734398507
 20
-958.2810384939
 30
0.0
 11
577.0734466218
 21
-958.681045265
 31
0.0
  0
LINE
  5
3F6
  8
0
  6
CONTINUOUS
 62
     7
 10
581.2734283113
 20
-958.681045265
 30
0.0
 11
581.6734350824
 21
-958.2810384939
 31
0.0
  0
LINE
  5
3F7
  8
0
  6
CONTINUOUS
 62
     7
 10
576.6734398507
 20
-958.06103775
 30
0.0
 11
576.6734398507
 21
-958.2810384939
 31
0.0
  0
LINE
  5
3F8
  8
0
  6
CONTINUOUS
 62
     7
 10
581.6734350824
 20
-958.2810384939
 30
0.0
 11
581.6734350824
 21
-958.06103775
 31
0.0
  0
LINE
  5
3F9
  8
0
  6
CONTINUOUS
 62
     7
 10
15.4050506257
 20
-957.4693424413
 30
0.0
 11
15.4050506257
 21
-957.5156105468
 31
0.0
  0
LINE
  5
3FA
  8
0
  6
CONTINUOUS
 62
     7
 10
570.4418338441
 20
-957.5156105468
 30
0.0
 11
570.4418338441
 21
-957.4693424413
 31
0.0
  0
POLYLINE
  5
3FB
  8
0
  6
CONTINUOUS
 62
     7
 66
     1
 10
0.0
 20
0.0
 30
0.0
  0
VERTEX
  5
75E
  8
0
  6
CONTINUOUS
 62
     7
 10
584.9234379434
 20
-569.8610378215
 30
0.0
  0
VERTEX
  5
75F
  8
0
  6
CONTINUOUS
 62
     7
 10
585.6875098848
 20
-570.0979364822
 30
0.0
  0
VERTEX
  5
760
  8
0
  6
CONTINUOUS
 62
     7
 10
586.4523268842
 20
-570.7720352123
 30
0.0
  0
VERTEX
  5
761
  8
0
  6
CONTINUOUS
 62
     7
 10
587.2171140813
 20
-571.7766715
 30
0.0
  0
VERTEX
  5
762
  8
0
  6
CONTINUOUS
 62
     7
 10
587.9234291219
 20
-572.8610439012
 30
0.0
  0
SEQEND
  5
763
  8
0
  6
CONTINUOUS
 62
     7
  0
ARC
  5
3FC
  8
0
  6
CONTINUOUS
 62
     7
 10
2.5604897948
 20
-574.4980641371
 30
0.0
 40
4.917511943461773
 50
109.4449322904
 51
160.5553523009
  0
LINE
  5
3FD
  8
0
  6
CONTINUOUS
 62
     7
 10
0.9234465265
 20
-569.8610378215
 30
0.0
 11
584.9234379434
 21
-569.8610378215
 31
0.0
  0
LINE
  5
3FE
  8
0
  6
CONTINUOUS
 62
     7
 10
587.9234291219
 20
-572.8610439012
 30
0.0
 11
587.9234291219
 21
-576.8610371063
 31
0.0
  0
LINE
  5
3FF
  8
0
  6
CONTINUOUS
 62
     7
 10
-2.0765446521
 20
-572.8610439012
 30
0.0
 11
-2.0765446521
 21
-576.8610371063
 31
0.0
  0
LINE
  5
400
  8
0
  6
CONTINUOUS
 62
     7
 10
9.973428359
 20
-962.2610492418
 30
0.0
 11
-2.0265661574
 21
-962.2610492418
 31
0.0
  0
LINE
  5
401
  8
0
  6
CONTINUOUS
 62
     7
 10
9.973428359
 20
-969.2610485265
 30
0.0
 11
9.973428359
 21
-962.2610492418
 31
0.0
  0
LINE
  5
402
  8
0
  6
CONTINUOUS
 62
     7
 10
2.9734290742
 20
-969.2610485265
 30
0.0
 11
9.973428359
 21
-969.2610485265
 31
0.0
  0
LINE
  5
403
  8
0
  6
CONTINUOUS
 62
     7
 10
-1.4052473403
 20
-973.639724941
 30
0.0
 11
2.9734290742
 21
-969.2610485265
 31
0.0
  0
ARC
  5
404
  8
0
  6
CONTINUOUS
 62
     7
 10
-3.5265579848
 20
-975.7610424265
 30
0.0
 40
2.999999999999881
 50
45.0
 51
60.0
  0
POLYLINE
  5
405
  8
0
  6
CONTINUOUS
 62
     7
 66
     1
 10
0.0
 20
0.0
 30
0.0
  0
VERTEX
  5
764
  8
0
  6
CONTINUOUS
 62
     7
 10
-0.9284697867
 20
-974.2610437582
 30
0.0
  0
VERTEX
  5
765
  8
0
  6
CONTINUOUS
 62
     7
 10
-0.7488213874
 20
-974.9582392881
 30
0.0
  0
VERTEX
  5
766
  8
0
  6
CONTINUOUS
 62
     7
 10
-0.6201647616
 20
-975.5487872074
 30
0.0
  0
VERTEX
  5
767
  8
0
  6
CONTINUOUS
 62
     7
 10
-0.5158566333
 20
-976.3827604959
 30
0.0
  0
VERTEX
  5
768
  8
0
  6
CONTINUOUS
 62
     7
 10
-0.6177805758
 20
-976.9794774959
 30
0.0
  0
VERTEX
  5
769
  8
0
  6
CONTINUOUS
 62
     7
 10
-0.747033248
 20
-977.1824611137
 30
0.0
  0
VERTEX
  5
76A
  8
0
  6
CONTINUOUS
 62
     7
 10
-0.9284697867
 20
-977.2610498378
 30
0.0
  0
SEQEND
  5
76B
  8
0
  6
CONTINUOUS
 62
     7
  0
LINE
  5
406
  8
0
  6
CONTINUOUS
 62
     7
 10
-0.9284697867
 20
-975.7610393474
 30
0.0
 11
-0.9284697867
 21
-977.2610498378
 31
0.0
  0
ARC
  5
407
  8
0
  6
CONTINUOUS
 62
     7
 10
-3.5265579848
 20
-975.7610424265
 30
0.0
 40
2.999999999999932
 50
30.0
 51
45.0
  0
LINE
  5
408
  8
0
  6
CONTINUOUS
 62
     7
 10
576.9734300279
 20
-962.2610492418
 30
0.0
 11
9.973428359
 21
-962.2610492418
 31
0.0
  0
LINE
  5
409
  8
0
  6
CONTINUOUS
 62
     7
 10
576.9734300279
 20
-969.2610485265
 30
0.0
 11
576.9734300279
 21
-962.2610492418
 31
0.0
  0
LINE
  5
40A
  8
0
  6
CONTINUOUS
 62
     7
 10
583.9734293126
 20
-969.2610485265
 30
0.0
 11
576.9734300279
 21
-969.2610485265
 31
0.0
  0
LINE
  5
40B
  8
0
  6
CONTINUOUS
 62
     7
 10
588.3521355295
 20
-973.639724941
 30
0.0
 11
583.9734293126
 21
-969.2610485265
 31
0.0
  0
ARC
  5
40C
  8
0
  6
CONTINUOUS
 62
     7
 10
590.4734420152
 20
-975.7610424265
 30
0.0
 40
3.000000000000024
 50
135.0
 51
150.0
  0
POLYLINE
  5
40D
  8
0
  6
CONTINUOUS
 62
     7
 66
     1
 10
0.0
 20
0.0
 30
0.0
  0
VERTEX
  5
76C
  8
0
  6
CONTINUOUS
 62
     7
 10
587.8753579759
 20
-977.2610498378
 30
0.0
  0
VERTEX
  5
76D
  8
0
  6
CONTINUOUS
 62
     7
 10
587.6957095765
 20
-977.1788997362
 30
0.0
  0
VERTEX
  5
76E
  8
0
  6
CONTINUOUS
 62
     7
 10
587.5670529508
 20
-976.970611305
 30
0.0
  0
VERTEX
  5
76F
  8
0
  6
CONTINUOUS
 62
     7
 10
587.4627150201
 20
-976.3819558332
 30
0.0
  0
VERTEX
  5
770
  8
0
  6
CONTINUOUS
 62
     7
 10
587.564668765
 20
-975.5299521396
 30
0.0
  0
VERTEX
  5
771
  8
0
  6
CONTINUOUS
 62
     7
 10
587.6939214372
 20
-974.9431891153
 30
0.0
  0
VERTEX
  5
772
  8
0
  6
CONTINUOUS
 62
     7
 10
587.8753579759
 20
-974.2610437582
 30
0.0
  0
SEQEND
  5
773
  8
0
  6
CONTINUOUS
 62
     7
  0
ARC
  5
40E
  8
0
  6
CONTINUOUS
 62
     7
 10
587.8727876993
 20
-975.3501277267
 30
0.0
 40
0.4109196592528153
 50
175.7217768404
 51
270.3583838302
  0
LINE
  5
40F
  8
0
  6
CONTINUOUS
 62
     7
 10
587.8753579759
 20
-977.2610498378
 30
0.0
 11
587.8753579759
 21
-975.7610393474
 31
0.0
  0
POLYLINE
  5
410
  8
0
  6
CONTINUOUS
 62
     7
 66
     1
 10
0.0
 20
0.0
 30
0.0
  0
VERTEX
  5
774
  8
0
  6
CONTINUOUS
 62
     7
 10
-5.0265573359
 20
-973.1629622886
 30
0.0
  0
VERTEX
  5
775
  8
0
  6
CONTINUOUS
 62
     7
 10
-4.9444221354
 20
-972.9833138893
 30
0.0
  0
VERTEX
  5
776
  8
0
  6
CONTINUOUS
 62
     7
 10
-4.7361337043
 20
-972.8546572635
 30
0.0
  0
VERTEX
  5
777
  8
0
  6
CONTINUOUS
 62
     7
 10
-4.1474782324
 20
-972.750334234
 30
0.0
  0
VERTEX
  5
778
  8
0
  6
CONTINUOUS
 62
     7
 10
-3.2954596377
 20
-972.8522581766
 30
0.0
  0
VERTEX
  5
779
  8
0
  6
CONTINUOUS
 62
     7
 10
-2.7087115145
 20
-972.9815108488
 30
0.0
  0
VERTEX
  5
77A
  8
0
  6
CONTINUOUS
 62
     7
 10
-2.0265661574
 20
-973.1629622886
 30
0.0
  0
SEQEND
  5
77B
  8
0
  6
CONTINUOUS
 62
     7
  0
LINE
  5
411
  8
0
  6
CONTINUOUS
 62
     7
 10
-5.0265573359
 20
-973.1629622886
 30
0.0
 11
-5.0265573359
 21
-962.2610492418
 31
0.0
  0
LINE
  5
412
  8
0
  6
CONTINUOUS
 62
     7
 10
-2.0265661574
 20
-962.2610492418
 30
0.0
 11
-5.0265573359
 21
-962.2610492418
 31
0.0
  0
POLYLINE
  5
413
  8
0
  6
CONTINUOUS
 62
     7
 66
     1
 10
0.0
 20
0.0
 30
0.0
  0
VERTEX
  5
77C
  8
0
  6
CONTINUOUS
 62
     7
 10
588.9734543466
 20
-973.1629622886
 30
0.0
  0
VERTEX
  5
77D
  8
0
  6
CONTINUOUS
 62
     7
 10
589.6706498765
 20
-972.9833138893
 30
0.0
  0
VERTEX
  5
77E
  8
0
  6
CONTINUOUS
 62
     7
 10
590.2611828946
 20
-972.8546572635
 30
0.0
  0
VERTEX
  5
77F
  8
0
  6
CONTINUOUS
 62
     7
 10
591.0951710843
 20
-972.750334234
 30
0.0
  0
VERTEX
  5
780
  8
0
  6
CONTINUOUS
 62
     7
 10
591.6918731832
 20
-972.8522581766
 30
0.0
  0
VERTEX
  5
781
  8
0
  6
CONTINUOUS
 62
     7
 10
591.894856801
 20
-972.9815108488
 30
0.0
  0
VERTEX
  5
782
  8
0
  6
CONTINUOUS
 62
     7
 10
591.9734455251
 20
-973.1629622886
 30
0.0
  0
SEQEND
  5
783
  8
0
  6
CONTINUOUS
 62
     7
  0
LINE
  5
414
  8
0
  6
CONTINUOUS
 62
     7
 10
590.4734350347
 20
-973.1629622886
 30
0.0
 11
591.9734455251
 21
-973.1629622886
 31
0.0
  0
ARC
  5
415
  8
0
  6
CONTINUOUS
 62
     7
 10
590.4734420152
 20
-975.7610424265
 30
0.0
 40
3.000000000000105
 50
120.0
 51
135.0
  0
LINE
  5
416
  8
0
  6
CONTINUOUS
 62
     7
 10
588.9734543466
 20
-962.2610492418
 30
0.0
 11
576.9734300279
 21
-962.2610492418
 31
0.0
  0
LINE
  5
417
  8
0
  6
CONTINUOUS
 62
     7
 10
-5.0265573359
 20
-973.1629622886
 30
0.0
 11
-3.5265468455
 21
-973.1629622886
 31
0.0
  0
LINE
  5
418
  8
0
  6
CONTINUOUS
 62
     7
 10
591.9734455251
 20
-962.2610492418
 30
0.0
 11
588.9734543466
 21
-962.2610492418
 31
0.0
  0
LINE
  5
419
  8
0
  6
CONTINUOUS
 62
     7
 10
591.9734455251
 20
-962.2610492418
 30
0.0
 11
591.9734455251
 21
-973.1629622886
 31
0.0
  0
LINE
  5
41A
  8
0
  6
CONTINUOUS
 62
     7
 10
587.8753579759
 20
-977.2610498378
 30
0.0
 11
-0.9284697867
 21
-977.2610498378
 31
0.0
  0
LINE
  5
41B
  8
0
  6
CONTINUOUS
 62
     7
 10
588.9734543466
 20
-977.2610498378
 30
0.0
 11
587.8753579759
 21
-977.2610498378
 31
0.0
  0
LINE
  5
41C
  8
0
  6
CONTINUOUS
 62
     7
 10
588.9734543466
 20
-975.7610393474
 30
0.0
 11
587.8753579759
 21
-975.7610393474
 31
0.0
  0
LINE
  5
41D
  8
0
  6
CONTINUOUS
 62
     7
 10
588.9734543466
 20
-975.7610393474
 30
0.0
 11
588.9734543466
 21
-977.2610498378
 31
0.0
  0
LINE
  5
41E
  8
0
  6
CONTINUOUS
 62
     7
 10
591.9734455251
 20
-973.1629622886
 30
0.0
 11
591.9734455251
 21
-974.2610437582
 31
0.0
  0
LINE
  5
41F
  8
0
  6
CONTINUOUS
 62
     7
 10
590.4734350347
 20
-974.2610437582
 30
0.0
 11
591.9734455251
 21
-974.2610437582
 31
0.0
  0
LINE
  5
420
  8
0
  6
CONTINUOUS
 62
     7
 10
590.4734350347
 20
-973.1629622886
 30
0.0
 11
590.4734350347
 21
-974.2610437582
 31
0.0
  0
LINE
  5
421
  8
0
  6
CONTINUOUS
 62
     7
 10
-0.9284697867
 20
-977.2610498378
 30
0.0
 11
-2.0265661574
 21
-977.2610498378
 31
0.0
  0
LINE
  5
422
  8
0
  6
CONTINUOUS
 62
     7
 10
-2.0265661574
 20
-977.2610498378
 30
0.0
 11
-2.0265661574
 21
-975.7610393474
 31
0.0
  0
LINE
  5
423
  8
0
  6
CONTINUOUS
 62
     7
 10
-0.9284697867
 20
-975.7610393474
 30
0.0
 11
-2.0265661574
 21
-975.7610393474
 31
0.0
  0
LINE
  5
424
  8
0
  6
CONTINUOUS
 62
     7
 10
-5.0265573359
 20
-974.2610437582
 30
0.0
 11
-3.5265468455
 21
-974.2610437582
 31
0.0
  0
LINE
  5
425
  8
0
  6
CONTINUOUS
 62
     7
 10
-5.0265573359
 20
-974.2610437582
 30
0.0
 11
-5.0265573359
 21
-973.1629622886
 31
0.0
  0
LINE
  5
426
  8
0
  6
CONTINUOUS
 62
     7
 10
-3.5265468455
 20
-974.2610437582
 30
0.0
 11
-3.5265468455
 21
-973.1629622886
 31
0.0
  0
ARC
  5
427
  8
0
  6
CONTINUOUS
 62
     7
 10
-2.0265248069
 20
-974.261017309
 30
0.0
 40
3.000032529088221
 50
180.0005051357
 51
269.999210273
  0
ARC
  5
428
  8
0
  6
CONTINUOUS
 62
     7
 10
-2.0265512849
 20
-974.2610437869
 30
0.0
 40
1.499995560612063
 50
179.9999989031
 51
269.99943191
  0
ARC
  5
429
  8
0
  6
CONTINUOUS
 62
     7
 10
588.9734751224
 20
-974.2610794348
 30
0.0
 40
1.49995991274239
 50
269.9992064026
 51
0.0013627844
  0
ARC
  5
42A
  8
0
  6
CONTINUOUS
 62
     7
 10
588.9734253123
 20
-974.2610296251
 30
0.0
 40
3.000020212886037
 50
270.0005545113
 51
359.99973008
  0
LINE
  5
42B
  8
0
  6
CONTINUOUS
 62
     7
 10
-5.5765591956
 20
-579.8610431859
 30
0.0
 11
-5.5765591956
 21
-952.5654895017
 31
0.0
  0
LINE
  5
42C
  8
0
  6
CONTINUOUS
 62
     7
 10
591.4234436654
 20
-952.5654895017
 30
0.0
 11
591.4234436654
 21
-579.8610431859
 31
0.0
  0
ARC
  5
42D
  8
0
  6
CONTINUOUS
 62
     7
 10
586.4234422349
 20
-952.5654902413
 30
0.0
 40
5.000000000006594
 50
354.3120472985
 51
0.0
  0
ARC
  5
42E
  8
0
  6
CONTINUOUS
 62
     7
 10
-0.5765577651
 20
-952.5654902413
 30
0.0
 40
5.0000000000065
 50
180.0
 51
185.6879527015
  0
LINE
  5
42F
  8
0
  6
CONTINUOUS
 62
     7
 10
589.9279035234
 20
-956.061048598
 30
0.0
 11
590.42345654
 21
-955.9606147716
 31
0.0
  0
LINE
  5
430
  8
0
  6
CONTINUOUS
 62
     7
 10
-4.0810190535
 20
-956.061048598
 30
0.0
 11
589.9279035234
 21
-956.061048598
 31
0.0
  0
LINE
  5
431
  8
0
  6
CONTINUOUS
 62
     7
 10
-4.5765720702
 20
-955.9606147716
 30
0.0
 11
-4.0810190535
 21
-956.061048598
 31
0.0
  0
ARC
  5
432
  8
0
  6
CONTINUOUS
 62
     7
 10
-1.3253265349
 20
-953.2531112721
 30
0.0
 40
4.230977751121517
 50
177.3981162642
 51
219.7861401472
  0
ARC
  5
433
  8
0
  6
CONTINUOUS
 62
     7
 10
586.8303809012
 20
-953.1381250127
 30
0.0
 40
4.569096298614243
 50
321.8490948615
 51
0.9666487272
  0
LINE
  5
434
  8
0
  6
CONTINUOUS
 62
     7
 10
-4.0765487052
 20
-576.8610371063
 30
0.0
 11
589.923433175
 21
-576.8610371063
 31
0.0
  0
POLYLINE
  5
435
  8
0
  6
CONTINUOUS
 62
     7
 66
     1
 10
0.0
 20
0.0
 30
0.0
  0
VERTEX
  5
784
  8
0
  6
CONTINUOUS
 62
     7
 10
-5.5765591956
 20
-579.8610431859
 30
0.0
  0
VERTEX
  5
785
  8
0
  6
CONTINUOUS
 62
     7
 10
-5.2384220458
 20
-578.8208080242
 30
0.0
  0
VERTEX
  5
786
  8
0
  6
CONTINUOUS
 62
     7
 10
-4.9002252913
 20
-577.909497709
 30
0.0
  0
VERTEX
  5
787
  8
0
  6
CONTINUOUS
 62
     7
 10
-4.5620285369
 20
-577.2404355714
 30
0.0
  0
VERTEX
  5
788
  8
0
  6
CONTINUOUS
 62
     7
 10
-4.2238317824
 20
-576.8966359804
 30
0.0
  0
VERTEX
  5
789
  8
0
  6
CONTINUOUS
 62
     7
 10
-4.0765487052
 20
-576.8610371063
 30
0.0
  0
SEQEND
  5
78A
  8
0
  6
CONTINUOUS
 62
     7
  0
POLYLINE
  5
436
  8
0
  6
CONTINUOUS
 62
     7
 66
     1
 10
0.0
 20
0.0
 30
0.0
  0
VERTEX
  5
78B
  8
0
  6
CONTINUOUS
 62
     7
 10
589.923433175
 20
-576.8610371063
 30
0.0
  0
VERTEX
  5
78C
  8
0
  6
CONTINUOUS
 62
     7
 10
590.2615703248
 20
-577.0471675107
 30
0.0
  0
VERTEX
  5
78D
  8
0
  6
CONTINUOUS
 62
     7
 10
590.5997670793
 20
-577.5825662324
 30
0.0
  0
VERTEX
  5
78E
  8
0
  6
CONTINUOUS
 62
     7
 10
590.9379936361
 20
-578.4007740924
 30
0.0
  0
VERTEX
  5
78F
  8
0
  6
CONTINUOUS
 62
     7
 10
591.2761903905
 20
-579.4002396772
 30
0.0
  0
VERTEX
  5
790
  8
0
  6
CONTINUOUS
 62
     7
 10
591.4234436654
 20
-579.8610431859
 30
0.0
  0
SEQEND
  5
791
  8
0
  6
CONTINUOUS
 62
     7
  0
LINE
  5
437
  8
0
  6
CONTINUOUS
 62
     7
 10
571.2710238599
 20
-962.2610492418
 30
0.0
 11
570.633641591
 21
-957.7698094556
 31
0.0
  0
LINE
  5
438
  8
0
  6
CONTINUOUS
 62
     7
 10
14.5758606099
 20
-962.2610492418
 30
0.0
 11
15.2132428788
 21
-957.7698094556
 31
0.0
  0
ARC
  5
439
  8
0
  6
CONTINUOUS
 62
     7
 10
163.0804196655
 20
-969.5118562182
 30
0.0
 40
148.3150279873761
 50
174.98024738
 51
175.3782204638
  0
ARC
  5
43A
  8
0
  6
CONTINUOUS
 62
     7
 10
422.7664648044
 20
-969.5118562182
 30
0.0
 40
148.315027987376
 50
4.6217795362
 51
5.01975262
  0
ARC
  5
43B
  8
0
  6
CONTINUOUS
 62
     7
 10
542.0940673001
 20
-962.1974451997
 30
0.0
 40
28.88098438401426
 50
8.8185781682
 51
11.2160447682
  0
ARC
  5
43C
  8
0
  6
CONTINUOUS
 62
     7
 10
43.7528171698
 20
-962.1974451997
 30
0.0
 40
28.88098438401442
 50
168.7839552318
 51
171.1814218318
  0
POLYLINE
  5
43D
  8
0
  6
CONTINUOUS
 62
     7
 66
     1
 10
0.0
 20
0.0
 30
0.0
  0
VERTEX
  5
792
  8
0
  6
CONTINUOUS
 62
     7
 10
570.4234458112
 20
-956.579832525
 30
0.0
  0
VERTEX
  5
793
  8
0
  6
CONTINUOUS
 62
     7
 10
571.1756564283
 20
-956.1968875835
 30
0.0
  0
VERTEX
  5
794
  8
0
  6
CONTINUOUS
 62
     7
 10
571.9278968477
 20
-956.061048598
 30
0.0
  0
SEQEND
  5
795
  8
0
  6
CONTINUOUS
 62
     7
  0
POLYLINE
  5
43E
  8
0
  6
CONTINUOUS
 62
     7
 66
     1
 10
0.0
 20
0.0
 30
0.0
  0
VERTEX
  5
796
  8
0
  6
CONTINUOUS
 62
     7
 10
13.9189876222
 20
-956.061048598
 30
0.0
  0
VERTEX
  5
797
  8
0
  6
CONTINUOUS
 62
     7
 10
14.6712280416
 20
-956.1968875835
 30
0.0
  0
VERTEX
  5
798
  8
0
  6
CONTINUOUS
 62
     7
 10
15.4234386586
 20
-956.579832525
 30
0.0
  0
SEQEND
  5
799
  8
0
  6
CONTINUOUS
 62
     7
  0
ARC
  5
43F
  8
0
  6
CONTINUOUS
 62
     7
 10
50.973436942
 20
-881.1288208101
 30
0.0
 40
101.3169081416158
 50
262.4990128551
 51
277.5009871449
  0
LINE
  5
440
  8
0
  6
CONTINUOUS
 62
     7
 10
67.0626528167
 20
-981.6281629512
 30
0.0
 11
67.3688716792
 21
-979.7184450338
 31
0.0
  0
LINE
  5
441
  8
0
  6
CONTINUOUS
 62
     7
 10
34.578017106
 20
-979.7184450338
 30
0.0
 11
34.8842359685
 21
-981.6281629512
 31
0.0
  0
ARC
  5
442
  8
0
  6
CONTINUOUS
 62
     7
 10
66.2855448494
 20
-981.4605387081
 30
0.0
 40
0.7949809303918385
 50
278.4795439539
 51
347.8276455869
  0
POLYLINE
  5
443
  8
0
  6
CONTINUOUS
 62
     7
 66
     1
 10
0.0
 20
0.0
 30
0.0
  0
VERTEX
  5
79A
  8
0
  6
CONTINUOUS
 62
     7
 10
55.7087428474
 20
-985.284520478
 30
0.0
  0
VERTEX
  5
79B
  8
0
  6
CONTINUOUS
 62
     7
 10
57.7640451097
 20
-985.2846396873
 30
0.0
  0
VERTEX
  5
79C
  8
0
  6
CONTINUOUS
 62
     7
 10
59.6274651193
 20
-985.2942956397
 30
0.0
  0
VERTEX
  5
79D
  8
0
  6
CONTINUOUS
 62
     7
 10
61.2432576322
 20
-985.3210134218
 30
0.0
  0
VERTEX
  5
79E
  8
0
  6
CONTINUOUS
 62
     7
 10
62.5696248912
 20
-985.3721095035
 30
0.0
  0
VERTEX
  5
79F
  8
0
  6
CONTINUOUS
 62
     7
 10
63.5648585462
 20
-985.4546619365
 30
0.0
  0
VERTEX
  5
7A0
  8
0
  6
CONTINUOUS
 62
     7
 10
64.204729309
 20
-985.5722768018
 30
0.0
  0
VERTEX
  5
7A1
  8
0
  6
CONTINUOUS
 62
     7
 10
64.4653953218
 20
-985.7266081283
 30
0.0
  0
VERTEX
  5
7A2
  8
0
  6
CONTINUOUS
 62
     7
 10
64.4433267021
 20
-985.7616705606
 30
0.0
  0
SEQEND
  5
7A3
  8
0
  6
CONTINUOUS
 62
     7
  0
POLYLINE
  5
444
  8
0
  6
CONTINUOUS
 62
     7
 66
     1
 10
0.0
 20
0.0
 30
0.0
  0
VERTEX
  5
7A4
  8
0
  6
CONTINUOUS
 62
     7
 10
46.2381310367
 20
-985.284520478
 30
0.0
  0
VERTEX
  5
7A5
  8
0
  6
CONTINUOUS
 62
     7
 10
47.7697617912
 20
-985.2867109487
 30
0.0
  0
VERTEX
  5
7A6
  8
0
  6
CONTINUOUS
 62
     7
 10
50.973436942
 20
-985.2896911809
 30
0.0
  0
VERTEX
  5
7A7
  8
0
  6
CONTINUOUS
 62
     7
 10
52.5734491252
 20
-985.2888567159
 30
0.0
  0
VERTEX
  5
7A8
  8
0
  6
CONTINUOUS
 62
     7
 10
55.7087428474
 20
-985.284520478
 30
0.0
  0
SEQEND
  5
7A9
  8
0
  6
CONTINUOUS
 62
     7
  0
POLYLINE
  5
445
  8
0
  6
CONTINUOUS
 62
     7
 66
     1
 10
0.0
 20
0.0
 30
0.0
  0
VERTEX
  5
7AA
  8
0
  6
CONTINUOUS
 62
     7
 10
37.5197447442
 20
-985.7632500837
 30
0.0
  0
VERTEX
  5
7AB
  8
0
  6
CONTINUOUS
 62
     7
 10
37.5452257299
 20
-985.6563342521
 30
0.0
  0
VERTEX
  5
7AC
  8
0
  6
CONTINUOUS
 62
     7
 10
37.9685081147
 20
-985.5181706855
 30
0.0
  0
VERTEX
  5
7AD
  8
0
  6
CONTINUOUS
 62
     7
 10
38.7557364606
 20
-985.4158593128
 30
0.0
  0
VERTEX
  5
7AE
  8
0
  6
CONTINUOUS
 62
     7
 10
39.89013206
 20
-985.347567291
 30
0.0
  0
VERTEX
  5
7AF
  8
0
  6
CONTINUOUS
 62
     7
 10
41.3347102308
 20
-985.3074086616
 30
0.0
  0
VERTEX
  5
7B0
  8
0
  6
CONTINUOUS
 62
     7
 10
43.0586702728
 20
-985.2887375066
 30
0.0
  0
VERTEX
  5
7B1
  8
0
  6
CONTINUOUS
 62
     7
 10
45.0058646106
 20
-985.2838499258
 30
0.0
  0
VERTEX
  5
7B2
  8
0
  6
CONTINUOUS
 62
     7
 10
46.2381310367
 20
-985.284520478
 30
0.0
  0
SEQEND
  5
7B3
  8
0
  6
CONTINUOUS
 62
     7
  0
LINE
  5
446
  8
0
  6
CONTINUOUS
 62
     7
 10
34.8842359685
 20
-985.3267205665
 30
0.0
 11
34.8842359685
 21
-981.6281629512
 31
0.0
  0
POLYLINE
  5
447
  8
0
  6
CONTINUOUS
 62
     7
 66
     1
 10
0.0
 20
0.0
 30
0.0
  0
VERTEX
  5
7B4
  8
0
  6
CONTINUOUS
 62
     7
 10
62.9955745839
 20
-986.5948093841
 30
0.0
  0
VERTEX
  5
7B5
  8
0
  6
CONTINUOUS
 62
     7
 10
63.8260759019
 20
-986.4545149515
 30
0.0
  0
VERTEX
  5
7B6
  8
0
  6
CONTINUOUS
 62
     7
 10
64.3381841087
 20
-986.2993789623
 30
0.0
  0
VERTEX
  5
7B7
  8
0
  6
CONTINUOUS
 62
     7
 10
64.4683010482
 20
-986.1404282758
 30
0.0
  0
VERTEX
  5
7B8
  8
0
  6
CONTINUOUS
 62
     7
 10
64.2127312326
 20
-985.9822226474
 30
0.0
  0
VERTEX
  5
7B9
  8
0
  6
CONTINUOUS
 62
     7
 10
63.5787762307
 20
-985.8292920301
 30
0.0
  0
VERTEX
  5
7BA
  8
0
  6
CONTINUOUS
 62
     7
 10
62.5845409536
 20
-985.6859875629
 30
0.0
  0
VERTEX
  5
7BB
  8
0
  6
CONTINUOUS
 62
     7
 10
61.2584568166
 20
-985.5564070651
 30
0.0
  0
VERTEX
  5
7BC
  8
0
  6
CONTINUOUS
 62
     7
 10
59.6384174728
 20
-985.444260926
 30
0.0
  0
VERTEX
  5
7BD
  8
0
  6
CONTINUOUS
 62
     7
 10
57.7707208299
 20
-985.3527677963
 30
0.0
  0
VERTEX
  5
7BE
  8
0
  6
CONTINUOUS
 62
     7
 10
55.7087428474
 20
-985.284520478
 30
0.0
  0
SEQEND
  5
7BF
  8
0
  6
CONTINUOUS
 62
     7
  0
POLYLINE
  5
448
  8
0
  6
CONTINUOUS
 62
     7
 66
     1
 10
0.0
 20
0.0
 30
0.0
  0
VERTEX
  5
7C0
  8
0
  6
CONTINUOUS
 62
     7
 10
38.9512993001
 20
-986.5948093841
 30
0.0
  0
VERTEX
  5
7C1
  8
0
  6
CONTINUOUS
 62
     7
 10
38.1207979821
 20
-986.4545149515
 30
0.0
  0
VERTEX
  5
7C2
  8
0
  6
CONTINUOUS
 62
     7
 10
37.6087046766
 20
-986.2993789623
 30
0.0
  0
VERTEX
  5
7C3
  8
0
  6
CONTINUOUS
 62
     7
 10
37.478587737
 20
-986.1404282758
 30
0.0
  0
VERTEX
  5
7C4
  8
0
  6
CONTINUOUS
 62
     7
 10
37.7341426515
 20
-985.9822226474
 30
0.0
  0
VERTEX
  5
7C5
  8
0
  6
CONTINUOUS
 62
     7
 10
38.3680976533
 20
-985.8292920301
 30
0.0
  0
VERTEX
  5
7C6
  8
0
  6
CONTINUOUS
 62
     7
 10
39.3623329305
 20
-985.6859875629
 30
0.0
  0
VERTEX
  5
7C7
  8
0
  6
CONTINUOUS
 62
     7
 10
40.6884170675
 20
-985.5564070651
 30
0.0
  0
VERTEX
  5
7C8
  8
0
  6
CONTINUOUS
 62
     7
 10
42.3084713125
 20
-985.444260926
 30
0.0
  0
VERTEX
  5
7C9
  8
0
  6
CONTINUOUS
 62
     7
 10
44.1761679553
 20
-985.3527677963
 30
0.0
  0
VERTEX
  5
7CA
  8
0
  6
CONTINUOUS
 62
     7
 10
46.2381310367
 20
-985.284520478
 30
0.0
  0
SEQEND
  5
7CB
  8
0
  6
CONTINUOUS
 62
     7
  0
POLYLINE
  5
449
  8
0
  6
CONTINUOUS
 62
     7
 66
     1
 10
0.0
 20
0.0
 30
0.0
  0
VERTEX
  5
7CC
  8
0
  6
CONTINUOUS
 62
     7
 10
50.973436942
 20
-986.0258234451
 30
0.0
  0
VERTEX
  5
7CD
  8
0
  6
CONTINUOUS
 62
     7
 10
48.843926897
 20
-986.0381318042
 30
0.0
  0
VERTEX
  5
7CE
  8
0
  6
CONTINUOUS
 62
     7
 10
46.7724866771
 20
-986.0747290561
 30
0.0
  0
VERTEX
  5
7CF
  8
0
  6
CONTINUOUS
 62
     7
 10
44.815651288
 20
-986.1346019218
 30
0.0
  0
VERTEX
  5
7D0
  8
0
  6
CONTINUOUS
 62
     7
 10
43.0267817878
 20
-986.2161261747
 30
0.0
  0
VERTEX
  5
7D1
  8
0
  6
CONTINUOUS
 62
     7
 10
41.4546645784
 20
-986.3170815418
 30
0.0
  0
VERTEX
  5
7D2
  8
0
  6
CONTINUOUS
 62
     7
 10
40.1422001027
 20
-986.4347113082
 30
0.0
  0
VERTEX
  5
7D3
  8
0
  6
CONTINUOUS
 62
     7
 10
39.1251958513
 20
-986.5657968233
 30
0.0
  0
VERTEX
  5
7D4
  8
0
  6
CONTINUOUS
 62
     7
 10
38.4313679838
 20
-986.7067767093
 30
0.0
  0
VERTEX
  5
7D5
  8
0
  6
CONTINUOUS
 62
     7
 10
38.0796707773
 20
-986.8538064668
 30
0.0
  0
VERTEX
  5
7D6
  8
0
  6
CONTINUOUS
 62
     7
 10
38.0796707773
 20
-987.0028627822
 30
0.0
  0
VERTEX
  5
7D7
  8
0
  6
CONTINUOUS
 62
     7
 10
38.3809722566
 20
-987.1355129192
 30
0.0
  0
SEQEND
  5
7D8
  8
0
  6
CONTINUOUS
 62
     7
  0
POLYLINE
  5
44A
  8
0
  6
CONTINUOUS
 62
     7
 66
     1
 10
0.0
 20
0.0
 30
0.0
  0
VERTEX
  5
7D9
  8
0
  6
CONTINUOUS
 62
     7
 10
63.2072157764
 20
-987.2220141599
 30
0.0
  0
VERTEX
  5
7DA
  8
0
  6
CONTINUOUS
 62
     7
 10
63.5155059003
 20
-987.1498776386
 30
0.0
  0
VERTEX
  5
7DB
  8
0
  6
CONTINUOUS
 62
     7
 10
63.867218008
 20
-987.0028627822
 30
0.0
  0
VERTEX
  5
7DC
  8
0
  6
CONTINUOUS
 62
     7
 10
63.867218008
 20
-986.8538064668
 30
0.0
  0
VERTEX
  5
7DD
  8
0
  6
CONTINUOUS
 62
     7
 10
63.5155059003
 20
-986.7067767093
 30
0.0
  0
VERTEX
  5
7DE
  8
0
  6
CONTINUOUS
 62
     7
 10
62.821692934
 20
-986.5657968233
 30
0.0
  0
VERTEX
  5
7DF
  8
0
  6
CONTINUOUS
 62
     7
 10
61.8046737813
 20
-986.4347113082
 30
0.0
  0
VERTEX
  5
7E0
  8
0
  6
CONTINUOUS
 62
     7
 10
60.4922093057
 20
-986.3170815418
 30
0.0
  0
VERTEX
  5
7E1
  8
0
  6
CONTINUOUS
 62
     7
 10
58.9201069974
 20
-986.2161261747
 30
0.0
  0
VERTEX
  5
7E2
  8
0
  6
CONTINUOUS
 62
     7
 10
57.1312374973
 20
-986.1346019218
 30
0.0
  0
VERTEX
  5
7E3
  8
0
  6
CONTINUOUS
 62
     7
 10
55.174387207
 20
-986.0747290561
 30
0.0
  0
VERTEX
  5
7E4
  8
0
  6
CONTINUOUS
 62
     7
 10
53.1029618882
 20
-986.0381318042
 30
0.0
  0
VERTEX
  5
7E5
  8
0
  6
CONTINUOUS
 62
     7
 10
50.973436942
 20
-986.0258234451
 30
0.0
  0
SEQEND
  5
7E6
  8
0
  6
CONTINUOUS
 62
     7
  0
LINE
  5
44B
  8
0
  6
CONTINUOUS
 62
     7
 10
58.4953046941
 20
-987.9138750741
 30
0.0
 11
56.0123689079
 21
-988.1497455547
 31
0.0
  0
ARC
  5
44C
  8
0
  6
CONTINUOUS
 62
     7
 10
51.6810799133
 20
-1025.2949364856
 30
0.0
 40
37.39686181553085
 50
83.3491003303
 51
91.0842454067
  0
ARC
  5
44D
  8
0
  6
CONTINUOUS
 62
     7
 10
50.2655236985
 20
-1025.2893772123
 30
0.0
 40
37.39130865374234
 50
88.9151793275
 51
96.6514749356
  0
LINE
  5
44E
  8
0
  6
CONTINUOUS
 62
     7
 10
45.9345049762
 20
-988.1497455547
 30
0.0
 11
43.45156919
 21
-987.9138750741
 31
0.0
  0
ARC
  5
44F
  8
0
  6
CONTINUOUS
 62
     7
 10
44.523487034
 20
-979.3555138091
 30
0.0
 40
8.915299831144562
 50
258.825027567
 51
263.0972178384
  0
LINE
  5
450
  8
0
  6
CONTINUOUS
 62
     7
 10
43.4520013236
 20
-988.2061911533
 30
0.0
 11
45.9353096389
 21
-988.4367717216
 31
0.0
  0
ARC
  5
451
  8
0
  6
CONTINUOUS
 62
     7
 10
50.5586318183
 20
-940.1732826786
 30
0.0
 40
48.50831545991896
 50
266.2788803269
 51
270.4899546056
  0
ARC
  5
452
  8
0
  6
CONTINUOUS
 62
     7
 10
51.3878641655
 20
-940.1609941599
 30
0.0
 40
48.520600300253
 50
269.5106157098
 51
273.7208526237
  0
LINE
  5
453
  8
0
  6
CONTINUOUS
 62
     7
 10
56.0115791463
 20
-988.4367717216
 30
0.0
 11
58.4948874616
 21
-988.2061911533
 31
0.0
  0
ARC
  5
454
  8
0
  6
CONTINUOUS
 62
     7
 10
57.4277865858
 20
-979.3837791725
 30
0.0
 40
8.886712408866735
 50
276.8966186385
 51
281.1897160744
  0
LINE
  5
455
  8
0
  6
CONTINUOUS
 62
     7
 10
14.699003806
 20
-956.2110436866
 30
0.0
 11
11.6734422349
 21
-956.2110436866
 31
0.0
  0
LINE
  5
456
  8
0
  6
CONTINUOUS
 62
     7
 10
1.6734517717
 20
-956.2110436866
 30
0.0
 11
-0.8072041369
 21
-956.2110436866
 31
0.0
  0
ARC
  5
457
  8
0
  6
CONTINUOUS
 62
     7
 10
-0.8097576098
 20
-955.8445805944
 30
0.0
 40
0.3664719882367349
 50
216.2053417871
 51
270.3992239674
  0
LINE
  5
458
  8
0
  6
CONTINUOUS
 62
     7
 10
588.2373667859
 20
-973.7610352943
 30
0.0
 11
588.4734309816
 21
-973.7610352943
 31
0.0
  0
LINE
  5
459
  8
0
  6
CONTINUOUS
 62
     7
 10
588.4734309816
 20
-973.7610352943
 30
0.0
 11
588.4734309816
 21
-975.7105393121
 31
0.0
  0
ARC
  5
45A
  8
0
  6
CONTINUOUS
 62
     7
 10
587.9734420152
 20
-973.2610424265
 30
0.0
 40
2.500000000000114
 50
270.0
 51
281.5369590328
  0
LINE
  5
45B
  8
0
  6
CONTINUOUS
 62
     7
 10
590.4734350347
 20
-972.8281033943
 30
0.0
 11
590.4734350347
 21
-973.1629622886
 31
0.0
  0
ARC
  5
45C
  8
0
  6
CONTINUOUS
 62
     7
 10
587.9734420152
 20
-973.2610424265
 30
0.0
 40
2.500000000000114
 50
281.5369590328
 51
0.0000000001
  0
LINE
  5
45D
  8
0
  6
CONTINUOUS
 62
     7
 10
11.6734422349
 20
-957.0610357234
 30
0.0
 11
1.6734517717
 21
-957.0610357234
 31
0.0
  0
CIRCLE
  5
45E
  8
0
  6
CONTINUOUS
 62
     7
 10
564.9234422349
 20
-641.0610428522
 30
0.0
 40
9.350000000000136
  0
CIRCLE
  5
45F
  8
0
  6
CONTINUOUS
 62
     7
 10
564.9234422349
 20
-891.0610428522
 30
0.0
 40
9.350000000000136
  0
CIRCLE
  5
460
  8
0
  6
CONTINUOUS
 62
     7
 10
20.9234422349
 20
-641.0610428522
 30
0.0
 40
9.349999999999978
  0
CIRCLE
  5
461
  8
0
  6
CONTINUOUS
 62
     7
 10
20.9234422349
 20
-891.0610428522
 30
0.0
 40
9.349999999999978
  0
ARC
  5
462
  8
0
  6
CONTINUOUS
 62
     7
 10
575.1345145666
 20
-960.0610428522
 30
0.0
 40
4.000000000000114
 50
89.9999999999
 51
187.9999988096
  0
LINE
  5
463
  8
0
  6
CONTINUOUS
 62
     7
 10
584.1734326982
 20
-958.06103775
 30
0.0
 11
584.1734326982
 21
-956.061048598
 31
0.0
  0
LINE
  5
464
  8
0
  6
CONTINUOUS
 62
     7
 10
575.1345075273
 20
-958.06103775
 30
0.0
 11
584.1734326982
 21
-958.06103775
 31
0.0
  0
ARC
  5
465
  8
0
  6
CONTINUOUS
 62
     7
 10
575.1345145666
 20
-960.0610428522
 30
0.0
 40
2.00000008212362
 50
89.9999999998
 51
187.9999988096
  0
LINE
  5
466
  8
0
  6
CONTINUOUS
 62
     7
 10
573.4240628385
 20
-962.2610492418
 30
0.0
 11
573.1539643907
 21
-960.3393954942
 31
0.0
  0
LINE
  5
467
  8
0
  6
CONTINUOUS
 62
     7
 10
571.1734510564
 20
-960.6177342842
 30
0.0
 11
571.4043892526
 21
-962.2610492418
 31
0.0
  0
LINE
  5
468
  8
0
  6
CONTINUOUS
 62
     7
 10
581.2734283113
 20
-958.681045265
 30
0.0
 11
577.0734466218
 21
-958.681045265
 31
0.0
  0
LINE
  5
469
  8
0
  6
CONTINUOUS
 62
     7
 10
576.6734398507
 20
-958.2810384939
 30
0.0
 11
581.6734350824
 21
-958.2810384939
 31
0.0
  0
ARC
  5
46A
  8
0
  6
CONTINUOUS
 62
     7
 10
210.4464652489
 20
-974.5912470412
 30
0.0
 40
360.4025615909582
 50
2.6419741545
 51
2.8666747845
  0
ARC
  5
46B
  8
0
  6
CONTINUOUS
 62
     7
 10
375.4004192209
 20
-974.5912470412
 30
0.0
 40
360.4025615909582
 50
177.1333252155
 51
177.3580258455
  0
LINE
  5
46C
  8
0
  6
CONTINUOUS
 62
     7
 10
15.3809405469
 20
-957.7698094556
 30
0.0
 11
15.4050208234
 21
-957.5155062387
 31
0.0
  0
LINE
  5
46D
  8
0
  6
CONTINUOUS
 62
     7
 10
-5.0765656329
 20
-956.061048598
 30
0.0
 11
-4.0810190535
 21
-956.061048598
 31
0.0
  0
LINE
  5
46E
  8
0
  6
CONTINUOUS
 62
     7
 10
589.9279035234
 20
-956.061048598
 30
0.0
 11
590.9234501027
 21
-956.061048598
 31
0.0
  0
LINE
  5
46F
  8
0
  6
CONTINUOUS
 62
     7
 10
-5.5765591956
 20
-952.5654895017
 30
0.0
 11
-7.076569686
 21
-952.5654895017
 31
0.0
  0
LINE
  5
470
  8
0
  6
CONTINUOUS
 62
     7
 10
-7.076569686
 20
-579.8610431859
 30
0.0
 11
-7.076569686
 21
-952.5654895017
 31
0.0
  0
LINE
  5
471
  8
0
  6
CONTINUOUS
 62
     7
 10
-7.076569686
 20
-579.8610431859
 30
0.0
 11
-5.5765591956
 21
-579.8610431859
 31
0.0
  0
LINE
  5
472
  8
0
  6
CONTINUOUS
 62
     7
 10
-6.1004840232
 20
-577.6466114233
 30
0.0
 11
-5.0885163642
 21
-578.7538273046
 31
0.0
  0
ARC
  5
473
  8
0
  6
CONTINUOUS
 62
     7
 10
-4.0766583923
 20
-579.8610182482
 30
0.0
 40
2.999911293788701
 50
132.4253070807
 51
180.0004762893
  0
LINE
  5
474
  8
0
  6
CONTINUOUS
 62
     7
 10
-5.5765591956
 20
-953.0610425184
 30
0.0
 11
-7.076569686
 21
-953.0610425184
 31
0.0
  0
LINE
  5
475
  8
0
  6
CONTINUOUS
 62
     7
 10
-7.076569686
 20
-953.0610425184
 30
0.0
 11
-7.076569686
 21
-952.5654895017
 31
0.0
  0
LINE
  5
476
  8
0
  6
CONTINUOUS
 62
     7
 10
-5.9559129573
 20
-955.3994221399
 30
0.0
 11
-5.321272502
 21
-954.6097649047
 31
0.0
  0
ARC
  5
477
  8
0
  6
CONTINUOUS
 62
     7
 10
-4.0764882895
 20
-953.0609929008
 30
0.0
 40
3.00008139686964
 50
180.0009476003
 51
231.2107269694
  0
POLYLINE
  5
478
  8
0
  6
CONTINUOUS
 62
     7
 66
     1
 10
0.0
 20
0.0
 30
0.0
  0
VERTEX
  5
7E7
  8
0
  6
CONTINUOUS
 62
     7
 10
-5.5765591956
 20
-953.0610425184
 30
0.0
  0
VERTEX
  5
7E8
  8
0
  6
CONTINUOUS
 62
     7
 10
-5.5392764903
 20
-953.3934427211
 30
0.0
  0
VERTEX
  5
7E9
  8
0
  6
CONTINUOUS
 62
     7
 10
-5.503752122
 20
-953.4954113672
 30
0.0
  0
SEQEND
  5
7EA
  8
0
  6
CONTINUOUS
 62
     7
  0
POLYLINE
  5
479
  8
0
  6
CONTINUOUS
 62
     7
 66
     1
 10
0.0
 20
0.0
 30
0.0
  0
VERTEX
  5
7EB
  8
0
  6
CONTINUOUS
 62
     7
 10
-4.0765487052
 20
-576.8610371063
 30
0.0
  0
VERTEX
  5
7EC
  8
0
  6
CONTINUOUS
 62
     7
 10
-5.1620684958
 20
-577.0643187473
 30
0.0
  0
VERTEX
  5
7ED
  8
0
  6
CONTINUOUS
 62
     7
 10
-6.1004840232
 20
-577.6466114233
 30
0.0
  0
SEQEND
  5
7EE
  8
0
  6
CONTINUOUS
 62
     7
  0
POLYLINE
  5
47A
  8
0
  6
CONTINUOUS
 62
     7
 66
     1
 10
0.0
 20
0.0
 30
0.0
  0
VERTEX
  5
7EF
  8
0
  6
CONTINUOUS
 62
     7
 10
-5.9559129573
 20
-955.3994221399
 30
0.0
  0
VERTEX
  5
7F0
  8
0
  6
CONTINUOUS
 62
     7
 10
-5.0727807379
 20
-955.8908028314
 30
0.0
  0
VERTEX
  5
7F1
  8
0
  6
CONTINUOUS
 62
     7
 10
-4.0765487052
 20
-956.061048598
 30
0.0
  0
SEQEND
  5
7F2
  8
0
  6
CONTINUOUS
 62
     7
  0
ARC
  5
47B
  8
0
  6
CONTINUOUS
 62
     7
 10
13.9234486241
 20
-957.5610355265
 30
0.0
 40
1.499986928579368
 50
351.9993790956
 51
90.0007813648
  0
LINE
  5
47C
  8
0
  6
CONTINUOUS
 62
     7
 10
592.9234541559
 20
-579.8610431859
 30
0.0
 11
592.9234541559
 21
-952.5654895017
 31
0.0
  0
LINE
  5
47D
  8
0
  6
CONTINUOUS
 62
     7
 10
592.9234541559
 20
-952.5654895017
 30
0.0
 11
591.4234436654
 21
-952.5654895017
 31
0.0
  0
LINE
  5
47E
  8
0
  6
CONTINUOUS
 62
     7
 10
591.4234436654
 20
-579.8610431859
 30
0.0
 11
592.9234541559
 21
-579.8610431859
 31
0.0
  0
ARC
  5
47F
  8
0
  6
CONTINUOUS
 62
     7
 10
589.9235428622
 20
-579.8610182482
 30
0.0
 40
2.999911293788714
 50
359.9995237107
 51
47.5746929193
  0
LINE
  5
480
  8
0
  6
CONTINUOUS
 62
     7
 10
590.935400834
 20
-578.7538273046
 30
0.0
 11
591.947368493
 21
-577.6466114233
 31
0.0
  0
LINE
  5
481
  8
0
  6
CONTINUOUS
 62
     7
 10
592.9234541559
 20
-953.0610425184
 30
0.0
 11
591.4234436654
 21
-953.0610425184
 31
0.0
  0
LINE
  5
482
  8
0
  6
CONTINUOUS
 62
     7
 10
592.9234541559
 20
-952.5654895017
 30
0.0
 11
592.9234541559
 21
-953.0610425184
 31
0.0
  0
ARC
  5
483
  8
0
  6
CONTINUOUS
 62
     7
 10
589.9233727594
 20
-953.0609929008
 30
0.0
 40
3.000081396869756
 50
308.7892730306
 51
359.9990523997
  0
LINE
  5
484
  8
0
  6
CONTINUOUS
 62
     7
 10
591.1681569719
 20
-954.6097649047
 30
0.0
 11
591.8027974271
 21
-955.3994221399
 31
0.0
  0
POLYLINE
  5
485
  8
0
  6
CONTINUOUS
 62
     7
 66
     1
 10
0.0
 20
0.0
 30
0.0
  0
VERTEX
  5
7F3
  8
0
  6
CONTINUOUS
 62
     7
 10
591.4234436654
 20
-953.0610425184
 30
0.0
  0
VERTEX
  5
7F4
  8
0
  6
CONTINUOUS
 62
     7
 10
591.3861609601
 20
-953.3934427211
 30
0.0
  0
VERTEX
  5
7F5
  8
0
  6
CONTINUOUS
 62
     7
 10
591.3506365918
 20
-953.4954113672
 30
0.0
  0
SEQEND
  5
7F6
  8
0
  6
CONTINUOUS
 62
     7
  0
POLYLINE
  5
486
  8
0
  6
CONTINUOUS
 62
     7
 66
     1
 10
0.0
 20
0.0
 30
0.0
  0
VERTEX
  5
7F7
  8
0
  6
CONTINUOUS
 62
     7
 10
589.923433175
 20
-576.8610371063
 30
0.0
  0
VERTEX
  5
7F8
  8
0
  6
CONTINUOUS
 62
     7
 10
591.0089529657
 20
-577.0643187473
 30
0.0
  0
VERTEX
  5
7F9
  8
0
  6
CONTINUOUS
 62
     7
 10
591.947368493
 20
-577.6466114233
 30
0.0
  0
SEQEND
  5
7FA
  8
0
  6
CONTINUOUS
 62
     7
  0
POLYLINE
  5
487
  8
0
  6
CONTINUOUS
 62
     7
 66
     1
 10
0.0
 20
0.0
 30
0.0
  0
VERTEX
  5
7FB
  8
0
  6
CONTINUOUS
 62
     7
 10
591.8027974271
 20
-955.3994221399
 30
0.0
  0
VERTEX
  5
7FC
  8
0
  6
CONTINUOUS
 62
     7
 10
590.9196652078
 20
-955.8908028314
 30
0.0
  0
VERTEX
  5
7FD
  8
0
  6
CONTINUOUS
 62
     7
 10
589.923433175
 20
-956.061048598
 30
0.0
  0
SEQEND
  5
7FE
  8
0
  6
CONTINUOUS
 62
     7
  0
ARC
  5
488
  8
0
  6
CONTINUOUS
 62
     7
 10
571.9234358457
 20
-957.5610355265
 30
0.0
 40
1.499986928579406
 50
89.9992186352
 51
188.0006209044
  0
LINE
  5
489
  8
0
  6
CONTINUOUS
 62
     7
 10
-1042.8186665447
 20
556.8163593174
 30
0.0
 11
-1457.9284987656
 21
796.4541646244
 31
0.0
  0
POLYLINE
  5
48A
  8
0
  6
CONTINUOUS
 62
     7
 66
     1
 10
0.0
 20
0.0
 30
0.0
  0
VERTEX
  5
7FF
  8
0
  6
CONTINUOUS
 62
     7
 10
-1043.2582581747
 20
555.1659205432
 30
0.0
  0
VERTEX
  5
800
  8
0
  6
CONTINUOUS
 62
     7
 10
-1043.1969661202
 20
555.8346284039
 30
0.0
  0
VERTEX
  5
801
  8
0
  6
CONTINUOUS
 62
     7
 10
-1043.1192473316
 20
556.1647820545
 30
0.0
  0
VERTEX
  5
802
  8
0
  6
CONTINUOUS
 62
     7
 10
-1043.0406329224
 20
556.3995664084
 30
0.0
  0
VERTEX
  5
803
  8
0
  6
CONTINUOUS
 62
     7
 10
-1042.9988232486
 20
556.5046360712
 30
0.0
  0
VERTEX
  5
804
  8
0
  6
CONTINUOUS
 62
     7
 10
-1043.0033329614
 20
556.4990340101
 30
0.0
  0
SEQEND
  5
805
  8
0
  6
CONTINUOUS
 62
     7
  0
LINE
  5
48B
  8
0
  6
CONTINUOUS
 62
     7
 10
-1042.3795701402
 20
-401.9098813657
 30
0.0
 11
-1042.3795701402
 21
555.4023349605
 31
0.0
  0
LINE
  5
48C
  8
0
  6
CONTINUOUS
 62
     7
 10
-1747.2485433316
 20
632.197420596
 30
0.0
 11
-1747.2485433316
 21
-324.3627800608
 31
0.0
  0
LINE
  5
48D
  8
0
  6
CONTINUOUS
 62
     7
 10
-1737.263164666
 20
640.9274676171
 30
0.0
 11
-1744.6802302872
 21
636.6456867743
 31
0.0
  0
LINE
  5
48E
  8
0
  6
CONTINUOUS
 62
     7
 10
-1744.6802302872
 20
-328.8111009944
 30
0.0
 11
-1328.916510785
 21
-568.826387394
 31
0.0
  0
LINE
  5
48F
  8
0
  6
CONTINUOUS
 62
     7
 10
-1323.7803483115
 20
-568.8263752285
 30
0.0
 11
-1316.3632826903
 21
-564.5445943857
 31
0.0
  0
LINE
  5
490
  8
0
  6
CONTINUOUS
 62
     7
 10
-1312.1554572388
 20
400.8213385706
 30
0.0
 11
-1311.5090931701
 21
401.1390345835
 31
0.0
  0
LINE
  5
491
  8
0
  6
CONTINUOUS
 62
     7
 10
-1044.7637646769
 20
556.3070845349
 30
0.0
 11
-1465.8459528458
 21
799.3926575429
 31
0.0
  0
POLYLINE
  5
492
  8
0
  6
CONTINUOUS
 62
     7
 66
     1
 10
0.0
 20
0.0
 30
0.0
  0
VERTEX
  5
806
  8
0
  6
CONTINUOUS
 62
     7
 10
-1721.3363974493
 20
180.0419039473
 30
0.0
  0
VERTEX
  5
807
  8
0
  6
CONTINUOUS
 62
     7
 10
-1722.3211164179
 20
179.3957512246
 30
0.0
  0
VERTEX
  5
808
  8
0
  6
CONTINUOUS
 62
     7
 10
-1723.2202772841
 20
178.4619223065
 30
0.0
  0
VERTEX
  5
809
  8
0
  6
CONTINUOUS
 62
     7
 10
-1723.9449607341
 20
177.3221321958
 30
0.0
  0
VERTEX
  5
80A
  8
0
  6
CONTINUOUS
 62
     7
 10
-1724.4818167537
 20
176.0108091984
 30
0.0
  0
VERTEX
  5
80B
  8
0
  6
CONTINUOUS
 62
     7
 10
-1724.8264304605
 20
174.5648148326
 30
0.0
  0
VERTEX
  5
80C
  8
0
  6
CONTINUOUS
 62
     7
 10
-1724.9815097896
 20
173.0215698621
 30
0.0
  0
VERTEX
  5
80D
  8
0
  6
CONTINUOUS
 62
     7
 10
-1724.9554525005
 20
171.4246024683
 30
0.0
  0
VERTEX
  5
80E
  8
0
  6
CONTINUOUS
 62
     7
 10
-1724.766497642
 20
169.8337075053
 30
0.0
  0
VERTEX
  5
80F
  8
0
  6
CONTINUOUS
 62
     7
 10
-1724.4219366187
 20
168.2179311471
 30
0.0
  0
VERTEX
  5
810
  8
0
  6
CONTINUOUS
 62
     7
 10
-1724.0781658488
 20
167.0433940528
 30
0.0
  0
VERTEX
  5
811
  8
0
  6
CONTINUOUS
 62
     7
 10
-1723.6718913026
 20
165.9106688883
 30
0.0
  0
VERTEX
  5
812
  8
0
  6
CONTINUOUS
 62
     7
 10
-1722.9165249468
 20
164.2063736889
 30
0.0
  0
SEQEND
  5
813
  8
0
  6
CONTINUOUS
 62
     7
  0
ARC
  5
493
  8
0
  6
CONTINUOUS
 62
     7
 10
-1711.8415976646
 20
161.0768934837
 30
0.0
 40
5.784229687914932
 50
250.2125851429
 51
311.7218658449
  0
ARC
  5
494
  8
0
  6
CONTINUOUS
 62
     7
 10
-1708.578573137
 20
170.3211531323
 30
0.0
 40
15.58741125850248
 50
203.0970406809
 51
250.4298642473
  0
ARC
  5
495
  8
0
  6
CONTINUOUS
 62
     7
 10
-1711.3638319563
 20
165.2261451575
 30
0.0
 40
0.7673072983096627
 50
4.2919643126
 51
65.1734777267
  0
LINE
  5
496
  8
0
  6
CONTINUOUS
 62
     7
 10
-1720.2619162301
 20
201.277112255
 30
0.0
 11
-1722.9350168766
 21
198.490452162
 31
0.0
  0
LINE
  5
497
  8
0
  6
CONTINUOUS
 62
     7
 10
-1712.964716246
 20
166.8411885405
 30
0.0
 11
-1711.0229161047
 21
165.9140422697
 31
0.0
  0
ARC
  5
498
  8
0
  6
CONTINUOUS
 62
     7
 10
-1720.8636600942
 20
196.8907523932
 30
0.0
 40
2.634899058093252
 50
146.2163775162
 51
174.8316687221
  0
LINE
  5
499
  8
0
  6
CONTINUOUS
 62
     7
 10
-1718.619074222
 20
172.0436590988
 30
0.0
 11
-1718.8127389909
 21
171.9318588075
 31
0.0
  0
ARC
  5
49A
  8
0
  6
CONTINUOUS
 62
     7
 10
-1455.9185686901
 20
158.1013781337
 30
0.0
 40
270.3803098538872
 50
171.690739094
 51
177.7459081244
  0
LINE
  5
49B
  8
0
  6
CONTINUOUS
 62
     7
 10
-1721.0697659489
 20
180.1959712406
 30
0.0
 11
-1721.1941412989
 21
180.1341968221
 31
0.0
  0
LINE
  5
49C
  8
0
  6
CONTINUOUS
 62
     7
 10
-1710.7208496415
 20
163.2889935275
 30
0.0
 11
-1710.7611631021
 21
163.2335640861
 31
0.0
  0
ARC
  5
49D
  8
0
  6
CONTINUOUS
 62
     7
 10
-1712.8000496198
 20
167.1679076417
 30
0.0
 40
0.3606807720740194
 50
191.0442394344
 51
246.3111968955
  0
LINE
  5
49E
  8
0
  6
CONTINUOUS
 62
     7
 10
-1710.8220231513
 20
163.1977873868
 30
0.0
 11
-1710.7352638637
 21
163.2478724575
 31
0.0
  0
ARC
  5
49F
  8
0
  6
CONTINUOUS
 62
     7
 10
-1717.7102455483
 20
169.8697865677
 30
0.0
 40
2.338438389263665
 50
54.2641539129
 51
117.2077417963
  0
LINE
  5
4A0
  8
0
  6
CONTINUOUS
 62
     7
 10
-1710.6915048982
 20
165.5805037316
 30
0.0
 11
-1713.1667366277
 21
164.1515828697
 31
0.0
  0
LINE
  5
4A1
  8
0
  6
CONTINUOUS
 62
     7
 10
-1721.6683460282
 20
172.059107749
 30
0.0
 11
-1720.0676824787
 21
170.9420222496
 31
0.0
  0
LINE
  5
4A2
  8
0
  6
CONTINUOUS
 62
     7
 10
-1719.6584155063
 20
170.9365827052
 30
0.0
 11
-1717.5076934369
 21
172.178168128
 31
0.0
  0
POLYLINE
  5
4A3
  8
0
  6
CONTINUOUS
 62
     7
 66
     1
 10
0.0
 20
0.0
 30
0.0
  0
VERTEX
  5
814
  8
0
  6
CONTINUOUS
 62
     7
 10
-1726.0986963031
 20
168.7311008499
 30
0.0
  0
VERTEX
  5
815
  8
0
  6
CONTINUOUS
 62
     7
 10
-1726.5505632027
 20
156.5816906037
 30
0.0
  0
VERTEX
  5
816
  8
0
  6
CONTINUOUS
 62
     7
 10
-1726.8211354334
 20
143.8599937908
 30
0.0
  0
VERTEX
  5
817
  8
0
  6
CONTINUOUS
 62
     7
 10
-1726.8847982481
 20
131.2491044184
 30
0.0
  0
VERTEX
  5
818
  8
0
  6
CONTINUOUS
 62
     7
 10
-1726.7412987657
 20
118.7538894253
 30
0.0
  0
VERTEX
  5
819
  8
0
  6
CONTINUOUS
 62
     7
 10
-1726.3905105455
 20
106.3791670887
 30
0.0
  0
VERTEX
  5
81A
  8
0
  6
CONTINUOUS
 62
     7
 10
-1726.0782445449
 20
99.5267470551
 30
0.0
  0
SEQEND
  5
81B
  8
0
  6
CONTINUOUS
 62
     7
  0
ARC
  5
4A4
  8
0
  6
CONTINUOUS
 62
     7
 10
-1533.9008581335
 20
106.438804213
 30
0.0
 40
192.3025325822588
 50
182.0600270264
 51
189.6856469818
  0
LINE
  5
4A5
  8
0
  6
CONTINUOUS
 62
     7
 10
-1701.5732449571
 20
59.8486079204
 30
0.0
 11
-1697.8376222596
 21
60.73788607
 31
0.0
  0
ARC
  5
4A6
  8
0
  6
CONTINUOUS
 62
     7
 10
-1701.8535084283
 20
62.1303216711
 30
0.0
 40
2.323651079629288
 50
245.274999513
 51
274.0670493255
  0
ARC
  5
4A7
  8
0
  6
CONTINUOUS
 62
     7
 10
-1675.0325481702
 20
129.8265206927
 30
0.0
 40
75.13570564212226
 50
231.6936970945
 51
248.3016340984
  0
ARC
  5
4A8
  8
0
  6
CONTINUOUS
 62
     7
 10
-1717.8716685265
 20
75.2004673903
 30
0.0
 40
5.719261459546443
 50
190.9942528043
 51
229.5446642279
  0
LINE
  5
4A9
  8
0
  6
CONTINUOUS
 62
     7
 10
-1117.0963862888
 20
542.0076248091
 30
0.0
 11
-1117.0963862888
 21
541.6876706941
 31
0.0
  0
LINE
  5
4AA
  8
0
  6
CONTINUOUS
 62
     7
 10
-1098.3963880503
 20
541.6876646114
 30
0.0
 11
-1098.3963880503
 21
542.0076187264
 31
0.0
  0
LINE
  5
4AB
  8
0
  6
CONTINUOUS
 62
     7
 10
-1293.8730815855
 20
439.9566108312
 30
0.0
 11
-1293.8730815855
 21
439.6366567162
 31
0.0
  0
LINE
  5
4AC
  8
0
  6
CONTINUOUS
 62
     7
 10
-1275.1730780786
 20
439.6366536749
 30
0.0
 11
-1275.1730780786
 21
439.9566077899
 31
0.0
  0
LINE
  5
4AD
  8
0
  6
CONTINUOUS
 62
     7
 10
-1501.7624750857
 20
764.0706311275
 30
0.0
 11
-1501.7624750857
 21
763.7506770125
 31
0.0
  0
LINE
  5
4AE
  8
0
  6
CONTINUOUS
 62
     7
 10
-1483.0624768472
 20
763.7506709298
 30
0.0
 11
-1483.0624768472
 21
764.0706250448
 31
0.0
  0
LINE
  5
4AF
  8
0
  6
CONTINUOUS
 62
     7
 10
-1678.5391703823
 20
662.0196171497
 30
0.0
 11
-1678.5391703823
 21
661.6996630347
 31
0.0
  0
LINE
  5
4B0
  8
0
  6
CONTINUOUS
 62
     7
 10
-1659.8391668755
 20
661.6996599933
 30
0.0
 11
-1659.8391668755
 21
662.0196141083
 31
0.0
  0
LINE
  5
4B1
  8
0
  6
CONTINUOUS
 62
     7
 10
-1324.2000044822
 20
-568.939049525
 30
0.0
 11
-1311.4788001227
 21
-576.2828444847
 31
0.0
  0
LINE
  5
4B2
  8
0
  6
CONTINUOUS
 62
     7
 10
-1733.7074563281
 20
644.7534807674
 30
0.0
 11
-1733.7074563281
 21
639.5921643715
 31
0.0
  0
LINE
  5
4B3
  8
0
  6
CONTINUOUS
 62
     7
 10
-1311.4284135653
 20
400.8231049235
 30
0.0
 11
-1312.1612629672
 21
400.3049598842
 31
0.0
  0
LINE
  5
4B4
  8
0
  6
CONTINUOUS
 62
     7
 10
-1043.7937865686
 20
-420.9378210932
 30
0.0
 11
-1043.7937865686
 21
554.6273738396
 31
0.0
  0
LINE
  5
4B5
  8
0
  6
CONTINUOUS
 62
     7
 10
-1308.4806313703
 20
-575.4673410428
 30
0.0
 11
-1045.9850855163
 21
-423.9318879441
 31
0.0
  0
LINE
  5
4B6
  8
0
  6
CONTINUOUS
 62
     7
 10
-1043.2582581747
 20
556.0557959673
 30
0.0
 11
-1045.6292818212
 21
554.6870331511
 31
0.0
  0
LINE
  5
4B7
  8
0
  6
CONTINUOUS
 62
     7
 10
-1043.2582581747
 20
556.0557959673
 30
0.0
 11
-1043.2582581747
 21
555.1659205432
 31
0.0
  0
LINE
  5
4B8
  8
0
  6
CONTINUOUS
 62
     7
 10
-1043.2582581747
 20
554.8309761836
 30
0.0
 11
-1043.7937865686
 21
554.5218222224
 31
0.0
  0
LINE
  5
4B9
  8
0
  6
CONTINUOUS
 62
     7
 10
-1460.4512405301
 20
796.8961782495
 30
0.0
 11
-1460.986294772
 21
796.5872980103
 31
0.0
  0
LINE
  5
4BA
  8
0
  6
CONTINUOUS
 62
     7
 10
-1043.2582581747
 20
554.7493085528
 30
0.0
 11
-1043.4686130956
 21
554.8707438639
 31
0.0
  0
LINE
  5
4BB
  8
0
  6
CONTINUOUS
 62
     7
 10
-1043.2582581747
 20
554.7493085528
 30
0.0
 11
-1043.7937865686
 21
554.4401545916
 31
0.0
  0
LINE
  5
4BC
  8
0
  6
CONTINUOUS
 62
     7
 10
-1043.2582581747
 20
-403.7063169626
 30
0.0
 11
-1043.7937865686
 21
-404.0154709239
 31
0.0
  0
LINE
  5
4BD
  8
0
  6
CONTINUOUS
 62
     7
 10
-1043.2582476379
 20
556.0553796162
 30
0.0
 11
-1042.8854798363
 21
556.6008013466
 31
0.0
  0
POLYLINE
  5
4BE
  8
0
  6
CONTINUOUS
 62
     7
 66
     1
 10
0.0
 20
0.0
 30
0.0
  0
VERTEX
  5
81C
  8
0
  6
CONTINUOUS
 62
     7
 10
-1042.8237030931
 20
556.8094608706
 30
0.0
  0
VERTEX
  5
81D
  8
0
  6
CONTINUOUS
 62
     7
 10
-1042.8213323329
 20
556.8175496545
 30
0.0
  0
VERTEX
  5
81E
  8
0
  6
CONTINUOUS
 62
     7
 10
-1042.9909312513
 20
556.6210904403
 30
0.0
  0
VERTEX
  5
81F
  8
0
  6
CONTINUOUS
 62
     7
 10
-1043.2582581747
 20
556.0557959673
 30
0.0
  0
SEQEND
  5
820
  8
0
  6
CONTINUOUS
 62
     7
  0
ARC
  5
4BF
  8
0
  6
CONTINUOUS
 62
     7
 10
-1459.7001511721
 20
793.8883836171
 30
0.0
 40
3.100155443588128
 50
55.3799936126
 51
104.0208364162
  0
ARC
  5
4C0
  8
0
  6
CONTINUOUS
 62
     7
 10
-1044.7284702728
 20
-401.9166344602
 30
0.0
 40
2.316136238043411
 50
309.4028734055
 51
0.2117464155
  0
POLYLINE
  5
4C1
  8
0
  6
CONTINUOUS
 62
     7
 66
     1
 10
0.0
 20
0.0
 30
0.0
  0
VERTEX
  5
821
  8
0
  6
CONTINUOUS
 62
     7
 10
-1043.2582581747
 20
554.7493085528
 30
0.0
  0
VERTEX
  5
822
  8
0
  6
CONTINUOUS
 62
     7
 10
-1042.6079323021
 20
555.0253686817
 30
0.0
  0
VERTEX
  5
823
  8
0
  6
CONTINUOUS
 62
     7
 10
-1042.3795701402
 20
555.4023349605
 30
0.0
  0
VERTEX
  5
824
  8
0
  6
CONTINUOUS
 62
     7
 10
-1042.6079323021
 20
555.7793134046
 30
0.0
  0
VERTEX
  5
825
  8
0
  6
CONTINUOUS
 62
     7
 10
-1043.2582476379
 20
556.0553796162
 30
0.0
  0
SEQEND
  5
826
  8
0
  6
CONTINUOUS
 62
     7
  0
LINE
  5
4C2
  8
0
  6
CONTINUOUS
 62
     7
 10
-1043.2582581747
 20
-403.7879709051
 30
0.0
 11
-1043.7937865686
 21
-404.0971248664
 31
0.0
  0
LINE
  5
4C3
  8
0
  6
CONTINUOUS
 62
     7
 10
-1043.2582581747
 20
-405.0127830842
 30
0.0
 11
-1043.2582581747
 21
-403.7879709051
 31
0.0
  0
LINE
  5
4C4
  8
0
  6
CONTINUOUS
 62
     7
 10
-1043.2582581747
 20
-405.0127830842
 30
0.0
 11
-1043.7937865686
 21
-405.3219370454
 31
0.0
  0
LINE
  5
4C5
  8
0
  6
CONTINUOUS
 62
     7
 10
-1043.2582581747
 20
-403.7879709051
 30
0.0
 11
-1043.2831564254
 21
-403.5915580307
 31
0.0
  0
POLYLINE
  5
4C6
  8
0
  6
CONTINUOUS
 62
     7
 66
     1
 10
0.0
 20
0.0
 30
0.0
  0
VERTEX
  5
827
  8
0
  6
CONTINUOUS
 62
     7
 10
-1043.2582581747
 20
-405.0127830842
 30
0.0
  0
VERTEX
  5
828
  8
0
  6
CONTINUOUS
 62
     7
 10
-1042.9180066666
 20
-404.0379650839
 30
0.0
  0
VERTEX
  5
829
  8
0
  6
CONTINUOUS
 62
     7
 10
-1042.8269589371
 20
-403.1686332712
 30
0.0
  0
SEQEND
  5
82A
  8
0
  6
CONTINUOUS
 62
     7
  0
LINE
  5
4C7
  8
0
  6
CONTINUOUS
 62
     7
 10
-1325.2877935688
 20
390.6734142091
 30
0.0
 11
-1324.2271259792
 21
390.061103843
 31
0.0
  0
ARC
  5
4C8
  8
0
  6
CONTINUOUS
 62
     7
 10
-1326.3484486648
 20
392.3707789006
 30
0.0
 40
3.136017985920481
 50
227.4342217349
 51
312.5659425561
  0
LINE
  5
4C9
  8
0
  6
CONTINUOUS
 62
     7
 10
-1327.4090971379
 20
390.6734081264
 30
0.0
 11
-1328.4697647275
 21
390.0610977603
 31
0.0
  0
ARC
  5
4CA
  8
0
  6
CONTINUOUS
 62
     7
 10
-1326.3484473668
 20
391.3755884184
 30
0.0
 40
1.272020086092371
 50
213.5056913315
 51
326.4946372531
  0
ARC
  5
4CB
  8
0
  6
CONTINUOUS
 62
     7
 10
-1326.3484610844
 20
-556.2006448883
 30
0.0
 40
11.17541734837732
 50
259.057793719
 51
280.9423705721
  0
LINE
  5
4CC
  8
0
  6
CONTINUOUS
 62
     7
 10
-1325.5719792316
 20
393.8553653355
 30
0.0
 11
-1325.5719792316
 21
395.0801851191
 31
0.0
  0
ARC
  5
4CD
  8
0
  6
CONTINUOUS
 62
     7
 10
-1326.5116640561
 20
392.0881707762
 30
0.0
 40
3.136105450663108
 50
347.4353123847
 51
72.5643591262
  0
LINE
  5
4CE
  8
0
  6
CONTINUOUS
 62
     7
 10
-1324.5113327154
 20
392.0182473511
 30
0.0
 11
-1323.4506651258
 21
391.405936985
 31
0.0
  0
ARC
  5
4CF
  8
0
  6
CONTINUOUS
 62
     7
 10
-1325.6498852533
 20
392.5856496554
 30
0.0
 40
1.272103477095602
 50
333.5104418274
 51
86.4889010454
  0
ARC
  5
4D0
  8
0
  6
CONTINUOUS
 62
     7
 10
-1320.347699851
 20
395.6464608328
 30
0.0
 40
4.610621765679347
 50
2.606589269
 51
57.3930822419
  0
ARC
  5
4D1
  8
0
  6
CONTINUOUS
 62
     7
 10
-1326.1850521846
 20
392.0880662238
 30
0.0
 40
3.136263281447601
 50
107.4380761036
 51
192.5620880677
  0
LINE
  5
4D2
  8
0
  6
CONTINUOUS
 62
     7
 10
-1327.1249114751
 20
395.0801912019
 30
0.0
 11
-1327.1249114751
 21
393.8553714182
 31
0.0
  0
ARC
  5
4D3
  8
0
  6
CONTINUOUS
 62
     7
 10
-1327.0469873986
 20
392.5856369054
 30
0.0
 40
1.272123380242463
 50
93.5118586604
 51
206.4884698287
  0
LINE
  5
4D4
  8
0
  6
CONTINUOUS
 62
     7
 10
-1329.2462361176
 20
391.405936985
 30
0.0
 11
-1328.185568528
 21
392.0182473511
 31
0.0
  0
ARC
  5
4D5
  8
0
  6
CONTINUOUS
 62
     7
 10
-1735.0362350048
 20
628.1123755287
 30
0.0
 40
11.16892946179473
 50
139.0513039025
 51
160.9488602688
  0
ARC
  5
4D6
  8
0
  6
CONTINUOUS
 62
     7
 10
-1324.4706320579
 20
393.2666573573
 30
0.0
 40
5.125297497598728
 50
201.2873989788
 51
218.71439688
  0
ARC
  5
4D7
  8
0
  6
CONTINUOUS
 62
     7
 10
-1328.3890875934
 20
-568.2091070393
 30
0.0
 40
1.03935926526147
 50
94.4518906275
 51
145.5570095317
  0
ARC
  5
4D8
  8
0
  6
CONTINUOUS
 62
     7
 10
-1750.3707892271
 20
-329.1308153788
 30
0.0
 40
5.127289705497022
 50
21.2900653633
 51
38.7105520477
  0
ARC
  5
4D9
  8
0
  6
CONTINUOUS
 62
     7
 10
-1746.4503395006
 20
632.3455795529
 30
0.0
 40
1.038995906049857
 50
274.4410309189
 51
325.5643342801
  0
ARC
  5
4DA
  8
0
  6
CONTINUOUS
 62
     7
 10
-1323.4099644683
 20
393.8789677234
 30
0.0
 40
5.125297497593897
 50
201.2873989788
 51
218.71439688
  0
ARC
  5
4DB
  8
0
  6
CONTINUOUS
 62
     7
 10
-1328.2260967801
 20
393.266540982
 30
0.0
 40
5.12509460586976
 50
321.2855395286
 51
338.7131135318
  0
ARC
  5
4DC
  8
0
  6
CONTINUOUS
 62
     7
 10
-1329.2867643697
 20
393.8788513481
 30
0.0
 40
5.12509460586976
 50
321.2855395286
 51
338.7131135318
  0
LINE
  5
4DD
  8
0
  6
CONTINUOUS
 62
     7
 10
-1315.7418484824
 20
-563.1710549212
 30
0.0
 11
-1315.7418484824
 21
395.8561421079
 31
0.0
  0
ARC
  5
4DE
  8
0
  6
CONTINUOUS
 62
     7
 10
-1324.3077978775
 20
-568.2090637729
 30
0.0
 40
1.039321787375462
 50
34.441515206
 51
85.5482380232
  0
LINE
  5
4DF
  8
0
  6
CONTINUOUS
 62
     7
 10
-1326.348440085
 20
395.1391935319
 30
0.0
 11
-1326.348440085
 21
393.9143737482
 31
0.0
  0
ARC
  5
4E0
  8
0
  6
CONTINUOUS
 62
     7
 10
-1326.3519806833
 20
388.8222803713
 30
0.0
 40
5.092094607812153
 50
89.9601615107
 51
98.7306938841
  0
ARC
  5
4E1
  8
0
  6
CONTINUOUS
 62
     7
 10
-1326.3519806833
 20
390.047100155
 30
0.0
 40
5.09209460781221
 50
89.9601615107
 51
98.7306938841
  0
ARC
  5
4E2
  8
0
  6
CONTINUOUS
 62
     7
 10
-1326.3447172591
 20
390.0501548293
 30
0.0
 40
5.089040064313067
 50
81.2662205365
 51
90.0419140398
  0
ARC
  5
4E3
  8
0
  6
CONTINUOUS
 62
     7
 10
-1326.3447172591
 20
388.8253350456
 30
0.0
 40
5.089040064325935
 50
81.2662205365
 51
90.0419140398
  0
ARC
  5
4E4
  8
0
  6
CONTINUOUS
 62
     7
 10
-1744.4305154033
 20
635.8866106579
 30
0.0
 40
1.060647956532178
 50
334.6382866951
 51
359.6725619196
  0
LINE
  5
4E5
  8
0
  6
CONTINUOUS
 62
     7
 10
-1737.1775011964
 20
635.880549223
 30
0.0
 11
-1743.369884767
 21
635.880549223
 31
0.0
  0
LINE
  5
4E6
  8
0
  6
CONTINUOUS
 62
     7
 10
-1732.2277542338
 20
633.0231211236
 30
0.0
 11
-1737.1775011964
 21
635.880549223
 31
0.0
  0
LINE
  5
4E7
  8
0
  6
CONTINUOUS
 62
     7
 10
-1727.2780072713
 20
635.880549223
 30
0.0
 11
-1732.2277542338
 21
633.0231211236
 31
0.0
  0
LINE
  5
4E8
  8
0
  6
CONTINUOUS
 62
     7
 10
-1326.3484611584
 20
404.42884884
 30
0.0
 11
-1727.2780072713
 21
635.880549223
 31
0.0
  0
LINE
  5
4E9
  8
0
  6
CONTINUOUS
 62
     7
 10
-1331.298208121
 20
401.5714207406
 30
0.0
 11
-1326.3484611584
 21
404.42884884
 31
0.0
  0
LINE
  5
4EA
  8
0
  6
CONTINUOUS
 62
     7
 10
-1326.3484611584
 20
398.7139926412
 30
0.0
 11
-1331.298208121
 21
401.5714207406
 31
0.0
  0
LINE
  5
4EB
  8
0
  6
CONTINUOUS
 62
     7
 10
-1326.348440085
 20
395.1391935319
 30
0.0
 11
-1326.3484611584
 21
398.7139926412
 31
0.0
  0
LINE
  5
4EC
  8
0
  6
CONTINUOUS
 62
     7
 10
-1317.8631625883
 20
399.5303902421
 30
0.0
 11
-1326.3484611584
 21
404.42884884
 31
0.0
  0
LINE
  5
4ED
  8
0
  6
CONTINUOUS
 62
     7
 10
-1727.2780072713
 20
635.880549223
 30
0.0
 11
-1735.763284768
 21
640.7789956555
 31
0.0
  0
ARC
  5
4EE
  8
0
  6
CONTINUOUS
 62
     7
 10
-1744.4299102478
 20
635.8745970929
 30
0.0
 40
1.060042191537722
 50
0.3217171228
 51
25.3703318454
  0
LINE
  5
4EF
  8
0
  6
CONTINUOUS
 62
     7
 10
-1746.3698869073
 20
631.3097031737
 30
0.0
 11
-1745.5943848947
 21
631.7573909563
 31
0.0
  0
LINE
  5
4F0
  8
0
  6
CONTINUOUS
 62
     7
 10
-1743.4721014114
 20
636.3287905326
 30
0.0
 11
-1743.4721014114
 21
635.4322960394
 31
0.0
  0
POLYLINE
  5
4F1
  8
0
  6
CONTINUOUS
 62
     7
 66
     1
 10
0.0
 20
0.0
 30
0.0
  0
VERTEX
  5
82B
  8
0
  6
CONTINUOUS
 62
     7
 10
-1746.3698869073
 20
631.3097031737
 30
0.0
  0
VERTEX
  5
82C
  8
0
  6
CONTINUOUS
 62
     7
 10
-1746.8047897004
 20
631.4811449716
 30
0.0
  0
VERTEX
  5
82D
  8
0
  6
CONTINUOUS
 62
     7
 10
-1747.0750774399
 20
631.7021007371
 30
0.0
  0
VERTEX
  5
82E
  8
0
  6
CONTINUOUS
 62
     7
 10
-1747.2485538683
 20
632.197657806
 30
0.0
  0
VERTEX
  5
82F
  8
0
  6
CONTINUOUS
 62
     7
 10
-1747.0680283795
 20
632.8722504451
 30
0.0
  0
VERTEX
  5
830
  8
0
  6
CONTINUOUS
 62
     7
 10
-1746.7966553586
 20
633.3001439746
 30
0.0
  0
VERTEX
  5
831
  8
0
  6
CONTINUOUS
 62
     7
 10
-1746.3698763706
 20
633.75892639
 30
0.0
  0
SEQEND
  5
832
  8
0
  6
CONTINUOUS
 62
     7
  0
LINE
  5
4F2
  8
0
  6
CONTINUOUS
 62
     7
 10
-1746.3698763706
 20
633.75892639
 30
0.0
 11
-1745.309208781
 21
633.1466160239
 31
0.0
  0
ARC
  5
4F3
  8
0
  6
CONTINUOUS
 62
     7
 10
-1744.2372600973
 20
632.074233323
 30
0.0
 40
1.516271294159796
 50
134.9884032144
 51
175.3434107764
  0
ARC
  5
4F4
  8
0
  6
CONTINUOUS
 62
     7
 10
-1745.2683873555
 20
-324.2765971937
 30
0.0
 40
1.981957146279077
 50
182.4923953874
 51
236.23667725
  0
POLYLINE
  5
4F5
  8
0
  6
CONTINUOUS
 62
     7
 66
     1
 10
0.0
 20
0.0
 30
0.0
  0
VERTEX
  5
833
  8
0
  6
CONTINUOUS
 62
     7
 10
-1745.5934155172
 20
635.103759532
 30
0.0
  0
VERTEX
  5
834
  8
0
  6
CONTINUOUS
 62
     7
 10
-1745.4083065585
 20
635.7128047497
 30
0.0
  0
VERTEX
  5
835
  8
0
  6
CONTINUOUS
 62
     7
 10
-1745.1700504239
 20
636.1625173686
 30
0.0
  0
VERTEX
  5
836
  8
0
  6
CONTINUOUS
 62
     7
 10
-1744.6800406264
 20
636.6457962948
 30
0.0
  0
VERTEX
  5
837
  8
0
  6
CONTINUOUS
 62
     7
 10
-1744.1496436113
 20
636.7436733678
 30
0.0
  0
VERTEX
  5
838
  8
0
  6
CONTINUOUS
 62
     7
 10
-1743.8261454756
 20
636.6170703427
 30
0.0
  0
VERTEX
  5
839
  8
0
  6
CONTINUOUS
 62
     7
 10
-1743.4721014114
 20
636.3287905326
 30
0.0
  0
SEQEND
  5
83A
  8
0
  6
CONTINUOUS
 62
     7
  0
ARC
  5
4F6
  8
0
  6
CONTINUOUS
 62
     7
 10
-1742.9563425997
 20
634.0206596588
 30
0.0
 40
1.645204096048126
 50
126.297131701
 51
163.371876383
  0
LINE
  5
4F7
  8
0
  6
CONTINUOUS
 62
     7
 10
-1745.5934155172
 20
635.103759532
 30
0.0
 11
-1744.5327479276
 21
634.4914491659
 31
0.0
  0
ARC
  5
4F8
  8
0
  6
CONTINUOUS
 62
     7
 10
-1736.6420265091
 20
639.5520619298
 30
0.0
 40
1.509156524250787
 50
54.3893972479
 51
114.3041064246
  0
ARC
  5
4F9
  8
0
  6
CONTINUOUS
 62
     7
 10
-1749.3081795819
 20
636.3520531629
 30
0.0
 40
5.125094605871156
 50
321.2855395286
 51
338.7131135318
  0
ARC
  5
4FA
  8
0
  6
CONTINUOUS
 62
     7
 10
-1750.3688471715
 20
636.964363529
 30
0.0
 40
5.125094605865716
 50
321.2855395286
 51
338.7131135318
  0
LINE
  5
4FB
  8
0
  6
CONTINUOUS
 62
     7
 10
-1323.4506651258
 20
-567.6212600441
 30
0.0
 11
-1324.0311747437
 21
-567.2861389749
 31
0.0
  0
LINE
  5
4FC
  8
0
  6
CONTINUOUS
 62
     7
 10
-1328.7504522019
 20
-567.3350500817
 30
0.0
 11
-1329.2462361176
 21
-567.6212600441
 31
0.0
  0
ARC
  5
4FD
  8
0
  6
CONTINUOUS
 62
     7
 10
-1743.2538571237
 20
-326.9248989967
 30
0.0
 40
2.364749844529402
 50
188.3706255756
 51
232.902868913
  0
POLYLINE
  5
4FE
  8
0
  6
CONTINUOUS
 62
     7
 66
     1
 10
0.0
 20
0.0
 30
0.0
  0
VERTEX
  5
83B
  8
0
  6
CONTINUOUS
 62
     7
 10
-1327.1249114751
 20
-568.8462682318
 30
0.0
  0
VERTEX
  5
83C
  8
0
  6
CONTINUOUS
 62
     7
 10
-1327.7449337636
 20
-568.9904617636
 30
0.0
  0
VERTEX
  5
83D
  8
0
  6
CONTINUOUS
 62
     7
 10
-1328.2534881744
 20
-569.0089240537
 30
0.0
  0
VERTEX
  5
83E
  8
0
  6
CONTINUOUS
 62
     7
 10
-1328.9169744004
 20
-568.8261120748
 30
0.0
  0
VERTEX
  5
83F
  8
0
  6
CONTINUOUS
 62
     7
 10
-1329.2668248531
 20
-568.4156104352
 30
0.0
  0
VERTEX
  5
840
  8
0
  6
CONTINUOUS
 62
     7
 10
-1329.3189605048
 20
-568.0721162009
 30
0.0
  0
VERTEX
  5
841
  8
0
  6
CONTINUOUS
 62
     7
 10
-1329.2462361176
 20
-567.6212600441
 30
0.0
  0
SEQEND
  5
842
  8
0
  6
CONTINUOUS
 62
     7
  0
LINE
  5
4FF
  8
0
  6
CONTINUOUS
 62
     7
 10
-1327.1249114751
 20
-567.6214560528
 30
0.0
 11
-1327.1249114751
 21
-568.8462682318
 31
0.0
  0
ARC
  5
500
  8
0
  6
CONTINUOUS
 62
     7
 10
-1327.5053063426
 20
-566.0212228108
 30
0.0
 40
1.64482421069346
 50
246.2950141111
 51
283.3717235961
  0
POLYLINE
  5
501
  8
0
  6
CONTINUOUS
 62
     7
 66
     1
 10
0.0
 20
0.0
 30
0.0
  0
VERTEX
  5
843
  8
0
  6
CONTINUOUS
 62
     7
 10
-1323.4506651258
 20
-567.6212600441
 30
0.0
  0
VERTEX
  5
844
  8
0
  6
CONTINUOUS
 62
     7
 10
-1323.3817128816
 20
-568.0836920837
 30
0.0
  0
VERTEX
  5
845
  8
0
  6
CONTINUOUS
 62
     7
 10
-1323.4380421446
 20
-568.4283349314
 30
0.0
  0
VERTEX
  5
846
  8
0
  6
CONTINUOUS
 62
     7
 10
-1323.7804958255
 20
-568.8264528135
 30
0.0
  0
VERTEX
  5
847
  8
0
  6
CONTINUOUS
 62
     7
 10
-1324.4550350625
 20
-569.0074988342
 30
0.0
  0
VERTEX
  5
848
  8
0
  6
CONTINUOUS
 62
     7
 10
-1324.9613240802
 20
-568.9864932645
 30
0.0
  0
VERTEX
  5
849
  8
0
  6
CONTINUOUS
 62
     7
 10
-1325.5719792316
 20
-568.8462743145
 30
0.0
  0
SEQEND
  5
84A
  8
0
  6
CONTINUOUS
 62
     7
  0
LINE
  5
502
  8
0
  6
CONTINUOUS
 62
     7
 10
-1325.5719792316
 20
-568.8462743145
 30
0.0
 11
-1325.5719792316
 21
-567.6214621355
 31
0.0
  0
ARC
  5
503
  8
0
  6
CONTINUOUS
 62
     7
 10
-1325.1716986861
 20
-566.2410111638
 30
0.0
 40
1.437313257540975
 50
253.8297643167
 51
296.5032898475
  0
ARC
  5
504
  8
0
  6
CONTINUOUS
 62
     7
 10
-1317.319063883
 20
-563.2848193732
 30
0.0
 40
1.581312989317071
 50
307.187298782
 51
4.1255962463
  0
ARC
  5
505
  8
0
  6
CONTINUOUS
 62
     7
 10
-1326.3519806833
 20
-572.6545470997
 30
0.0
 40
5.092094607837915
 50
89.9601615108
 51
98.7306938841
  0
LINE
  5
506
  8
0
  6
CONTINUOUS
 62
     7
 10
-1326.348440085
 20
-568.7872659018
 30
0.0
 11
-1326.348440085
 21
-567.5624537227
 31
0.0
  0
ARC
  5
507
  8
0
  6
CONTINUOUS
 62
     7
 10
-1326.3519806833
 20
-573.8793592787
 30
0.0
 40
5.092094607829156
 50
89.9601615107
 51
98.7306938841
  0
ARC
  5
508
  8
0
  6
CONTINUOUS
 62
     7
 10
-1326.3447172591
 20
-572.6514924254
 30
0.0
 40
5.089040064338761
 50
81.2662205365
 51
90.0419140398
  0
ARC
  5
509
  8
0
  6
CONTINUOUS
 62
     7
 10
-1326.3447172591
 20
-573.8763046044
 30
0.0
 40
5.089040064304576
 50
81.2662205365
 51
90.0419140398
  0
LINE
  5
50A
  8
0
  6
CONTINUOUS
 62
     7
 10
-1312.8042026045
 20
400.4468258427
 30
0.0
 11
-1312.3827762663
 21
400.9140561244
 31
0.0
  0
LINE
  5
50B
  8
0
  6
CONTINUOUS
 62
     7
 10
-1733.1113313027
 20
643.7954810705
 30
0.0
 11
-1732.831939844
 21
642.9236772861
 31
0.0
  0
ARC
  5
50C
  8
0
  6
CONTINUOUS
 62
     7
 10
-1729.5204483701
 20
644.333155619
 30
0.0
 40
3.630913680586608
 50
127.8970048226
 51
188.5158173274
  0
ARC
  5
50D
  8
0
  6
CONTINUOUS
 62
     7
 10
-1305.956750327
 20
396.9025435683
 30
0.0
 40
7.575357573046449
 50
119.1161301404
 51
148.0251057264
  0
LINE
  5
50E
  8
0
  6
CONTINUOUS
 62
     7
 10
-1309.6427780344
 20
402.2958233683
 30
0.0
 11
-1309.6427780344
 21
403.520643152
 31
0.0
  0
ARC
  5
50F
  8
0
  6
CONTINUOUS
 62
     7
 10
-1305.3038020763
 20
393.674061857
 30
0.0
 40
9.65201968101781
 50
116.7142213814
 51
128.8444473727
  0
LINE
  5
510
  8
0
  6
CONTINUOUS
 62
     7
 10
-1311.3576279332
 20
401.1915532216
 30
0.0
 11
-1312.3827762663
 21
400.9140561244
 31
0.0
  0
ARC
  5
511
  8
0
  6
CONTINUOUS
 62
     7
 10
-1311.8082197335
 20
408.1118504812
 30
0.0
 40
5.076250830220142
 50
295.2508957593
 51
299.9365727462
  0
ARC
  5
512
  8
0
  6
CONTINUOUS
 62
     7
 10
-1311.8082197335
 20
406.8870306975
 30
0.0
 40
5.076250830220142
 50
295.2508957593
 51
299.9365727462
  0
LINE
  5
513
  8
0
  6
CONTINUOUS
 62
     7
 10
-1467.8758715106
 20
799.5501704483
 30
0.0
 11
-1731.4177128789
 21
647.410703806
 31
0.0
  0
LINE
  5
514
  8
0
  6
CONTINUOUS
 62
     7
 10
-1309.2749624875
 20
403.7128812591
 30
0.0
 11
-1045.7331211192
 21
555.8523479014
 31
0.0
  0
ARC
  5
515
  8
0
  6
CONTINUOUS
 62
     7
 10
-1729.2345674568
 20
643.6196225073
 30
0.0
 40
4.374748146743461
 50
119.9360705387
 51
125.1103179852
  0
LINE
  5
516
  8
0
  6
CONTINUOUS
 62
     7
 10
-1312.8042026045
 20
400.4468258427
 30
0.0
 11
-1311.7435350149
 21
401.0591362088
 31
0.0
  0
LINE
  5
517
  8
0
  6
CONTINUOUS
 62
     7
 10
-1311.5513032388
 20
401.1250982703
 30
0.0
 11
-1311.3576279332
 21
401.1915532216
 31
0.0
  0
LINE
  5
518
  8
0
  6
CONTINUOUS
 62
     7
 10
-1045.7331211192
 20
555.8523479014
 30
0.0
 11
-1045.7331211192
 21
554.6275281177
 31
0.0
  0
LINE
  5
519
  8
0
  6
CONTINUOUS
 62
     7
 10
-1309.2749624875
 20
402.4880614754
 30
0.0
 11
-1045.7331211192
 21
554.6275281177
 31
0.0
  0
LINE
  5
51A
  8
0
  6
CONTINUOUS
 62
     7
 10
-1312.8042026045
 20
400.4468258427
 30
0.0
 11
-1316.5681058374
 21
398.2732887342
 31
0.0
  0
LINE
  5
51B
  8
0
  6
CONTINUOUS
 62
     7
 10
-1324.7996382326
 20
393.5197814501
 30
0.0
 11
-1325.5321293863
 21
393.0967615092
 31
0.0
  0
LINE
  5
51C
  8
0
  6
CONTINUOUS
 62
     7
 10
-1316.5680004702
 20
398.2731261948
 30
0.0
 11
-1312.154572155
 21
400.8217967156
 31
0.0
  0
LINE
  5
51D
  8
0
  6
CONTINUOUS
 62
     7
 10
-1324.7995223288
 20
393.5196865613
 30
0.0
 11
-1325.5321293863
 21
393.0967615092
 31
0.0
  0
LINE
  5
51E
  8
0
  6
CONTINUOUS
 62
     7
 10
-1729.5092508948
 20
637.1686112252
 30
0.0
 11
-1732.831939844
 21
642.9236772861
 31
0.0
  0
LINE
  5
51F
  8
0
  6
CONTINUOUS
 62
     7
 10
-1327.9673426831
 20
391.5340888684
 30
0.0
 11
-1327.6555824447
 21
391.7146142465
 31
0.0
  0
LINE
  5
520
  8
0
  6
CONTINUOUS
 62
     7
 10
-1327.6555824447
 20
391.7146142465
 30
0.0
 11
-1327.7178754868
 21
391.1668434619
 31
0.0
  0
ARC
  5
521
  8
0
  6
CONTINUOUS
 62
     7
 10
-1328.7916939773
 20
393.3406800182
 30
0.0
 40
1.98364293875353
 50
304.9415117809
 51
337.2204389691
  0
POLYLINE
  5
522
  8
0
  6
CONTINUOUS
 62
     7
 66
     1
 10
0.0
 20
0.0
 30
0.0
  0
VERTEX
  5
84B
  8
0
  6
CONTINUOUS
 62
     7
 10
-1326.9627725489
 20
392.5726398389
 30
0.0
  0
VERTEX
  5
84C
  8
0
  6
CONTINUOUS
 62
     7
 10
-1326.1600963557
 20
392.839002779
 30
0.0
  0
VERTEX
  5
84D
  8
0
  6
CONTINUOUS
 62
     7
 10
-1325.5321293863
 20
393.0967615092
 30
0.0
  0
SEQEND
  5
84E
  8
0
  6
CONTINUOUS
 62
     7
  0
LINE
  5
523
  8
0
  6
CONTINUOUS
 62
     7
 10
-1326.268940592
 20
392.0468028589
 30
0.0
 11
-1326.9627725489
 21
392.5726398389
 31
0.0
  0
ARC
  5
524
  8
0
  6
CONTINUOUS
 62
     7
 10
-1328.9009142056
 20
396.7542580688
 30
0.0
 40
5.362436561319901
 50
304.770418628
 51
321.7209792758
  0
ARC
  5
525
  8
0
  6
CONTINUOUS
 62
     7
 10
-1329.7114612875
 20
393.7348213389
 30
0.0
 40
3.834097431995975
 50
306.8210741067
 51
333.8791154501
  0
POLYLINE
  5
526
  8
0
  6
CONTINUOUS
 62
     7
 66
     1
 10
0.0
 20
0.0
 30
0.0
  0
VERTEX
  5
84F
  8
0
  6
CONTINUOUS
 62
     7
 10
-1044.6724640663
 20
555.2396333496
 30
0.0
  0
VERTEX
  5
850
  8
0
  6
CONTINUOUS
 62
     7
 10
-1044.5649790659
 20
555.8750075037
 30
0.0
  0
VERTEX
  5
851
  8
0
  6
CONTINUOUS
 62
     7
 10
-1044.7044219142
 20
556.2625608539
 30
0.0
  0
VERTEX
  5
852
  8
0
  6
CONTINUOUS
 62
     7
 10
-1045.0438199485
 20
556.336767506
 30
0.0
  0
VERTEX
  5
853
  8
0
  6
CONTINUOUS
 62
     7
 10
-1045.5114076226
 20
556.0714547109
 30
0.0
  0
VERTEX
  5
854
  8
0
  6
CONTINUOUS
 62
     7
 10
-1045.7331211192
 20
555.8523479014
 30
0.0
  0
SEQEND
  5
855
  8
0
  6
CONTINUOUS
 62
     7
  0
LINE
  5
527
  8
0
  6
CONTINUOUS
 62
     7
 10
-1045.6292818212
 20
554.687274217
 30
0.0
 11
-1044.6724640663
 21
555.2396333496
 31
0.0
  0
LINE
  5
528
  8
0
  6
CONTINUOUS
 62
     7
 10
-1045.7331316559
 20
554.6273229835
 30
0.0
 11
-1045.5390454185
 21
554.915094238
 31
0.0
  0
POLYLINE
  5
529
  8
0
  6
CONTINUOUS
 62
     7
 66
     1
 10
0.0
 20
0.0
 30
0.0
  0
VERTEX
  5
856
  8
0
  6
CONTINUOUS
 62
     7
 10
-1045.5201530937
 20
554.9977601835
 30
0.0
  0
VERTEX
  5
857
  8
0
  6
CONTINUOUS
 62
     7
 10
-1045.5177085765
 20
555.008497416
 30
0.0
  0
VERTEX
  5
858
  8
0
  6
CONTINUOUS
 62
     7
 10
-1045.609451729
 20
554.8933131798
 30
0.0
  0
VERTEX
  5
859
  8
0
  6
CONTINUOUS
 62
     7
 10
-1045.7331211192
 20
554.6275281177
 30
0.0
  0
SEQEND
  5
85A
  8
0
  6
CONTINUOUS
 62
     7
  0
ARC
  5
52A
  8
0
  6
CONTINUOUS
 62
     7
 10
-1467.0351386929
 20
797.6486039364
 30
0.0
 40
2.079131277795703
 50
55.6976200189
 51
113.8514884947
  0
LINE
  5
52B
  8
0
  6
CONTINUOUS
 62
     7
 10
-1045.6292607478
 20
554.6870824892
 30
0.0
 11
-1044.6724640663
 21
555.2396333496
 31
0.0
  0
POLYLINE
  5
52C
  8
0
  6
CONTINUOUS
 62
     7
 66
     1
 10
0.0
 20
0.0
 30
0.0
  0
VERTEX
  5
85B
  8
0
  6
CONTINUOUS
 62
     7
 10
-1711.2183088944
 20
176.7675283621
 30
0.0
  0
VERTEX
  5
85C
  8
0
  6
CONTINUOUS
 62
     7
 10
-1709.7650750211
 20
175.1295850858
 30
0.0
  0
VERTEX
  5
85D
  8
0
  6
CONTINUOUS
 62
     7
 10
-1708.4542658855
 20
173.2974683254
 30
0.0
  0
VERTEX
  5
85E
  8
0
  6
CONTINUOUS
 62
     7
 10
-1707.3306203675
 20
171.3180680654
 30
0.0
  0
VERTEX
  5
85F
  8
0
  6
CONTINUOUS
 62
     7
 10
-1706.4288674702
 20
169.2459041654
 30
0.0
  0
VERTEX
  5
860
  8
0
  6
CONTINUOUS
 62
     7
 10
-1705.7835043891
 20
167.1350219461
 30
0.0
  0
VERTEX
  5
861
  8
0
  6
CONTINUOUS
 62
     7
 10
-1705.4142137024
 20
165.0440669374
 30
0.0
  0
VERTEX
  5
862
  8
0
  6
CONTINUOUS
 62
     7
 10
-1705.3390237247
 20
163.0371903167
 30
0.0
  0
VERTEX
  5
863
  8
0
  6
CONTINUOUS
 62
     7
 10
-1705.5555742323
 20
161.1636090504
 30
0.0
  0
VERTEX
  5
864
  8
0
  6
CONTINUOUS
 62
     7
 10
-1706.0600298622
 20
159.4821764694
 30
0.0
  0
VERTEX
  5
865
  8
0
  6
CONTINUOUS
 62
     7
 10
-1706.8313066532
 20
158.0347186704
 30
0.0
  0
VERTEX
  5
866
  8
0
  6
CONTINUOUS
 62
     7
 10
-1707.3945360633
 20
157.3183161005
 30
0.0
  0
SEQEND
  5
867
  8
0
  6
CONTINUOUS
 62
     7
  0
ARC
  5
52D
  8
0
  6
CONTINUOUS
 62
     7
 10
-1720.4294644436
 20
168.5447512567
 30
0.0
 40
12.34744709948915
 50
41.7552152265
 51
78.2501613062
  0
ARC
  5
52E
  8
0
  6
CONTINUOUS
 62
     7
 10
-1718.7940015458
 20
175.8172093865
 30
0.0
 40
4.895808397314872
 50
79.6574446094
 51
117.4812465079
  0
LINE
  5
52F
  8
0
  6
CONTINUOUS
 62
     7
 10
-1697.0212799508
 20
186.2792093639
 30
0.0
 11
-1696.7670080137
 21
158.3328668438
 31
0.0
  0
ARC
  5
530
  8
0
  6
CONTINUOUS
 62
     7
 10
-1701.8775860554
 20
186.0139415572
 30
0.0
 40
4.863535429986035
 50
3.1266597666
 51
55.0842894333
  0
ARC
  5
531
  8
0
  6
CONTINUOUS
 62
     7
 10
-1700.8855040224
 20
185.7337742452
 30
0.0
 40
1.559934839437274
 50
246.4602891031
 51
280.3797964737
  0
ARC
  5
532
  8
0
  6
CONTINUOUS
 62
     7
 10
-1645.1905619348
 20
308.8992489098
 30
0.0
 40
133.9582660188597
 50
235.3788391085
 51
244.6265374242
  0
ARC
  5
533
  8
0
  6
CONTINUOUS
 62
     7
 10
-1793.4748497565
 20
49.1435220812
 30
0.0
 40
169.5549769597095
 50
56.1762814607
 51
63.829095072
  0
POLYLINE
  5
534
  8
0
  6
CONTINUOUS
 62
     7
 66
     1
 10
0.0
 20
0.0
 30
0.0
  0
VERTEX
  5
868
  8
0
  6
CONTINUOUS
 62
     7
 10
-1718.6925993992
 20
201.3161386826
 30
0.0
  0
VERTEX
  5
869
  8
0
  6
CONTINUOUS
 62
     7
 10
-1719.4264392521
 20
201.5279165345
 30
0.0
  0
VERTEX
  5
86A
  8
0
  6
CONTINUOUS
 62
     7
 10
-1720.0580308504
 20
201.4114273598
 30
0.0
  0
VERTEX
  5
86B
  8
0
  6
CONTINUOUS
 62
     7
 10
-1720.2589027304
 20
201.2213536256
 30
0.0
  0
SEQEND
  5
86C
  8
0
  6
CONTINUOUS
 62
     7
  0
ARC
  5
535
  8
0
  6
CONTINUOUS
 62
     7
 10
-1698.3259665694
 20
62.0024524599
 30
0.0
 40
1.321261246525478
 50
289.5411579202
 51
9.0877948673
  0
LINE
  5
536
  8
0
  6
CONTINUOUS
 62
     7
 10
-1697.0212799508
 20
62.2111365853
 30
0.0
 11
-1696.7670080137
 21
89.8639029758
 31
0.0
  0
LINE
  5
537
  8
0
  6
CONTINUOUS
 62
     7
 10
-1696.7670080137
 20
158.3328668438
 30
0.0
 11
-1696.7670080137
 21
89.8639029758
 31
0.0
  0
LINE
  5
538
  8
0
  6
CONTINUOUS
 62
     7
 10
-1711.1071465815
 20
166.1339153251
 30
0.0
 11
-1713.0296329295
 21
167.0469422394
 31
0.0
  0
ARC
  5
539
  8
0
  6
CONTINUOUS
 62
     7
 10
-1720.7288017517
 20
165.4054889605
 30
0.0
 40
7.872202323322254
 50
12.0352003284
 51
56.8104290127
  0
LINE
  5
53A
  8
0
  6
CONTINUOUS
 62
     7
 10
-1720.1557588554
 20
171.1607671712
 30
0.0
 11
-1721.7446739709
 21
172.2748291739
 31
0.0
  0
LINE
  5
53B
  8
0
  6
CONTINUOUS
 62
     7
 10
-1721.951067088
 20
168.8663322453
 30
0.0
 11
-1720.358148022
 21
167.762502705
 31
0.0
  0
LINE
  5
53C
  8
0
  6
CONTINUOUS
 62
     7
 10
-1713.2331495242
 20
163.649279954
 30
0.0
 11
-1711.3141402912
 21
162.7257651112
 31
0.0
  0
ARC
  5
53D
  8
0
  6
CONTINUOUS
 62
     7
 10
-1711.814886103
 20
161.1109922744
 30
0.0
 40
5.790984236157346
 50
253.2227571011
 51
297.3410455487
  0
LINE
  5
53E
  8
0
  6
CONTINUOUS
 62
     7
 10
-1721.3303072297
 20
180.0640344444
 30
0.0
 11
-1721.1941412989
 21
180.1341968221
 31
0.0
  0
LINE
  5
53F
  8
0
  6
CONTINUOUS
 62
     7
 10
-1710.4947107258
 20
165.187048988
 30
0.0
 11
-1710.6064420212
 21
163.4362427159
 31
0.0
  0
ARC
  5
540
  8
0
  6
CONTINUOUS
 62
     7
 10
-1720.0897297008
 20
165.7490017687
 30
0.0
 40
7.213556611261819
 50
11.75517104
 51
56.7938767914
  0
LINE
  5
541
  8
0
  6
CONTINUOUS
 62
     7
 10
-1722.9171992964
 20
198.4742157203
 30
0.0
 11
-1723.0236095522
 21
198.3440947374
 31
0.0
  0
ARC
  5
542
  8
0
  6
CONTINUOUS
 62
     7
 10
-1710.546659734
 20
163.274249136
 30
0.0
 40
0.1726726433629015
 50
110.2561329129
 51
175.5230407022
  0
ARC
  5
543
  8
0
  6
CONTINUOUS
 62
     7
 10
-1712.8328569525
 20
166.9990975048
 30
0.0
 40
0.2025322019609878
 50
166.3197600004
 51
235.5215063647
  0
POLYLINE
  5
544
  8
0
  6
CONTINUOUS
 62
     7
 66
     1
 10
0.0
 20
0.0
 30
0.0
  0
VERTEX
  5
86D
  8
0
  6
CONTINUOUS
 62
     7
 10
-1726.0892870192
 20
168.8012521231
 30
0.0
  0
VERTEX
  5
86E
  8
0
  6
CONTINUOUS
 62
     7
 10
-1726.0977690725
 20
168.7726332523
 30
0.0
  0
VERTEX
  5
86F
  8
0
  6
CONTINUOUS
 62
     7
 10
-1726.10338514
 20
168.7362042314
 30
0.0
  0
SEQEND
  5
870
  8
0
  6
CONTINUOUS
 62
     7
  0
ARC
  5
545
  8
0
  6
CONTINUOUS
 62
     7
 10
-1719.7737734189
 20
171.4650255429
 30
0.0
 40
0.4883110887255004
 50
218.5361517637
 51
291.3912609986
  0
POLYLINE
  5
546
  8
0
  6
CONTINUOUS
 62
     7
 66
     1
 10
0.0
 20
0.0
 30
0.0
  0
VERTEX
  5
871
  8
0
  6
CONTINUOUS
 62
     7
 10
-1713.3406239879
 20
163.9364431077
 30
0.0
  0
VERTEX
  5
872
  8
0
  6
CONTINUOUS
 62
     7
 10
-1713.8716005222
 20
163.2611926952
 30
0.0
  0
VERTEX
  5
873
  8
0
  6
CONTINUOUS
 62
     7
 10
-1714.0781938369
 20
163.1628449492
 30
0.0
  0
SEQEND
  5
874
  8
0
  6
CONTINUOUS
 62
     7
  0
ARC
  5
547
  8
0
  6
CONTINUOUS
 62
     7
 10
-1709.7339992867
 20
171.3055602884
 30
0.0
 40
6.460863522818433
 50
191.4447750646
 51
253.8912008296
  0
ARC
  5
548
  8
0
  6
CONTINUOUS
 62
     7
 10
-1716.6680764057
 20
169.8563925379
 30
0.0
 40
0.624473397517095
 50
15.5284144553
 51
57.1275512378
  0
LINE
  5
549
  8
0
  6
CONTINUOUS
 62
     7
 10
-1718.0639896904
 20
171.3823887027
 30
0.0
 11
-1716.3291305753
 21
170.3808758534
 31
0.0
  0
ARC
  5
54A
  8
0
  6
CONTINUOUS
 62
     7
 10
-1717.6609282965
 20
172.0166598791
 30
0.0
 40
0.751504100030313
 50
205.166826651
 51
237.5651958406
  0
ARC
  5
54B
  8
0
  6
CONTINUOUS
 62
     7
 10
-1719.7364591777
 20
171.0665330595
 30
0.0
 40
0.1515846603124252
 50
300.9875655897
 51
338.2464420304
  0
ARC
  5
54C
  8
0
  6
CONTINUOUS
 62
     7
 10
-1719.9539090764
 20
171.1147203548
 30
0.0
 40
0.2070229427789204
 50
167.1382066199
 51
233.1186406551
  0
ARC
  5
54D
  8
0
  6
CONTINUOUS
 62
     7
 10
-1721.5220469731
 20
172.233199278
 30
0.0
 40
0.226490592892643
 50
169.4164111595
 51
229.9591538758
  0
POLYLINE
  5
54E
  8
0
  6
CONTINUOUS
 62
     7
 66
     1
 10
0.0
 20
0.0
 30
0.0
  0
VERTEX
  5
875
  8
0
  6
CONTINUOUS
 62
     7
 10
-1721.6336064883
 20
172.1000612591
 30
0.0
  0
VERTEX
  5
876
  8
0
  6
CONTINUOUS
 62
     7
 10
-1721.6967951509
 20
172.0402216509
 30
0.0
  0
VERTEX
  5
877
  8
0
  6
CONTINUOUS
 62
     7
 10
-1721.7424823347
 20
171.9268554689
 30
0.0
  0
SEQEND
  5
878
  8
0
  6
CONTINUOUS
 62
     7
  0
ARC
  5
54F
  8
0
  6
CONTINUOUS
 62
     7
 10
-1725.7400824983
 20
99.5398100019
 30
0.0
 40
0.3642695330129055
 50
182.2121406114
 51
234.7988040841
  0
ARC
  5
550
  8
0
  6
CONTINUOUS
 62
     7
 10
-1723.0927207486
 20
74.1367712148
 30
0.0
 40
0.3924620514188635
 50
181.6365589729
 51
233.0056905747
  0
LINE
  5
551
  8
0
  6
CONTINUOUS
 62
     7
 10
-1701.6857665059
 20
59.8266899709
 30
0.0
 11
-1701.5749097576
 21
59.8553969573
 31
0.0
  0
POLYLINE
  5
552
  8
0
  6
CONTINUOUS
 62
     7
 66
     1
 10
0.0
 20
0.0
 30
0.0
  0
VERTEX
  5
879
  8
0
  6
CONTINUOUS
 62
     7
 10
-1717.5359212887
 20
172.1618817859
 30
0.0
  0
VERTEX
  5
87A
  8
0
  6
CONTINUOUS
 62
     7
 10
-1717.4937322933
 20
171.8942758114
 30
0.0
  0
VERTEX
  5
87B
  8
0
  6
CONTINUOUS
 62
     7
 10
-1717.2813121768
 20
170.9305398284
 30
0.0
  0
SEQEND
  5
87C
  8
0
  6
CONTINUOUS
 62
     7
  0
LINE
  5
553
  8
0
  6
CONTINUOUS
 62
     7
 10
-1717.0956553091
 20
172.0921308551
 30
0.0
 11
-1717.0956553091
 21
171.8439157674
 31
0.0
  0
LINE
  5
554
  8
0
  6
CONTINUOUS
 62
     7
 10
-1717.0956553091
 20
171.8439157674
 30
0.0
 11
-1715.3418195755
 21
170.8314479494
 31
0.0
  0
ARC
  5
555
  8
0
  6
CONTINUOUS
 62
     7
 10
-1707.3113385657
 20
172.7964310602
 30
0.0
 40
8.267392809960894
 50
193.7495752914
 51
225.5142940927
  0
ARC
  5
556
  8
0
  6
CONTINUOUS
 62
     7
 10
-1709.8187152008
 20
169.9646369418
 30
0.0
 40
4.486949453375567
 50
225.1939225951
 51
258.4973299575
  0
LINE
  5
557
  8
0
  6
CONTINUOUS
 62
     7
 10
-1715.3418195755
 20
170.8314479494
 30
0.0
 11
-1715.1422753212
 21
170.9466423954
 31
0.0
  0
LINE
  5
558
  8
0
  6
CONTINUOUS
 62
     7
 10
-1717.0956553091
 20
171.8439157674
 30
0.0
 11
-1716.837653376
 21
171.9928571131
 31
0.0
  0
POLYLINE
  5
559
  8
0
  6
CONTINUOUS
 62
     7
 66
     1
 10
0.0
 20
0.0
 30
0.0
  0
VERTEX
  5
87D
  8
0
  6
CONTINUOUS
 62
     7
 10
-1114.3578263182
 20
538.1909070226
 30
0.0
  0
VERTEX
  5
87E
  8
0
  6
CONTINUOUS
 62
     7
 10
-1112.9409651751
 20
537.5196490709
 30
0.0
  0
VERTEX
  5
87F
  8
0
  6
CONTINUOUS
 62
     7
 10
-1111.3244807524
 20
537.0208573629
 30
0.0
  0
VERTEX
  5
880
  8
0
  6
CONTINUOUS
 62
     7
 10
-1109.5704764313
 20
536.7136924493
 30
0.0
  0
VERTEX
  5
881
  8
0
  6
CONTINUOUS
 62
     7
 10
-1107.7463819012
 20
536.6099821681
 30
0.0
  0
VERTEX
  5
882
  8
0
  6
CONTINUOUS
 62
     7
 10
-1105.9222873711
 20
536.7136924493
 30
0.0
  0
VERTEX
  5
883
  8
0
  6
CONTINUOUS
 62
     7
 10
-1104.1682935867
 20
537.0208512802
 30
0.0
  0
VERTEX
  5
884
  8
0
  6
CONTINUOUS
 62
     7
 10
-1102.551809164
 20
537.5196490709
 30
0.0
  0
VERTEX
  5
885
  8
0
  6
CONTINUOUS
 62
     7
 10
-1101.1349427525
 20
538.1909222294
 30
0.0
  0
VERTEX
  5
886
  8
0
  6
CONTINUOUS
 62
     7
 10
-1099.972153349
 20
539.0088526743
 30
0.0
  0
VERTEX
  5
887
  8
0
  6
CONTINUOUS
 62
     7
 10
-1099.1081113444
 20
539.9420323097
 30
0.0
  0
VERTEX
  5
888
  8
0
  6
CONTINUOUS
 62
     7
 10
-1098.5760389921
 20
540.9545913684
 30
0.0
  0
VERTEX
  5
889
  8
0
  6
CONTINUOUS
 62
     7
 10
-1098.3963880503
 20
542.0076187264
 30
0.0
  0
VERTEX
  5
88A
  8
0
  6
CONTINUOUS
 62
     7
 10
-1098.5760389921
 20
543.0606460843
 30
0.0
  0
VERTEX
  5
88B
  8
0
  6
CONTINUOUS
 62
     7
 10
-1099.1081218811
 20
544.0732112258
 30
0.0
  0
VERTEX
  5
88C
  8
0
  6
CONTINUOUS
 62
     7
 10
-1099.9721428123
 20
545.0063908611
 30
0.0
  0
VERTEX
  5
88D
  8
0
  6
CONTINUOUS
 62
     7
 10
-1101.1349322158
 20
545.8243213061
 30
0.0
  0
VERTEX
  5
88E
  8
0
  6
CONTINUOUS
 62
     7
 10
-1102.5518038956
 20
546.4955975059
 30
0.0
  0
VERTEX
  5
88F
  8
0
  6
CONTINUOUS
 62
     7
 10
-1104.1682935867
 20
546.9943861725
 30
0.0
  0
VERTEX
  5
890
  8
0
  6
CONTINUOUS
 62
     7
 10
-1105.9222979078
 20
547.3015510861
 30
0.0
  0
VERTEX
  5
891
  8
0
  6
CONTINUOUS
 62
     7
 10
-1107.7463924379
 20
547.4052613673
 30
0.0
  0
VERTEX
  5
892
  8
0
  6
CONTINUOUS
 62
     7
 10
-1109.570486968
 20
547.3015510861
 30
0.0
  0
VERTEX
  5
893
  8
0
  6
CONTINUOUS
 62
     7
 10
-1111.3244807524
 20
546.9943922552
 30
0.0
  0
VERTEX
  5
894
  8
0
  6
CONTINUOUS
 62
     7
 10
-1112.9409704434
 20
546.4955914232
 30
0.0
  0
VERTEX
  5
895
  8
0
  6
CONTINUOUS
 62
     7
 10
-1114.3578210498
 20
545.8243273888
 30
0.0
  0
VERTEX
  5
896
  8
0
  6
CONTINUOUS
 62
     7
 10
-1115.5206262585
 20
545.0063878198
 30
0.0
  0
VERTEX
  5
897
  8
0
  6
CONTINUOUS
 62
     7
 10
-1116.3846629947
 20
544.0732112258
 30
0.0
  0
VERTEX
  5
898
  8
0
  6
CONTINUOUS
 62
     7
 10
-1116.916735347
 20
543.060652167
 30
0.0
  0
VERTEX
  5
899
  8
0
  6
CONTINUOUS
 62
     7
 10
-1117.0963862888
 20
542.0076248091
 30
0.0
  0
VERTEX
  5
89A
  8
0
  6
CONTINUOUS
 62
     7
 10
-1116.916735347
 20
540.9545974511
 30
0.0
  0
VERTEX
  5
89B
  8
0
  6
CONTINUOUS
 62
     7
 10
-1116.384652458
 20
539.9420323097
 30
0.0
  0
VERTEX
  5
89C
  8
0
  6
CONTINUOUS
 62
     7
 10
-1115.5206262585
 20
539.0088557156
 30
0.0
  0
VERTEX
  5
89D
  8
0
  6
CONTINUOUS
 62
     7
 10
-1114.3578263182
 20
538.1909070226
 30
0.0
  0
SEQEND
  5
89E
  8
0
  6
CONTINUOUS
 62
     7
  0
POLYLINE
  5
55A
  8
0
  6
CONTINUOUS
 62
     7
 66
     1
 10
0.0
 20
0.0
 30
0.0
  0
VERTEX
  5
89F
  8
0
  6
CONTINUOUS
 62
     7
 10
-1114.3578263182
 20
537.8709529076
 30
0.0
  0
VERTEX
  5
8A0
  8
0
  6
CONTINUOUS
 62
     7
 10
-1112.9409651751
 20
537.1996949559
 30
0.0
  0
VERTEX
  5
8A1
  8
0
  6
CONTINUOUS
 62
     7
 10
-1111.3244807524
 20
536.700903248
 30
0.0
  0
VERTEX
  5
8A2
  8
0
  6
CONTINUOUS
 62
     7
 10
-1109.5704764313
 20
536.3937383343
 30
0.0
  0
VERTEX
  5
8A3
  8
0
  6
CONTINUOUS
 62
     7
 10
-1107.7463819012
 20
536.2900280532
 30
0.0
  0
VERTEX
  5
8A4
  8
0
  6
CONTINUOUS
 62
     7
 10
-1105.9222873711
 20
536.3937383343
 30
0.0
  0
VERTEX
  5
8A5
  8
0
  6
CONTINUOUS
 62
     7
 10
-1104.1682935867
 20
536.7008971652
 30
0.0
  0
VERTEX
  5
8A6
  8
0
  6
CONTINUOUS
 62
     7
 10
-1102.551809164
 20
537.1996949559
 30
0.0
  0
VERTEX
  5
8A7
  8
0
  6
CONTINUOUS
 62
     7
 10
-1101.1349427525
 20
537.8709681144
 30
0.0
  0
VERTEX
  5
8A8
  8
0
  6
CONTINUOUS
 62
     7
 10
-1099.972153349
 20
538.6888985593
 30
0.0
  0
VERTEX
  5
8A9
  8
0
  6
CONTINUOUS
 62
     7
 10
-1099.1081113444
 20
539.6220781947
 30
0.0
  0
VERTEX
  5
8AA
  8
0
  6
CONTINUOUS
 62
     7
 10
-1098.5760389921
 20
540.6346372534
 30
0.0
  0
VERTEX
  5
8AB
  8
0
  6
CONTINUOUS
 62
     7
 10
-1098.3963880503
 20
541.6876646114
 30
0.0
  0
SEQEND
  5
8AC
  8
0
  6
CONTINUOUS
 62
     7
  0
ARC
  5
55B
  8
0
  6
CONTINUOUS
 62
     7
 10
-1112.417099722
 20
542.1542978579
 30
0.0
 40
4.702495474153214
 50
185.6948142869
 51
245.6253523834
  0
POLYLINE
  5
55C
  8
0
  6
CONTINUOUS
 62
     7
 66
     1
 10
0.0
 20
0.0
 30
0.0
  0
VERTEX
  5
8AD
  8
0
  6
CONTINUOUS
 62
     7
 10
-1291.1345163465
 20
436.1398960861
 30
0.0
  0
VERTEX
  5
8AE
  8
0
  6
CONTINUOUS
 62
     7
 10
-1289.7176657401
 20
435.4686320517
 30
0.0
  0
VERTEX
  5
8AF
  8
0
  6
CONTINUOUS
 62
     7
 10
-1288.101176049
 20
434.9698433851
 30
0.0
  0
VERTEX
  5
8B0
  8
0
  6
CONTINUOUS
 62
     7
 10
-1286.347171728
 20
434.6626784715
 30
0.0
  0
VERTEX
  5
8B1
  8
0
  6
CONTINUOUS
 62
     7
 10
-1284.5230771978
 20
434.5589681903
 30
0.0
  0
VERTEX
  5
8B2
  8
0
  6
CONTINUOUS
 62
     7
 10
-1282.6989826677
 20
434.6626784715
 30
0.0
  0
VERTEX
  5
8B3
  8
0
  6
CONTINUOUS
 62
     7
 10
-1280.9449888834
 20
434.9698373024
 30
0.0
  0
VERTEX
  5
8B4
  8
0
  6
CONTINUOUS
 62
     7
 10
-1279.3284991923
 20
435.4686381344
 30
0.0
  0
VERTEX
  5
8B5
  8
0
  6
CONTINUOUS
 62
     7
 10
-1277.9116433175
 20
436.1399052102
 30
0.0
  0
VERTEX
  5
8B6
  8
0
  6
CONTINUOUS
 62
     7
 10
-1276.7488433773
 20
436.9578417378
 30
0.0
  0
VERTEX
  5
8B7
  8
0
  6
CONTINUOUS
 62
     7
 10
-1275.884806641
 20
437.8910183318
 30
0.0
  0
VERTEX
  5
8B8
  8
0
  6
CONTINUOUS
 62
     7
 10
-1275.3527342887
 20
438.9035773906
 30
0.0
  0
VERTEX
  5
8B9
  8
0
  6
CONTINUOUS
 62
     7
 10
-1275.1730780786
 20
439.9566077899
 30
0.0
  0
VERTEX
  5
8BA
  8
0
  6
CONTINUOUS
 62
     7
 10
-1275.3527342887
 20
441.0096321064
 30
0.0
  0
VERTEX
  5
8BB
  8
0
  6
CONTINUOUS
 62
     7
 10
-1275.8848119094
 20
442.0222002893
 30
0.0
  0
VERTEX
  5
8BC
  8
0
  6
CONTINUOUS
 62
     7
 10
-1276.7488381089
 20
442.9553768833
 30
0.0
  0
VERTEX
  5
8BD
  8
0
  6
CONTINUOUS
 62
     7
 10
-1277.9116222441
 20
443.7733103696
 30
0.0
  0
VERTEX
  5
8BE
  8
0
  6
CONTINUOUS
 62
     7
 10
-1279.3284991923
 20
444.4445835281
 30
0.0
  0
VERTEX
  5
8BF
  8
0
  6
CONTINUOUS
 62
     7
 10
-1280.944983615
 20
444.943375236
 30
0.0
  0
VERTEX
  5
8C0
  8
0
  6
CONTINUOUS
 62
     7
 10
-1282.6989932044
 20
445.2505371083
 30
0.0
  0
VERTEX
  5
8C1
  8
0
  6
CONTINUOUS
 62
     7
 10
-1284.5230824662
 20
445.3542504308
 30
0.0
  0
VERTEX
  5
8C2
  8
0
  6
CONTINUOUS
 62
     7
 10
-1286.3471822647
 20
445.2505371083
 30
0.0
  0
VERTEX
  5
8C3
  8
0
  6
CONTINUOUS
 62
     7
 10
-1288.101176049
 20
444.9433782774
 30
0.0
  0
VERTEX
  5
8C4
  8
0
  6
CONTINUOUS
 62
     7
 10
-1289.7176604717
 20
444.4445804867
 30
0.0
  0
VERTEX
  5
8C5
  8
0
  6
CONTINUOUS
 62
     7
 10
-1291.1345216148
 20
443.7733103696
 30
0.0
  0
VERTEX
  5
8C6
  8
0
  6
CONTINUOUS
 62
     7
 10
-1292.2973162868
 20
442.9553768833
 30
0.0
  0
VERTEX
  5
8C7
  8
0
  6
CONTINUOUS
 62
     7
 10
-1293.1613582914
 20
442.0221972479
 30
0.0
  0
VERTEX
  5
8C8
  8
0
  6
CONTINUOUS
 62
     7
 10
-1293.6934306437
 20
441.0096381892
 30
0.0
  0
VERTEX
  5
8C9
  8
0
  6
CONTINUOUS
 62
     7
 10
-1293.8730815855
 20
439.9566108312
 30
0.0
  0
VERTEX
  5
8CA
  8
0
  6
CONTINUOUS
 62
     7
 10
-1293.6934306437
 20
438.9035834733
 30
0.0
  0
VERTEX
  5
8CB
  8
0
  6
CONTINUOUS
 62
     7
 10
-1293.1613477547
 20
437.8910183318
 30
0.0
  0
VERTEX
  5
8CC
  8
0
  6
CONTINUOUS
 62
     7
 10
-1292.2973268235
 20
436.9578386964
 30
0.0
  0
VERTEX
  5
8CD
  8
0
  6
CONTINUOUS
 62
     7
 10
-1291.1345163465
 20
436.1398960861
 30
0.0
  0
SEQEND
  5
8CE
  8
0
  6
CONTINUOUS
 62
     7
  0
POLYLINE
  5
55D
  8
0
  6
CONTINUOUS
 62
     7
 66
     1
 10
0.0
 20
0.0
 30
0.0
  0
VERTEX
  5
8CF
  8
0
  6
CONTINUOUS
 62
     7
 10
-1291.1345163465
 20
435.8199419711
 30
0.0
  0
VERTEX
  5
8D0
  8
0
  6
CONTINUOUS
 62
     7
 10
-1289.7176657401
 20
435.1486779367
 30
0.0
  0
VERTEX
  5
8D1
  8
0
  6
CONTINUOUS
 62
     7
 10
-1288.101176049
 20
434.6498892701
 30
0.0
  0
VERTEX
  5
8D2
  8
0
  6
CONTINUOUS
 62
     7
 10
-1286.347171728
 20
434.3427243565
 30
0.0
  0
VERTEX
  5
8D3
  8
0
  6
CONTINUOUS
 62
     7
 10
-1284.5230771978
 20
434.2390140753
 30
0.0
  0
VERTEX
  5
8D4
  8
0
  6
CONTINUOUS
 62
     7
 10
-1282.6989826677
 20
434.3427243565
 30
0.0
  0
VERTEX
  5
8D5
  8
0
  6
CONTINUOUS
 62
     7
 10
-1280.9449888834
 20
434.6498831874
 30
0.0
  0
VERTEX
  5
8D6
  8
0
  6
CONTINUOUS
 62
     7
 10
-1279.3284991923
 20
435.1486840194
 30
0.0
  0
VERTEX
  5
8D7
  8
0
  6
CONTINUOUS
 62
     7
 10
-1277.9116433175
 20
435.8199510952
 30
0.0
  0
VERTEX
  5
8D8
  8
0
  6
CONTINUOUS
 62
     7
 10
-1276.7488433773
 20
436.6378876228
 30
0.0
  0
VERTEX
  5
8D9
  8
0
  6
CONTINUOUS
 62
     7
 10
-1275.884806641
 20
437.5710642168
 30
0.0
  0
VERTEX
  5
8DA
  8
0
  6
CONTINUOUS
 62
     7
 10
-1275.3527342887
 20
438.5836232756
 30
0.0
  0
VERTEX
  5
8DB
  8
0
  6
CONTINUOUS
 62
     7
 10
-1275.1730780786
 20
439.6366536749
 30
0.0
  0
SEQEND
  5
8DC
  8
0
  6
CONTINUOUS
 62
     7
  0
ARC
  5
55E
  8
0
  6
CONTINUOUS
 62
     7
 10
-1289.1938329706
 20
440.1032627409
 30
0.0
 40
4.702455611937344
 50
185.6946038789
 51
245.6257104602
  0
POLYLINE
  5
55F
  8
0
  6
CONTINUOUS
 62
     7
 66
     1
 10
0.0
 20
0.0
 30
0.0
  0
VERTEX
  5
8DD
  8
0
  6
CONTINUOUS
 62
     7
 10
-1484.7519648799
 20
760.9758433454
 30
0.0
  0
VERTEX
  5
8DE
  8
0
  6
CONTINUOUS
 62
     7
 10
-1483.8533097759
 20
761.8980558466
 30
0.0
  0
VERTEX
  5
8DF
  8
0
  6
CONTINUOUS
 62
     7
 10
-1483.2835686777
 20
762.9037718516
 30
0.0
  0
VERTEX
  5
8E0
  8
0
  6
CONTINUOUS
 62
     7
 10
-1483.0646474099
 20
763.9543113793
 30
0.0
  0
VERTEX
  5
8E1
  8
0
  6
CONTINUOUS
 62
     7
 10
-1483.2049648053
 20
765.0093399503
 30
0.0
  0
VERTEX
  5
8E2
  8
0
  6
CONTINUOUS
 62
     7
 10
-1483.6991155306
 20
766.0282797765
 30
0.0
  0
VERTEX
  5
8E3
  8
0
  6
CONTINUOUS
 62
     7
 10
-1484.5281124307
 20
766.9719946733
 30
0.0
  0
VERTEX
  5
8E4
  8
0
  6
CONTINUOUS
 62
     7
 10
-1485.660092488
 20
767.8042073317
 30
0.0
  0
VERTEX
  5
8E5
  8
0
  6
CONTINUOUS
 62
     7
 10
-1487.0515706916
 20
768.492940922
 30
0.0
  0
VERTEX
  5
8E6
  8
0
  6
CONTINUOUS
 62
     7
 10
-1488.6490626907
 20
769.0117234709
 30
0.0
  0
VERTEX
  5
8E7
  8
0
  6
CONTINUOUS
 62
     7
 10
-1490.3911921372
 20
769.3406340887
 30
0.0
  0
VERTEX
  5
8E8
  8
0
  6
CONTINUOUS
 62
     7
 10
-1492.2109982255
 20
769.4670146466
 30
0.0
  0
VERTEX
  5
8E9
  8
0
  6
CONTINUOUS
 62
     7
 10
-1494.0385382605
 20
769.3860111384
 30
0.0
  0
VERTEX
  5
8EA
  8
0
  6
CONTINUOUS
 62
     7
 10
-1495.8035850558
 20
769.1007439967
 30
0.0
  0
VERTEX
  5
8EB
  8
0
  6
CONTINUOUS
 62
     7
 10
-1497.438334869
 20
768.6221803557
 30
0.0
  0
VERTEX
  5
8EC
  8
0
  6
CONTINUOUS
 62
     7
 10
-1498.8799256755
 20
767.9687021783
 30
0.0
  0
VERTEX
  5
8ED
  8
0
  6
CONTINUOUS
 62
     7
 10
-1500.0729817847
 20
767.1654158683
 30
0.0
  0
VERTEX
  5
8EE
  8
0
  6
CONTINUOUS
 62
     7
 10
-1500.9716474253
 20
766.2431972844
 30
0.0
  0
VERTEX
  5
8EF
  8
0
  6
CONTINUOUS
 62
     7
 10
-1501.5413779868
 20
765.2374873621
 30
0.0
  0
VERTEX
  5
8F0
  8
0
  6
CONTINUOUS
 62
     7
 10
-1501.7603097914
 20
764.1869417516
 30
0.0
  0
VERTEX
  5
8F1
  8
0
  6
CONTINUOUS
 62
     7
 10
-1501.6199871276
 20
763.131916222
 30
0.0
  0
VERTEX
  5
8F2
  8
0
  6
CONTINUOUS
 62
     7
 10
-1501.1258416706
 20
762.1129733544
 30
0.0
  0
VERTEX
  5
8F3
  8
0
  6
CONTINUOUS
 62
     7
 10
-1500.2968395022
 20
761.169261499
 30
0.0
  0
VERTEX
  5
8F4
  8
0
  6
CONTINUOUS
 62
     7
 10
-1499.1648541765
 20
760.337051882
 30
0.0
  0
VERTEX
  5
8F5
  8
0
  6
CONTINUOUS
 62
     7
 10
-1497.7733759729
 20
759.6483182917
 30
0.0
  0
VERTEX
  5
8F6
  8
0
  6
CONTINUOUS
 62
     7
 10
-1496.1758892422
 20
759.1295327014
 30
0.0
  0
VERTEX
  5
8F7
  8
0
  6
CONTINUOUS
 62
     7
 10
-1494.4337545273
 20
758.800625125
 30
0.0
  0
VERTEX
  5
8F8
  8
0
  6
CONTINUOUS
 62
     7
 10
-1492.6139537074
 20
758.6742415258
 30
0.0
  0
VERTEX
  5
8F9
  8
0
  6
CONTINUOUS
 62
     7
 10
-1490.7864189408
 20
758.7552419926
 30
0.0
  0
VERTEX
  5
8FA
  8
0
  6
CONTINUOUS
 62
     7
 10
-1489.021366877
 20
759.0405121756
 30
0.0
  0
VERTEX
  5
8FB
  8
0
  6
CONTINUOUS
 62
     7
 10
-1487.3866170638
 20
759.5190758167
 30
0.0
  0
VERTEX
  5
8FC
  8
0
  6
CONTINUOUS
 62
     7
 10
-1485.9450262574
 20
760.1725539941
 30
0.0
  0
VERTEX
  5
8FD
  8
0
  6
CONTINUOUS
 62
     7
 10
-1484.7519648799
 20
760.9758433454
 30
0.0
  0
SEQEND
  5
8FE
  8
0
  6
CONTINUOUS
 62
     7
  0
ARC
  5
560
  8
0
  6
CONTINUOUS
 62
     7
 10
-1487.0349134825
 20
763.9107346804
 30
0.0
 40
3.975660099384629
 50
305.0458198052
 51
357.6925953063
  0
POLYLINE
  5
561
  8
0
  6
CONTINUOUS
 62
     7
 66
     1
 10
0.0
 20
0.0
 30
0.0
  0
VERTEX
  5
8FF
  8
0
  6
CONTINUOUS
 62
     7
 10
-1501.7624750857
 20
763.7506770125
 30
0.0
  0
VERTEX
  5
900
  8
0
  6
CONTINUOUS
 62
     7
 10
-1501.6199871276
 20
762.811962107
 30
0.0
  0
VERTEX
  5
901
  8
0
  6
CONTINUOUS
 62
     7
 10
-1501.1258416706
 20
761.7930192394
 30
0.0
  0
VERTEX
  5
902
  8
0
  6
CONTINUOUS
 62
     7
 10
-1500.2968395022
 20
760.849307384
 30
0.0
  0
VERTEX
  5
903
  8
0
  6
CONTINUOUS
 62
     7
 10
-1499.1648541765
 20
760.017097767
 30
0.0
  0
VERTEX
  5
904
  8
0
  6
CONTINUOUS
 62
     7
 10
-1497.7733759729
 20
759.3283641767
 30
0.0
  0
VERTEX
  5
905
  8
0
  6
CONTINUOUS
 62
     7
 10
-1496.1758892422
 20
758.8095785864
 30
0.0
  0
VERTEX
  5
906
  8
0
  6
CONTINUOUS
 62
     7
 10
-1494.4337545273
 20
758.48067101
 30
0.0
  0
VERTEX
  5
907
  8
0
  6
CONTINUOUS
 62
     7
 10
-1492.6139537074
 20
758.3542874108
 30
0.0
  0
VERTEX
  5
908
  8
0
  6
CONTINUOUS
 62
     7
 10
-1490.7864189408
 20
758.4352878776
 30
0.0
  0
VERTEX
  5
909
  8
0
  6
CONTINUOUS
 62
     7
 10
-1489.021366877
 20
758.7205580606
 30
0.0
  0
VERTEX
  5
90A
  8
0
  6
CONTINUOUS
 62
     7
 10
-1487.3866170638
 20
759.1991217017
 30
0.0
  0
VERTEX
  5
90B
  8
0
  6
CONTINUOUS
 62
     7
 10
-1485.9450262574
 20
759.8525998791
 30
0.0
  0
VERTEX
  5
90C
  8
0
  6
CONTINUOUS
 62
     7
 10
-1484.7519648799
 20
760.6558892304
 30
0.0
  0
SEQEND
  5
90D
  8
0
  6
CONTINUOUS
 62
     7
  0
POLYLINE
  5
562
  8
0
  6
CONTINUOUS
 62
     7
 66
     1
 10
0.0
 20
0.0
 30
0.0
  0
VERTEX
  5
90E
  8
0
  6
CONTINUOUS
 62
     7
 10
-1661.5286654449
 20
658.9248263262
 30
0.0
  0
VERTEX
  5
90F
  8
0
  6
CONTINUOUS
 62
     7
 10
-1660.6299998042
 20
659.8470449101
 30
0.0
  0
VERTEX
  5
910
  8
0
  6
CONTINUOUS
 62
     7
 10
-1660.0602692427
 20
660.8527548324
 30
0.0
  0
VERTEX
  5
911
  8
0
  6
CONTINUOUS
 62
     7
 10
-1659.8413374382
 20
661.9033004429
 30
0.0
  0
VERTEX
  5
912
  8
0
  6
CONTINUOUS
 62
     7
 10
-1659.9816601019
 20
662.9583259725
 30
0.0
  0
VERTEX
  5
913
  8
0
  6
CONTINUOUS
 62
     7
 10
-1660.4758055589
 20
663.9772688401
 30
0.0
  0
VERTEX
  5
914
  8
0
  6
CONTINUOUS
 62
     7
 10
-1661.3048077274
 20
664.9209806955
 30
0.0
  0
VERTEX
  5
915
  8
0
  6
CONTINUOUS
 62
     7
 10
-1662.436793053
 20
665.7531903125
 30
0.0
  0
VERTEX
  5
916
  8
0
  6
CONTINUOUS
 62
     7
 10
-1663.8282712566
 20
666.4419239028
 30
0.0
  0
VERTEX
  5
917
  8
0
  6
CONTINUOUS
 62
     7
 10
-1665.4257579874
 20
666.9607094931
 30
0.0
  0
VERTEX
  5
918
  8
0
  6
CONTINUOUS
 62
     7
 10
-1667.1678874338
 20
667.2896201109
 30
0.0
  0
VERTEX
  5
919
  8
0
  6
CONTINUOUS
 62
     7
 10
-1668.9876935221
 20
667.4160006687
 30
0.0
  0
VERTEX
  5
91A
  8
0
  6
CONTINUOUS
 62
     7
 10
-1670.8152282888
 20
667.3350002019
 30
0.0
  0
VERTEX
  5
91B
  8
0
  6
CONTINUOUS
 62
     7
 10
-1672.5802803525
 20
667.0497300189
 30
0.0
  0
VERTEX
  5
91C
  8
0
  6
CONTINUOUS
 62
     7
 10
-1674.2150248973
 20
666.5711694192
 30
0.0
  0
VERTEX
  5
91D
  8
0
  6
CONTINUOUS
 62
     7
 10
-1675.6566262405
 20
665.9176851591
 30
0.0
  0
VERTEX
  5
91E
  8
0
  6
CONTINUOUS
 62
     7
 10
-1676.8496823497
 20
665.1143988491
 30
0.0
  0
VERTEX
  5
91F
  8
0
  6
CONTINUOUS
 62
     7
 10
-1677.7483374536
 20
664.1921863479
 30
0.0
  0
VERTEX
  5
920
  8
0
  6
CONTINUOUS
 62
     7
 10
-1678.3180785518
 20
663.1864703429
 30
0.0
  0
VERTEX
  5
921
  8
0
  6
CONTINUOUS
 62
     7
 10
-1678.5369998197
 20
662.1359308152
 30
0.0
  0
VERTEX
  5
922
  8
0
  6
CONTINUOUS
 62
     7
 10
-1678.3966824242
 20
661.0809022442
 30
0.0
  0
VERTEX
  5
923
  8
0
  6
CONTINUOUS
 62
     7
 10
-1677.9025316989
 20
660.061962418
 30
0.0
  0
VERTEX
  5
924
  8
0
  6
CONTINUOUS
 62
     7
 10
-1677.0735347988
 20
659.1182475212
 30
0.0
  0
VERTEX
  5
925
  8
0
  6
CONTINUOUS
 62
     7
 10
-1675.9415547415
 20
658.2860348628
 30
0.0
  0
VERTEX
  5
926
  8
0
  6
CONTINUOUS
 62
     7
 10
-1674.5500765379
 20
657.5973012725
 30
0.0
  0
VERTEX
  5
927
  8
0
  6
CONTINUOUS
 62
     7
 10
-1672.9525845388
 20
657.0785187236
 30
0.0
  0
VERTEX
  5
928
  8
0
  6
CONTINUOUS
 62
     7
 10
-1671.2104550923
 20
656.7496081058
 30
0.0
  0
VERTEX
  5
929
  8
0
  6
CONTINUOUS
 62
     7
 10
-1669.390649004
 20
656.6232275479
 30
0.0
  0
VERTEX
  5
92A
  8
0
  6
CONTINUOUS
 62
     7
 10
-1667.563108969
 20
656.7042310561
 30
0.0
  0
VERTEX
  5
92B
  8
0
  6
CONTINUOUS
 62
     7
 10
-1665.7980621737
 20
656.9894981978
 30
0.0
  0
VERTEX
  5
92C
  8
0
  6
CONTINUOUS
 62
     7
 10
-1664.1633123605
 20
657.4680618388
 30
0.0
  0
VERTEX
  5
92D
  8
0
  6
CONTINUOUS
 62
     7
 10
-1662.7217162857
 20
658.1215430576
 30
0.0
  0
VERTEX
  5
92E
  8
0
  6
CONTINUOUS
 62
     7
 10
-1661.5286654449
 20
658.9248263262
 30
0.0
  0
SEQEND
  5
92F
  8
0
  6
CONTINUOUS
 62
     7
  0
ARC
  5
563
  8
0
  6
CONTINUOUS
 62
     7
 10
-1663.8116230207
 20
661.8597357701
 30
0.0
 40
3.975680077727283
 50
305.0457758159
 51
357.6924334509
  0
POLYLINE
  5
564
  8
0
  6
CONTINUOUS
 62
     7
 66
     1
 10
0.0
 20
0.0
 30
0.0
  0
VERTEX
  5
930
  8
0
  6
CONTINUOUS
 62
     7
 10
-1678.5391703823
 20
661.6996630347
 30
0.0
  0
VERTEX
  5
931
  8
0
  6
CONTINUOUS
 62
     7
 10
-1678.3966824242
 20
660.7609481292
 30
0.0
  0
VERTEX
  5
932
  8
0
  6
CONTINUOUS
 62
     7
 10
-1677.9025316989
 20
659.742008303
 30
0.0
  0
VERTEX
  5
933
  8
0
  6
CONTINUOUS
 62
     7
 10
-1677.0735347988
 20
658.7982934062
 30
0.0
  0
VERTEX
  5
934
  8
0
  6
CONTINUOUS
 62
     7
 10
-1675.9415547415
 20
657.9660807478
 30
0.0
  0
VERTEX
  5
935
  8
0
  6
CONTINUOUS
 62
     7
 10
-1674.5500765379
 20
657.2773471575
 30
0.0
  0
VERTEX
  5
936
  8
0
  6
CONTINUOUS
 62
     7
 10
-1672.9525845388
 20
656.7585646086
 30
0.0
  0
VERTEX
  5
937
  8
0
  6
CONTINUOUS
 62
     7
 10
-1671.2104550923
 20
656.4296539908
 30
0.0
  0
VERTEX
  5
938
  8
0
  6
CONTINUOUS
 62
     7
 10
-1669.390649004
 20
656.3032734329
 30
0.0
  0
VERTEX
  5
939
  8
0
  6
CONTINUOUS
 62
     7
 10
-1667.563108969
 20
656.3842769411
 30
0.0
  0
VERTEX
  5
93A
  8
0
  6
CONTINUOUS
 62
     7
 10
-1665.7980621737
 20
656.6695440828
 30
0.0
  0
VERTEX
  5
93B
  8
0
  6
CONTINUOUS
 62
     7
 10
-1664.1633123605
 20
657.1481077238
 30
0.0
  0
VERTEX
  5
93C
  8
0
  6
CONTINUOUS
 62
     7
 10
-1662.7217162857
 20
657.8015889426
 30
0.0
  0
VERTEX
  5
93D
  8
0
  6
CONTINUOUS
 62
     7
 10
-1661.5286654449
 20
658.6048722112
 30
0.0
  0
SEQEND
  5
93E
  8
0
  6
CONTINUOUS
 62
     7
  0
LINE
  5
565
  8
0
  6
CONTINUOUS
 62
     7
 10
-1317.4773187269
 20
-565.1876915062
 30
0.0
 11
-1312.1002448673
 21
-574.5010410103
 31
0.0
  0
LINE
  5
566
  8
0
  6
CONTINUOUS
 62
     7
 10
-1312.1002448673
 20
-574.5010410103
 30
0.0
 11
-1312.1002448673
 21
-574.9093114832
 31
0.0
  0
LINE
  5
567
  8
0
  6
CONTINUOUS
 62
     7
 10
-1312.1002448673
 20
-574.5010410103
 30
0.0
 11
-1311.3180520425
 21
-574.0494907041
 31
0.0
  0
ARC
  5
568
  8
0
  6
CONTINUOUS
 62
     7
 10
-1310.8070176991
 20
-575.1190869
 30
0.0
 40
1.310130617164216
 50
170.7862579988
 51
309.2031904868
  0
ARC
  5
569
  8
0
  6
CONTINUOUS
 62
     7
 10
-1310.3929702426
 20
-574.4018991255
 30
0.0
 40
0.6550604933289137
 50
170.7852770012
 51
309.2036785844
  0
LINE
  5
56A
  8
0
  6
CONTINUOUS
 62
     7
 10
-1309.625371386
 20
-574.7054086619
 30
0.0
 11
-1309.625371386
 21
-575.9302198904
 31
0.0
  0
LINE
  5
56B
  8
0
  6
CONTINUOUS
 62
     7
 10
-1309.9789202247
 20
-576.1343192906
 30
0.0
 11
-1309.625371386
 21
-575.9302198904
 31
0.0
  0
LINE
  5
56C
  8
0
  6
CONTINUOUS
 62
     7
 10
-1729.9639521699
 20
637.431104684
 30
0.0
 11
-1732.8287788303
 21
642.4051757324
 31
0.0
  0
LINE
  5
56D
  8
0
  6
CONTINUOUS
 62
     7
 10
-1732.8287788303
 20
642.4051757324
 30
0.0
 11
-1732.4880426335
 21
642.6018785518
 31
0.0
  0
ARC
  5
56E
  8
0
  6
CONTINUOUS
 62
     7
 10
-1731.5207467784
 20
644.7007976841
 30
0.0
 40
2.178188646822876
 50
126.9070418267
 51
185.2351119342
  0
POLYLINE
  5
56F
  8
0
  6
CONTINUOUS
 62
     7
 66
     1
 10
0.0
 20
0.0
 30
0.0
  0
VERTEX
  5
93F
  8
0
  6
CONTINUOUS
 62
     7
 10
-1733.6898494821
 20
644.5020535226
 30
0.0
  0
VERTEX
  5
940
  8
0
  6
CONTINUOUS
 62
     7
 10
-1733.4128393203
 20
643.4111542394
 30
0.0
  0
VERTEX
  5
941
  8
0
  6
CONTINUOUS
 62
     7
 10
-1732.8287788303
 20
642.4051757324
 30
0.0
  0
SEQEND
  5
942
  8
0
  6
CONTINUOUS
 62
     7
  0
LINE
  5
570
  8
0
  6
CONTINUOUS
 62
     7
 10
-1733.6898494821
 20
644.5020535226
 30
0.0
 11
-1733.0827873496
 21
644.5401921422
 31
0.0
  0
LINE
  5
571
  8
0
  6
CONTINUOUS
 62
     7
 10
-1732.828789367
 20
646.442500979
 30
0.0
 11
-1732.4783804685
 21
646.7981943884
 31
0.0
  0
LINE
  5
572
  8
0
  6
CONTINUOUS
 62
     7
 10
-1732.2896258075
 20
646.689228642
 30
0.0
 11
-1732.4783804685
 21
646.7981943884
 31
0.0
  0
LINE
  5
573
  8
0
  6
CONTINUOUS
 62
     7
 10
-1731.4524629555
 20
647.3904439623
 30
0.0
 11
-1732.4783804685
 21
646.7981943884
 31
0.0
  0
ARC
  5
574
  8
0
  6
CONTINUOUS
 62
     7
 10
-1311.5735449828
 20
405.2666470704
 30
0.0
 40
4.805211462260793
 50
276.7276806127
 51
308.7675316862
  0
POLYLINE
  5
575
  8
0
  6
CONTINUOUS
 62
     7
 66
     1
 10
0.0
 20
0.0
 30
0.0
  0
VERTEX
  5
943
  8
0
  6
CONTINUOUS
 62
     7
 10
-1309.958120755
 20
-574.7614245625
 30
0.0
  0
VERTEX
  5
944
  8
0
  6
CONTINUOUS
 62
     7
 10
-1309.2078120211
 20
-574.6758681127
 30
0.0
  0
VERTEX
  5
945
  8
0
  6
CONTINUOUS
 62
     7
 10
-1308.5647037964
 20
-574.4810050943
 30
0.0
  0
SEQEND
  5
946
  8
0
  6
CONTINUOUS
 62
     7
  0
ARC
  5
576
  8
0
  6
CONTINUOUS
 62
     7
 10
-1307.6302826395
 20
-568.5463693029
 30
0.0
 40
6.636696630952292
 50
218.7331110812
 51
249.4666500597
  0
POLYLINE
  5
577
  8
0
  6
CONTINUOUS
 62
     7
 66
     1
 10
0.0
 20
0.0
 30
0.0
  0
VERTEX
  5
947
  8
0
  6
CONTINUOUS
 62
     7
 10
-1311.010611856
 20
400.4945234874
 30
0.0
  0
VERTEX
  5
948
  8
0
  6
CONTINUOUS
 62
     7
 10
-1311.9825392561
 20
400.1246205118
 30
0.0
  0
VERTEX
  5
949
  8
0
  6
CONTINUOUS
 62
     7
 10
-1312.8073636182
 20
399.9319739176
 30
0.0
  0
SEQEND
  5
94A
  8
0
  6
CONTINUOUS
 62
     7
  0
LINE
  5
578
  8
0
  6
CONTINUOUS
 62
     7
 10
-1310.8483148791
 20
401.3553674827
 30
0.0
 11
-1311.010611856
 21
400.4945234874
 31
0.0
  0
ARC
  5
579
  8
0
  6
CONTINUOUS
 62
     7
 10
-1311.7051104402
 20
404.0548157823
 30
0.0
 40
2.832158144546288
 50
287.6092583688
 51
317.2506431098
  0
LINE
  5
57A
  8
0
  6
CONTINUOUS
 62
     7
 10
-1308.5647037964
 20
401.5200576999
 30
0.0
 11
-1309.625371386
 21
402.132368066
 31
0.0
  0
LINE
  5
57B
  8
0
  6
CONTINUOUS
 62
     7
 10
-1312.1612629672
 20
400.3049598842
 30
0.0
 11
-1312.8073636182
 21
399.9319739176
 31
0.0
  0
POLYLINE
  5
57C
  8
0
  6
CONTINUOUS
 62
     7
 66
     1
 10
0.0
 20
0.0
 30
0.0
  0
VERTEX
  5
94B
  8
0
  6
CONTINUOUS
 62
     7
 10
-1310.8483148791
 20
401.3553674827
 30
0.0
  0
VERTEX
  5
94C
  8
0
  6
CONTINUOUS
 62
     7
 10
-1311.3342891159
 20
400.9055133085
 30
0.0
  0
VERTEX
  5
94D
  8
0
  6
CONTINUOUS
 62
     7
 10
-1311.454080996
 20
400.8005918881
 30
0.0
  0
SEQEND
  5
94E
  8
0
  6
CONTINUOUS
 62
     7
  0
LINE
  5
57D
  8
0
  6
CONTINUOUS
 62
     7
 10
-1044.6724535296
 20
554.0152177516
 30
0.0
 11
-1308.2142948978
 21
401.8757511093
 31
0.0
  0
LINE
  5
57E
  8
0
  6
CONTINUOUS
 62
     7
 10
-1044.9940761306
 20
-422.3450219819
 30
0.0
 11
-1044.6724535296
 21
-422.1593532064
 31
0.0
  0
ARC
  5
57F
  8
0
  6
CONTINUOUS
 62
     7
 10
-1310.4015013087
 20
-570.5200964013
 30
0.0
 40
4.366076359287138
 50
294.878632903
 51
300.0631816308
  0
LINE
  5
580
  8
0
  6
CONTINUOUS
 62
     7
 10
-1308.2142948978
 20
401.8757511093
 30
0.0
 11
-1308.5647037964
 21
401.5200576999
 31
0.0
  0
LINE
  5
581
  8
0
  6
CONTINUOUS
 62
     7
 10
-1309.2749624875
 20
402.4880614754
 30
0.0
 11
-1309.625371386
 21
402.132368066
 31
0.0
  0
LINE
  5
582
  8
0
  6
CONTINUOUS
 62
     7
 10
-1308.2142948978
 20
401.8757511093
 30
0.0
 11
-1309.2749624875
 21
402.4880614754
 31
0.0
  0
LINE
  5
583
  8
0
  6
CONTINUOUS
 62
     7
 10
-1045.7331211192
 20
554.6275281177
 30
0.0
 11
-1044.6724535296
 21
554.0152177516
 31
0.0
  0
LINE
  5
584
  8
0
  6
CONTINUOUS
 62
     7
 10
-1325.5352693265
 20
390.1464693818
 30
0.0
 11
-1326.2423880774
 21
390.6694433236
 31
0.0
  0
LINE
  5
585
  8
0
  6
CONTINUOUS
 62
     7
 10
-1326.2423880774
 20
390.6694433236
 30
0.0
 11
-1326.2423880774
 21
392.1169753114
 31
0.0
  0
LINE
  5
586
  8
0
  6
CONTINUOUS
 62
     7
 10
-1312.8073636182
 20
399.9319739176
 30
0.0
 11
-1316.3275737729
 21
397.8842706563
 31
0.0
  0
LINE
  5
587
  8
0
  6
CONTINUOUS
 62
     7
 10
-1324.490301438
 20
393.1361113197
 30
0.0
 11
-1326.2423880774
 21
392.1169753114
 31
0.0
  0
LINE
  5
588
  8
0
  6
CONTINUOUS
 62
     7
 10
-1317.2272825481
 20
-565.0433671691
 30
0.0
 11
-1312.8073636182
 21
-572.6989076485
 31
0.0
  0
ARC
  5
589
  8
0
  6
CONTINUOUS
 62
     7
 10
-1326.926202342
 20
387.1746425342
 30
0.0
 40
4.020591164427323
 50
80.2076435086
 51
98.1409142601
  0
POLYLINE
  5
58A
  8
0
  6
CONTINUOUS
 62
     7
 66
     1
 10
0.0
 20
0.0
 30
0.0
  0
VERTEX
  5
94F
  8
0
  6
CONTINUOUS
 62
     7
 10
-1043.7968106049
 20
554.6700992136
 30
0.0
  0
VERTEX
  5
950
  8
0
  6
CONTINUOUS
 62
     7
 10
-1043.833372996
 20
554.4737390025
 30
0.0
  0
VERTEX
  5
951
  8
0
  6
CONTINUOUS
 62
     7
 10
-1043.9970502822
 20
554.2894225659
 30
0.0
  0
VERTEX
  5
952
  8
0
  6
CONTINUOUS
 62
     7
 10
-1044.2808039398
 20
554.1320160579
 30
0.0
  0
VERTEX
  5
953
  8
0
  6
CONTINUOUS
 62
     7
 10
-1044.6724535296
 20
554.0152177516
 30
0.0
  0
SEQEND
  5
954
  8
0
  6
CONTINUOUS
 62
     7
  0
POLYLINE
  5
58B
  8
0
  6
CONTINUOUS
 62
     7
 66
     1
 10
0.0
 20
0.0
 30
0.0
  0
VERTEX
  5
955
  8
0
  6
CONTINUOUS
 62
     7
 10
-1045.2952996569
 20
554.631218503
 30
0.0
  0
VERTEX
  5
956
  8
0
  6
CONTINUOUS
 62
     7
 10
-1045.3954300322
 20
554.6027614347
 30
0.0
  0
VERTEX
  5
957
  8
0
  6
CONTINUOUS
 62
     7
 10
-1045.7331211192
 20
554.6275281177
 30
0.0
  0
SEQEND
  5
958
  8
0
  6
CONTINUOUS
 62
     7
  0
LINE
  5
58C
  8
0
  6
CONTINUOUS
 62
     7
 10
-1045.2952996569
 20
554.631218503
 30
0.0
 11
-1043.7968106049
 21
554.6700992136
 31
0.0
  0
POLYLINE
  5
58D
  8
0
  6
CONTINUOUS
 62
     7
 66
     1
 10
0.0
 20
0.0
 30
0.0
  0
VERTEX
  5
959
  8
0
  6
CONTINUOUS
 62
     7
 10
-1044.6724535296
 20
-422.1593532064
 30
0.0
  0
VERTEX
  5
95A
  8
0
  6
CONTINUOUS
 62
     7
 10
-1044.0221487305
 20
-421.5799809344
 30
0.0
  0
VERTEX
  5
95B
  8
0
  6
CONTINUOUS
 62
     7
 10
-1043.7937865686
 20
-420.8997144879
 30
0.0
  0
SEQEND
  5
95C
  8
0
  6
CONTINUOUS
 62
     7
  0
POLYLINE
  5
58E
  8
0
  6
CONTINUOUS
 62
     7
 66
     1
 10
0.0
 20
0.0
 30
0.0
  0
VERTEX
  5
95D
  8
0
  6
CONTINUOUS
 62
     7
 10
-1044.6724640663
 20
554.6622169181
 30
0.0
  0
VERTEX
  5
95E
  8
0
  6
CONTINUOUS
 62
     7
 10
-1044.0486274881
 20
554.7135393779
 30
0.0
  0
VERTEX
  5
95F
  8
0
  6
CONTINUOUS
 62
     7
 10
-1043.7968106049
 20
554.6700992136
 30
0.0
  0
SEQEND
  5
960
  8
0
  6
CONTINUOUS
 62
     7
  0
POLYLINE
  5
58F
  8
0
  6
CONTINUOUS
 62
     7
 66
     1
 10
0.0
 20
0.0
 30
0.0
  0
VERTEX
  5
961
  8
0
  6
CONTINUOUS
 62
     7
 10
-1308.2142948978
 20
-574.2988198487
 30
0.0
  0
VERTEX
  5
962
  8
0
  6
CONTINUOUS
 62
     7
 10
-1308.1674908226
 20
-574.8079467242
 30
0.0
  0
VERTEX
  5
963
  8
0
  6
CONTINUOUS
 62
     7
 10
-1308.2519636437
 20
-575.2019853936
 30
0.0
  0
VERTEX
  5
964
  8
0
  6
CONTINUOUS
 62
     7
 10
-1308.4550166231
 20
-575.4514991411
 30
0.0
  0
VERTEX
  5
965
  8
0
  6
CONTINUOUS
 62
     7
 10
-1308.7563455165
 20
-575.5363066302
 30
0.0
  0
SEQEND
  5
966
  8
0
  6
CONTINUOUS
 62
     7
  0
LINE
  5
590
  8
0
  6
CONTINUOUS
 62
     7
 10
-1309.1253833221
 20
-574.6384037629
 30
0.0
 11
-1308.7563455165
 21
-575.5363066302
 31
0.0
  0
POLYLINE
  5
591
  8
0
  6
CONTINUOUS
 62
     7
 66
     1
 10
0.0
 20
0.0
 30
0.0
  0
VERTEX
  5
967
  8
0
  6
CONTINUOUS
 62
     7
 10
-1045.9851065898
 20
-423.9318435066
 30
0.0
  0
VERTEX
  5
968
  8
0
  6
CONTINUOUS
 62
     7
 10
-1045.9849169289
 20
-423.9317958251
 30
0.0
  0
VERTEX
  5
969
  8
0
  6
CONTINUOUS
 62
     7
 10
-1045.3403230278
 20
-423.2958886235
 30
0.0
  0
VERTEX
  5
96A
  8
0
  6
CONTINUOUS
 62
     7
 10
-1044.9940761306
 20
-422.3450219819
 30
0.0
  0
SEQEND
  5
96B
  8
0
  6
CONTINUOUS
 62
     7
  0
POLYLINE
  5
592
  8
0
  6
CONTINUOUS
 62
     7
 66
     1
 10
0.0
 20
0.0
 30
0.0
  0
VERTEX
  5
96C
  8
0
  6
CONTINUOUS
 62
     7
 10
-1308.7563455165
 20
-575.5363066302
 30
0.0
  0
VERTEX
  5
96D
  8
0
  6
CONTINUOUS
 62
     7
 10
-1308.9184317592
 20
-575.2843088854
 30
0.0
  0
VERTEX
  5
96E
  8
0
  6
CONTINUOUS
 62
     7
 10
-1309.1253833221
 20
-574.8251609932
 30
0.0
  0
SEQEND
  5
96F
  8
0
  6
CONTINUOUS
 62
     7
  0
ENDSEC
  0
EOF
