  0
SECTION
  2
HEADER
  9
$ACADVER
  1
AC1009
  9
$DWGCODEPAGE
  3
ansi_1252
  9
$INSBASE
 10
0.0
 20
0.0
 30
0.0
  9
$EXTMIN
 10
0.0
 20
0.0
 30
0.0
  9
$EXTMAX
 10
594.0
 20
420.0
 30
0.0
  9
$LIMMIN
 10
0.0
 20
0.0
  9
$LIMMAX
 10
594.0
 20
420.0
  9
$ORTHOMODE
 70
     0
  9
$REGENMODE
 70
     1
  9
$FILLMODE
 70
     1
  9
$QTEXTMODE
 70
     0
  9
$MIRRTEXT
 70
     1
  9
$DRAGMODE
 70
     2
  9
$LTSCALE
 40
1.0
  9
$OSMODE
 70
    37
  9
$ATTMODE
 70
     1
  9
$TEXTSIZE
 40
4.2333333333
  9
$TRACEWID
 40
1.0
  9
$TEXTSTYLE
  7
STANDARD
  9
$CLAYER
  8
0
  9
$CELTYPE
  6
BYLAYER
  9
$CECOLOR
 62
   256
  9
$DIMSCALE
 40
1.0
  9
$DIMASZ
 40
2.0
  9
$DIMEXO
 40
1.0
  9
$DIMDLI
 40
3.75
  9
$DIMRND
 40
0.0
  9
$DIMDLE
 40
0.0
  9
$DIMEXE
 40
0.5
  9
$DIMTP
 40
0.0
  9
$DIMTM
 40
0.0
  9
$DIMTXT
 40
3.175
  9
$DIMCEN
 40
2.5
  9
$DIMTSZ
 40
0.0
  9
$DIMTOL
 70
     0
  9
$DIMLIM
 70
     0
  9
$DIMTIH
 70
     1
  9
$DIMTOH
 70
     1
  9
$DIMSE1
 70
     0
  9
$DIMSE2
 70
     0
  9
$DIMTAD
 70
     1
  9
$DIMZIN
 70
     0
  9
$DIMBLK
  1

  9
$DIMASO
 70
     1
  9
$DIMSHO
 70
     1
  9
$DIMPOST
  1

  9
$DIMAPOST
  1

  9
$DIMALT
 70
     0
  9
$DIMALTD
 70
     3
  9
$DIMALTF
 40
0.0393700787
  9
$DIMLFAC
 40
1.0
  9
$DIMTOFL
 70
     1
  9
$DIMTVP
 40
0.0
  9
$DIMTIX
 70
     0
  9
$DIMSOXD
 70
     0
  9
$DIMSAH
 70
     0
  9
$DIMBLK1
  1

  9
$DIMBLK2
  1

  9
$DIMSTYLE
  2
ISO-25
  9
$DIMCLRD
 70
     0
  9
$DIMCLRE
 70
     0
  9
$DIMCLRT
 70
     0
  9
$DIMTFAC
 40
1.0
  9
$DIMGAP
 40
2.0
  9
$LUNITS
 70
     2
  9
$LUPREC
 70
     2
  9
$SKETCHINC
 40
1.0
  9
$FILLETRAD
 40
10.0
  9
$AUNITS
 70
     0
  9
$AUPREC
 70
     2
  9
$MENU
  1
.
  9
$ELEVATION
 40
0.0
  9
$PELEVATION
 40
0.0
  9
$THICKNESS
 40
0.0
  9
$LIMCHECK
 70
     0
  9
$CHAMFERA
 40
10.0
  9
$CHAMFERB
 40
10.0
  9
$SKPOLY
 70
     0
  9
$TDCREATE
 40
2456630.674929178
  9
$TDUPDATE
 40
2456630.67492919
  9
$TDINDWG
 40
0.0000000116
  9
$TDUSRTIMER
 40
0.0000000116
  9
$USRTIMER
 70
     1
  9
$ANGBASE
 50
0.0
  9
$ANGDIR
 70
     0
  9
$PDMODE
 70
     0
  9
$PDSIZE
 40
-1.0
  9
$PLINEWID
 40
0.0
  9
$COORDS
 70
     1
  9
$SPLFRAME
 70
     0
  9
$SPLINETYPE
 70
     6
  9
$SPLINESEGS
 70
     8
  9
$ATTDIA
 70
     0
  9
$ATTREQ
 70
     1
  9
$HANDLING
 70
     1
  9
$HANDSEED
  5
96A
  9
$SURFTAB1
 70
     6
  9
$SURFTAB2
 70
     6
  9
$SURFTYPE
 70
     6
  9
$SURFU
 70
     6
  9
$SURFV
 70
     6
  9
$UCSNAME
  2

  9
$UCSORG
 10
0.0
 20
0.0
 30
0.0
  9
$UCSXDIR
 10
1.0
 20
0.0
 30
0.0
  9
$UCSYDIR
 10
0.0
 20
1.0
 30
0.0
  9
$PUCSNAME
  2

  9
$PUCSORG
 10
0.0
 20
0.0
 30
0.0
  9
$PUCSXDIR
 10
1.0
 20
0.0
 30
0.0
  9
$PUCSYDIR
 10
0.0
 20
1.0
 30
0.0
  9
$USERI1
 70
     0
  9
$USERI2
 70
     0
  9
$USERI3
 70
     0
  9
$USERI4
 70
     0
  9
$USERI5
 70
     0
  9
$USERR1
 40
0.0
  9
$USERR2
 40
0.0
  9
$USERR3
 40
0.0
  9
$USERR4
 40
0.0
  9
$USERR5
 40
0.0
  9
$WORLDVIEW
 70
     1
  9
$SHADEDGE
 70
     3
  9
$SHADEDIF
 70
    70
  9
$TILEMODE
 70
     1
  9
$MAXACTVP
 70
    64
  9
$PLIMCHECK
 70
     0
  9
$PEXTMIN
 10
1.0000000000E+20
 20
1.0000000000E+20
 30
1.0000000000E+20
  9
$PEXTMAX
 10
-1.0000000000E+20
 20
-1.0000000000E+20
 30
-1.0000000000E+20
  9
$PLIMMIN
 10
0.0
 20
0.0
  9
$PLIMMAX
 10
420.0
 20
297.0
  9
$UNITMODE
 70
     0
  9
$VISRETAIN
 70
     1
  9
$PLINEGEN
 70
     0
  9
$PSLTSCALE
 70
     1
  0
ENDSEC
  0
SECTION
  2
TABLES
  0
TABLE
  2
VPORT
 70
     1
  0
VPORT
  2
*ACTIVE
 70
     0
 10
0.0
 20
0.0
 11
1.0
 21
1.0
 12
297.0
 22
210.0
 13
0.0
 23
0.0
 14
10.0
 24
10.0
 15
10.0
 25
10.0
 16
0.0
 26
0.0
 36
1.0
 17
0.0
 27
0.0
 37
0.0
 40
420.0
 41
1.4142857143
 42
50.0
 43
0.0
 44
0.0
 50
0.0
 51
0.0
 71
     0
 72
  2000
 73
     1
 74
     3
 75
     0
 76
     0
 77
     0
 78
     0
  0
ENDTAB
  0
TABLE
  2
LTYPE
 70
     6
  0
LTYPE
  2
CONTINUOUS
 70
     0
  3
Solid line
 72
    65
 73
     0
 40
0.0
  0
LTYPE
  2
HIDDEN
 70
     0
  3
Hidden __ __ __ __ __ __ __ __ __ __ __ __ __ __
 72
    65
 73
     2
 40
1.905
 49
1.27
 49
-0.635
  0
LTYPE
  2
PHANTOM
 70
     0
  3
Phantom ______  __  __  ______  __  __  ______
 72
    65
 73
     6
 40
12.7
 49
6.35
 49
-1.27
 49
1.27
 49
-1.27
 49
1.27
 49
-1.27
  0
LTYPE
  2
CENTER
 70
     0
  3
Center ____ _ ____ _ ____ _ ____ _ ____ _ ____
 72
    65
 73
     4
 40
10.16
 49
6.35
 49
-1.27
 49
1.27
 49
-1.27
  0
LTYPE
  2
CENTERX2
 70
     0
  3
Center (2x) ________  __  ________  __  _____
 72
    65
 73
     4
 40
20.32
 49
12.7
 49
-2.54
 49
2.54
 49
-2.54
  0
LTYPE
  2
DOT2
 70
     0
  3
Dot (.5x) ........................................
 72
    65
 73
     2
 40
0.635
 49
0.0
 49
-0.635
  0
ENDTAB
  0
TABLE
  2
LAYER
 70
     8
  0
LAYER
  2
0
 70
     0
 62
     7
  6
CONTINUOUS
  0
LAYER
  2
SLD-0
 70
     0
 62
     7
  6
CONTINUOUS
  0
LAYER
  2
AM_BOR
 70
     0
 62
     7
  6
CONTINUOUS
  0
LAYER
  2
BIEGLINIE__ZU_
 70
     0
 62
     8
  6
CONTINUOUS
  0
LAYER
  2
BIEGELINIE__WEG_
 70
     0
 62
     8
  6
HIDDEN
  0
LAYER
  2
LAYER0
 70
     0
 62
     7
  6
CONTINUOUS
  0
LAYER
  2
BIEGELINIE__ZU_
 70
     0
 62
     8
  6
CONTINUOUS
  0
LAYER
  2
CK_LEVEL_1
 70
     0
 62
     7
  6
CONTINUOUS
  0
ENDTAB
  0
TABLE
  2
STYLE
 70
     1
  0
STYLE
  2
STANDARD
 70
     0
 40
0.0
 41
1.0
 50
0.0
 71
     0
 42
2.5
  3
txt
  4

  0
ENDTAB
  0
TABLE
  2
VIEW
 70
     0
  0
ENDTAB
  0
TABLE
  2
UCS
 70
     0
  0
ENDTAB
  0
TABLE
  2
APPID
 70
     1
  0
APPID
  2
ACAD
 70
     0
  0
ENDTAB
  0
TABLE
  2
DIMSTYLE
 70
     1
  0
DIMSTYLE
  2
ISO-25
 70
     0
  3

  4

  5

  6

  7

 40
1.0
 41
2.5
 42
0.625
 43
3.75
 44
1.25
 45
0.0
 46
0.0
 47
0.0
 48
0.0
140
2.5
141
2.5
142
0.0
143
0.0393700787
144
1.0
145
0.0
146
1.0
147
0.625
 71
     0
 72
     0
 73
     0
 74
     0
 75
     0
 76
     0
 77
     1
 78
     8
170
     0
171
     3
172
     1
173
     0
174
     0
175
     0
176
     0
177
     0
178
     0
  0
ENDTAB
  0
ENDSEC
  0
SECTION
  2
BLOCKS
  0
BLOCK
  8
0
  2
$MODEL_SPACE
 70
     0
 10
0.0
 20
0.0
 30
0.0
  3
$MODEL_SPACE
  1

  0
ENDBLK
  5
21
  8
0
  0
BLOCK
 67
     1
  8
0
  2
$PAPER_SPACE
 70
     0
 10
0.0
 20
0.0
 30
0.0
  3
$PAPER_SPACE
  1

  0
ENDBLK
  5
1D
 67
     1
  8
0
  0
BLOCK
  8
0
  2
ERDUNG2
 70
     0
 10
0.0
 20
0.0
 30
0.0
  3
ERDUNG2
  1

  0
CIRCLE
  5
4E
  8
CK_LEVEL_1
  6
CONTINUOUS
 62
     7
 10
7.882894401
 20
8.75
 30
0.0
 40
9.354800019675764
  0
LINE
  5
4F
  8
CK_LEVEL_1
  6
CONTINUOUS
 62
     7
 10
8.7487451733
 20
3.8098753807
 30
0.0
 11
9.700327903
 21
3.8098753807
 31
0.0
  0
LINE
  5
50
  8
CK_LEVEL_1
  6
CONTINUOUS
 62
     7
 10
8.7487451733
 20
3.8098753807
 30
0.0
 11
6.6709551936
 21
3.8098753807
 31
0.0
  0
LINE
  5
51
  8
CK_LEVEL_1
  6
CONTINUOUS
 62
     7
 10
7.882894401
 20
8.75
 30
0.0
 11
12.815547
 21
8.75
 31
0.0
  0
LINE
  5
52
  8
CK_LEVEL_1
  6
CONTINUOUS
 62
     7
 10
11.24812514
 20
6.3492067038
 30
0.0
 11
4.4479159892
 21
6.3492067038
 31
0.0
  0
LINE
  5
53
  8
CK_LEVEL_1
  6
CONTINUOUS
 62
     7
 10
7.882894401
 20
8.75
 30
0.0
 11
2.6893228315
 21
8.75
 31
0.0
  0
LINE
  5
54
  8
CK_LEVEL_1
  6
CONTINUOUS
 62
     7
 10
7.882894401
 20
8.75
 30
0.0
 11
7.882894401
 21
15.2853511284
 31
0.0
  0
ENDBLK
  5
4D
  8
0
  0
ENDSEC
  0
SECTION
  2
ENTITIES
  0
ARC
  5
55
  8
0
  6
CONTINUOUS
 62
     7
 10
-48.1344610452
 20
283.441031379
 30
0.0
 40
9.623970152222089
 50
68.6143464791
 51
85.3074629472
  0
POLYLINE
  5
56
  8
0
  6
CONTINUOUS
 62
     7
 66
     1
 10
0.0
 20
0.0
 30
0.0
  0
VERTEX
  5
592
  8
0
  6
CONTINUOUS
 62
     7
 10
-52.1357737876
 20
292.7755484329
 30
0.0
  0
VERTEX
  5
593
  8
0
  6
CONTINUOUS
 62
     7
 10
-53.3193134165
 20
292.4479017005
 30
0.0
  0
VERTEX
  5
594
  8
0
  6
CONTINUOUS
 62
     7
 10
-53.4288369513
 20
292.4043903099
 30
0.0
  0
SEQEND
  5
595
  8
0
  6
CONTINUOUS
 62
     7
  0
ARC
  5
57
  8
0
  6
CONTINUOUS
 62
     7
 10
-49.2704510069
 20
281.988351852
 30
0.0
 40
11.16125820469857
 50
88.7478827431
 51
104.8755514615
  0
ARC
  5
58
  8
0
  6
CONTINUOUS
 62
     7
 10
-79.0765577651
 20
783.1813692794
 30
0.0
 40
39.99999999999999
 50
76.4820489901
 51
103.5179510099
  0
LINE
  5
59
  8
0
  6
CONTINUOUS
 62
     7
 10
-88.4265683985
 20
822.0732578979
 30
0.0
 11
-88.4265683985
 21
821.6814169632
 31
0.0
  0
LINE
  5
5A
  8
0
  6
CONTINUOUS
 62
     7
 10
-69.7265647746
 20
821.6814169632
 30
0.0
 11
-69.7265647746
 21
822.0732578979
 31
0.0
  0
LINE
  5
5B
  8
0
  6
CONTINUOUS
 62
     7
 10
655.5734492444
 20
822.0732578979
 30
0.0
 11
655.5734492444
 21
821.6814169632
 31
0.0
  0
LINE
  5
5C
  8
0
  6
CONTINUOUS
 62
     7
 10
674.2734528684
 20
821.6814169632
 30
0.0
 11
674.2734528684
 21
822.0732578979
 31
0.0
  0
ARC
  5
5D
  8
0
  6
CONTINUOUS
 62
     7
 10
664.9234422349
 20
783.1813692794
 30
0.0
 40
40.0
 50
76.4820489901
 51
103.5179510099
  0
LINE
  5
5E
  8
0
  6
CONTINUOUS
 62
     7
 10
-102.0765684939
 20
816.6768917785
 30
0.0
 11
-102.0765684939
 21
816.0703549133
 31
0.0
  0
LINE
  5
5F
  8
0
  6
CONTINUOUS
 62
     7
 10
-41.5046893454
 20
281.974113916
 30
0.0
 11
-43.9876102305
 21
281.9689283119
 31
0.0
  0
LINE
  5
60
  8
0
  6
CONTINUOUS
 62
     7
 10
-54.0655039645
 20
281.9689283119
 30
0.0
 11
-56.5484248496
 21
281.974113916
 31
0.0
  0
LINE
  5
61
  8
0
  6
CONTINUOUS
 62
     7
 10
-56.5480076171
 20
277.9461512313
 30
0.0
 11
-54.0646993018
 21
277.9510388122
 31
0.0
  0
LINE
  5
62
  8
0
  6
CONTINUOUS
 62
     7
 10
-43.9884148932
 20
277.9509792076
 30
0.0
 11
-41.5051065779
 21
277.9461512313
 31
0.0
  0
ARC
  5
63
  8
0
  6
CONTINUOUS
 62
     7
 10
-49.0266511127
 20
279.9314618854
 30
0.0
 40
5.000113587682091
 50
270.00107731
 51
338.2612735151
  0
ARC
  5
64
  8
0
  6
CONTINUOUS
 62
     7
 10
-49.0264653773
 20
279.9314584997
 30
0.0
 40
5.000110201919783
 50
201.7387001875
 51
269.9989489873
  0
ARC
  5
65
  8
0
  6
CONTINUOUS
 62
     7
 10
-44.0105835032
 20
277.9313692795
 30
0.0
 40
0.4000000000008868
 50
89.9999999997
 51
158.2615392082
  0
ARC
  5
66
  8
0
  6
CONTINUOUS
 62
     7
 10
-54.0425324663
 20
277.9313692795
 30
0.0
 40
0.4000000000008868
 50
21.7384607918
 51
90.0000000003
  0
LINE
  5
67
  8
0
  6
CONTINUOUS
 62
     7
 10
-41.5571116305
 20
278.3313760505
 30
0.0
 11
-44.0105878211
 21
278.3313760505
 31
0.0
  0
LINE
  5
68
  8
0
  6
CONTINUOUS
 62
     7
 10
-54.0425263739
 20
278.3313760505
 30
0.0
 11
-56.4960025645
 21
278.3313760505
 31
0.0
  0
ARC
  5
69
  8
0
  6
CONTINUOUS
 62
     7
 10
-49.0265570975
 20
280.0490664404
 30
0.0
 40
13.75553820859398
 50
227.8970924977
 51
312.1029075023
  0
ARC
  5
6A
  8
0
  6
CONTINUOUS
 62
     7
 10
-41.557114463
 20
278.8313769485
 30
0.0
 40
0.5000008979512327
 50
270.0003245825
 51
351.6194169935
  0
ARC
  5
6B
  8
0
  6
CONTINUOUS
 62
     7
 10
-56.4959882254
 20
278.8313902743
 30
0.0
 40
0.5000142239561916
 50
188.3819015121
 51
269.9983569118
  0
ARC
  5
6C
  8
0
  6
CONTINUOUS
 62
     7
 10
-49.0265074377
 20
279.9313502156
 30
0.0
 40
5.000048151180997
 50
90.0005690541
 51
158.2617817711
  0
ARC
  5
6D
  8
0
  6
CONTINUOUS
 62
     7
 10
-49.0266156651
 20
279.9313370743
 30
0.0
 40
5.000061292536519
 50
21.7383203013
 51
89.9993288735
  0
LINE
  5
6E
  8
0
  6
CONTINUOUS
 62
     7
 10
-56.4960025645
 20
281.5313706146
 30
0.0
 11
-54.0425263739
 21
281.5313706146
 31
0.0
  0
ARC
  5
6F
  8
0
  6
CONTINUOUS
 62
     7
 10
-54.0425324663
 20
281.9313692795
 30
0.0
 40
0.4000000000005063
 50
296.7075131236
 51
338.2615392082
  0
ARC
  5
70
  8
0
  6
CONTINUOUS
 62
     7
 10
-45.9614879473
 20
281.853082289
 30
0.0
 40
1.977248012714403
 50
350.6359570223
 51
3.3605862543
  0
LINE
  5
71
  8
0
  6
CONTINUOUS
 62
     7
 10
-44.0105878211
 20
281.5313706146
 30
0.0
 11
-41.5571116305
 21
281.5313706146
 31
0.0
  0
ARC
  5
72
  8
0
  6
CONTINUOUS
 62
     7
 10
-44.0105835032
 20
281.9313692795
 30
0.0
 40
0.4000000000004006
 50
201.7384607918
 51
270.0000000003
  0
LINE
  5
73
  8
0
  6
CONTINUOUS
 62
     7
 10
-41.0624526835
 20
281.1042437301
 30
0.0
 11
-41.0624526835
 21
278.758502935
 31
0.0
  0
ARC
  5
74
  8
0
  6
CONTINUOUS
 62
     7
 10
-41.5570950451
 20
281.0313922047
 30
0.0
 40
0.4999784101792327
 50
8.3783577957
 51
90.0019006283
  0
ARC
  5
75
  8
0
  6
CONTINUOUS
 62
     7
 10
-56.4959891354
 20
281.0313574446
 30
0.0
 40
0.5000131701492321
 50
90.0015388256
 51
171.6182027504
  0
ARC
  5
76
  8
0
  6
CONTINUOUS
 62
     7
 10
-48.9822695623
 20
279.6799652033
 30
0.0
 40
13.45370517239538
 50
313.0169153924
 51
69.5935572822
  0
ARC
  5
77
  8
0
  6
CONTINUOUS
 62
     7
 10
-49.0708300889
 20
279.6799685242
 30
0.0
 40
13.453717522465
 50
110.4066246551
 51
226.9830489698
  0
ARC
  5
78
  8
0
  6
CONTINUOUS
 62
     7
 10
-49.0265719987
 20
279.6517454917
 30
0.0
 40
13.49563834287575
 50
69.4590487306
 51
110.5409512694
  0
LINE
  5
79
  8
0
  6
CONTINUOUS
 62
     7
 10
-66.1756180621
 20
188.055134748
 30
0.0
 11
-66.1756180621
 21
271.9076046691
 31
0.0
  0
LINE
  5
7A
  8
0
  6
CONTINUOUS
 62
     7
 10
-31.8774961329
 20
271.9076046691
 30
0.0
 11
-31.8774961329
 21
188.055134748
 31
0.0
  0
ARC
  5
7B
  8
0
  6
CONTINUOUS
 62
     7
 10
-64.539759264
 20
156.185982164
 30
0.0
 40
1.571710468231282
 50
248.5013716169
 51
273.05940329
  0
ARC
  5
7C
  8
0
  6
CONTINUOUS
 62
     7
 10
-33.513371493
 20
303.776655218
 30
0.0
 40
1.571811474204455
 50
68.5021729822
 51
93.0586019247
  0
LINE
  5
7D
  8
0
  6
CONTINUOUS
 62
     7
 10
-66.1756180621
 20
188.055134748
 30
0.0
 11
-65.8160232402
 21
154.0096173034
 31
0.0
  0
LINE
  5
7E
  8
0
  6
CONTINUOUS
 62
     7
 10
-32.2370909548
 20
305.9531221138
 30
0.0
 11
-31.8774961329
 21
271.9076046691
 31
0.0
  0
LINE
  5
7F
  8
0
  6
CONTINUOUS
 62
     7
 10
-32.2370909548
 20
154.0096173034
 30
0.0
 11
-31.8774961329
 21
188.055134748
 31
0.0
  0
LINE
  5
80
  8
0
  6
CONTINUOUS
 62
     7
 10
-66.1756180621
 20
271.9076046691
 30
0.0
 11
-65.8160232402
 21
305.9531221138
 31
0.0
  0
ARC
  5
81
  8
0
  6
CONTINUOUS
 62
     7
 10
-49.0265570975
 20
-39.2166077489
 30
0.0
 40
347.7386603312055
 50
87.8202290927
 51
92.1797709073
  0
ARC
  5
82
  8
0
  6
CONTINUOUS
 62
     7
 10
-49.0265570975
 20
499.179347166
 30
0.0
 40
347.7386603312056
 50
267.8202290927
 51
272.1797709073
  0
ARC
  5
83
  8
0
  6
CONTINUOUS
 62
     7
 10
-49.0265579848
 20
330.3813692795
 30
0.0
 40
180.0000000000179
 50
265.5843621468
 51
274.4156379362
  0
ARC
  5
84
  8
0
  6
CONTINUOUS
 62
     7
 10
-49.0265579848
 20
129.5813692795
 30
0.0
 40
180.0000000000178
 50
85.5843602115
 51
94.415639811
  0
ARC
  5
85
  8
0
  6
CONTINUOUS
 62
     7
 10
-62.6455338078
 20
154.0778004478
 30
0.0
 40
3.171192710406873
 50
181.2319993823
 51
265.6699400709
  0
ARC
  5
86
  8
0
  6
CONTINUOUS
 62
     7
 10
-35.4075357706
 20
305.8849812365
 30
0.0
 40
3.171147195650302
 50
1.2312532171
 51
85.670686236
  0
ARC
  5
87
  8
0
  6
CONTINUOUS
 62
     7
 10
-35.4071966056
 20
154.0774368763
 30
0.0
 40
3.170801220384122
 50
274.3236408854
 51
358.7744196615
  0
ARC
  5
88
  8
0
  6
CONTINUOUS
 62
     7
 10
-62.6460106018
 20
305.8853906552
 30
0.0
 40
3.170706345765904
 50
94.3220849422
 51
178.7759756046
  0
LINE
  5
89
  8
0
  6
CONTINUOUS
 62
     7
 10
-56.9441698886
 20
278.7860998855
 30
0.0
 11
-56.8699919081
 21
278.3564100013
 31
0.0
  0
POLYLINE
  5
8A
  8
0
  6
CONTINUOUS
 62
     7
 66
     1
 10
0.0
 20
0.0
 30
0.0
  0
VERTEX
  5
596
  8
0
  6
CONTINUOUS
 62
     7
 10
-41.1794267989
 20
278.3749470459
 30
0.0
  0
VERTEX
  5
597
  8
0
  6
CONTINUOUS
 62
     7
 10
-41.0734497405
 20
279.0664205299
 30
0.0
  0
VERTEX
  5
598
  8
0
  6
CONTINUOUS
 62
     7
 10
-41.0348855353
 20
280.2961239563
 30
0.0
  0
SEQEND
  5
599
  8
0
  6
CONTINUOUS
 62
     7
  0
POLYLINE
  5
8B
  8
0
  6
CONTINUOUS
 62
     7
 66
     1
 10
0.0
 20
0.0
 30
0.0
  0
VERTEX
  5
59A
  8
0
  6
CONTINUOUS
 62
     7
 10
-41.0479985572
 20
280.5167207466
 30
0.0
  0
VERTEX
  5
59B
  8
0
  6
CONTINUOUS
 62
     7
 10
-41.0734497405
 20
280.7963261352
 30
0.0
  0
VERTEX
  5
59C
  8
0
  6
CONTINUOUS
 62
     7
 10
-41.1811851359
 20
281.4966211067
 30
0.0
  0
SEQEND
  5
59D
  8
0
  6
CONTINUOUS
 62
     7
  0
LINE
  5
8C
  8
0
  6
CONTINUOUS
 62
     7
 10
-56.887634883
 20
281.4157972084
 30
0.0
 11
-56.9372259474
 21
281.1236152397
 31
0.0
  0
LINE
  5
8D
  8
0
  6
CONTINUOUS
 62
     7
 10
-44.1542052127
 20
281.4313540206
 30
0.0
 11
-44.2568742133
 21
281.4313540206
 31
0.0
  0
LINE
  5
8E
  8
0
  6
CONTINUOUS
 62
     7
 10
-44.2568742133
 20
281.4313540206
 30
0.0
 11
-44.3821333743
 21
281.7832002388
 31
0.0
  0
LINE
  5
8F
  8
0
  6
CONTINUOUS
 62
     7
 10
-53.6489271022
 20
281.8376192794
 30
0.0
 11
-53.7962399817
 21
281.4313540206
 31
0.0
  0
LINE
  5
90
  8
0
  6
CONTINUOUS
 62
     7
 10
-53.7962399817
 20
281.4313540206
 30
0.0
 11
-53.8989089823
 21
281.4313540206
 31
0.0
  0
LINE
  5
91
  8
0
  6
CONTINUOUS
 62
     7
 10
-53.7962399817
 20
278.4313926445
 30
0.0
 11
-53.6709808207
 21
278.0795464263
 31
0.0
  0
LINE
  5
92
  8
0
  6
CONTINUOUS
 62
     7
 10
-44.3821333743
 20
278.0795464263
 30
0.0
 11
-44.2568742133
 21
278.4313926445
 31
0.0
  0
LINE
  5
93
  8
0
  6
CONTINUOUS
 62
     7
 10
-44.2568742133
 20
278.4313926445
 30
0.0
 11
-44.1542052127
 21
278.4313926445
 31
0.0
  0
LINE
  5
94
  8
0
  6
CONTINUOUS
 62
     7
 10
-56.2765680648
 20
281.4313540206
 30
0.0
 11
-56.2765680648
 21
278.4313926445
 31
0.0
  0
LINE
  5
95
  8
0
  6
CONTINUOUS
 62
     7
 10
-53.8989089823
 20
278.4313926445
 30
0.0
 11
-53.7962399817
 21
278.4313926445
 31
0.0
  0
LINE
  5
96
  8
0
  6
CONTINUOUS
 62
     7
 10
-41.7765461302
 20
278.4313926445
 30
0.0
 11
-41.7765461302
 21
281.4313540206
 31
0.0
  0
CIRCLE
  5
97
  8
0
  6
CONTINUOUS
 62
     7
 10
-49.0265579848
 20
279.9313692795
 30
0.0
 40
1.5
  0
POLYLINE
  5
98
  8
0
  6
CONTINUOUS
 62
     7
 66
     1
 10
0.0
 20
0.0
 30
0.0
  0
VERTEX
  5
59E
  8
0
  6
CONTINUOUS
 62
     7
 10
-102.0265601969
 20
816.0833487258
 30
0.0
  0
VERTEX
  5
59F
  8
0
  6
CONTINUOUS
 62
     7
 10
-102.7237557269
 20
815.9037003265
 30
0.0
  0
VERTEX
  5
5A0
  8
0
  6
CONTINUOUS
 62
     7
 10
-103.314288745
 20
815.7749542938
 30
0.0
  0
VERTEX
  5
5A1
  8
0
  6
CONTINUOUS
 62
     7
 10
-104.1482769347
 20
815.6706461654
 30
0.0
  0
VERTEX
  5
5A2
  8
0
  6
CONTINUOUS
 62
     7
 10
-104.7449790335
 20
815.772570108
 30
0.0
  0
VERTEX
  5
5A3
  8
0
  6
CONTINUOUS
 62
     7
 10
-104.9479626513
 20
815.9017929779
 30
0.0
  0
VERTEX
  5
5A4
  8
0
  6
CONTINUOUS
 62
     7
 10
-105.0265513755
 20
816.0833487258
 30
0.0
  0
SEQEND
  5
5A5
  8
0
  6
CONTINUOUS
 62
     7
  0
LINE
  5
99
  8
0
  6
CONTINUOUS
 62
     7
 10
-105.0265513755
 20
816.0833487258
 30
0.0
 11
-103.5265706874
 21
816.0833487258
 31
0.0
  0
POLYLINE
  5
9A
  8
0
  6
CONTINUOUS
 62
     7
 66
     1
 10
0.0
 20
0.0
 30
0.0
  0
VERTEX
  5
5A6
  8
0
  6
CONTINUOUS
 62
     7
 10
687.8753520154
 20
817.1813854919
 30
0.0
  0
VERTEX
  5
5A7
  8
0
  6
CONTINUOUS
 62
     7
 10
687.6957334184
 20
817.8785214172
 30
0.0
  0
VERTEX
  5
5A8
  8
0
  6
CONTINUOUS
 62
     7
 10
687.5670767927
 20
818.4690842376
 30
0.0
  0
VERTEX
  5
5A9
  8
0
  6
CONTINUOUS
 62
     7
 10
687.462738862
 20
819.3030724273
 30
0.0
  0
VERTEX
  5
5AA
  8
0
  6
CONTINUOUS
 62
     7
 10
687.5646628045
 20
819.8998341308
 30
0.0
  0
VERTEX
  5
5AB
  8
0
  6
CONTINUOUS
 62
     7
 10
687.6939154767
 20
820.1027283416
 30
0.0
  0
VERTEX
  5
5AC
  8
0
  6
CONTINUOUS
 62
     7
 10
687.8753520154
 20
820.1814064727
 30
0.0
  0
SEQEND
  5
5AD
  8
0
  6
CONTINUOUS
 62
     7
  0
POLYLINE
  5
9B
  8
0
  6
CONTINUOUS
 62
     7
 66
     1
 10
0.0
 20
0.0
 30
0.0
  0
VERTEX
  5
5AE
  8
0
  6
CONTINUOUS
 62
     7
 10
-100.9284936286
 20
820.1814064727
 30
0.0
  0
VERTEX
  5
5AF
  8
0
  6
CONTINUOUS
 62
     7
 10
-100.7488452292
 20
820.0992712722
 30
0.0
  0
VERTEX
  5
5B0
  8
0
  6
CONTINUOUS
 62
     7
 10
-100.6201886035
 20
819.8908934341
 30
0.0
  0
VERTEX
  5
5B1
  8
0
  6
CONTINUOUS
 62
     7
 10
-100.5158506728
 20
819.3022379623
 30
0.0
  0
VERTEX
  5
5B2
  8
0
  6
CONTINUOUS
 62
     7
 10
-100.6177746154
 20
818.4502491699
 30
0.0
  0
VERTEX
  5
5B3
  8
0
  6
CONTINUOUS
 62
     7
 10
-100.7470272875
 20
817.8635010467
 30
0.0
  0
VERTEX
  5
5B4
  8
0
  6
CONTINUOUS
 62
     7
 10
-100.9284936286
 20
817.1813854919
 30
0.0
  0
SEQEND
  5
5B5
  8
0
  6
CONTINUOUS
 62
     7
  0
LINE
  5
9C
  8
0
  6
CONTINUOUS
 62
     7
 10
687.8753520154
 20
820.1814064727
 30
0.0
 11
-100.9284936286
 21
820.1814064727
 31
0.0
  0
LINE
  5
9D
  8
0
  6
CONTINUOUS
 62
     7
 10
-100.9284936286
 20
818.6813959823
 30
0.0
 11
-100.9284936286
 21
820.1814064727
 31
0.0
  0
ARC
  5
9E
  8
0
  6
CONTINUOUS
 62
     7
 10
-100.9277493271
 20
818.2687524175
 30
0.0
 40
0.4126442360719423
 50
355.9828743971
 51
90.1033465462
  0
POLYLINE
  5
9F
  8
0
  6
CONTINUOUS
 62
     7
 66
     1
 10
0.0
 20
0.0
 30
0.0
  0
VERTEX
  5
5B6
  8
0
  6
CONTINUOUS
 62
     7
 10
-100.9284936286
 20
-357.3186310037
 30
0.0
  0
VERTEX
  5
5B7
  8
0
  6
CONTINUOUS
 62
     7
 10
-100.7488452292
 20
-358.0158321216
 30
0.0
  0
VERTEX
  5
5B8
  8
0
  6
CONTINUOUS
 62
     7
 10
-100.6201886035
 20
-358.606368865
 30
0.0
  0
VERTEX
  5
5B9
  8
0
  6
CONTINUOUS
 62
     7
 10
-100.5158506728
 20
-359.4403533294
 30
0.0
  0
VERTEX
  5
5BA
  8
0
  6
CONTINUOUS
 62
     7
 10
-100.6177746154
 20
-360.0370628788
 30
0.0
  0
VERTEX
  5
5BB
  8
0
  6
CONTINUOUS
 62
     7
 10
-100.7470272875
 20
-360.2400483592
 30
0.0
  0
VERTEX
  5
5BC
  8
0
  6
CONTINUOUS
 62
     7
 10
-100.9284936286
 20
-360.3186314954
 30
0.0
  0
SEQEND
  5
5BD
  8
0
  6
CONTINUOUS
 62
     7
  0
POLYLINE
  5
A0
  8
0
  6
CONTINUOUS
 62
     7
 66
     1
 10
0.0
 20
0.0
 30
0.0
  0
VERTEX
  5
5BE
  8
0
  6
CONTINUOUS
 62
     7
 10
687.8753520154
 20
-360.3186314954
 30
0.0
  0
VERTEX
  5
5BF
  8
0
  6
CONTINUOUS
 62
     7
 10
687.6957334184
 20
-360.236490707
 30
0.0
  0
VERTEX
  5
5C0
  8
0
  6
CONTINUOUS
 62
     7
 10
687.5670767927
 20
-360.0281929626
 30
0.0
  0
VERTEX
  5
5C1
  8
0
  6
CONTINUOUS
 62
     7
 10
687.462738862
 20
-359.4395486667
 30
0.0
  0
VERTEX
  5
5C2
  8
0
  6
CONTINUOUS
 62
     7
 10
687.5646628045
 20
-358.5875375225
 30
0.0
  0
VERTEX
  5
5C3
  8
0
  6
CONTINUOUS
 62
     7
 10
687.6939154767
 20
-358.0007763608
 30
0.0
  0
VERTEX
  5
5C4
  8
0
  6
CONTINUOUS
 62
     7
 10
687.8753520154
 20
-357.3186310037
 30
0.0
  0
SEQEND
  5
5C5
  8
0
  6
CONTINUOUS
 62
     7
  0
LINE
  5
A1
  8
0
  6
CONTINUOUS
 62
     7
 10
-100.9284936286
 20
-360.3186314954
 30
0.0
 11
687.8753520154
 21
-360.3186314954
 31
0.0
  0
POLYLINE
  5
A2
  8
0
  6
CONTINUOUS
 62
     7
 66
     1
 10
0.0
 20
0.0
 30
0.0
  0
VERTEX
  5
5C6
  8
0
  6
CONTINUOUS
 62
     7
 10
688.9734483861
 20
-356.2205551221
 30
0.0
  0
VERTEX
  5
5C7
  8
0
  6
CONTINUOUS
 62
     7
 10
689.6706439161
 20
-356.0409067227
 30
0.0
  0
VERTEX
  5
5C8
  8
0
  6
CONTINUOUS
 62
     7
 10
690.2611769342
 20
-355.9122519596
 30
0.0
  0
VERTEX
  5
5C9
  8
0
  6
CONTINUOUS
 62
     7
 10
691.0951651239
 20
-355.8079158916
 30
0.0
  0
VERTEX
  5
5CA
  8
0
  6
CONTINUOUS
 62
     7
 10
691.6918672227
 20
-355.9098472847
 30
0.0
  0
VERTEX
  5
5CB
  8
0
  6
CONTINUOUS
 62
     7
 10
691.8948508405
 20
-356.0391036822
 30
0.0
  0
VERTEX
  5
5CC
  8
0
  6
CONTINUOUS
 62
     7
 10
691.9734395646
 20
-356.2205551221
 30
0.0
  0
SEQEND
  5
5CD
  8
0
  6
CONTINUOUS
 62
     7
  0
LINE
  5
A3
  8
0
  6
CONTINUOUS
 62
     7
 10
691.9734395646
 20
-356.2205551221
 30
0.0
 11
690.4734290742
 21
-356.2205551221
 31
0.0
  0
LINE
  5
A4
  8
0
  6
CONTINUOUS
 62
     7
 10
690.4734290742
 20
816.0833487258
 30
0.0
 11
691.9734395646
 21
816.0833487258
 31
0.0
  0
POLYLINE
  5
A5
  8
0
  6
CONTINUOUS
 62
     7
 66
     1
 10
0.0
 20
0.0
 30
0.0
  0
VERTEX
  5
5CE
  8
0
  6
CONTINUOUS
 62
     7
 10
691.9734395646
 20
816.0833487258
 30
0.0
  0
VERTEX
  5
5CF
  8
0
  6
CONTINUOUS
 62
     7
 10
691.8913043641
 20
815.9037003265
 30
0.0
  0
VERTEX
  5
5D0
  8
0
  6
CONTINUOUS
 62
     7
 10
691.683015933
 20
815.7749542938
 30
0.0
  0
VERTEX
  5
5D1
  8
0
  6
CONTINUOUS
 62
     7
 10
691.0943604612
 20
815.6706461654
 30
0.0
  0
VERTEX
  5
5D2
  8
0
  6
CONTINUOUS
 62
     7
 10
690.2423418664
 20
815.772570108
 30
0.0
  0
VERTEX
  5
5D3
  8
0
  6
CONTINUOUS
 62
     7
 10
689.6555639409
 20
815.9017929779
 30
0.0
  0
VERTEX
  5
5D4
  8
0
  6
CONTINUOUS
 62
     7
 10
688.9734483861
 20
816.0833487258
 30
0.0
  0
SEQEND
  5
5D5
  8
0
  6
CONTINUOUS
 62
     7
  0
ARC
  5
A6
  8
0
  6
CONTINUOUS
 62
     7
 10
690.0590629124
 20
816.0843592634
 30
0.0
 40
0.4143673940554701
 50
266.2383431102
 51
359.8602699093
  0
LINE
  5
A7
  8
0
  6
CONTINUOUS
 62
     7
 10
-100.9284936286
 20
-360.3186314954
 30
0.0
 11
-100.9284936286
 21
-358.8186303182
 31
0.0
  0
POLYLINE
  5
A8
  8
0
  6
CONTINUOUS
 62
     7
 66
     1
 10
0.0
 20
0.0
 30
0.0
  0
VERTEX
  5
5D6
  8
0
  6
CONTINUOUS
 62
     7
 10
-105.0265513755
 20
-356.2205551221
 30
0.0
  0
VERTEX
  5
5D7
  8
0
  6
CONTINUOUS
 62
     7
 10
-104.944416175
 20
-356.0409067227
 30
0.0
  0
VERTEX
  5
5D8
  8
0
  6
CONTINUOUS
 62
     7
 10
-104.7361277438
 20
-355.9122519596
 30
0.0
  0
VERTEX
  5
5D9
  8
0
  6
CONTINUOUS
 62
     7
 10
-104.147472272
 20
-355.8079158916
 30
0.0
  0
VERTEX
  5
5DA
  8
0
  6
CONTINUOUS
 62
     7
 10
-103.2954536772
 20
-355.9098472847
 30
0.0
  0
VERTEX
  5
5DB
  8
0
  6
CONTINUOUS
 62
     7
 10
-102.7087055541
 20
-356.0391036822
 30
0.0
  0
VERTEX
  5
5DC
  8
0
  6
CONTINUOUS
 62
     7
 10
-102.0265601969
 20
-356.2205551221
 30
0.0
  0
SEQEND
  5
5DD
  8
0
  6
CONTINUOUS
 62
     7
  0
LINE
  5
A9
  8
0
  6
CONTINUOUS
 62
     7
 10
-105.0265513755
 20
816.0833487258
 30
0.0
 11
-105.0265513755
 21
-356.2205551221
 31
0.0
  0
ARC
  5
AA
  8
0
  6
CONTINUOUS
 62
     7
 10
690.4734420152
 20
-358.8186307205
 30
0.0
 40
3.000000000000063
 50
120.0
 51
150.0
  0
ARC
  5
AB
  8
0
  6
CONTINUOUS
 62
     7
 10
-103.5265579848
 20
-358.8186307205
 30
0.0
 40
2.999999999999902
 50
30.0
 51
60.0
  0
ARC
  5
AC
  8
0
  6
CONTINUOUS
 62
     7
 10
-103.5265579848
 20
818.6813692795
 30
0.0
 40
2.999999999999921
 50
300.0
 51
330.0
  0
ARC
  5
AD
  8
0
  6
CONTINUOUS
 62
     7
 10
690.4734420152
 20
818.6813692795
 30
0.0
 40
3.000000000000091
 50
210.0
 51
240.0
  0
LINE
  5
AE
  8
0
  6
CONTINUOUS
 62
     7
 10
691.9734395646
 20
-356.2205551221
 30
0.0
 11
691.9734395646
 21
816.0833487258
 31
0.0
  0
LINE
  5
AF
  8
0
  6
CONTINUOUS
 62
     7
 10
-103.5265706874
 20
-356.2205551221
 30
0.0
 11
-105.0265513755
 21
-356.2205551221
 31
0.0
  0
LINE
  5
B0
  8
0
  6
CONTINUOUS
 62
     7
 10
687.8753520154
 20
-358.8186303182
 30
0.0
 11
687.8753520154
 21
-360.3186314954
 31
0.0
  0
LINE
  5
B1
  8
0
  6
CONTINUOUS
 62
     7
 10
687.8753520154
 20
820.1814064727
 30
0.0
 11
687.8753520154
 21
818.6813959823
 31
0.0
  0
LINE
  5
B2
  8
0
  6
CONTINUOUS
 62
     7
 10
-101.4052413798
 20
820.1814064727
 30
0.0
 11
-101.4052413798
 21
818.6813959823
 31
0.0
  0
LINE
  5
B3
  8
0
  6
CONTINUOUS
 62
     7
 10
-101.4052413798
 20
820.1814064727
 30
0.0
 11
-100.9284936286
 21
820.1814064727
 31
0.0
  0
LINE
  5
B4
  8
0
  6
CONTINUOUS
 62
     7
 10
-101.4052413798
 20
818.6813959823
 30
0.0
 11
-100.9284936286
 21
818.6813959823
 31
0.0
  0
LINE
  5
B5
  8
0
  6
CONTINUOUS
 62
     7
 10
688.352129569
 20
820.1814064727
 30
0.0
 11
688.352129569
 21
818.6813959823
 31
0.0
  0
LINE
  5
B6
  8
0
  6
CONTINUOUS
 62
     7
 10
687.8753520154
 20
818.6813959823
 30
0.0
 11
688.352129569
 21
818.6813959823
 31
0.0
  0
LINE
  5
B7
  8
0
  6
CONTINUOUS
 62
     7
 10
687.8753520154
 20
820.1814064727
 30
0.0
 11
688.352129569
 21
820.1814064727
 31
0.0
  0
LINE
  5
B8
  8
0
  6
CONTINUOUS
 62
     7
 10
-103.5265706874
 20
-357.3186310037
 30
0.0
 11
-105.0265513755
 21
-357.3186310037
 31
0.0
  0
LINE
  5
B9
  8
0
  6
CONTINUOUS
 62
     7
 10
-105.0265513755
 20
-357.3186310037
 30
0.0
 11
-105.0265513755
 21
-356.2205551221
 31
0.0
  0
LINE
  5
BA
  8
0
  6
CONTINUOUS
 62
     7
 10
-103.5265706874
 20
-357.3186310037
 30
0.0
 11
-103.5265706874
 21
-356.2205551221
 31
0.0
  0
LINE
  5
BB
  8
0
  6
CONTINUOUS
 62
     7
 10
691.9734395646
 20
-357.3186310037
 30
0.0
 11
690.4734290742
 21
-357.3186310037
 31
0.0
  0
LINE
  5
BC
  8
0
  6
CONTINUOUS
 62
     7
 10
690.4734290742
 20
-356.2205551221
 30
0.0
 11
690.4734290742
 21
-357.3186310037
 31
0.0
  0
LINE
  5
BD
  8
0
  6
CONTINUOUS
 62
     7
 10
691.9734395646
 20
-356.2205551221
 30
0.0
 11
691.9734395646
 21
-357.3186310037
 31
0.0
  0
LINE
  5
BE
  8
0
  6
CONTINUOUS
 62
     7
 10
690.4734290742
 20
817.1813854919
 30
0.0
 11
691.9734395646
 21
817.1813854919
 31
0.0
  0
LINE
  5
BF
  8
0
  6
CONTINUOUS
 62
     7
 10
691.9734395646
 20
817.1813854919
 30
0.0
 11
691.9734395646
 21
816.0833487258
 31
0.0
  0
LINE
  5
C0
  8
0
  6
CONTINUOUS
 62
     7
 10
690.4734290742
 20
817.1813854919
 30
0.0
 11
690.4734290742
 21
816.0833487258
 31
0.0
  0
LINE
  5
C1
  8
0
  6
CONTINUOUS
 62
     7
 10
-105.0265513755
 20
817.1813854919
 30
0.0
 11
-103.5265706874
 21
817.1813854919
 31
0.0
  0
LINE
  5
C2
  8
0
  6
CONTINUOUS
 62
     7
 10
-103.5265706874
 20
816.0833487258
 30
0.0
 11
-103.5265706874
 21
817.1813854919
 31
0.0
  0
LINE
  5
C3
  8
0
  6
CONTINUOUS
 62
     7
 10
-105.0265513755
 20
816.0833487258
 30
0.0
 11
-105.0265513755
 21
817.1813854919
 31
0.0
  0
LINE
  5
C4
  8
0
  6
CONTINUOUS
 62
     7
 10
688.352129569
 20
-360.3186314954
 30
0.0
 11
688.352129569
 21
-358.8186303182
 31
0.0
  0
LINE
  5
C5
  8
0
  6
CONTINUOUS
 62
     7
 10
688.352129569
 20
-358.8186303182
 30
0.0
 11
687.8753520154
 21
-358.8186303182
 31
0.0
  0
LINE
  5
C6
  8
0
  6
CONTINUOUS
 62
     7
 10
688.352129569
 20
-360.3186314954
 30
0.0
 11
687.8753520154
 21
-360.3186314954
 31
0.0
  0
LINE
  5
C7
  8
0
  6
CONTINUOUS
 62
     7
 10
-101.4052413798
 20
-360.3186314954
 30
0.0
 11
-101.4052413798
 21
-358.8186303182
 31
0.0
  0
LINE
  5
C8
  8
0
  6
CONTINUOUS
 62
     7
 10
-100.9284936286
 20
-358.8186303182
 30
0.0
 11
-101.4052413798
 21
-358.8186303182
 31
0.0
  0
LINE
  5
C9
  8
0
  6
CONTINUOUS
 62
     7
 10
-100.9284936286
 20
-360.3186314954
 30
0.0
 11
-101.4052413798
 21
-360.3186314954
 31
0.0
  0
LINE
  5
CA
  8
0
  6
CONTINUOUS
 62
     7
 10
688.352129569
 20
820.1814064727
 30
0.0
 11
688.9734483861
 21
820.1814064727
 31
0.0
  0
LINE
  5
CB
  8
0
  6
CONTINUOUS
 62
     7
 10
688.9734483861
 20
818.6813959823
 30
0.0
 11
688.9734483861
 21
820.1814064727
 31
0.0
  0
LINE
  5
CC
  8
0
  6
CONTINUOUS
 62
     7
 10
688.352129569
 20
818.6813959823
 30
0.0
 11
688.9734483861
 21
818.6813959823
 31
0.0
  0
LINE
  5
CD
  8
0
  6
CONTINUOUS
 62
     7
 10
688.9734483861
 20
-358.8186303182
 30
0.0
 11
688.352129569
 21
-358.8186303182
 31
0.0
  0
LINE
  5
CE
  8
0
  6
CONTINUOUS
 62
     7
 10
688.9734483861
 20
-360.3186314954
 30
0.0
 11
688.9734483861
 21
-358.8186303182
 31
0.0
  0
LINE
  5
CF
  8
0
  6
CONTINUOUS
 62
     7
 10
688.9734483861
 20
-360.3186314954
 30
0.0
 11
688.352129569
 21
-360.3186314954
 31
0.0
  0
LINE
  5
D0
  8
0
  6
CONTINUOUS
 62
     7
 10
-101.4052413798
 20
-360.3186314954
 30
0.0
 11
-102.0265601969
 21
-360.3186314954
 31
0.0
  0
LINE
  5
D1
  8
0
  6
CONTINUOUS
 62
     7
 10
-102.0265601969
 20
-358.8186303182
 30
0.0
 11
-102.0265601969
 21
-360.3186314954
 31
0.0
  0
LINE
  5
D2
  8
0
  6
CONTINUOUS
 62
     7
 10
-101.4052413798
 20
-358.8186303182
 30
0.0
 11
-102.0265601969
 21
-358.8186303182
 31
0.0
  0
LINE
  5
D3
  8
0
  6
CONTINUOUS
 62
     7
 10
-102.0265601969
 20
818.6813959823
 30
0.0
 11
-101.4052413798
 21
818.6813959823
 31
0.0
  0
LINE
  5
D4
  8
0
  6
CONTINUOUS
 62
     7
 10
-102.0265601969
 20
820.1814064727
 30
0.0
 11
-102.0265601969
 21
818.6813959823
 31
0.0
  0
LINE
  5
D5
  8
0
  6
CONTINUOUS
 62
     7
 10
-102.0265601969
 20
820.1814064727
 30
0.0
 11
-101.4052413798
 21
820.1814064727
 31
0.0
  0
ARC
  5
D6
  8
0
  6
CONTINUOUS
 62
     7
 10
688.9734700712
 20
817.1814369786
 30
0.0
 40
1.499959003892605
 50
359.9980332999
 51
90.0008283319
  0
ARC
  5
D7
  8
0
  6
CONTINUOUS
 62
     7
 10
688.9733713667
 20
817.1813382755
 30
0.0
 40
3.000068198262759
 50
0.0009017471
 51
89.9985290717
  0
ARC
  5
D8
  8
0
  6
CONTINUOUS
 62
     7
 10
-102.0265420377
 20
-357.3186221577
 30
0.0
 40
3.000009337752712
 50
180.0001689449
 51
269.9996531854
  0
ARC
  5
D9
  8
0
  6
CONTINUOUS
 62
     7
 10
-102.0265699752
 20
-357.3186296061
 30
0.0
 40
1.500000712127229
 50
180.0000533824
 51
270.000373503
  0
ARC
  5
DA
  8
0
  6
CONTINUOUS
 62
     7
 10
-102.0265233635
 20
817.1813486585
 30
0.0
 40
1.500047324316002
 50
90.0014068896
 51
179.9985931104
  0
ARC
  5
DB
  8
0
  6
CONTINUOUS
 62
     7
 10
-102.0263445216
 20
817.1811996209
 30
0.0
 40
3.000206859589378
 50
90.0041188112
 51
179.9964503701
  0
ARC
  5
DC
  8
0
  6
CONTINUOUS
 62
     7
 10
688.9734501794
 20
-357.3186421101
 30
0.0
 40
2.999989385280653
 50
269.9999657513
 51
0.0002121185
  0
ARC
  5
DD
  8
0
  6
CONTINUOUS
 62
     7
 10
688.973469704
 20
-357.3186709476
 30
0.0
 40
1.499959370778382
 50
269.9991856961
 51
0.0015257867
  0
LINE
  5
DE
  8
0
  6
CONTINUOUS
 62
     7
 10
-88.4265683985
 20
822.0732578979
 30
0.0
 11
-69.7265647746
 21
822.0732578979
 31
0.0
  0
LINE
  5
DF
  8
0
  6
CONTINUOUS
 62
     7
 10
664.9234510564
 20
822.0732578979
 30
0.0
 11
674.2734528684
 21
822.0732578979
 31
0.0
  0
LINE
  5
E0
  8
0
  6
CONTINUOUS
 62
     7
 10
655.5734492444
 20
822.0732578979
 30
0.0
 11
664.9234510564
 21
822.0732578979
 31
0.0
  0
LINE
  5
E1
  8
0
  6
CONTINUOUS
 62
     7
 10
-105.0765596724
 20
-375.3186306945
 30
0.0
 11
-105.0765596724
 21
-374.8186306125
 31
0.0
  0
LINE
  5
E2
  8
0
  6
CONTINUOUS
 62
     7
 10
-105.0765596724
 20
-374.8186306125
 30
0.0
 11
-90.5765675402
 21
-360.3186314954
 31
0.0
  0
LINE
  5
E3
  8
0
  6
CONTINUOUS
 62
     7
 10
676.4234520101
 20
-360.3186314954
 30
0.0
 11
690.9234441423
 21
-374.8186306125
 31
0.0
  0
LINE
  5
E4
  8
0
  6
CONTINUOUS
 62
     7
 10
690.9234441423
 20
-374.8186306125
 30
0.0
 11
690.9234441423
 21
-375.3186306945
 31
0.0
  0
LINE
  5
E5
  8
0
  6
CONTINUOUS
 62
     7
 10
-105.0765596724
 20
-378.3186307206
 30
0.0
 11
-105.0765596724
 21
-375.3186306945
 31
0.0
  0
LINE
  5
E6
  8
0
  6
CONTINUOUS
 62
     7
 10
690.9234441423
 20
-375.3186306945
 30
0.0
 11
690.9234441423
 21
-378.3186307206
 31
0.0
  0
LINE
  5
E7
  8
0
  6
CONTINUOUS
 62
     7
 10
690.9234441423
 20
-378.3186307206
 30
0.0
 11
-105.0765596724
 21
-378.3186307206
 31
0.0
  0
ARC
  5
E8
  8
0
  6
CONTINUOUS
 62
     7
 10
-97.774347125
 20
-384.1540400697
 30
0.0
 40
12.65017606498559
 50
119.8805021298
 51
133.8999411876
  0
POLYLINE
  5
E9
  8
0
  6
CONTINUOUS
 62
     7
 66
     1
 10
0.0
 20
0.0
 30
0.0
  0
VERTEX
  5
5DE
  8
0
  6
CONTINUOUS
 62
     7
 10
-106.5459929801
 20
-375.0389333377
 30
0.0
  0
VERTEX
  5
5DF
  8
0
  6
CONTINUOUS
 62
     7
 10
-106.9408439494
 20
-375.1664730749
 30
0.0
  0
VERTEX
  5
5E0
  8
0
  6
CONTINUOUS
 62
     7
 10
-107.0765637255
 20
-375.294012812
 30
0.0
  0
SEQEND
  5
5E1
  8
0
  6
CONTINUOUS
 62
     7
  0
LINE
  5
EA
  8
0
  6
CONTINUOUS
 62
     7
 10
-107.0765637255
 20
-375.294012812
 30
0.0
 11
-107.0765637255
 21
819.9935326324
 31
0.0
  0
ARC
  5
EB
  8
0
  6
CONTINUOUS
 62
     7
 10
-105.8361458521
 20
820.8475686812
 30
0.0
 40
1.505992720222998
 50
214.5476726788
 51
265.4388484359
  0
POLYLINE
  5
EC
  8
0
  6
CONTINUOUS
 62
     7
 66
     1
 10
0.0
 20
0.0
 30
0.0
  0
VERTEX
  5
5E2
  8
0
  6
CONTINUOUS
 62
     7
 10
-105.9559069968
 20
819.3463453994
 30
0.0
  0
VERTEX
  5
5E3
  8
0
  6
CONTINUOUS
 62
     7
 10
-105.0727747775
 20
818.6974892364
 30
0.0
  0
VERTEX
  5
5E4
  8
0
  6
CONTINUOUS
 62
     7
 10
-104.7317170001
 20
818.47540233
 30
0.0
  0
SEQEND
  5
5E5
  8
0
  6
CONTINUOUS
 62
     7
  0
POLYLINE
  5
ED
  8
0
  6
CONTINUOUS
 62
     7
 66
     1
 10
0.0
 20
0.0
 30
0.0
  0
VERTEX
  5
5E6
  8
0
  6
CONTINUOUS
 62
     7
 10
-104.076572547
 20
-373.1854982703
 30
0.0
  0
VERTEX
  5
5E7
  8
0
  6
CONTINUOUS
 62
     7
 10
-104.7738276816
 20
-374.1122159204
 30
0.0
  0
VERTEX
  5
5E8
  8
0
  6
CONTINUOUS
 62
     7
 10
-105.3112827635
 20
-375.0389333377
 30
0.0
  0
SEQEND
  5
5E9
  8
0
  6
CONTINUOUS
 62
     7
  0
LINE
  5
EE
  8
0
  6
CONTINUOUS
 62
     7
 10
-106.5459929801
 20
-375.0389333377
 30
0.0
 11
-105.3112827635
 21
-375.0389333377
 31
0.0
  0
LINE
  5
EF
  8
0
  6
CONTINUOUS
 62
     7
 10
-102.0996056891
 20
816.0645136581
 30
0.0
 11
-103.4933410979
 21
817.4633154617
 31
0.0
  0
LINE
  5
F0
  8
0
  6
CONTINUOUS
 62
     7
 10
-104.076572547
 20
-373.1854982703
 30
0.0
 11
-91.2565075255
 21
-360.3186314954
 31
0.0
  0
LINE
  5
F1
  8
0
  6
CONTINUOUS
 62
     7
 10
-105.0162397719
 20
819.3463453994
 30
0.0
 11
-104.6515785552
 21
818.8104996429
 31
0.0
  0
LINE
  5
F2
  8
0
  6
CONTINUOUS
 62
     7
 10
-105.9559069968
 20
819.3463453994
 30
0.0
 11
-105.0162397719
 21
819.3463453994
 31
0.0
  0
ARC
  5
F3
  8
0
  6
CONTINUOUS
 62
     7
 10
-104.6598431144
 20
820.2210460461
 30
0.0
 40
0.9445209361174917
 50
193.9383101429
 51
247.8315680271
  0
LINE
  5
F4
  8
0
  6
CONTINUOUS
 62
     7
 10
-105.5765532351
 20
819.9935326324
 30
0.0
 11
-107.0765637255
 21
819.9935326324
 31
0.0
  0
POLYLINE
  5
F5
  8
0
  6
CONTINUOUS
 62
     7
 66
     1
 10
0.0
 20
0.0
 30
0.0
  0
VERTEX
  5
5EA
  8
0
  6
CONTINUOUS
 62
     7
 10
-105.3112827635
 20
-375.0389333377
 30
0.0
  0
VERTEX
  5
5EB
  8
0
  6
CONTINUOUS
 62
     7
 10
-105.508693347
 20
-375.1664730749
 30
0.0
  0
VERTEX
  5
5EC
  8
0
  6
CONTINUOUS
 62
     7
 10
-105.5765532351
 20
-375.294012812
 30
0.0
  0
SEQEND
  5
5ED
  8
0
  6
CONTINUOUS
 62
     7
  0
LINE
  5
F6
  8
0
  6
CONTINUOUS
 62
     7
 10
-107.0765637255
 20
-375.294012812
 30
0.0
 11
-105.5765532351
 21
-375.294012812
 31
0.0
  0
LINE
  5
F7
  8
0
  6
CONTINUOUS
 62
     7
 10
-105.5765532351
 20
820.1814064727
 30
0.0
 11
-107.0765637255
 21
820.1814064727
 31
0.0
  0
LINE
  5
F8
  8
0
  6
CONTINUOUS
 62
     7
 10
-107.0765637255
 20
819.9935326324
 30
0.0
 11
-107.0765637255
 21
820.1814064727
 31
0.0
  0
LINE
  5
F9
  8
0
  6
CONTINUOUS
 62
     7
 10
-105.5765532351
 20
819.9935326324
 30
0.0
 11
-105.5765532351
 21
820.1814064727
 31
0.0
  0
LINE
  5
FA
  8
0
  6
CONTINUOUS
 62
     7
 10
-107.0765637255
 20
-375.3186306945
 30
0.0
 11
-105.5765532351
 21
-375.3186306945
 31
0.0
  0
LINE
  5
FB
  8
0
  6
CONTINUOUS
 62
     7
 10
-107.0765637255
 20
-375.294012812
 30
0.0
 11
-107.0765637255
 21
-375.3186306945
 31
0.0
  0
LINE
  5
FC
  8
0
  6
CONTINUOUS
 62
     7
 10
-105.5765532351
 20
-375.3186306945
 30
0.0
 11
-105.5765532351
 21
-375.294012812
 31
0.0
  0
ARC
  5
FD
  8
0
  6
CONTINUOUS
 62
     7
 10
-104.2044364519
 20
-375.3699192458
 30
0.0
 40
1.373075009746939
 50
177.8593293967
 51
230.5680991414
  0
LINE
  5
FE
  8
0
  6
CONTINUOUS
 62
     7
 10
-105.4787122107
 20
-377.9707956797
 30
0.0
 11
-105.0765596724
 21
-377.2101312439
 31
0.0
  0
ARC
  5
FF
  8
0
  6
CONTINUOUS
 62
     7
 10
-104.0765216615
 20
-375.3186052547
 30
0.0
 40
3.000042064130442
 50
180.000485857
 51
242.1349720671
  0
LINE
  5
100
  8
0
  6
CONTINUOUS
 62
     7
 10
-105.4787122107
 20
-377.9707962327
 30
0.0
 11
-105.0765596724
 21
-378.1243486388
 31
0.0
  0
POLYLINE
  5
101
  8
0
  6
CONTINUOUS
 62
     7
 66
     1
 10
0.0
 20
0.0
 30
0.0
  0
VERTEX
  5
5EE
  8
0
  6
CONTINUOUS
 62
     7
 10
-105.5765532351
 20
-375.3186306945
 30
0.0
  0
VERTEX
  5
5EF
  8
0
  6
CONTINUOUS
 62
     7
 10
-105.4623805381
 20
-375.2971841982
 30
0.0
  0
VERTEX
  5
5F0
  8
0
  6
CONTINUOUS
 62
     7
 10
-105.1409028865
 20
-375.2759800787
 30
0.0
  0
SEQEND
  5
5F1
  8
0
  6
CONTINUOUS
 62
     7
  0
LINE
  5
102
  8
0
  6
CONTINUOUS
 62
     7
 10
689.9234570169
 20
818.0486330734
 30
0.0
 11
688.3967436456
 21
816.5163168655
 31
0.0
  0
LINE
  5
103
  8
0
  6
CONTINUOUS
 62
     7
 10
677.1305419111
 20
-360.3186314954
 30
0.0
 11
689.9234570169
 21
-373.1115237838
 31
0.0
  0
ARC
  5
104
  8
0
  6
CONTINUOUS
 62
     7
 10
691.6830303219
 20
820.8475686812
 30
0.0
 40
1.505992720223033
 50
274.5611515641
 51
325.4523273213
  0
LINE
  5
105
  8
0
  6
CONTINUOUS
 62
     7
 10
692.9234481954
 20
819.9935326324
 30
0.0
 11
692.9234481954
 21
-375.294012812
 31
0.0
  0
POLYLINE
  5
106
  8
0
  6
CONTINUOUS
 62
     7
 66
     1
 10
0.0
 20
0.0
 30
0.0
  0
VERTEX
  5
5F2
  8
0
  6
CONTINUOUS
 62
     7
 10
692.4960828924
 20
-375.0795979081
 30
0.0
  0
VERTEX
  5
5F3
  8
0
  6
CONTINUOUS
 62
     7
 10
692.8146399164
 20
-375.1868054765
 30
0.0
  0
VERTEX
  5
5F4
  8
0
  6
CONTINUOUS
 62
     7
 10
692.9234481954
 20
-375.294012812
 30
0.0
  0
SEQEND
  5
5F5
  8
0
  6
CONTINUOUS
 62
     7
  0
ARC
  5
107
  8
0
  6
CONTINUOUS
 62
     7
 10
684.3197775349
 20
-383.1020167319
 30
0.0
 40
11.45474456639713
 50
44.4557112289
 51
60.7118807953
  0
LINE
  5
108
  8
0
  6
CONTINUOUS
 62
     7
 10
691.8027914666
 20
819.3463453994
 30
0.0
 11
691.3151956701
 21
818.9881214843
 31
0.0
  0
LINE
  5
109
  8
0
  6
CONTINUOUS
 62
     7
 10
691.2097550535
 20
-375.0795979081
 30
0.0
 11
692.4960828924
 21
-375.0795979081
 31
0.0
  0
POLYLINE
  5
10A
  8
0
  6
CONTINUOUS
 62
     7
 66
     1
 10
0.0
 20
0.0
 30
0.0
  0
VERTEX
  5
5F6
  8
0
  6
CONTINUOUS
 62
     7
 10
689.9234570169
 20
-373.1115237838
 30
0.0
  0
VERTEX
  5
5F7
  8
0
  6
CONTINUOUS
 62
     7
 10
690.6625546121
 20
-374.0955610788
 30
0.0
  0
VERTEX
  5
5F8
  8
0
  6
CONTINUOUS
 62
     7
 10
691.2097550535
 20
-375.0795979081
 30
0.0
  0
SEQEND
  5
5F9
  8
0
  6
CONTINUOUS
 62
     7
  0
LINE
  5
10B
  8
0
  6
CONTINUOUS
 62
     7
 10
690.8631242418
 20
819.3463453994
 30
0.0
 11
691.8027914666
 21
819.3463453994
 31
0.0
  0
ARC
  5
10C
  8
0
  6
CONTINUOUS
 62
     7
 10
690.5067275843
 20
820.2210460461
 30
0.0
 40
0.9445209361175331
 50
292.1684319729
 51
346.0616898571
  0
LINE
  5
10D
  8
0
  6
CONTINUOUS
 62
     7
 10
692.9234481954
 20
819.9935326324
 30
0.0
 11
691.423437705
 21
819.9935326324
 31
0.0
  0
LINE
  5
10E
  8
0
  6
CONTINUOUS
 62
     7
 10
691.423437705
 20
-375.294012812
 30
0.0
 11
692.9234481954
 21
-375.294012812
 31
0.0
  0
POLYLINE
  5
10F
  8
0
  6
CONTINUOUS
 62
     7
 66
     1
 10
0.0
 20
0.0
 30
0.0
  0
VERTEX
  5
5FA
  8
0
  6
CONTINUOUS
 62
     7
 10
691.2097550535
 20
-375.0795979081
 30
0.0
  0
VERTEX
  5
5FB
  8
0
  6
CONTINUOUS
 62
     7
 10
691.3690484666
 20
-375.1868054765
 30
0.0
  0
VERTEX
  5
5FC
  8
0
  6
CONTINUOUS
 62
     7
 10
691.423437705
 20
-375.294012812
 30
0.0
  0
SEQEND
  5
5FD
  8
0
  6
CONTINUOUS
 62
     7
  0
LINE
  5
110
  8
0
  6
CONTINUOUS
 62
     7
 10
691.423437705
 20
820.1814064727
 30
0.0
 11
691.423437705
 21
819.9935326324
 31
0.0
  0
LINE
  5
111
  8
0
  6
CONTINUOUS
 62
     7
 10
692.9234481954
 20
820.1814064727
 30
0.0
 11
691.423437705
 21
820.1814064727
 31
0.0
  0
LINE
  5
112
  8
0
  6
CONTINUOUS
 62
     7
 10
692.9234481954
 20
820.1814064727
 30
0.0
 11
692.9234481954
 21
819.9935326324
 31
0.0
  0
LINE
  5
113
  8
0
  6
CONTINUOUS
 62
     7
 10
691.423437705
 20
-375.3186306945
 30
0.0
 11
692.9234481954
 21
-375.3186306945
 31
0.0
  0
LINE
  5
114
  8
0
  6
CONTINUOUS
 62
     7
 10
692.9234481954
 20
-375.3186306945
 30
0.0
 11
692.9234481954
 21
-375.294012812
 31
0.0
  0
LINE
  5
115
  8
0
  6
CONTINUOUS
 62
     7
 10
691.423437705
 20
-375.294012812
 30
0.0
 11
691.423437705
 21
-375.3186306945
 31
0.0
  0
ARC
  5
116
  8
0
  6
CONTINUOUS
 62
     7
 10
689.9233900712
 20
-375.3185945946
 30
0.0
 40
3.000058124430648
 50
301.8911985443
 51
359.9993105568
  0
LINE
  5
117
  8
0
  6
CONTINUOUS
 62
     7
 10
690.9234441423
 20
-376.9257780892
 30
0.0
 11
691.5083445215
 21
-377.8658025054
 31
0.0
  0
ARC
  5
118
  8
0
  6
CONTINUOUS
 62
     7
 10
690.0458576469
 20
-375.360522543
 30
0.0
 40
1.378216870985375
 50
309.5502720409
 51
1.7418128569
  0
LINE
  5
119
  8
0
  6
CONTINUOUS
 62
     7
 10
691.5083445215
 20
-377.8658025054
 30
0.0
 11
690.8543921613
 21
-378.1558343413
 31
0.0
  0
POLYLINE
  5
11A
  8
0
  6
CONTINUOUS
 62
     7
 66
     1
 10
0.0
 20
0.0
 30
0.0
  0
VERTEX
  5
5FE
  8
0
  6
CONTINUOUS
 62
     7
 10
691.423437705
 20
-375.3186306945
 30
0.0
  0
VERTEX
  5
5FF
  8
0
  6
CONTINUOUS
 62
     7
 10
691.3092650079
 20
-375.2971841982
 30
0.0
  0
VERTEX
  5
600
  8
0
  6
CONTINUOUS
 62
     7
 10
690.9877873563
 20
-375.2759800787
 30
0.0
  0
SEQEND
  5
601
  8
0
  6
CONTINUOUS
 62
     7
  0
LINE
  5
11B
  8
0
  6
CONTINUOUS
 62
     7
 10
689.7210992479
 20
818.4745678649
 30
0.0
 11
688.0969620847
 21
816.8504605041
 31
0.0
  0
LINE
  5
11C
  8
0
  6
CONTINUOUS
 62
     7
 10
-101.7006419993
 20
816.3010248886
 30
0.0
 11
-103.3230804301
 21
817.9234633194
 31
0.0
  0
LINE
  5
11D
  8
0
  6
CONTINUOUS
 62
     7
 10
-104.5765661097
 20
819.4511303649
 30
0.0
 11
-104.3220542765
 21
819.0557131515
 31
0.0
  0
LINE
  5
11E
  8
0
  6
CONTINUOUS
 62
     7
 10
-104.5765661097
 20
819.066203569
 30
0.0
 11
-104.5765661097
 21
819.4511303649
 31
0.0
  0
ARC
  5
11F
  8
0
  6
CONTINUOUS
 62
     7
 10
-128.8794227404
 20
810.1511936161
 30
0.0
 40
26.02148466063997
 50
20.9402722553
 51
26.302095448
  0
LINE
  5
120
  8
0
  6
CONTINUOUS
 62
     7
 10
-105.5519365168
 20
821.6814169632
 30
0.0
 11
691.3988209867
 21
821.6814169632
 31
0.0
  0
ARC
  5
121
  8
0
  6
CONTINUOUS
 62
     7
 10
705.7047143806
 20
814.0966034473
 30
0.0
 40
16.19221979430372
 50
152.0679999427
 51
160.6896323539
  0
LINE
  5
122
  8
0
  6
CONTINUOUS
 62
     7
 10
691.3988209867
 20
820.1814064727
 30
0.0
 11
691.3988209867
 21
821.6814169632
 31
0.0
  0
ARC
  5
123
  8
0
  6
CONTINUOUS
 62
     7
 10
694.9810792184
 20
816.2841706163
 30
0.0
 40
5.293488581257511
 50
132.5885759997
 51
143.8838386494
  0
ARC
  5
124
  8
0
  6
CONTINUOUS
 62
     7
 10
-114.0109418582
 20
811.7989175769
 30
0.0
 40
11.90885768890228
 50
37.6070084103
 51
44.7396882269
  0
LINE
  5
125
  8
0
  6
CONTINUOUS
 62
     7
 10
-105.5519365168
 20
821.6814169632
 30
0.0
 11
-105.5519365168
 21
820.1814064727
 31
0.0
  0
LINE
  5
126
  8
0
  6
CONTINUOUS
 62
     7
 10
691.423437705
 20
821.6814169632
 30
0.0
 11
691.423437705
 21
820.1814064727
 31
0.0
  0
LINE
  5
127
  8
0
  6
CONTINUOUS
 62
     7
 10
691.3988209867
 20
820.1814064727
 30
0.0
 11
691.423437705
 21
820.1814064727
 31
0.0
  0
LINE
  5
128
  8
0
  6
CONTINUOUS
 62
     7
 10
691.3988209867
 20
821.6814169632
 30
0.0
 11
691.423437705
 21
821.6814169632
 31
0.0
  0
LINE
  5
129
  8
0
  6
CONTINUOUS
 62
     7
 10
-105.5765532351
 20
820.1814064727
 30
0.0
 11
-105.5519365168
 21
820.1814064727
 31
0.0
  0
LINE
  5
12A
  8
0
  6
CONTINUOUS
 62
     7
 10
-105.5765532351
 20
820.1814064727
 30
0.0
 11
-105.5765532351
 21
821.6814169632
 31
0.0
  0
LINE
  5
12B
  8
0
  6
CONTINUOUS
 62
     7
 10
-105.5519365168
 20
821.6814169632
 30
0.0
 11
-105.5765532351
 21
821.6814169632
 31
0.0
  0
LINE
  5
12C
  8
0
  6
CONTINUOUS
 62
     7
 10
-105.5765532351
 20
820.1814064727
 30
0.0
 11
-105.5012129641
 21
820.1562533126
 31
0.0
  0
ARC
  5
12D
  8
0
  6
CONTINUOUS
 62
     7
 10
1067.3637977737
 20
257.7717620445
 30
0.0
 40
279.9999999999776
 50
7.2582600318
 51
10.3102613261
  0
ARC
  5
12E
  8
0
  6
CONTINUOUS
 62
     7
 10
1067.3637977736
 20
202.1909765145
 30
0.0
 40
280.0000000002276
 50
349.689847532
 51
357.0
  0
ARC
  5
12F
  8
0
  6
CONTINUOUS
 62
     7
 10
537.0915148189
 20
229.9813692795
 30
0.0
 40
811.0000000004947
 50
357.0
 51
0.0
  0
ARC
  5
130
  8
0
  6
CONTINUOUS
 62
     7
 10
537.0915148189
 20
229.9813692795
 30
0.0
 40
811.0000000004903
 50
0.0
 51
2.5676082653
  0
ARC
  5
131
  8
0
  6
CONTINUOUS
 62
     7
 10
1333.0915148189
 20
276.8246905712
 30
0.0
 40
32.99999999999997
 50
73.9885793219
 51
83.0379373089
  0
ARC
  5
132
  8
0
  6
CONTINUOUS
 62
     7
 10
1333.091514819
 20
183.1380479878
 30
0.0
 40
33.00000000000006
 50
276.9620626911
 51
286.0038114314
  0
ARC
  5
133
  8
0
  6
CONTINUOUS
 62
     7
 10
1345.1109666918
 20
292.3469684756
 30
0.0
 40
0.8000000000002137
 50
21.3050835822
 51
89.368240118
  0
ARC
  5
134
  8
0
  6
CONTINUOUS
 62
     7
 10
1346.8827811251
 20
267.008841599
 30
0.0
 40
0.8000000000005993
 50
299.5405628497
 51
346.6949164185
  0
ARC
  5
135
  8
0
  6
CONTINUOUS
 62
     7
 10
1342.0537144352
 20
152.2101312531
 30
0.0
 40
0.8000233075589321
 50
284.5511000343
 51
350.061114004
  0
ARC
  5
136
  8
0
  6
CONTINUOUS
 62
     7
 10
1342.0536985235
 20
307.7525934843
 30
0.0
 40
0.8000415142642687
 50
9.9397248444
 51
75.4480611174
  0
ARC
  5
137
  8
0
  6
CONTINUOUS
 62
     7
 10
1316.2960849376
 20
281.1095701956
 30
0.0
 40
31.72857142857137
 50
7.7404456693
 51
21.3050835822
  0
ARC
  5
138
  8
0
  6
CONTINUOUS
 62
     7
 10
1316.7843802539
 20
274.1266218438
 30
0.0
 40
31.7285714286227
 50
346.6949164182
 51
0.7440974729
  0
LINE
  5
139
  8
0
  6
CONTINUOUS
 62
     7
 10
1315.8915209905
 20
-275.3186306014
 30
0.0
 11
1316.8915081159
 21
-275.3186306014
 31
0.0
  0
LINE
  5
13A
  8
0
  6
CONTINUOUS
 62
     7
 10
1316.8915081159
 20
-265.3186326875
 30
0.0
 11
1315.8915209905
 21
-265.3186326875
 31
0.0
  0
LINE
  5
13B
  8
0
  6
CONTINUOUS
 62
     7
 10
1315.8915209905
 20
-235.3186240448
 30
0.0
 11
1316.8915081159
 21
-235.3186240448
 31
0.0
  0
LINE
  5
13C
  8
0
  6
CONTINUOUS
 62
     7
 10
1316.8915081159
 20
-225.3186335816
 30
0.0
 11
1315.8915209905
 21
-225.3186335816
 31
0.0
  0
LINE
  5
13D
  8
0
  6
CONTINUOUS
 62
     7
 10
1315.8915209905
 20
204.9313554512
 30
0.0
 11
1316.8915081159
 21
204.9313554512
 31
0.0
  0
LINE
  5
13E
  8
0
  6
CONTINUOUS
 62
     7
 10
1316.8915081159
 20
214.9313459144
 30
0.0
 11
1315.8915209905
 21
214.9313459144
 31
0.0
  0
LINE
  5
13F
  8
0
  6
CONTINUOUS
 62
     7
 10
1315.8915209905
 20
244.9313769088
 30
0.0
 11
1316.8915081159
 21
244.9313769088
 31
0.0
  0
LINE
  5
140
  8
0
  6
CONTINUOUS
 62
     7
 10
1316.8915081159
 20
254.9313673721
 30
0.0
 11
1315.8915209905
 21
254.9313673721
 31
0.0
  0
LINE
  5
141
  8
0
  6
CONTINUOUS
 62
     7
 10
1315.8915209905
 20
685.1814160095
 30
0.0
 11
1316.8915081159
 21
685.1814160095
 31
0.0
  0
LINE
  5
142
  8
0
  6
CONTINUOUS
 62
     7
 10
1316.8915081159
 20
695.1814064727
 30
0.0
 11
1315.8915209905
 21
695.1814064727
 31
0.0
  0
LINE
  5
143
  8
0
  6
CONTINUOUS
 62
     7
 10
1315.8915209905
 20
725.1813778625
 30
0.0
 11
1316.8915081159
 21
725.1813778625
 31
0.0
  0
LINE
  5
144
  8
0
  6
CONTINUOUS
 62
     7
 10
1316.8915081159
 20
735.1813683258
 30
0.0
 11
1315.8915209905
 21
735.1813683258
 31
0.0
  0
ARC
  5
145
  8
0
  6
CONTINUOUS
 62
     7
 10
1000.8915152446
 20
783.1813692794
 30
0.0
 40
40.0
 50
76.4820489901
 51
103.5179510099
  0
LINE
  5
146
  8
0
  6
CONTINUOUS
 62
     7
 10
991.5415215627
 20
822.0732578979
 30
0.0
 11
991.5415215627
 21
821.6814169632
 31
0.0
  0
LINE
  5
147
  8
0
  6
CONTINUOUS
 62
     7
 10
1010.2415177361
 20
821.6814169632
 30
0.0
 11
1010.2415177361
 21
822.0732578979
 31
0.0
  0
ARC
  5
148
  8
0
  6
CONTINUOUS
 62
     7
 10
1250.8915152446
 20
783.1813692794
 30
0.0
 40
39.99999999999997
 50
76.4820489901
 51
103.5179510099
  0
LINE
  5
149
  8
0
  6
CONTINUOUS
 62
     7
 10
1241.5415141121
 20
822.0732578979
 30
0.0
 11
1241.5415141121
 21
821.6814169632
 31
0.0
  0
LINE
  5
14A
  8
0
  6
CONTINUOUS
 62
     7
 10
1260.2415102855
 20
821.6814169632
 30
0.0
 11
1260.2415102855
 21
822.0732578979
 31
0.0
  0
POLYLINE
  5
14B
  8
0
  6
CONTINUOUS
 62
     7
 66
     1
 10
0.0
 20
0.0
 30
0.0
  0
VERTEX
  5
602
  8
0
  6
CONTINUOUS
 62
     7
 10
932.6915162936
 20
815.1814112411
 30
0.0
  0
VERTEX
  5
603
  8
0
  6
CONTINUOUS
 62
     7
 10
931.9849032298
 20
815.0045046554
 30
0.0
  0
VERTEX
  5
604
  8
0
  6
CONTINUOUS
 62
     7
 10
931.7446816102
 20
814.7926697479
 30
0.0
  0
SEQEND
  5
605
  8
0
  6
CONTINUOUS
 62
     7
  0
LINE
  5
14C
  8
0
  6
CONTINUOUS
 62
     7
 10
932.6915162936
 20
816.6814217315
 30
0.0
 11
932.6915162936
 21
815.1814112411
 31
0.0
  0
ARC
  5
14D
  8
0
  6
CONTINUOUS
 62
     7
 10
932.6915611824
 20
813.6813707632
 30
0.0
 40
3.000050968647995
 50
90.0008572988
 51
179.9994272911
  0
POLYLINE
  5
14E
  8
0
  6
CONTINUOUS
 62
     7
 66
     1
 10
0.0
 20
0.0
 30
0.0
  0
VERTEX
  5
606
  8
0
  6
CONTINUOUS
 62
     7
 10
929.691510214
 20
813.6814007507
 30
0.0
  0
VERTEX
  5
607
  8
0
  6
CONTINUOUS
 62
     7
 10
929.9198705092
 20
814.0313992248
 30
0.0
  0
VERTEX
  5
608
  8
0
  6
CONTINUOUS
 62
     7
 10
930.5702018872
 20
814.3813976989
 30
0.0
  0
VERTEX
  5
609
  8
0
  6
CONTINUOUS
 62
     7
 10
931.5434712306
 20
814.7313961731
 30
0.0
  0
VERTEX
  5
60A
  8
0
  6
CONTINUOUS
 62
     7
 10
932.6915162936
 20
815.0813946472
 30
0.0
  0
SEQEND
  5
60B
  8
0
  6
CONTINUOUS
 62
     7
  0
POLYLINE
  5
14F
  8
0
  6
CONTINUOUS
 62
     7
 66
     1
 10
0.0
 20
0.0
 30
0.0
  0
VERTEX
  5
60C
  8
0
  6
CONTINUOUS
 62
     7
 10
932.6915162936
 20
-358.7186304881
 30
0.0
  0
VERTEX
  5
60D
  8
0
  6
CONTINUOUS
 62
     7
 10
931.6572266952
 20
-358.4049163415
 30
0.0
  0
VERTEX
  5
60E
  8
0
  6
CONTINUOUS
 62
     7
 10
930.7496267692
 20
-358.0911537661
 30
0.0
  0
VERTEX
  5
60F
  8
0
  6
CONTINUOUS
 62
     7
 10
930.0802219049
 20
-357.7773893281
 30
0.0
  0
VERTEX
  5
610
  8
0
  6
CONTINUOUS
 62
     7
 10
929.7311324016
 20
-357.46362489
 30
0.0
  0
VERTEX
  5
611
  8
0
  6
CONTINUOUS
 62
     7
 10
929.691510214
 20
-357.3186310037
 30
0.0
  0
SEQEND
  5
612
  8
0
  6
CONTINUOUS
 62
     7
  0
LINE
  5
150
  8
0
  6
CONTINUOUS
 62
     7
 10
929.691510214
 20
-357.3186310037
 30
0.0
 11
929.691510214
 21
813.6814007507
 31
0.0
  0
LINE
  5
151
  8
0
  6
CONTINUOUS
 62
     7
 10
932.6915162936
 20
815.0813946472
 30
0.0
 11
936.6915094987
 21
815.0813946472
 31
0.0
  0
LINE
  5
152
  8
0
  6
CONTINUOUS
 62
     7
 10
932.6915162936
 20
-358.7186304881
 30
0.0
 11
936.6915094987
 21
-358.7186304881
 31
0.0
  0
LINE
  5
153
  8
0
  6
CONTINUOUS
 62
     7
 10
932.6915162936
 20
815.1814112411
 30
0.0
 11
936.6915094987
 21
815.1814112411
 31
0.0
  0
LINE
  5
154
  8
0
  6
CONTINUOUS
 62
     7
 10
932.6915162936
 20
816.6814217315
 30
0.0
 11
936.6915094987
 21
816.6814217315
 31
0.0
  0
LINE
  5
155
  8
0
  6
CONTINUOUS
 62
     7
 10
932.6915162936
 20
-360.3186314954
 30
0.0
 11
932.6915162936
 21
-358.8186303182
 31
0.0
  0
ARC
  5
156
  8
0
  6
CONTINUOUS
 62
     7
 10
932.6915283288
 20
-357.3186133806
 30
0.0
 40
3.000018114883613
 50
180.0003365748
 51
269.9997701468
  0
POLYLINE
  5
157
  8
0
  6
CONTINUOUS
 62
     7
 66
     1
 10
0.0
 20
0.0
 30
0.0
  0
VERTEX
  5
613
  8
0
  6
CONTINUOUS
 62
     7
 10
931.7008274928
 20
-358.4181411221
 30
0.0
  0
VERTEX
  5
614
  8
0
  6
CONTINUOUS
 62
     7
 10
932.097049369
 20
-358.6958037718
 30
0.0
  0
VERTEX
  5
615
  8
0
  6
CONTINUOUS
 62
     7
 10
932.6915162936
 20
-358.8186303182
 30
0.0
  0
SEQEND
  5
616
  8
0
  6
CONTINUOUS
 62
     7
  0
LINE
  5
158
  8
0
  6
CONTINUOUS
 62
     7
 10
932.6915162936
 20
-358.8186303182
 30
0.0
 11
936.6915094987
 21
-358.8186303182
 31
0.0
  0
LINE
  5
159
  8
0
  6
CONTINUOUS
 62
     7
 10
932.6915162936
 20
-360.3186314954
 30
0.0
 11
936.6915094987
 21
-360.3186314954
 31
0.0
  0
POLYLINE
  5
15A
  8
0
  6
CONTINUOUS
 62
     7
 66
     1
 10
0.0
 20
0.0
 30
0.0
  0
VERTEX
  5
617
  8
0
  6
CONTINUOUS
 62
     7
 10
1342.0773017541
 20
154.6165117965
 30
0.0
  0
VERTEX
  5
618
  8
0
  6
CONTINUOUS
 62
     7
 10
1342.0500475303
 20
154.6212205635
 30
0.0
  0
VERTEX
  5
619
  8
0
  6
CONTINUOUS
 62
     7
 10
1342.0055973664
 20
154.6289095626
 30
0.0
  0
VERTEX
  5
61A
  8
0
  6
CONTINUOUS
 62
     7
 10
1341.9449645415
 20
154.6393999801
 30
0.0
  0
VERTEX
  5
61B
  8
0
  6
CONTINUOUS
 62
     7
 10
1341.8695348636
 20
154.6524533973
 30
0.0
  0
VERTEX
  5
61C
  8
0
  6
CONTINUOUS
 62
     7
 10
1341.7810368672
 20
154.6678313957
 30
0.0
  0
VERTEX
  5
61D
  8
0
  6
CONTINUOUS
 62
     7
 10
1341.6815120116
 20
154.685057138
 30
0.0
  0
VERTEX
  5
61E
  8
0
  6
CONTINUOUS
 62
     7
 10
1341.5732103721
 20
154.7037729965
 30
0.0
  0
VERTEX
  5
61F
  8
0
  6
CONTINUOUS
 62
     7
 10
1341.4586353437
 20
154.7236213432
 30
0.0
  0
SEQEND
  5
620
  8
0
  6
CONTINUOUS
 62
     7
  0
POLYLINE
  5
15B
  8
0
  6
CONTINUOUS
 62
     7
 66
     1
 10
0.0
 20
0.0
 30
0.0
  0
VERTEX
  5
621
  8
0
  6
CONTINUOUS
 62
     7
 10
1345.1149928704
 20
292.2893533454
 30
0.0
  0
VERTEX
  5
622
  8
0
  6
CONTINUOUS
 62
     7
 10
1345.1171833411
 20
292.7619585739
 30
0.0
  0
VERTEX
  5
623
  8
0
  6
CONTINUOUS
 62
     7
 10
1345.1201635734
 20
293.1467065559
 30
0.0
  0
SEQEND
  5
624
  8
0
  6
CONTINUOUS
 62
     7
  0
ARC
  5
15C
  8
0
  6
CONTINUOUS
 62
     7
 10
1499.9498121296
 20
291.7849333999
 30
0.0
 40
154.8356409051071
 50
179.8133428135
 51
187.1951250706
  0
LINE
  5
15D
  8
0
  6
CONTINUOUS
 62
     7
 10
1346.3334459201
 20
272.3919520126
 30
0.0
 11
1346.6845768825
 21
269.843257402
 31
0.0
  0
ARC
  5
15E
  8
0
  6
CONTINUOUS
 62
     7
 10
1440.0329678777
 20
283.7009635174
 30
0.0
 40
94.37138401115159
 50
188.4439742437
 51
190.6174351732
  0
LINE
  5
15F
  8
0
  6
CONTINUOUS
 62
     7
 10
1341.4091932908
 20
308.2704314933
 30
0.0
 11
1342.1797025338
 21
308.4939489112
 31
0.0
  0
LINE
  5
160
  8
0
  6
CONTINUOUS
 62
     7
 10
1341.4091932908
 20
151.6923079238
 30
0.0
 11
1342.1797025338
 21
151.4687905059
 31
0.0
  0
POLYLINE
  5
161
  8
0
  6
CONTINUOUS
 62
     7
 66
     1
 10
0.0
 20
0.0
 30
0.0
  0
VERTEX
  5
625
  8
0
  6
CONTINUOUS
 62
     7
 10
1347.7352428571
 20
285.3852877365
 30
0.0
  0
VERTEX
  5
626
  8
0
  6
CONTINUOUS
 62
     7
 10
1347.7524536983
 20
285.1456770645
 30
0.0
  0
VERTEX
  5
627
  8
0
  6
CONTINUOUS
 62
     7
 10
1347.8024768964
 20
284.448898767
 30
0.0
  0
VERTEX
  5
628
  8
0
  6
CONTINUOUS
 62
     7
 10
1347.8807526961
 20
283.3575973259
 30
0.0
  0
VERTEX
  5
629
  8
0
  6
CONTINUOUS
 62
     7
 10
1347.9802179471
 20
281.9689283119
 30
0.0
  0
SEQEND
  5
62A
  8
0
  6
CONTINUOUS
 62
     7
  0
LINE
  5
162
  8
0
  6
CONTINUOUS
 62
     7
 10
1347.9802179471
 20
281.9689283119
 30
0.0
 11
1347.7443474666
 21
281.974113916
 31
0.0
  0
LINE
  5
163
  8
0
  6
CONTINUOUS
 62
     7
 10
1347.6922381059
 20
281.2004456268
 30
0.0
 11
1347.8731084004
 21
278.7197599159
 31
0.0
  0
LINE
  5
164
  8
0
  6
CONTINUOUS
 62
     7
 10
1348.0366635457
 20
277.9461512313
 30
0.0
 11
1348.267244114
 21
277.9510388122
 31
0.0
  0
POLYLINE
  5
165
  8
0
  6
CONTINUOUS
 62
     7
 66
     1
 10
0.0
 20
0.0
 30
0.0
  0
VERTEX
  5
62B
  8
0
  6
CONTINUOUS
 62
     7
 10
1348.267244114
 20
277.9510388122
 30
0.0
  0
VERTEX
  5
62C
  8
0
  6
CONTINUOUS
 62
     7
 10
1348.3661431209
 20
276.563085054
 30
0.0
  0
VERTEX
  5
62D
  8
0
  6
CONTINUOUS
 62
     7
 10
1348.4437632695
 20
275.4723796592
 30
0.0
  0
VERTEX
  5
62E
  8
0
  6
CONTINUOUS
 62
     7
 10
1348.4932947293
 20
274.7759589897
 30
0.0
  0
VERTEX
  5
62F
  8
0
  6
CONTINUOUS
 62
     7
 10
1348.5102969543
 20
274.5365271316
 30
0.0
  0
SEQEND
  5
630
  8
0
  6
CONTINUOUS
 62
     7
  0
ARC
  5
166
  8
0
  6
CONTINUOUS
 62
     7
 10
1347.8680709634
 20
277.9317395978
 30
0.0
 40
0.3996365432986445
 50
2.7594441145
 51
89.9614241608
  0
ARC
  5
167
  8
0
  6
CONTINUOUS
 62
     7
 10
1347.5823154207
 20
281.9310751128
 30
0.0
 40
0.3997046424386418
 50
270.0486722883
 51
5.4428043043
  0
ARC
  5
168
  8
0
  6
CONTINUOUS
 62
     7
 10
1347.8680709634
 20
277.9317395978
 30
0.0
 40
0.3996365432986445
 50
2.7594441145
 51
89.9614241608
  0
LINE
  5
169
  8
0
  6
CONTINUOUS
 62
     7
 10
1316.041516079
 20
287.238992189
 30
0.0
 11
1316.041516079
 21
279.9313435302
 31
0.0
  0
ARC
  5
16A
  8
0
  6
CONTINUOUS
 62
     7
 10
1313.2514981706
 20
280.020245386
 30
0.0
 40
2.791433945040648
 50
358.1749299065
 51
18.9577033796
  0
LINE
  5
16B
  8
0
  6
CONTINUOUS
 62
     7
 10
1315.8915209905
 20
279.9313435302
 30
0.0
 11
1316.041516079
 21
279.9313435302
 31
0.0
  0
POLYLINE
  5
16C
  8
0
  6
CONTINUOUS
 62
     7
 66
     1
 10
0.0
 20
0.0
 30
0.0
  0
VERTEX
  5
631
  8
0
  6
CONTINUOUS
 62
     7
 10
1315.8915209905
 20
278.897441362
 30
0.0
  0
VERTEX
  5
632
  8
0
  6
CONTINUOUS
 62
     7
 10
1315.9613925353
 20
279.1598210083
 30
0.0
  0
VERTEX
  5
633
  8
0
  6
CONTINUOUS
 62
     7
 10
1316.041516079
 20
279.9313435302
 30
0.0
  0
SEQEND
  5
634
  8
0
  6
CONTINUOUS
 62
     7
  0
LINE
  5
16D
  8
0
  6
CONTINUOUS
 62
     7
 10
1316.041516079
 20
279.9313435302
 30
0.0
 11
1316.041516079
 21
272.6237544761
 31
0.0
  0
POLYLINE
  5
16E
  8
0
  6
CONTINUOUS
 62
     7
 66
     1
 10
0.0
 20
0.0
 30
0.0
  0
VERTEX
  5
635
  8
0
  6
CONTINUOUS
 62
     7
 10
1332.993434681
 20
817.1813854919
 30
0.0
  0
VERTEX
  5
636
  8
0
  6
CONTINUOUS
 62
     7
 10
1332.8137862817
 20
817.8785214172
 30
0.0
  0
VERTEX
  5
637
  8
0
  6
CONTINUOUS
 62
     7
 10
1332.6851296559
 20
818.4690842376
 30
0.0
  0
VERTEX
  5
638
  8
0
  6
CONTINUOUS
 62
     7
 10
1332.5808066264
 20
819.3030724273
 30
0.0
  0
VERTEX
  5
639
  8
0
  6
CONTINUOUS
 62
     7
 10
1332.682730569
 20
819.8998341308
 30
0.0
  0
VERTEX
  5
63A
  8
0
  6
CONTINUOUS
 62
     7
 10
1332.8119832412
 20
820.1027283416
 30
0.0
  0
VERTEX
  5
63B
  8
0
  6
CONTINUOUS
 62
     7
 10
1332.993434681
 20
820.1814064727
 30
0.0
  0
SEQEND
  5
63C
  8
0
  6
CONTINUOUS
 62
     7
  0
LINE
  5
16F
  8
0
  6
CONTINUOUS
 62
     7
 10
1322.0915216342
 20
820.1814064727
 30
0.0
 11
1322.0915216342
 21
817.1813854919
 31
0.0
  0
LINE
  5
170
  8
0
  6
CONTINUOUS
 62
     7
 10
1332.993434681
 20
820.1814064727
 30
0.0
 11
1322.0915216342
 21
820.1814064727
 31
0.0
  0
ARC
  5
171
  8
0
  6
CONTINUOUS
 62
     7
 10
1335.591514819
 20
-358.8186307205
 30
0.0
 40
2.999999999999902
 50
120.0
 51
150.0
  0
LINE
  5
172
  8
0
  6
CONTINUOUS
 62
     7
 10
1322.0915216342
 20
817.1813854919
 30
0.0
 11
1322.0915216342
 21
-357.3186310037
 31
0.0
  0
ARC
  5
173
  8
0
  6
CONTINUOUS
 62
     7
 10
1335.591514819
 20
818.6813692795
 30
0.0
 40
2.999999999999909
 50
210.0
 51
240.0
  0
LINE
  5
174
  8
0
  6
CONTINUOUS
 62
     7
 10
1322.0915216342
 20
-357.3186310037
 30
0.0
 11
1322.0915216342
 21
-360.3186314954
 31
0.0
  0
POLYLINE
  5
175
  8
0
  6
CONTINUOUS
 62
     7
 66
     1
 10
0.0
 20
0.0
 30
0.0
  0
VERTEX
  5
63D
  8
0
  6
CONTINUOUS
 62
     7
 10
1332.993434681
 20
-360.3186314954
 30
0.0
  0
VERTEX
  5
63E
  8
0
  6
CONTINUOUS
 62
     7
 10
1332.8137862817
 20
-360.236490707
 30
0.0
  0
VERTEX
  5
63F
  8
0
  6
CONTINUOUS
 62
     7
 10
1332.6851296559
 20
-360.0281929626
 30
0.0
  0
VERTEX
  5
640
  8
0
  6
CONTINUOUS
 62
     7
 10
1332.5808066264
 20
-359.4395486667
 30
0.0
  0
VERTEX
  5
641
  8
0
  6
CONTINUOUS
 62
     7
 10
1332.682730569
 20
-358.5875375225
 30
0.0
  0
VERTEX
  5
642
  8
0
  6
CONTINUOUS
 62
     7
 10
1332.8119832412
 20
-358.0007763608
 30
0.0
  0
VERTEX
  5
643
  8
0
  6
CONTINUOUS
 62
     7
 10
1332.993434681
 20
-357.3186310037
 30
0.0
  0
SEQEND
  5
644
  8
0
  6
CONTINUOUS
 62
     7
  0
LINE
  5
176
  8
0
  6
CONTINUOUS
 62
     7
 10
1322.0915216342
 20
-360.3186314954
 30
0.0
 11
1332.993434681
 21
-360.3186314954
 31
0.0
  0
LINE
  5
177
  8
0
  6
CONTINUOUS
 62
     7
 10
1332.993434681
 20
-358.8186303182
 30
0.0
 11
1332.993434681
 21
-360.3186314954
 31
0.0
  0
ARC
  5
178
  8
0
  6
CONTINUOUS
 62
     7
 10
1332.9926464594
 20
-358.4060406835
 30
0.0
 40
0.4125903876751462
 50
175.9727671625
 51
270.1094591624
  0
LINE
  5
179
  8
0
  6
CONTINUOUS
 62
     7
 10
1332.993434681
 20
820.1814064727
 30
0.0
 11
1332.993434681
 21
818.6813959823
 31
0.0
  0
POLYLINE
  5
17A
  8
0
  6
CONTINUOUS
 62
     7
 66
     1
 10
0.0
 20
0.0
 30
0.0
  0
VERTEX
  5
645
  8
0
  6
CONTINUOUS
 62
     7
 10
1337.0915222302
 20
816.0833487258
 30
0.0
  0
VERTEX
  5
646
  8
0
  6
CONTINUOUS
 62
     7
 10
1337.0093721286
 20
815.9037003265
 30
0.0
  0
VERTEX
  5
647
  8
0
  6
CONTINUOUS
 62
     7
 10
1336.8010836974
 20
815.7749542938
 30
0.0
  0
VERTEX
  5
648
  8
0
  6
CONTINUOUS
 62
     7
 10
1336.2124282256
 20
815.6706461654
 30
0.0
  0
VERTEX
  5
649
  8
0
  6
CONTINUOUS
 62
     7
 10
1335.360424532
 20
815.772570108
 30
0.0
  0
VERTEX
  5
64A
  8
0
  6
CONTINUOUS
 62
     7
 10
1334.7736615077
 20
815.9017929779
 30
0.0
  0
VERTEX
  5
64B
  8
0
  6
CONTINUOUS
 62
     7
 10
1334.0915161506
 20
816.0833487258
 30
0.0
  0
SEQEND
  5
64C
  8
0
  6
CONTINUOUS
 62
     7
  0
ARC
  5
17B
  8
0
  6
CONTINUOUS
 62
     7
 10
1335.1771346505
 20
816.0843699795
 30
0.0
 40
0.4143783477454311
 50
266.2378920608
 51
359.8587918965
  0
LINE
  5
17C
  8
0
  6
CONTINUOUS
 62
     7
 10
1337.0915222302
 20
816.0833487258
 30
0.0
 11
1335.5915117398
 21
816.0833487258
 31
0.0
  0
LINE
  5
17D
  8
0
  6
CONTINUOUS
 62
     7
 10
1337.0915222302
 20
816.0833487258
 30
0.0
 11
1337.0915222302
 21
-356.2205551221
 31
0.0
  0
POLYLINE
  5
17E
  8
0
  6
CONTINUOUS
 62
     7
 66
     1
 10
0.0
 20
0.0
 30
0.0
  0
VERTEX
  5
64D
  8
0
  6
CONTINUOUS
 62
     7
 10
1334.0915161506
 20
-356.2205551221
 30
0.0
  0
VERTEX
  5
64E
  8
0
  6
CONTINUOUS
 62
     7
 10
1334.7887116805
 20
-356.0409067227
 30
0.0
  0
VERTEX
  5
64F
  8
0
  6
CONTINUOUS
 62
     7
 10
1335.3792595998
 20
-355.9122519596
 30
0.0
  0
VERTEX
  5
650
  8
0
  6
CONTINUOUS
 62
     7
 10
1336.2132328883
 20
-355.8079158916
 30
0.0
  0
VERTEX
  5
651
  8
0
  6
CONTINUOUS
 62
     7
 10
1336.8099498883
 20
-355.9098472847
 30
0.0
  0
VERTEX
  5
652
  8
0
  6
CONTINUOUS
 62
     7
 10
1337.0129335061
 20
-356.0391036822
 30
0.0
  0
VERTEX
  5
653
  8
0
  6
CONTINUOUS
 62
     7
 10
1337.0915222302
 20
-356.2205551221
 30
0.0
  0
SEQEND
  5
654
  8
0
  6
CONTINUOUS
 62
     7
  0
LINE
  5
17F
  8
0
  6
CONTINUOUS
 62
     7
 10
1335.5915117398
 20
-356.2205551221
 30
0.0
 11
1337.0915222302
 21
-356.2205551221
 31
0.0
  0
LINE
  5
180
  8
0
  6
CONTINUOUS
 62
     7
 10
1333.4701973334
 20
820.1814064727
 30
0.0
 11
1333.4701973334
 21
818.6813959823
 31
0.0
  0
LINE
  5
181
  8
0
  6
CONTINUOUS
 62
     7
 10
1332.993434681
 20
818.6813959823
 30
0.0
 11
1333.4701973334
 21
818.6813959823
 31
0.0
  0
LINE
  5
182
  8
0
  6
CONTINUOUS
 62
     7
 10
1332.993434681
 20
820.1814064727
 30
0.0
 11
1333.4701973334
 21
820.1814064727
 31
0.0
  0
LINE
  5
183
  8
0
  6
CONTINUOUS
 62
     7
 10
1333.4701973334
 20
-360.3186314954
 30
0.0
 11
1333.4701973334
 21
-358.8186303182
 31
0.0
  0
LINE
  5
184
  8
0
  6
CONTINUOUS
 62
     7
 10
1333.4701973334
 20
-358.8186303182
 30
0.0
 11
1332.993434681
 21
-358.8186303182
 31
0.0
  0
LINE
  5
185
  8
0
  6
CONTINUOUS
 62
     7
 10
1333.4701973334
 20
-360.3186314954
 30
0.0
 11
1332.993434681
 21
-360.3186314954
 31
0.0
  0
LINE
  5
186
  8
0
  6
CONTINUOUS
 62
     7
 10
1337.0915222302
 20
-356.2205551221
 30
0.0
 11
1337.0915222302
 21
-357.3186310037
 31
0.0
  0
LINE
  5
187
  8
0
  6
CONTINUOUS
 62
     7
 10
1337.0915222302
 20
-357.3186310037
 30
0.0
 11
1335.5915117398
 21
-357.3186310037
 31
0.0
  0
LINE
  5
188
  8
0
  6
CONTINUOUS
 62
     7
 10
1335.5915117398
 20
-356.2205551221
 30
0.0
 11
1335.5915117398
 21
-357.3186310037
 31
0.0
  0
LINE
  5
189
  8
0
  6
CONTINUOUS
 62
     7
 10
1335.5915117398
 20
817.1813854919
 30
0.0
 11
1337.0915222302
 21
817.1813854919
 31
0.0
  0
LINE
  5
18A
  8
0
  6
CONTINUOUS
 62
     7
 10
1337.0915222302
 20
817.1813854919
 30
0.0
 11
1337.0915222302
 21
816.0833487258
 31
0.0
  0
LINE
  5
18B
  8
0
  6
CONTINUOUS
 62
     7
 10
1335.5915117398
 20
817.1813854919
 30
0.0
 11
1335.5915117398
 21
816.0833487258
 31
0.0
  0
LINE
  5
18C
  8
0
  6
CONTINUOUS
 62
     7
 10
1334.0915161506
 20
818.6813959823
 30
0.0
 11
1334.0915161506
 21
820.1814064727
 31
0.0
  0
LINE
  5
18D
  8
0
  6
CONTINUOUS
 62
     7
 10
1333.4701973334
 20
818.6813959823
 30
0.0
 11
1334.0915161506
 21
818.6813959823
 31
0.0
  0
LINE
  5
18E
  8
0
  6
CONTINUOUS
 62
     7
 10
1333.4701973334
 20
820.1814064727
 30
0.0
 11
1334.0915161506
 21
820.1814064727
 31
0.0
  0
LINE
  5
18F
  8
0
  6
CONTINUOUS
 62
     7
 10
1334.0915161506
 20
-360.3186314954
 30
0.0
 11
1334.0915161506
 21
-358.8186303182
 31
0.0
  0
LINE
  5
190
  8
0
  6
CONTINUOUS
 62
     7
 10
1334.0915161506
 20
-360.3186314954
 30
0.0
 11
1333.4701973334
 21
-360.3186314954
 31
0.0
  0
LINE
  5
191
  8
0
  6
CONTINUOUS
 62
     7
 10
1334.0915161506
 20
-358.8186303182
 30
0.0
 11
1333.4701973334
 21
-358.8186303182
 31
0.0
  0
ARC
  5
192
  8
0
  6
CONTINUOUS
 62
     7
 10
1334.0915253835
 20
817.1814096258
 30
0.0
 40
1.499986356553764
 50
359.9990781448
 51
90.0003526739
  0
ARC
  5
193
  8
0
  6
CONTINUOUS
 62
     7
 10
1334.0914399205
 20
817.1813241634
 30
0.0
 40
3.000082310347103
 50
0.0011712568
 51
89.9985441533
  0
ARC
  5
194
  8
0
  6
CONTINUOUS
 62
     7
 10
1334.0915176303
 20
-357.3186362087
 30
0.0
 40
1.499994109510617
 50
269.9999434773
 51
0.0001988186
  0
ARC
  5
195
  8
0
  6
CONTINUOUS
 62
     7
 10
1334.0914951895
 20
-357.3186044547
 30
0.0
 40
3.000027040828094
 50
270.0004003227
 51
359.9994929557
  0
LINE
  5
196
  8
0
  6
CONTINUOUS
 62
     7
 10
1316.8915081159
 20
-266.1426370992
 30
0.0
 11
1316.8915081159
 21
-275.3186306014
 31
0.0
  0
LINE
  5
197
  8
0
  6
CONTINUOUS
 62
     7
 10
1316.8915081159
 20
-265.3186326875
 30
0.0
 11
1316.8915081159
 21
-266.1426370992
 31
0.0
  0
LINE
  5
198
  8
0
  6
CONTINUOUS
 62
     7
 10
1316.8915081159
 20
-225.3186335816
 30
0.0
 11
1316.8915081159
 21
-235.3186240448
 31
0.0
  0
LINE
  5
199
  8
0
  6
CONTINUOUS
 62
     7
 10
1316.8915081159
 20
214.9313459144
 30
0.0
 11
1316.8915081159
 21
204.9313554512
 31
0.0
  0
LINE
  5
19A
  8
0
  6
CONTINUOUS
 62
     7
 10
1316.8915081159
 20
254.9313673721
 30
0.0
 11
1316.8915081159
 21
244.9313769088
 31
0.0
  0
LINE
  5
19B
  8
0
  6
CONTINUOUS
 62
     7
 10
1316.8915081159
 20
695.1814064727
 30
0.0
 11
1316.8915081159
 21
685.1814160095
 31
0.0
  0
LINE
  5
19C
  8
0
  6
CONTINUOUS
 62
     7
 10
1316.8915081159
 20
735.1813683258
 30
0.0
 11
1316.8915081159
 21
725.1813778625
 31
0.0
  0
LINE
  5
19D
  8
0
  6
CONTINUOUS
 62
     7
 10
991.5415215627
 20
822.0732578979
 30
0.0
 11
1010.2415177361
 21
822.0732578979
 31
0.0
  0
LINE
  5
19E
  8
0
  6
CONTINUOUS
 62
     7
 10
1241.5415141121
 20
822.0732578979
 30
0.0
 11
1260.2415102855
 21
822.0732578979
 31
0.0
  0
ARC
  5
19F
  8
0
  6
CONTINUOUS
 62
     7
 10
939.6914992879
 20
-375.3186503029
 30
0.0
 40
1.499979298960551
 50
179.9992510048
 51
265.8584340353
  0
LINE
  5
1A0
  8
0
  6
CONTINUOUS
 62
     7
 10
939.4748228923
 20
-378.3107945215
 30
0.0
 11
939.5831692353
 21
-376.8147126335
 31
0.0
  0
ARC
  5
1A1
  8
0
  6
CONTINUOUS
 62
     7
 10
939.6915181405
 20
-375.3186221921
 30
0.0
 40
3.000008641827888
 50
180.000162384
 51
265.8578303052
  0
LINE
  5
1A2
  8
0
  6
CONTINUOUS
 62
     7
 10
938.1915199891
 20
-375.3186306945
 30
0.0
 11
936.6915094987
 21
-375.3186306945
 31
0.0
  0
LINE
  5
1A3
  8
0
  6
CONTINUOUS
 62
     7
 10
939.6915155784
 20
-378.3186307206
 30
0.0
 11
939.6915155784
 21
-376.8186307075
 31
0.0
  0
LINE
  5
1A4
  8
0
  6
CONTINUOUS
 62
     7
 10
939.4748228923
 20
-378.3107945215
 30
0.0
 11
939.6915155784
 21
-378.3186307206
 31
0.0
  0
LINE
  5
1A5
  8
0
  6
CONTINUOUS
 62
     7
 10
939.5831692353
 20
-376.8147126335
 30
0.0
 11
939.6915155784
 21
-376.8186307075
 31
0.0
  0
LINE
  5
1A6
  8
0
  6
CONTINUOUS
 62
     7
 10
941.1915111676
 20
-378.3186307206
 30
0.0
 11
939.6915155784
 21
-378.3186307206
 31
0.0
  0
LINE
  5
1A7
  8
0
  6
CONTINUOUS
 62
     7
 10
940.5021238462
 20
-376.8186307075
 30
0.0
 11
939.6915155784
 21
-376.8186307075
 31
0.0
  0
LINE
  5
1A8
  8
0
  6
CONTINUOUS
 62
     7
 10
936.6915094987
 20
-375.2328442438
 30
0.0
 11
936.6915094987
 21
-375.3186306945
 31
0.0
  0
LINE
  5
1A9
  8
0
  6
CONTINUOUS
 62
     7
 10
1312.3915213481
 20
-376.8186307075
 30
0.0
 11
1312.3915213481
 21
-378.3186307206
 31
0.0
  0
LINE
  5
1AA
  8
0
  6
CONTINUOUS
 62
     7
 10
1310.7770550386
 20
-378.3186307206
 30
0.0
 11
1312.3915213481
 21
-378.3186307206
 31
0.0
  0
LINE
  5
1AB
  8
0
  6
CONTINUOUS
 62
     7
 10
1312.0604473487
 20
-376.8186307075
 30
0.0
 11
1312.3915213481
 21
-376.8186307075
 31
0.0
  0
LINE
  5
1AC
  8
0
  6
CONTINUOUS
 62
     7
 10
1315.8915209905
 20
-374.8186306125
 30
0.0
 11
1315.8915209905
 21
-373.1854982703
 31
0.0
  0
LINE
  5
1AD
  8
0
  6
CONTINUOUS
 62
     7
 10
1315.8915209905
 20
-374.8186306125
 30
0.0
 11
1314.8525226251
 21
-374.8186306125
 31
0.0
  0
LINE
  5
1AE
  8
0
  6
CONTINUOUS
 62
     7
 10
1312.3915213481
 20
-378.3186307206
 30
0.0
 11
1312.8915149108
 21
-378.3186307206
 31
0.0
  0
LINE
  5
1AF
  8
0
  6
CONTINUOUS
 62
     7
 10
1312.3915213481
 20
-376.8186307075
 30
0.0
 11
1312.8915149108
 21
-376.8186307075
 31
0.0
  0
ARC
  5
1B0
  8
0
  6
CONTINUOUS
 62
     7
 10
1312.8915152446
 20
-375.3186307206
 30
0.0
 40
3.0
 50
270.0
 51
0.0
  0
ARC
  5
1B1
  8
0
  6
CONTINUOUS
 62
     7
 10
1312.8915152446
 20
-375.3186307206
 30
0.0
 40
1.500000000000227
 50
270.0
 51
0.0
  0
LINE
  5
1B2
  8
0
  6
CONTINUOUS
 62
     7
 10
1314.3915105001
 20
-375.3186306945
 30
0.0
 11
1314.3915105001
 21
-375.0709205429
 31
0.0
  0
LINE
  5
1B3
  8
0
  6
CONTINUOUS
 62
     7
 10
1315.8915209905
 20
-375.3186306945
 30
0.0
 11
1315.8915209905
 21
-374.8186306125
 31
0.0
  0
LINE
  5
1B4
  8
0
  6
CONTINUOUS
 62
     7
 10
1322.0915216342
 20
-340.1644310011
 30
0.0
 11
1317.6002818481
 21
-339.5332289888
 31
0.0
  0
LINE
  5
1B5
  8
0
  6
CONTINUOUS
 62
     7
 10
1317.6002818481
 20
-339.5332289888
 30
0.0
 11
1317.8090322152
 21
-338.0478253617
 31
0.0
  0
LINE
  5
1B6
  8
0
  6
CONTINUOUS
 62
     7
 10
1322.0915216342
 20
-338.6496907129
 30
0.0
 11
1317.8090322152
 21
-338.0478253617
 31
0.0
  0
ARC
  5
1B7
  8
0
  6
CONTINUOUS
 62
     7
 10
1317.3915114948
 20
-341.0186199988
 30
0.0
 40
1.499990504314586
 50
81.9995362234
 51
180.0003396461
  0
ARC
  5
1B8
  8
0
  6
CONTINUOUS
 62
     7
 10
1317.3486238882
 20
-340.750238152
 30
0.0
 40
2.741351987073622
 50
80.3313878119
 51
122.1086936403
  0
ARC
  5
1B9
  8
0
  6
CONTINUOUS
 62
     7
 10
1312.3959626338
 20
-370.3186307206
 30
0.0
 40
4.999999999973059
 50
270.0
 51
275.6879527016
  0
LINE
  5
1BA
  8
0
  6
CONTINUOUS
 62
     7
 10
940.1463586227
 20
-375.3186306945
 30
0.0
 11
939.6915155784
 21
-375.3186306945
 31
0.0
  0
LINE
  5
1BB
  8
0
  6
CONTINUOUS
 62
     7
 10
939.6915155784
 20
820.1814064727
 30
0.0
 11
1312.3959618941
 21
820.1814064727
 31
0.0
  0
LINE
  5
1BC
  8
0
  6
CONTINUOUS
 62
     7
 10
1312.8915149108
 20
819.9935326324
 30
0.0
 11
1312.3959618941
 21
820.1814064727
 31
0.0
  0
POLYLINE
  5
1BD
  8
0
  6
CONTINUOUS
 62
     7
 66
     1
 10
0.0
 20
0.0
 30
0.0
  0
VERTEX
  5
655
  8
0
  6
CONTINUOUS
 62
     7
 10
936.6915094987
 20
817.9742464767
 30
0.0
  0
VERTEX
  5
656
  8
0
  6
CONTINUOUS
 62
     7
 10
936.8947911397
 20
818.6813959823
 30
0.0
  0
VERTEX
  5
657
  8
0
  6
CONTINUOUS
 62
     7
 10
937.4770838157
 20
819.3884262786
 30
0.0
  0
SEQEND
  5
658
  8
0
  6
CONTINUOUS
 62
     7
  0
ARC
  5
1BE
  8
0
  6
CONTINUOUS
 62
     7
 10
939.7854956077
 20
-319.5331480292
 30
0.0
 40
55.78556182782469
 50
266.8206225916
 51
269.9034757129
  0
LINE
  5
1BF
  8
0
  6
CONTINUOUS
 62
     7
 10
936.6915094987
 20
817.9742464767
 30
0.0
 11
936.6915094987
 21
-375.2328442438
 31
0.0
  0
ARC
  5
1C0
  8
0
  6
CONTINUOUS
 62
     7
 10
945.4011245243
 20
800.7486358599
 30
0.0
 40
20.25418988770688
 50
106.373496312
 51
113.0310368182
  0
ARC
  5
1C1
  8
0
  6
CONTINUOUS
 62
     7
 10
1295.9026801451
 20
-372.4228229115
 30
0.0
 40
16.74556793808112
 50
340.6516984265
 51
350.0417920457
  0
POLYLINE
  5
1C2
  8
0
  6
CONTINUOUS
 62
     7
 66
     1
 10
0.0
 20
0.0
 30
0.0
  0
VERTEX
  5
659
  8
0
  6
CONTINUOUS
 62
     7
 10
1311.7024916545
 20
-377.9707962327
 30
0.0
  0
VERTEX
  5
65A
  8
0
  6
CONTINUOUS
 62
     7
 10
1311.2397807971
 20
-378.2303737476
 30
0.0
  0
VERTEX
  5
65B
  8
0
  6
CONTINUOUS
 62
     7
 10
1310.7770550386
 20
-378.3186307206
 30
0.0
  0
SEQEND
  5
65C
  8
0
  6
CONTINUOUS
 62
     7
  0
LINE
  5
1C3
  8
0
  6
CONTINUOUS
 62
     7
 10
1310.7770550386
 20
-378.3186307206
 30
0.0
 11
941.1915111676
 21
-378.3186307206
 31
0.0
  0
ARC
  5
1C4
  8
0
  6
CONTINUOUS
 62
     7
 10
945.8841757798
 20
-375.0017232956
 30
0.0
 40
5.746562105193493
 50
183.1613114461
 51
215.2537451831
  0
LINE
  5
1C5
  8
0
  6
CONTINUOUS
 62
     7
 10
1315.8915209905
 20
818.0486330734
 30
0.0
 11
1315.8915209905
 21
-373.1854982703
 31
0.0
  0
ARC
  5
1C6
  8
0
  6
CONTINUOUS
 62
     7
 10
1313.2594655112
 20
-372.7245154272
 30
0.0
 40
2.672119238997738
 50
299.9873866888
 51
350.0658734886
  0
POLYLINE
  5
1C7
  8
0
  6
CONTINUOUS
 62
     7
 66
     1
 10
0.0
 20
0.0
 30
0.0
  0
VERTEX
  5
65D
  8
0
  6
CONTINUOUS
 62
     7
 10
1314.5950156585
 20
-375.0389333377
 30
0.0
  0
VERTEX
  5
65E
  8
0
  6
CONTINUOUS
 62
     7
 10
1313.7836176292
 20
-375.1664730749
 30
0.0
  0
VERTEX
  5
65F
  8
0
  6
CONTINUOUS
 62
     7
 10
1312.8915149108
 20
-375.294012812
 30
0.0
  0
SEQEND
  5
660
  8
0
  6
CONTINUOUS
 62
     7
  0
ARC
  5
1C8
  8
0
  6
CONTINUOUS
 62
     7
 10
1308.2059239545
 20
798.5157824805
 30
0.0
 40
21.98291414251362
 50
71.3661289051
 51
77.6931647839
  0
POLYLINE
  5
1C9
  8
0
  6
CONTINUOUS
 62
     7
 66
     1
 10
0.0
 20
0.0
 30
0.0
  0
VERTEX
  5
661
  8
0
  6
CONTINUOUS
 62
     7
 10
1315.2298945323
 20
819.3463453994
 30
0.0
  0
VERTEX
  5
662
  8
0
  6
CONTINUOUS
 62
     7
 10
1315.7212752238
 20
818.6974892364
 30
0.0
  0
VERTEX
  5
663
  8
0
  6
CONTINUOUS
 62
     7
 10
1315.8915209905
 20
818.0486330734
 30
0.0
  0
SEQEND
  5
664
  8
0
  6
CONTINUOUS
 62
     7
  0
LINE
  5
1CA
  8
0
  6
CONTINUOUS
 62
     7
 10
1322.0915216342
 20
797.8220352874
 30
0.0
 11
1317.6002818481
 21
797.1846232162
 31
0.0
  0
LINE
  5
1CB
  8
0
  6
CONTINUOUS
 62
     7
 10
1317.6002818481
 20
-337.5239042594
 30
0.0
 11
1322.0915216342
 21
-338.16130888
 31
0.0
  0
ARC
  5
1CC
  8
0
  6
CONTINUOUS
 62
     7
 10
1330.4320239881
 20
636.6141923168
 30
0.0
 40
161.0648817300115
 50
94.6440284958
 51
95.1591912464
  0
ARC
  5
1CD
  8
0
  6
CONTINUOUS
 62
     7
 10
1317.7851297449
 20
792.7610702636
 30
0.0
 40
4.427413406207069
 50
92.3928381421
 51
115.3217425254
  0
ARC
  5
1CE
  8
0
  6
CONTINUOUS
 62
     7
 10
1326.0381936927
 20
-228.5316731489
 30
0.0
 40
109.3003919362698
 50
264.6733969521
 51
265.4625830674
  0
ARC
  5
1CF
  8
0
  6
CONTINUOUS
 62
     7
 10
1317.7851781644
 20
-333.1011097851
 30
0.0
 40
4.426657611478447
 50
244.6729353171
 51
267.6061258171
  0
LINE
  5
1D0
  8
0
  6
CONTINUOUS
 62
     7
 10
939.6915155784
 20
821.6814169632
 30
0.0
 11
939.6915155784
 21
820.1814064727
 31
0.0
  0
POLYLINE
  5
1D1
  8
0
  6
CONTINUOUS
 62
     7
 66
     1
 10
0.0
 20
0.0
 30
0.0
  0
VERTEX
  5
665
  8
0
  6
CONTINUOUS
 62
     7
 10
939.6915155784
 20
820.1814064727
 30
0.0
  0
VERTEX
  5
666
  8
0
  6
CONTINUOUS
 62
     7
 10
939.0645641223
 20
820.0440773712
 30
0.0
  0
VERTEX
  5
667
  8
0
  6
CONTINUOUS
 62
     7
 10
938.9035570756
 20
819.9262985931
 30
0.0
  0
SEQEND
  5
668
  8
0
  6
CONTINUOUS
 62
     7
  0
LINE
  5
1D2
  8
0
  6
CONTINUOUS
 62
     7
 10
936.8947911397
 20
818.6813959823
 30
0.0
 11
936.6915094987
 21
818.6813959823
 31
0.0
  0
ARC
  5
1D3
  8
0
  6
CONTINUOUS
 62
     7
 10
939.6916794874
 20
818.6812469752
 30
0.0
 40
3.000169992384369
 50
90.0031302541
 51
179.9971543358
  0
LINE
  5
1D4
  8
0
  6
CONTINUOUS
 62
     7
 10
1312.8915149108
 20
821.6814169632
 30
0.0
 11
1312.8915149108
 21
820.1814064727
 31
0.0
  0
LINE
  5
1D5
  8
0
  6
CONTINUOUS
 62
     7
 10
1312.8915149108
 20
821.6814169632
 30
0.0
 11
1312.3959618941
 21
821.6814169632
 31
0.0
  0
LINE
  5
1D6
  8
0
  6
CONTINUOUS
 62
     7
 10
939.6915155784
 20
821.6814169632
 30
0.0
 11
1312.3959618941
 21
821.6814169632
 31
0.0
  0
LINE
  5
1D7
  8
0
  6
CONTINUOUS
 62
     7
 10
1315.1298183337
 20
819.2755350814
 30
0.0
 11
1315.791087164
 21
819.4511303649
 31
0.0
  0
ARC
  5
1D8
  8
0
  6
CONTINUOUS
 62
     7
 10
1312.89140937
 20
818.681284689
 30
0.0
 40
3.000132276030707
 50
14.8686452268
 51
89.9979844091
  0
ARC
  5
1D9
  8
0
  6
CONTINUOUS
 62
     7
 10
1312.9261526129
 20
818.8053142559
 30
0.0
 40
1.376528081646383
 50
42.3410614903
 51
91.4418911353
  0
LINE
  5
1DA
  8
0
  6
CONTINUOUS
 62
     7
 10
1315.791087164
 20
819.4511303649
 30
0.0
 11
1315.8915209905
 21
818.6813959823
 31
0.0
  0
LINE
  5
1DB
  8
0
  6
CONTINUOUS
 62
     7
 10
1315.8915209905
 20
818.0486330734
 30
0.0
 11
1315.8915209905
 21
818.6813959823
 31
0.0
  0
LINE
  5
1DC
  8
0
  6
CONTINUOUS
 62
     7
 10
936.6915094987
 20
818.6813959823
 30
0.0
 11
936.6915094987
 21
817.9742464767
 31
0.0
  0
LINE
  5
1DD
  8
0
  6
CONTINUOUS
 62
     7
 10
1322.0915216342
 20
799.8271355377
 30
0.0
 11
1317.6002818481
 21
799.1959223495
 31
0.0
  0
LINE
  5
1DE
  8
0
  6
CONTINUOUS
 62
     7
 10
1317.8090322152
 20
797.7105746017
 30
0.0
 11
1322.0915216342
 21
798.3124623046
 31
0.0
  0
LINE
  5
1DF
  8
0
  6
CONTINUOUS
 62
     7
 10
1317.8090322152
 20
797.7105746017
 30
0.0
 11
1317.6002818481
 21
799.1959223495
 31
0.0
  0
POLYLINE
  5
1E0
  8
0
  6
CONTINUOUS
 62
     7
 66
     1
 10
0.0
 20
0.0
 30
0.0
  0
VERTEX
  5
669
  8
0
  6
CONTINUOUS
 62
     7
 10
1315.8915209905
 20
800.6813893066
 30
0.0
  0
VERTEX
  5
66A
  8
0
  6
CONTINUOUS
 62
     7
 10
1316.0273599759
 20
800.0575670944
 30
0.0
  0
VERTEX
  5
66B
  8
0
  6
CONTINUOUS
 62
     7
 10
1316.4103049174
 20
799.5467552887
 30
0.0
  0
SEQEND
  5
66C
  8
0
  6
CONTINUOUS
 62
     7
  0
LINE
  5
1E1
  8
0
  6
CONTINUOUS
 62
     7
 10
1315.8915209905
 20
798.9470133529
 30
0.0
 11
1316.4103049174
 21
799.5467552887
 31
0.0
  0
ARC
  5
1E2
  8
0
  6
CONTINUOUS
 62
     7
 10
1317.3918149442
 20
800.6823666332
 30
0.0
 40
1.500991358549616
 50
229.1631111245
 51
277.9833974085
  0
ARC
  5
1E3
  8
0
  6
CONTINUOUS
 62
     7
 10
1317.3491263582
 20
800.4124740483
 30
0.0
 40
2.740761576092628
 50
237.8711580343
 51
279.6600595721
  0
ARC
  5
1E4
  8
0
  6
CONTINUOUS
 62
     7
 10
-487.1616015886
 20
257.7717620445
 30
0.0
 40
279.9999999999777
 50
169.6893026751
 51
172.7420376961
  0
ARC
  5
1E5
  8
0
  6
CONTINUOUS
 62
     7
 10
-487.1616015886
 20
202.1909765145
 30
0.0
 40
280.0000000002275
 50
183.0
 51
190.3096605428
  0
ARC
  5
1E6
  8
0
  6
CONTINUOUS
 62
     7
 10
43.1106813661
 20
229.9813692795
 30
0.0
 40
811.000000000495
 50
177.4323496779
 51
183.0
  0
ARC
  5
1E7
  8
0
  6
CONTINUOUS
 62
     7
 10
-752.8893186339
 20
276.8246905712
 30
0.0
 40
33.00000000000006
 50
96.9620626911
 51
106.0038114363
  0
ARC
  5
1E8
  8
0
  6
CONTINUOUS
 62
     7
 10
-752.8893186339
 20
183.1380479878
 30
0.0
 40
33.00000000000003
 50
253.9885793286
 51
263.0379373089
  0
ARC
  5
1E9
  8
0
  6
CONTINUOUS
 62
     7
 10
-766.68058494
 20
267.008841599
 30
0.0
 40
0.8000000000004888
 50
193.3050835815
 51
240.4801028819
  0
ARC
  5
1EA
  8
0
  6
CONTINUOUS
 62
     7
 10
-764.9087705067
 20
292.3469684756
 30
0.0
 40
0.8000000000003196
 50
90.63381958
 51
158.6949164179
  0
ARC
  5
1EB
  8
0
  6
CONTINUOUS
 62
     7
 10
-761.8515023384
 20
307.7525934843
 30
0.0
 40
0.8000415142642884
 50
104.5519388826
 51
170.0602751556
  0
ARC
  5
1EC
  8
0
  6
CONTINUOUS
 62
     7
 10
-761.8515182501
 20
152.2101312531
 30
0.0
 40
0.8000233075588201
 50
189.938885996
 51
255.4488999658
  0
ARC
  5
1ED
  8
0
  6
CONTINUOUS
 62
     7
 10
-736.5821840688
 20
274.1266218438
 30
0.0
 40
31.72857142862259
 50
179.2551359542
 51
193.3050835818
  0
ARC
  5
1EE
  8
0
  6
CONTINUOUS
 62
     7
 10
-736.0938887525
 20
281.1095701956
 30
0.0
 40
31.72857142857147
 50
158.6949164178
 51
172.2587626394
  0
LINE
  5
1EF
  8
0
  6
CONTINUOUS
 62
     7
 10
-430.039321551
 20
822.0732578979
 30
0.0
 11
-430.039321551
 21
821.6814169632
 31
0.0
  0
LINE
  5
1F0
  8
0
  6
CONTINUOUS
 62
     7
 10
-411.3393253776
 20
821.6814169632
 30
0.0
 11
-411.3393253776
 21
822.0732578979
 31
0.0
  0
ARC
  5
1F1
  8
0
  6
CONTINUOUS
 62
     7
 10
-420.6893190595
 20
783.1813692794
 30
0.0
 40
39.99999999999999
 50
76.4820489901
 51
103.5179510099
  0
LINE
  5
1F2
  8
0
  6
CONTINUOUS
 62
     7
 10
-680.0393141004
 20
822.0732578979
 30
0.0
 11
-680.0393141004
 21
821.6814169632
 31
0.0
  0
LINE
  5
1F3
  8
0
  6
CONTINUOUS
 62
     7
 10
-661.339317927
 20
821.6814169632
 30
0.0
 11
-661.339317927
 21
822.0732578979
 31
0.0
  0
ARC
  5
1F4
  8
0
  6
CONTINUOUS
 62
     7
 10
-670.6893190595
 20
783.1813692794
 30
0.0
 40
40.0
 50
76.4820489901
 51
103.5179510099
  0
LINE
  5
1F5
  8
0
  6
CONTINUOUS
 62
     7
 10
-737.9093147012
 20
252.4313697563
 30
0.0
 11
-738.3093214723
 21
252.0313629852
 31
0.0
  0
LINE
  5
1F6
  8
0
  6
CONTINUOUS
 62
     7
 10
-738.3093214723
 20
247.8313812957
 30
0.0
 11
-737.9093147012
 21
247.4313745246
 31
0.0
  0
LINE
  5
1F7
  8
0
  6
CONTINUOUS
 62
     7
 10
-737.6893139573
 20
252.4313697563
 30
0.0
 11
-737.9093147012
 21
252.4313697563
 31
0.0
  0
LINE
  5
1F8
  8
0
  6
CONTINUOUS
 62
     7
 10
-737.9093147012
 20
247.4313745246
 30
0.0
 11
-737.6893139573
 21
247.4313745246
 31
0.0
  0
LINE
  5
1F9
  8
0
  6
CONTINUOUS
 62
     7
 10
-737.9093147012
 20
692.6813492523
 30
0.0
 11
-738.3093214723
 21
692.2814020858
 31
0.0
  0
LINE
  5
1FA
  8
0
  6
CONTINUOUS
 62
     7
 10
-738.3093214723
 20
688.0814203964
 30
0.0
 11
-737.9093147012
 21
687.6813540206
 31
0.0
  0
LINE
  5
1FB
  8
0
  6
CONTINUOUS
 62
     7
 10
-737.6893139573
 20
692.6813492523
 30
0.0
 11
-737.9093147012
 21
692.6813492523
 31
0.0
  0
LINE
  5
1FC
  8
0
  6
CONTINUOUS
 62
     7
 10
-737.9093147012
 20
687.6813540206
 30
0.0
 11
-737.6893139573
 21
687.6813540206
 31
0.0
  0
LINE
  5
1FD
  8
0
  6
CONTINUOUS
 62
     7
 10
-737.9093147012
 20
212.4313482986
 30
0.0
 11
-738.3093214723
 21
212.0313415275
 31
0.0
  0
LINE
  5
1FE
  8
0
  6
CONTINUOUS
 62
     7
 10
-738.3093214723
 20
207.8313598381
 30
0.0
 11
-737.9093147012
 21
207.431353067
 31
0.0
  0
LINE
  5
1FF
  8
0
  6
CONTINUOUS
 62
     7
 10
-737.6893139573
 20
212.4313482986
 30
0.0
 11
-737.9093147012
 21
212.4313482986
 31
0.0
  0
LINE
  5
200
  8
0
  6
CONTINUOUS
 62
     7
 10
-737.9093147012
 20
207.431353067
 30
0.0
 11
-737.6893139573
 21
207.431353067
 31
0.0
  0
LINE
  5
201
  8
0
  6
CONTINUOUS
 62
     7
 10
-737.9093147012
 20
732.6813111053
 30
0.0
 11
-738.3093214723
 21
732.2813639389
 31
0.0
  0
LINE
  5
202
  8
0
  6
CONTINUOUS
 62
     7
 10
-738.3093214723
 20
728.0813822494
 30
0.0
 11
-737.9093147012
 21
727.6813158737
 31
0.0
  0
LINE
  5
203
  8
0
  6
CONTINUOUS
 62
     7
 10
-737.6893139573
 20
732.6813111053
 30
0.0
 11
-737.9093147012
 21
732.6813111053
 31
0.0
  0
LINE
  5
204
  8
0
  6
CONTINUOUS
 62
     7
 10
-737.9093147012
 20
727.6813158737
 30
0.0
 11
-737.6893139573
 21
727.6813158737
 31
0.0
  0
LINE
  5
205
  8
0
  6
CONTINUOUS
 62
     7
 10
-737.9093147012
 20
-267.8186303033
 30
0.0
 11
-738.3093214723
 21
-268.2186296238
 31
0.0
  0
LINE
  5
206
  8
0
  6
CONTINUOUS
 62
     7
 10
-738.3093214723
 20
-272.418633665
 30
0.0
 11
-737.9093147012
 21
-272.8186329855
 31
0.0
  0
LINE
  5
207
  8
0
  6
CONTINUOUS
 62
     7
 10
-737.6893139573
 20
-267.8186303033
 30
0.0
 11
-737.9093147012
 21
-267.8186303033
 31
0.0
  0
LINE
  5
208
  8
0
  6
CONTINUOUS
 62
     7
 10
-737.9093147012
 20
-272.8186329855
 30
0.0
 11
-737.6893139573
 21
-272.8186329855
 31
0.0
  0
LINE
  5
209
  8
0
  6
CONTINUOUS
 62
     7
 10
-737.6893139573
 20
-227.8186311974
 30
0.0
 11
-737.9093147012
 21
-227.8186311974
 31
0.0
  0
LINE
  5
20A
  8
0
  6
CONTINUOUS
 62
     7
 10
-737.9093147012
 20
-232.818626429
 30
0.0
 11
-737.6893139573
 21
-232.818626429
 31
0.0
  0
LINE
  5
20B
  8
0
  6
CONTINUOUS
 62
     7
 10
-737.9093147012
 20
-227.8186311974
 30
0.0
 11
-738.3093214723
 21
-228.2186379685
 31
0.0
  0
LINE
  5
20C
  8
0
  6
CONTINUOUS
 62
     7
 10
-738.3093214723
 20
-232.4186345591
 30
0.0
 11
-737.9093147012
 21
-232.818626429
 31
0.0
  0
POLYLINE
  5
20D
  8
0
  6
CONTINUOUS
 62
     7
 66
     1
 10
0.0
 20
0.0
 30
0.0
  0
VERTEX
  5
66D
  8
0
  6
CONTINUOUS
 62
     7
 10
-351.5747464391
 20
814.8025641189
 30
0.0
  0
VERTEX
  5
66E
  8
0
  6
CONTINUOUS
 62
     7
 10
-351.8036729785
 20
815.0154719101
 30
0.0
  0
VERTEX
  5
66F
  8
0
  6
CONTINUOUS
 62
     7
 10
-352.4893201085
 20
815.1814112411
 30
0.0
  0
SEQEND
  5
670
  8
0
  6
CONTINUOUS
 62
     7
  0
LINE
  5
20E
  8
0
  6
CONTINUOUS
 62
     7
 10
-352.4893201085
 20
816.6814217315
 30
0.0
 11
-352.4893201085
 21
815.1814112411
 31
0.0
  0
ARC
  5
20F
  8
0
  6
CONTINUOUS
 62
     7
 10
-352.4894304837
 20
813.6813052772
 30
0.0
 40
3.000116456381114
 50
0.0018233391
 51
89.997892071
  0
LINE
  5
210
  8
0
  6
CONTINUOUS
 62
     7
 10
-352.4893201085
 20
816.6814217315
 30
0.0
 11
-356.4893133136
 21
816.6814217315
 31
0.0
  0
LINE
  5
211
  8
0
  6
CONTINUOUS
 62
     7
 10
-352.4893201085
 20
815.1814112411
 30
0.0
 11
-356.4893133136
 21
815.1814112411
 31
0.0
  0
LINE
  5
212
  8
0
  6
CONTINUOUS
 62
     7
 10
-352.4893201085
 20
815.0813946472
 30
0.0
 11
-356.4893133136
 21
815.0813946472
 31
0.0
  0
LINE
  5
213
  8
0
  6
CONTINUOUS
 62
     7
 10
-352.4893201085
 20
-358.7186304881
 30
0.0
 11
-356.4893133136
 21
-358.7186304881
 31
0.0
  0
LINE
  5
214
  8
0
  6
CONTINUOUS
 62
     7
 10
-352.4893201085
 20
-360.3186314954
 30
0.0
 11
-352.4893201085
 21
-358.8186303182
 31
0.0
  0
LINE
  5
215
  8
0
  6
CONTINUOUS
 62
     7
 10
-352.4893201085
 20
-358.8186303182
 30
0.0
 11
-356.4893133136
 21
-358.8186303182
 31
0.0
  0
LINE
  5
216
  8
0
  6
CONTINUOUS
 62
     7
 10
-352.4893201085
 20
-360.3186314954
 30
0.0
 11
-356.4893133136
 21
-360.3186314954
 31
0.0
  0
POLYLINE
  5
217
  8
0
  6
CONTINUOUS
 62
     7
 66
     1
 10
0.0
 20
0.0
 30
0.0
  0
VERTEX
  5
671
  8
0
  6
CONTINUOUS
 62
     7
 10
-352.4893201085
 20
-358.8186303182
 30
0.0
  0
VERTEX
  5
672
  8
0
  6
CONTINUOUS
 62
     7
 10
-351.8948531839
 20
-358.6958037718
 30
0.0
  0
VERTEX
  5
673
  8
0
  6
CONTINUOUS
 62
     7
 10
-351.4873511287
 20
-358.4102379187
 30
0.0
  0
SEQEND
  5
674
  8
0
  6
CONTINUOUS
 62
     7
  0
ARC
  5
218
  8
0
  6
CONTINUOUS
 62
     7
 10
-352.4893321437
 20
-357.3186133806
 30
0.0
 40
3.000018114883722
 50
270.0002298532
 51
359.9996634252
  0
LINE
  5
219
  8
0
  6
CONTINUOUS
 62
     7
 10
-349.4893140289
 20
813.6814007507
 30
0.0
 11
-349.4893140289
 21
-357.3186310037
 31
0.0
  0
POLYLINE
  5
21A
  8
0
  6
CONTINUOUS
 62
     7
 66
     1
 10
0.0
 20
0.0
 30
0.0
  0
VERTEX
  5
675
  8
0
  6
CONTINUOUS
 62
     7
 10
-352.4893201085
 20
815.0813946472
 30
0.0
  0
VERTEX
  5
676
  8
0
  6
CONTINUOUS
 62
     7
 10
-351.3412750455
 20
814.7313961731
 30
0.0
  0
VERTEX
  5
677
  8
0
  6
CONTINUOUS
 62
     7
 10
-350.3680057021
 20
814.3813976989
 30
0.0
  0
VERTEX
  5
678
  8
0
  6
CONTINUOUS
 62
     7
 10
-349.7176743242
 20
814.0313992248
 30
0.0
  0
VERTEX
  5
679
  8
0
  6
CONTINUOUS
 62
     7
 10
-349.4893140289
 20
813.6814007507
 30
0.0
  0
SEQEND
  5
67A
  8
0
  6
CONTINUOUS
 62
     7
  0
POLYLINE
  5
21B
  8
0
  6
CONTINUOUS
 62
     7
 66
     1
 10
0.0
 20
0.0
 30
0.0
  0
VERTEX
  5
67B
  8
0
  6
CONTINUOUS
 62
     7
 10
-349.4893140289
 20
-357.3186310037
 30
0.0
  0
VERTEX
  5
67C
  8
0
  6
CONTINUOUS
 62
     7
 10
-349.6732539626
 20
-357.6323451503
 30
0.0
  0
VERTEX
  5
67D
  8
0
  6
CONTINUOUS
 62
     7
 10
-350.2026028129
 20
-357.9461077257
 30
0.0
  0
VERTEX
  5
67E
  8
0
  6
CONTINUOUS
 62
     7
 10
-351.0124362203
 20
-358.2598703011
 30
0.0
  0
VERTEX
  5
67F
  8
0
  6
CONTINUOUS
 62
     7
 10
-352.0034230443
 20
-358.5736347391
 30
0.0
  0
VERTEX
  5
680
  8
0
  6
CONTINUOUS
 62
     7
 10
-352.4893201085
 20
-358.7186304881
 30
0.0
  0
SEQEND
  5
681
  8
0
  6
CONTINUOUS
 62
     7
  0
POLYLINE
  5
21C
  8
0
  6
CONTINUOUS
 62
     7
 66
     1
 10
0.0
 20
0.0
 30
0.0
  0
VERTEX
  5
682
  8
0
  6
CONTINUOUS
 62
     7
 10
-761.875105569
 20
305.3462276207
 30
0.0
  0
VERTEX
  5
683
  8
0
  6
CONTINUOUS
 62
     7
 10
-761.8478513452
 20
305.3415188537
 30
0.0
  0
VERTEX
  5
684
  8
0
  6
CONTINUOUS
 62
     7
 10
-761.8034011813
 20
305.3338298545
 30
0.0
  0
VERTEX
  5
685
  8
0
  6
CONTINUOUS
 62
     7
 10
-761.7427683564
 20
305.3233394371
 30
0.0
  0
VERTEX
  5
686
  8
0
  6
CONTINUOUS
 62
     7
 10
-761.6673386785
 20
305.3102860199
 30
0.0
  0
VERTEX
  5
687
  8
0
  6
CONTINUOUS
 62
     7
 10
-761.5788406822
 20
305.2949080215
 30
0.0
  0
VERTEX
  5
688
  8
0
  6
CONTINUOUS
 62
     7
 10
-761.4793158265
 20
305.2776822792
 30
0.0
  0
VERTEX
  5
689
  8
0
  6
CONTINUOUS
 62
     7
 10
-761.371014187
 20
305.2589664207
 30
0.0
  0
VERTEX
  5
68A
  8
0
  6
CONTINUOUS
 62
     7
 10
-761.2564391586
 20
305.239118074
 30
0.0
  0
SEQEND
  5
68B
  8
0
  6
CONTINUOUS
 62
     7
  0
ARC
  5
21D
  8
0
  6
CONTINUOUS
 62
     7
 10
-919.6065365523
 20
291.7762941503
 30
0.0
 40
154.6945906738697
 50
352.8015049127
 51
0.1900272032
  0
POLYLINE
  5
21E
  8
0
  6
CONTINUOUS
 62
     7
 66
     1
 10
0.0
 20
0.0
 30
0.0
  0
VERTEX
  5
68C
  8
0
  6
CONTINUOUS
 62
     7
 10
-764.9179673883
 20
293.1465873466
 30
0.0
  0
VERTEX
  5
68D
  8
0
  6
CONTINUOUS
 62
     7
 10
-764.9179673883
 20
293.1469449745
 30
0.0
  0
VERTEX
  5
68E
  8
0
  6
CONTINUOUS
 62
     7
 10
-764.9171329233
 20
293.05205438
 30
0.0
  0
VERTEX
  5
68F
  8
0
  6
CONTINUOUS
 62
     7
 10
-764.9127966853
 20
292.2893533454
 30
0.0
  0
SEQEND
  5
690
  8
0
  6
CONTINUOUS
 62
     7
  0
POLYLINE
  5
21F
  8
0
  6
CONTINUOUS
 62
     7
 66
     1
 10
0.0
 20
0.0
 30
0.0
  0
VERTEX
  5
691
  8
0
  6
CONTINUOUS
 62
     7
 10
-767.0750147792
 20
266.3134107338
 30
0.0
  0
VERTEX
  5
692
  8
0
  6
CONTINUOUS
 62
     7
 10
-767.0751190873
 20
266.3128742919
 30
0.0
  0
VERTEX
  5
693
  8
0
  6
CONTINUOUS
 62
     7
 10
-767.058265874
 20
266.402638887
 30
0.0
  0
VERTEX
  5
694
  8
0
  6
CONTINUOUS
 62
     7
 10
-766.977561185
 20
266.8404946075
 30
0.0
  0
VERTEX
  5
695
  8
0
  6
CONTINUOUS
 62
     7
 10
-766.8310678693
 20
267.6691779838
 30
0.0
  0
VERTEX
  5
696
  8
0
  6
CONTINUOUS
 62
     7
 10
-766.4823806974
 20
269.843257402
 30
0.0
  0
SEQEND
  5
697
  8
0
  6
CONTINUOUS
 62
     7
  0
LINE
  5
220
  8
0
  6
CONTINUOUS
 62
     7
 10
-766.4823806974
 20
269.843257402
 30
0.0
 11
-766.131249735
 21
272.3919520126
 31
0.0
  0
LINE
  5
221
  8
0
  6
CONTINUOUS
 62
     7
 10
-761.2069971057
 20
308.2704314933
 30
0.0
 11
-761.9775063487
 21
308.4939489112
 31
0.0
  0
LINE
  5
222
  8
0
  6
CONTINUOUS
 62
     7
 10
-761.2069971057
 20
151.6923079238
 30
0.0
 11
-761.9775063487
 21
151.4687905059
 31
0.0
  0
LINE
  5
223
  8
0
  6
CONTINUOUS
 62
     7
 10
-767.5421512815
 20
281.974113916
 30
0.0
 11
-767.778021762
 21
281.9689283119
 31
0.0
  0
POLYLINE
  5
224
  8
0
  6
CONTINUOUS
 62
     7
 66
     1
 10
0.0
 20
0.0
 30
0.0
  0
VERTEX
  5
698
  8
0
  6
CONTINUOUS
 62
     7
 10
-767.778021762
 20
281.9689283119
 30
0.0
  0
VERTEX
  5
699
  8
0
  6
CONTINUOUS
 62
     7
 10
-767.6785118076
 20
283.3581337677
 30
0.0
  0
VERTEX
  5
69A
  8
0
  6
CONTINUOUS
 62
     7
 10
-767.6002360078
 20
284.4494948135
 30
0.0
  0
VERTEX
  5
69B
  8
0
  6
CONTINUOUS
 62
     7
 10
-767.550242612
 20
285.1459750877
 30
0.0
  0
VERTEX
  5
69C
  8
0
  6
CONTINUOUS
 62
     7
 10
-767.533046672
 20
285.3852877365
 30
0.0
  0
SEQEND
  5
69D
  8
0
  6
CONTINUOUS
 62
     7
  0
POLYLINE
  5
225
  8
0
  6
CONTINUOUS
 62
     7
 66
     1
 10
0.0
 20
0.0
 30
0.0
  0
VERTEX
  5
69E
  8
0
  6
CONTINUOUS
 62
     7
 10
-767.5502575132
 20
285.1456770645
 30
0.0
  0
VERTEX
  5
69F
  8
0
  6
CONTINUOUS
 62
     7
 10
-767.6002807113
 20
284.448898767
 30
0.0
  0
VERTEX
  5
6A0
  8
0
  6
CONTINUOUS
 62
     7
 10
-767.6785565111
 20
283.3575973259
 30
0.0
  0
VERTEX
  5
6A1
  8
0
  6
CONTINUOUS
 62
     7
 10
-767.778021762
 20
281.9689283119
 30
0.0
  0
SEQEND
  5
6A2
  8
0
  6
CONTINUOUS
 62
     7
  0
POLYLINE
  5
226
  8
0
  6
CONTINUOUS
 62
     7
 66
     1
 10
0.0
 20
0.0
 30
0.0
  0
VERTEX
  5
6A3
  8
0
  6
CONTINUOUS
 62
     7
 10
-768.3081007692
 20
274.5365271316
 30
0.0
  0
VERTEX
  5
6A4
  8
0
  6
CONTINUOUS
 62
     7
 10
-768.2910836431
 20
274.7759589897
 30
0.0
  0
VERTEX
  5
6A5
  8
0
  6
CONTINUOUS
 62
     7
 10
-768.2415670844
 20
275.4723200546
 30
0.0
  0
VERTEX
  5
6A6
  8
0
  6
CONTINUOUS
 62
     7
 10
-768.1639469358
 20
276.5629658447
 30
0.0
  0
VERTEX
  5
6A7
  8
0
  6
CONTINUOUS
 62
     7
 10
-768.0650479289
 20
277.9509792076
 30
0.0
  0
SEQEND
  5
6A8
  8
0
  6
CONTINUOUS
 62
     7
  0
LINE
  5
227
  8
0
  6
CONTINUOUS
 62
     7
 10
-768.0650479289
 20
277.9509792076
 30
0.0
 11
-767.8344673606
 21
277.9461512313
 31
0.0
  0
LINE
  5
228
  8
0
  6
CONTINUOUS
 62
     7
 10
-767.6709122154
 20
278.7197599159
 30
0.0
 11
-767.4900419208
 21
281.2004456268
 31
0.0
  0
ARC
  5
229
  8
0
  6
CONTINUOUS
 62
     7
 10
-767.3800828622
 20
281.931108157
 30
0.0
 40
0.3997377192159816
 50
174.5624051993
 51
269.9461182081
  0
ARC
  5
22A
  8
0
  6
CONTINUOUS
 62
     7
 10
-767.6658747783
 20
277.9317395978
 30
0.0
 40
0.3996365432987581
 50
90.0385758392
 51
177.2405558855
  0
ARC
  5
22B
  8
0
  6
CONTINUOUS
 62
     7
 10
-767.6658747783
 20
277.9317395978
 30
0.0
 40
0.399636543298531
 50
90.0385758392
 51
177.2405558855
  0
LINE
  5
22C
  8
0
  6
CONTINUOUS
 62
     7
 10
-741.8893254491
 20
817.1813854919
 30
0.0
 11
-741.8893254491
 21
820.1814064727
 31
0.0
  0
POLYLINE
  5
22D
  8
0
  6
CONTINUOUS
 62
     7
 66
     1
 10
0.0
 20
0.0
 30
0.0
  0
VERTEX
  5
6A9
  8
0
  6
CONTINUOUS
 62
     7
 10
-752.791238496
 20
820.1814064727
 30
0.0
  0
VERTEX
  5
6AA
  8
0
  6
CONTINUOUS
 62
     7
 10
-752.6115900966
 20
820.0992712722
 30
0.0
  0
VERTEX
  5
6AB
  8
0
  6
CONTINUOUS
 62
     7
 10
-752.4829334709
 20
819.8908934341
 30
0.0
  0
VERTEX
  5
6AC
  8
0
  6
CONTINUOUS
 62
     7
 10
-752.3786104413
 20
819.3022379623
 30
0.0
  0
VERTEX
  5
6AD
  8
0
  6
CONTINUOUS
 62
     7
 10
-752.4805343839
 20
818.4502491699
 30
0.0
  0
VERTEX
  5
6AE
  8
0
  6
CONTINUOUS
 62
     7
 10
-752.6097870561
 20
817.8635010467
 30
0.0
  0
VERTEX
  5
6AF
  8
0
  6
CONTINUOUS
 62
     7
 10
-752.791238496
 20
817.1813854919
 30
0.0
  0
SEQEND
  5
6B0
  8
0
  6
CONTINUOUS
 62
     7
  0
LINE
  5
22E
  8
0
  6
CONTINUOUS
 62
     7
 10
-741.8893254491
 20
820.1814064727
 30
0.0
 11
-752.791238496
 21
820.1814064727
 31
0.0
  0
ARC
  5
22F
  8
0
  6
CONTINUOUS
 62
     7
 10
-755.3893186339
 20
818.6813692795
 30
0.0
 40
2.999999999999992
 50
300.0
 51
330.0
  0
LINE
  5
230
  8
0
  6
CONTINUOUS
 62
     7
 10
-741.8893254491
 20
-357.3186310037
 30
0.0
 11
-741.8893254491
 21
817.1813854919
 31
0.0
  0
ARC
  5
231
  8
0
  6
CONTINUOUS
 62
     7
 10
-755.3893186339
 20
-358.8186307205
 30
0.0
 40
2.999999999999943
 50
30.0
 51
60.0
  0
POLYLINE
  5
232
  8
0
  6
CONTINUOUS
 62
     7
 66
     1
 10
0.0
 20
0.0
 30
0.0
  0
VERTEX
  5
6B1
  8
0
  6
CONTINUOUS
 62
     7
 10
-752.791238496
 20
-357.3186310037
 30
0.0
  0
VERTEX
  5
6B2
  8
0
  6
CONTINUOUS
 62
     7
 10
-752.6115900966
 20
-358.0158321216
 30
0.0
  0
VERTEX
  5
6B3
  8
0
  6
CONTINUOUS
 62
     7
 10
-752.4829334709
 20
-358.606368865
 30
0.0
  0
VERTEX
  5
6B4
  8
0
  6
CONTINUOUS
 62
     7
 10
-752.3786104413
 20
-359.4403533294
 30
0.0
  0
VERTEX
  5
6B5
  8
0
  6
CONTINUOUS
 62
     7
 10
-752.4805343839
 20
-360.0370628788
 30
0.0
  0
VERTEX
  5
6B6
  8
0
  6
CONTINUOUS
 62
     7
 10
-752.6097870561
 20
-360.2400483592
 30
0.0
  0
VERTEX
  5
6B7
  8
0
  6
CONTINUOUS
 62
     7
 10
-752.791238496
 20
-360.3186314954
 30
0.0
  0
SEQEND
  5
6B8
  8
0
  6
CONTINUOUS
 62
     7
  0
LINE
  5
233
  8
0
  6
CONTINUOUS
 62
     7
 10
-741.8893254491
 20
-360.3186314954
 30
0.0
 11
-741.8893254491
 21
-357.3186310037
 31
0.0
  0
LINE
  5
234
  8
0
  6
CONTINUOUS
 62
     7
 10
-752.791238496
 20
-360.3186314954
 30
0.0
 11
-741.8893254491
 21
-360.3186314954
 31
0.0
  0
POLYLINE
  5
235
  8
0
  6
CONTINUOUS
 62
     7
 66
     1
 10
0.0
 20
0.0
 30
0.0
  0
VERTEX
  5
6B9
  8
0
  6
CONTINUOUS
 62
     7
 10
-756.8893260452
 20
-356.2205551221
 30
0.0
  0
VERTEX
  5
6BA
  8
0
  6
CONTINUOUS
 62
     7
 10
-756.8071759435
 20
-356.0409067227
 30
0.0
  0
VERTEX
  5
6BB
  8
0
  6
CONTINUOUS
 62
     7
 10
-756.5988875123
 20
-355.9122519596
 30
0.0
  0
VERTEX
  5
6BC
  8
0
  6
CONTINUOUS
 62
     7
 10
-756.0102320405
 20
-355.8079158916
 30
0.0
  0
VERTEX
  5
6BD
  8
0
  6
CONTINUOUS
 62
     7
 10
-755.1582283469
 20
-355.9098472847
 30
0.0
  0
VERTEX
  5
6BE
  8
0
  6
CONTINUOUS
 62
     7
 10
-754.5714653226
 20
-356.0391036822
 30
0.0
  0
VERTEX
  5
6BF
  8
0
  6
CONTINUOUS
 62
     7
 10
-753.8893199655
 20
-356.2205551221
 30
0.0
  0
SEQEND
  5
6C0
  8
0
  6
CONTINUOUS
 62
     7
  0
ARC
  5
236
  8
0
  6
CONTINUOUS
 62
     7
 10
-754.9769358453
 20
-356.2195346746
 30
0.0
 40
0.4123809720382401
 50
85.9414790764
 51
180.1417800495
  0
LINE
  5
237
  8
0
  6
CONTINUOUS
 62
     7
 10
-756.8893260452
 20
-356.2205551221
 30
0.0
 11
-755.3893155547
 21
-356.2205551221
 31
0.0
  0
LINE
  5
238
  8
0
  6
CONTINUOUS
 62
     7
 10
-752.791238496
 20
-360.3186314954
 30
0.0
 11
-752.791238496
 21
-358.8186303182
 31
0.0
  0
LINE
  5
239
  8
0
  6
CONTINUOUS
 62
     7
 10
-752.791238496
 20
818.6813959823
 30
0.0
 11
-752.791238496
 21
820.1814064727
 31
0.0
  0
ARC
  5
23A
  8
0
  6
CONTINUOUS
 62
     7
 10
-752.79050285
 20
818.2687582254
 30
0.0
 40
0.4126384126801177
 50
355.9820091881
 51
90.1021461658
  0
LINE
  5
23B
  8
0
  6
CONTINUOUS
 62
     7
 10
-756.8893260452
 20
-356.2205551221
 30
0.0
 11
-756.8893260452
 21
816.0833487258
 31
0.0
  0
POLYLINE
  5
23C
  8
0
  6
CONTINUOUS
 62
     7
 66
     1
 10
0.0
 20
0.0
 30
0.0
  0
VERTEX
  5
6C1
  8
0
  6
CONTINUOUS
 62
     7
 10
-753.8893199655
 20
816.0833487258
 30
0.0
  0
VERTEX
  5
6C2
  8
0
  6
CONTINUOUS
 62
     7
 10
-754.5865154954
 20
815.9037003265
 30
0.0
  0
VERTEX
  5
6C3
  8
0
  6
CONTINUOUS
 62
     7
 10
-755.1770634147
 20
815.7749542938
 30
0.0
  0
VERTEX
  5
6C4
  8
0
  6
CONTINUOUS
 62
     7
 10
-756.0110367032
 20
815.6706461654
 30
0.0
  0
VERTEX
  5
6C5
  8
0
  6
CONTINUOUS
 62
     7
 10
-756.6077537032
 20
815.772570108
 30
0.0
  0
VERTEX
  5
6C6
  8
0
  6
CONTINUOUS
 62
     7
 10
-756.810737321
 20
815.9017929779
 30
0.0
  0
VERTEX
  5
6C7
  8
0
  6
CONTINUOUS
 62
     7
 10
-756.8893260452
 20
816.0833487258
 30
0.0
  0
SEQEND
  5
6C8
  8
0
  6
CONTINUOUS
 62
     7
  0
LINE
  5
23D
  8
0
  6
CONTINUOUS
 62
     7
 10
-755.3893155547
 20
816.0833487258
 30
0.0
 11
-756.8893260452
 21
816.0833487258
 31
0.0
  0
LINE
  5
23E
  8
0
  6
CONTINUOUS
 62
     7
 10
-753.2680011483
 20
820.1814064727
 30
0.0
 11
-753.2680011483
 21
818.6813959823
 31
0.0
  0
LINE
  5
23F
  8
0
  6
CONTINUOUS
 62
     7
 10
-753.2680011483
 20
820.1814064727
 30
0.0
 11
-752.791238496
 21
820.1814064727
 31
0.0
  0
LINE
  5
240
  8
0
  6
CONTINUOUS
 62
     7
 10
-753.2680011483
 20
818.6813959823
 30
0.0
 11
-752.791238496
 21
818.6813959823
 31
0.0
  0
LINE
  5
241
  8
0
  6
CONTINUOUS
 62
     7
 10
-755.3893155547
 20
-357.3186310037
 30
0.0
 11
-755.3893155547
 21
-356.2205551221
 31
0.0
  0
LINE
  5
242
  8
0
  6
CONTINUOUS
 62
     7
 10
-755.3893155547
 20
-357.3186310037
 30
0.0
 11
-756.8893260452
 21
-357.3186310037
 31
0.0
  0
LINE
  5
243
  8
0
  6
CONTINUOUS
 62
     7
 10
-756.8893260452
 20
-357.3186310037
 30
0.0
 11
-756.8893260452
 21
-356.2205551221
 31
0.0
  0
LINE
  5
244
  8
0
  6
CONTINUOUS
 62
     7
 10
-756.8893260452
 20
817.1813854919
 30
0.0
 11
-755.3893155547
 21
817.1813854919
 31
0.0
  0
LINE
  5
245
  8
0
  6
CONTINUOUS
 62
     7
 10
-755.3893155547
 20
816.0833487258
 30
0.0
 11
-755.3893155547
 21
817.1813854919
 31
0.0
  0
LINE
  5
246
  8
0
  6
CONTINUOUS
 62
     7
 10
-756.8893260452
 20
816.0833487258
 30
0.0
 11
-756.8893260452
 21
817.1813854919
 31
0.0
  0
LINE
  5
247
  8
0
  6
CONTINUOUS
 62
     7
 10
-753.2680011483
 20
-360.3186314954
 30
0.0
 11
-753.2680011483
 21
-358.8186303182
 31
0.0
  0
LINE
  5
248
  8
0
  6
CONTINUOUS
 62
     7
 10
-752.791238496
 20
-360.3186314954
 30
0.0
 11
-753.2680011483
 21
-360.3186314954
 31
0.0
  0
LINE
  5
249
  8
0
  6
CONTINUOUS
 62
     7
 10
-752.791238496
 20
-358.8186303182
 30
0.0
 11
-753.2680011483
 21
-358.8186303182
 31
0.0
  0
LINE
  5
24A
  8
0
  6
CONTINUOUS
 62
     7
 10
-753.8893199655
 20
820.1814064727
 30
0.0
 11
-753.8893199655
 21
818.6813959823
 31
0.0
  0
LINE
  5
24B
  8
0
  6
CONTINUOUS
 62
     7
 10
-753.8893199655
 20
820.1814064727
 30
0.0
 11
-753.2680011483
 21
820.1814064727
 31
0.0
  0
LINE
  5
24C
  8
0
  6
CONTINUOUS
 62
     7
 10
-753.8893199655
 20
818.6813959823
 30
0.0
 11
-753.2680011483
 21
818.6813959823
 31
0.0
  0
LINE
  5
24D
  8
0
  6
CONTINUOUS
 62
     7
 10
-753.8893199655
 20
-358.8186303182
 30
0.0
 11
-753.8893199655
 21
-360.3186314954
 31
0.0
  0
LINE
  5
24E
  8
0
  6
CONTINUOUS
 62
     7
 10
-753.2680011483
 20
-358.8186303182
 30
0.0
 11
-753.8893199655
 21
-358.8186303182
 31
0.0
  0
LINE
  5
24F
  8
0
  6
CONTINUOUS
 62
     7
 10
-753.2680011483
 20
-360.3186314954
 30
0.0
 11
-753.8893199655
 21
-360.3186314954
 31
0.0
  0
ARC
  5
250
  8
0
  6
CONTINUOUS
 62
     7
 10
-753.8892902049
 20
817.1813706326
 30
0.0
 40
1.500025349966887
 50
90.0011367534
 51
179.9994324279
  0
ARC
  5
251
  8
0
  6
CONTINUOUS
 62
     7
 10
-753.8890815312
 20
817.1811619599
 30
0.0
 40
3.000244522321826
 50
90.004553389
 51
179.995731201
  0
ARC
  5
252
  8
0
  6
CONTINUOUS
 62
     7
 10
-753.8893025961
 20
-357.3186080464
 30
0.0
 40
3.000023449109863
 50
180.0004384491
 51
269.9996682725
  0
ARC
  5
253
  8
0
  6
CONTINUOUS
 62
     7
 10
-753.8893148427
 20
-357.3186296062
 30
0.0
 40
1.500000712082934
 50
180.0000533816
 51
269.9998043226
  0
LINE
  5
254
  8
0
  6
CONTINUOUS
 62
     7
 10
-430.039321551
 20
822.0732578979
 30
0.0
 11
-411.3393253776
 21
822.0732578979
 31
0.0
  0
LINE
  5
255
  8
0
  6
CONTINUOUS
 62
     7
 10
-680.0393141004
 20
822.0732578979
 30
0.0
 11
-661.339317927
 21
822.0732578979
 31
0.0
  0
LINE
  5
256
  8
0
  6
CONTINUOUS
 62
     7
 10
-737.6893139573
 20
257.4313649879
 30
0.0
 11
-737.6893139573
 21
202.4313578353
 31
0.0
  0
LINE
  5
257
  8
0
  6
CONTINUOUS
 62
     7
 10
-737.6893139573
 20
257.4313649879
 30
0.0
 11
-735.6893248054
 21
257.4313649879
 31
0.0
  0
LINE
  5
258
  8
0
  6
CONTINUOUS
 62
     7
 10
-737.6893139573
 20
202.4313578353
 30
0.0
 11
-735.6893248054
 21
202.4313578353
 31
0.0
  0
LINE
  5
259
  8
0
  6
CONTINUOUS
 62
     7
 10
-739.9676717016
 20
202.4313578353
 30
0.0
 11
-737.6893139573
 21
202.4313578353
 31
0.0
  0
LINE
  5
25A
  8
0
  6
CONTINUOUS
 62
     7
 10
-739.9676717016
 20
257.4313649879
 30
0.0
 11
-737.6893139573
 21
257.4313649879
 31
0.0
  0
LINE
  5
25B
  8
0
  6
CONTINUOUS
 62
     7
 10
-741.8893254491
 20
202.4313578353
 30
0.0
 11
-739.9676717016
 21
202.4313578353
 31
0.0
  0
LINE
  5
25C
  8
0
  6
CONTINUOUS
 62
     7
 10
-741.8893254491
 20
257.4313649879
 30
0.0
 11
-739.9676717016
 21
257.4313649879
 31
0.0
  0
LINE
  5
25D
  8
0
  6
CONTINUOUS
 62
     7
 10
-737.6893139573
 20
737.6814255462
 30
0.0
 11
-737.6893139573
 21
682.681358789
 31
0.0
  0
LINE
  5
25E
  8
0
  6
CONTINUOUS
 62
     7
 10
-737.6893139573
 20
737.6814255462
 30
0.0
 11
-735.6893248054
 21
737.6814255462
 31
0.0
  0
LINE
  5
25F
  8
0
  6
CONTINUOUS
 62
     7
 10
-737.6893139573
 20
682.681358789
 30
0.0
 11
-735.6893248054
 21
682.681358789
 31
0.0
  0
LINE
  5
260
  8
0
  6
CONTINUOUS
 62
     7
 10
-739.9676717016
 20
682.681358789
 30
0.0
 11
-737.6893139573
 21
682.681358789
 31
0.0
  0
LINE
  5
261
  8
0
  6
CONTINUOUS
 62
     7
 10
-739.9676717016
 20
737.6814255462
 30
0.0
 11
-737.6893139573
 21
737.6814255462
 31
0.0
  0
LINE
  5
262
  8
0
  6
CONTINUOUS
 62
     7
 10
-741.8893254491
 20
682.681358789
 30
0.0
 11
-739.9676717016
 21
682.681358789
 31
0.0
  0
LINE
  5
263
  8
0
  6
CONTINUOUS
 62
     7
 10
-741.8893254491
 20
737.6814255462
 30
0.0
 11
-739.9676717016
 21
737.6814255462
 31
0.0
  0
LINE
  5
264
  8
0
  6
CONTINUOUS
 62
     7
 10
-737.6893139573
 20
-222.8186359658
 30
0.0
 11
-737.6893139573
 21
-277.8186282172
 31
0.0
  0
LINE
  5
265
  8
0
  6
CONTINUOUS
 62
     7
 10
-737.6893139573
 20
-222.8186359658
 30
0.0
 11
-735.6893248054
 21
-222.8186359658
 31
0.0
  0
LINE
  5
266
  8
0
  6
CONTINUOUS
 62
     7
 10
-737.6893139573
 20
-277.8186282172
 30
0.0
 11
-735.6893248054
 21
-277.8186282172
 31
0.0
  0
LINE
  5
267
  8
0
  6
CONTINUOUS
 62
     7
 10
-739.9676717016
 20
-277.8186282172
 30
0.0
 11
-737.6893139573
 21
-277.8186282172
 31
0.0
  0
LINE
  5
268
  8
0
  6
CONTINUOUS
 62
     7
 10
-739.9676717016
 20
-222.8186359658
 30
0.0
 11
-737.6893139573
 21
-222.8186359658
 31
0.0
  0
LINE
  5
269
  8
0
  6
CONTINUOUS
 62
     7
 10
-741.8893254491
 20
-277.8186282172
 30
0.0
 11
-739.9676717016
 21
-277.8186282172
 31
0.0
  0
LINE
  5
26A
  8
0
  6
CONTINUOUS
 62
     7
 10
-741.8893254491
 20
-222.8186359658
 30
0.0
 11
-739.9676717016
 21
-222.8186359658
 31
0.0
  0
LINE
  5
26B
  8
0
  6
CONTINUOUS
 62
     7
 10
-738.3093214723
 20
247.8313812957
 30
0.0
 11
-738.3093214723
 21
252.0313629852
 31
0.0
  0
LINE
  5
26C
  8
0
  6
CONTINUOUS
 62
     7
 10
-737.9093147012
 20
252.4313697563
 30
0.0
 11
-737.9093147012
 21
247.4313745246
 31
0.0
  0
LINE
  5
26D
  8
0
  6
CONTINUOUS
 62
     7
 10
-738.3093214723
 20
688.0814203964
 30
0.0
 11
-738.3093214723
 21
692.2814020858
 31
0.0
  0
LINE
  5
26E
  8
0
  6
CONTINUOUS
 62
     7
 10
-737.9093147012
 20
692.6813492523
 30
0.0
 11
-737.9093147012
 21
687.6813540206
 31
0.0
  0
LINE
  5
26F
  8
0
  6
CONTINUOUS
 62
     7
 10
-738.3093214723
 20
207.8313598381
 30
0.0
 11
-738.3093214723
 21
212.0313415275
 31
0.0
  0
LINE
  5
270
  8
0
  6
CONTINUOUS
 62
     7
 10
-737.9093147012
 20
212.4313482986
 30
0.0
 11
-737.9093147012
 21
207.431353067
 31
0.0
  0
LINE
  5
271
  8
0
  6
CONTINUOUS
 62
     7
 10
-738.3093214723
 20
728.0813822494
 30
0.0
 11
-738.3093214723
 21
732.2813639389
 31
0.0
  0
LINE
  5
272
  8
0
  6
CONTINUOUS
 62
     7
 10
-737.9093147012
 20
732.6813111053
 30
0.0
 11
-737.9093147012
 21
727.6813158737
 31
0.0
  0
LINE
  5
273
  8
0
  6
CONTINUOUS
 62
     7
 10
-738.3093214723
 20
-272.418633665
 30
0.0
 11
-738.3093214723
 21
-268.2186296238
 31
0.0
  0
LINE
  5
274
  8
0
  6
CONTINUOUS
 62
     7
 10
-737.9093147012
 20
-267.8186303033
 30
0.0
 11
-737.9093147012
 21
-272.8186329855
 31
0.0
  0
LINE
  5
275
  8
0
  6
CONTINUOUS
 62
     7
 10
-737.9093147012
 20
-227.8186311974
 30
0.0
 11
-737.9093147012
 21
-232.818626429
 31
0.0
  0
LINE
  5
276
  8
0
  6
CONTINUOUS
 62
     7
 10
-738.3093214723
 20
-232.4186345591
 30
0.0
 11
-738.3093214723
 21
-228.2186379685
 31
0.0
  0
LINE
  5
277
  8
0
  6
CONTINUOUS
 62
     7
 10
-359.4893193933
 20
-376.8186307075
 30
0.0
 11
-359.3809730502
 21
-376.8147126335
 31
0.0
  0
LINE
  5
278
  8
0
  6
CONTINUOUS
 62
     7
 10
-359.2726267072
 20
-378.3107945215
 30
0.0
 11
-359.3809730502
 21
-376.8147126335
 31
0.0
  0
LINE
  5
279
  8
0
  6
CONTINUOUS
 62
     7
 10
-359.4893193933
 20
-378.3186307206
 30
0.0
 11
-359.2726267072
 21
-378.3107945588
 31
0.0
  0
LINE
  5
27A
  8
0
  6
CONTINUOUS
 62
     7
 10
-359.4893193933
 20
-376.8186307075
 30
0.0
 11
-359.4893193933
 21
-378.3186307206
 31
0.0
  0
LINE
  5
27B
  8
0
  6
CONTINUOUS
 62
     7
 10
-357.989323804
 20
-375.3186306945
 30
0.0
 11
-356.4893133136
 21
-375.3186306945
 31
0.0
  0
ARC
  5
27C
  8
0
  6
CONTINUOUS
 62
     7
 10
-359.4893220387
 20
-375.3186221528
 30
0.0
 40
3.00000872509673
 50
274.1421711741
 51
359.9998368662
  0
ARC
  5
27D
  8
0
  6
CONTINUOUS
 62
     7
 10
-359.4893031029
 20
-375.3186503029
 30
0.0
 40
1.499979298960437
 50
274.1415659647
 51
0.0007489952
  0
LINE
  5
27E
  8
0
  6
CONTINUOUS
 62
     7
 10
-359.4893193933
 20
-378.3186307206
 30
0.0
 11
-360.9893149825
 21
-378.3186307206
 31
0.0
  0
LINE
  5
27F
  8
0
  6
CONTINUOUS
 62
     7
 10
-359.4893193933
 20
-376.8186307075
 30
0.0
 11
-360.2999276611
 21
-376.8186307075
 31
0.0
  0
LINE
  5
280
  8
0
  6
CONTINUOUS
 62
     7
 10
-356.4893133136
 20
-375.3186306945
 30
0.0
 11
-356.4893133136
 21
-375.2328442438
 31
0.0
  0
LINE
  5
281
  8
0
  6
CONTINUOUS
 62
     7
 10
-732.189325163
 20
-376.8186307075
 30
0.0
 11
-732.189325163
 21
-378.3186307206
 31
0.0
  0
LINE
  5
282
  8
0
  6
CONTINUOUS
 62
     7
 10
-732.189325163
 20
-376.8186307075
 30
0.0
 11
-731.8580723497
 21
-376.8186307075
 31
0.0
  0
LINE
  5
283
  8
0
  6
CONTINUOUS
 62
     7
 10
-732.189325163
 20
-378.3186307206
 30
0.0
 11
-730.4822183343
 21
-378.3186307206
 31
0.0
  0
LINE
  5
284
  8
0
  6
CONTINUOUS
 62
     7
 10
-735.6893248054
 20
-374.8186306125
 30
0.0
 11
-734.5531857702
 21
-374.8186306125
 31
0.0
  0
LINE
  5
285
  8
0
  6
CONTINUOUS
 62
     7
 10
-735.6893248054
 20
-373.1115237838
 30
0.0
 11
-735.6893248054
 21
-374.8186306125
 31
0.0
  0
LINE
  5
286
  8
0
  6
CONTINUOUS
 62
     7
 10
-735.6893248054
 20
-374.8186306125
 30
0.0
 11
-735.6893248054
 21
-375.3186306945
 31
0.0
  0
LINE
  5
287
  8
0
  6
CONTINUOUS
 62
     7
 10
-734.189314315
 20
-374.9740869767
 30
0.0
 11
-734.189314315
 21
-375.3186306945
 31
0.0
  0
LINE
  5
288
  8
0
  6
CONTINUOUS
 62
     7
 10
-732.6893187257
 20
-376.8186307075
 30
0.0
 11
-732.189325163
 21
-376.8186307075
 31
0.0
  0
LINE
  5
289
  8
0
  6
CONTINUOUS
 62
     7
 10
-732.6893187257
 20
-378.3186307206
 30
0.0
 11
-732.189325163
 21
-378.3186307206
 31
0.0
  0
ARC
  5
28A
  8
0
  6
CONTINUOUS
 62
     7
 10
-732.6893190595
 20
-375.3186307206
 30
0.0
 40
3.0
 50
180.0
 51
270.0
  0
ARC
  5
28B
  8
0
  6
CONTINUOUS
 62
     7
 10
-732.6893190595
 20
-375.3186307206
 30
0.0
 40
1.5
 50
180.0
 51
270.0
  0
LINE
  5
28C
  8
0
  6
CONTINUOUS
 62
     7
 10
-737.6068360301
 20
-338.0478253617
 30
0.0
 11
-741.8893254491
 21
-338.6496907129
 31
0.0
  0
LINE
  5
28D
  8
0
  6
CONTINUOUS
 62
     7
 10
-737.398085663
 20
-339.5332289888
 30
0.0
 11
-737.6068360301
 21
-338.0478253617
 31
0.0
  0
LINE
  5
28E
  8
0
  6
CONTINUOUS
 62
     7
 10
-737.398085663
 20
-339.5332289888
 30
0.0
 11
-741.8893254491
 21
-340.1644310011
 31
0.0
  0
ARC
  5
28F
  8
0
  6
CONTINUOUS
 62
     7
 10
-737.1464277031
 20
-340.750238152
 30
0.0
 40
2.74135198707364
 50
57.8913063597
 51
99.6686121882
  0
ARC
  5
290
  8
0
  6
CONTINUOUS
 62
     7
 10
-737.1893153097
 20
-341.0186199988
 30
0.0
 40
1.499990504314586
 50
359.9996603539
 51
98.0004637766
  0
LINE
  5
291
  8
0
  6
CONTINUOUS
 62
     7
 10
-737.6068360301
 20
-337.5239042594
 30
0.0
 11
-737.1892309877
 21
-337.4895049288
 31
0.0
  0
LINE
  5
292
  8
0
  6
CONTINUOUS
 62
     7
 10
-737.1892309877
 20
797.1502909408
 30
0.0
 11
-737.6068360301
 21
797.1846232162
 31
0.0
  0
LINE
  5
293
  8
0
  6
CONTINUOUS
 62
     7
 10
-734.189314315
 20
-375.0389333377
 30
0.0
 11
-733.5410690996
 21
-375.0389333377
 31
0.0
  0
LINE
  5
294
  8
0
  6
CONTINUOUS
 62
     7
 10
-359.4893193933
 20
820.1814064727
 30
0.0
 11
-732.193765709
 21
820.1814064727
 31
0.0
  0
LINE
  5
295
  8
0
  6
CONTINUOUS
 62
     7
 10
-359.9441624376
 20
-375.3186306945
 30
0.0
 11
-359.4893193933
 21
-375.3186306945
 31
0.0
  0
ARC
  5
296
  8
0
  6
CONTINUOUS
 62
     7
 10
-732.1937664487
 20
-370.3186307206
 30
0.0
 40
4.999999999973056
 50
264.3120472984
 51
270.0
  0
LINE
  5
297
  8
0
  6
CONTINUOUS
 62
     7
 10
-732.193765709
 20
820.1814064727
 30
0.0
 11
-732.6893187257
 21
819.9935326324
 31
0.0
  0
ARC
  5
298
  8
0
  6
CONTINUOUS
 62
     7
 10
-359.5832994226
 20
-319.5331480292
 30
0.0
 40
55.78556182782469
 50
270.0965242871
 51
273.1793774084
  0
POLYLINE
  5
299
  8
0
  6
CONTINUOUS
 62
     7
 66
     1
 10
0.0
 20
0.0
 30
0.0
  0
VERTEX
  5
6C9
  8
0
  6
CONTINUOUS
 62
     7
 10
-356.4893133136
 20
817.9742464767
 30
0.0
  0
VERTEX
  5
6CA
  8
0
  6
CONTINUOUS
 62
     7
 10
-356.6925949546
 20
818.6813959823
 30
0.0
  0
VERTEX
  5
6CB
  8
0
  6
CONTINUOUS
 62
     7
 10
-357.2748876306
 20
819.3884262786
 30
0.0
  0
SEQEND
  5
6CC
  8
0
  6
CONTINUOUS
 62
     7
  0
LINE
  5
29A
  8
0
  6
CONTINUOUS
 62
     7
 10
-356.4893133136
 20
817.9742464767
 30
0.0
 11
-356.4893133136
 21
-375.2328442438
 31
0.0
  0
ARC
  5
29B
  8
0
  6
CONTINUOUS
 62
     7
 10
-365.1989283392
 20
800.7486358599
 30
0.0
 40
20.25418988770689
 50
66.9689631818
 51
73.626503688
  0
ARC
  5
29C
  8
0
  6
CONTINUOUS
 62
     7
 10
-365.6819795948
 20
-375.0017232956
 30
0.0
 40
5.746562105194533
 50
324.7462548169
 51
356.8386885539
  0
LINE
  5
29D
  8
0
  6
CONTINUOUS
 62
     7
 10
-360.9893149825
 20
-378.3186307206
 30
0.0
 11
-730.4822183343
 21
-378.3186307206
 31
0.0
  0
POLYLINE
  5
29E
  8
0
  6
CONTINUOUS
 62
     7
 66
     1
 10
0.0
 20
0.0
 30
0.0
  0
VERTEX
  5
6CD
  8
0
  6
CONTINUOUS
 62
     7
 10
-731.5452373716
 20
-377.8658025054
 30
0.0
  0
VERTEX
  5
6CE
  8
0
  6
CONTINUOUS
 62
     7
 10
-731.0137278529
 20
-378.2032030736
 30
0.0
  0
VERTEX
  5
6CF
  8
0
  6
CONTINUOUS
 62
     7
 10
-730.4822183343
 20
-378.3186307206
 30
0.0
  0
SEQEND
  5
6D0
  8
0
  6
CONTINUOUS
 62
     7
  0
ARC
  5
29F
  8
0
  6
CONTINUOUS
 62
     7
 10
-713.3025581294
 20
-371.8649387261
 30
0.0
 40
19.20431493253434
 50
190.3604039162
 51
198.2084347312
  0
ARC
  5
2A0
  8
0
  6
CONTINUOUS
 62
     7
 10
-728.0037277694
 20
798.5157824805
 30
0.0
 40
21.98291414251355
 50
102.3068352161
 51
108.6338710949
  0
POLYLINE
  5
2A1
  8
0
  6
CONTINUOUS
 62
     7
 66
     1
 10
0.0
 20
0.0
 30
0.0
  0
VERTEX
  5
6D1
  8
0
  6
CONTINUOUS
 62
     7
 10
-734.2325425836
 20
-375.0795979081
 30
0.0
  0
VERTEX
  5
6D2
  8
0
  6
CONTINUOUS
 62
     7
 10
-733.4899730178
 20
-375.1868054765
 30
0.0
  0
VERTEX
  5
6D3
  8
0
  6
CONTINUOUS
 62
     7
 10
-732.6893187257
 20
-375.294012812
 30
0.0
  0
SEQEND
  5
6D4
  8
0
  6
CONTINUOUS
 62
     7
  0
ARC
  5
2A2
  8
0
  6
CONTINUOUS
 62
     7
 10
-732.878446287
 20
-372.5540891123
 30
0.0
 40
2.865618861324074
 50
191.2169800697
 51
241.8012270946
  0
LINE
  5
2A3
  8
0
  6
CONTINUOUS
 62
     7
 10
-735.6893248054
 20
-373.1115237838
 30
0.0
 11
-735.6893248054
 21
818.0486330734
 31
0.0
  0
POLYLINE
  5
2A4
  8
0
  6
CONTINUOUS
 62
     7
 66
     1
 10
0.0
 20
0.0
 30
0.0
  0
VERTEX
  5
6D5
  8
0
  6
CONTINUOUS
 62
     7
 10
-735.0276983472
 20
819.3463453994
 30
0.0
  0
VERTEX
  5
6D6
  8
0
  6
CONTINUOUS
 62
     7
 10
-735.5190790387
 20
818.6974892364
 30
0.0
  0
VERTEX
  5
6D7
  8
0
  6
CONTINUOUS
 62
     7
 10
-735.6893248054
 20
818.0486330734
 30
0.0
  0
SEQEND
  5
6D8
  8
0
  6
CONTINUOUS
 62
     7
  0
LINE
  5
2A5
  8
0
  6
CONTINUOUS
 62
     7
 10
-741.8893254491
 20
-338.16130888
 30
0.0
 11
-737.398085663
 21
-337.5239042594
 31
0.0
  0
LINE
  5
2A6
  8
0
  6
CONTINUOUS
 62
     7
 10
-737.398085663
 20
797.1846232162
 30
0.0
 11
-741.8893254491
 21
797.8220352874
 31
0.0
  0
ARC
  5
2A7
  8
0
  6
CONTINUOUS
 62
     7
 10
-745.8359975076
 20
-228.5316731489
 30
0.0
 40
109.3003919362698
 50
274.5374169326
 51
275.3266030479
  0
ARC
  5
2A8
  8
0
  6
CONTINUOUS
 62
     7
 10
-746.1448733648
 20
684.638953131
 30
0.0
 40
112.8671992482322
 50
84.6847363233
 51
85.4489836573
  0
ARC
  5
2A9
  8
0
  6
CONTINUOUS
 62
     7
 10
-737.5829335599
 20
792.7610702636
 30
0.0
 40
4.427413406207074
 50
64.6782574746
 51
87.6071618579
  0
ARC
  5
2AA
  8
0
  6
CONTINUOUS
 62
     7
 10
-737.5829819793
 20
-333.1011097851
 30
0.0
 40
4.426657611478513
 50
272.3938741829
 51
295.3270646829
  0
LINE
  5
2AB
  8
0
  6
CONTINUOUS
 62
     7
 10
-359.4893193933
 20
821.6814169632
 30
0.0
 11
-359.4893193933
 21
820.1814064727
 31
0.0
  0
LINE
  5
2AC
  8
0
  6
CONTINUOUS
 62
     7
 10
-356.6925949546
 20
818.6813959823
 30
0.0
 11
-356.4893133136
 21
818.6813959823
 31
0.0
  0
POLYLINE
  5
2AD
  8
0
  6
CONTINUOUS
 62
     7
 66
     1
 10
0.0
 20
0.0
 30
0.0
  0
VERTEX
  5
6D9
  8
0
  6
CONTINUOUS
 62
     7
 10
-358.7139225694
 20
819.9304709182
 30
0.0
  0
VERTEX
  5
6DA
  8
0
  6
CONTINUOUS
 62
     7
 10
-358.9910692664
 20
820.0961718307
 30
0.0
  0
VERTEX
  5
6DB
  8
0
  6
CONTINUOUS
 62
     7
 10
-359.4893193933
 20
820.1814064727
 30
0.0
  0
SEQEND
  5
6DC
  8
0
  6
CONTINUOUS
 62
     7
  0
ARC
  5
2AE
  8
0
  6
CONTINUOUS
 62
     7
 10
-359.4894864189
 20
818.6812438586
 30
0.0
 40
3.000173109180071
 50
0.0029051809
 51
89.9968102291
  0
LINE
  5
2AF
  8
0
  6
CONTINUOUS
 62
     7
 10
-732.6893187257
 20
820.1814064727
 30
0.0
 11
-732.6893187257
 21
821.6814169632
 31
0.0
  0
LINE
  5
2B0
  8
0
  6
CONTINUOUS
 62
     7
 10
-732.6893187257
 20
821.6814169632
 30
0.0
 11
-732.193765709
 21
821.6814169632
 31
0.0
  0
LINE
  5
2B1
  8
0
  6
CONTINUOUS
 62
     7
 10
-732.193765709
 20
821.6814169632
 30
0.0
 11
-359.4893193933
 21
821.6814169632
 31
0.0
  0
ARC
  5
2B2
  8
0
  6
CONTINUOUS
 62
     7
 10
-732.6892138784
 20
818.6812855905
 30
0.0
 40
3.000131374460507
 50
90.0020023482
 51
165.1313680159
  0
LINE
  5
2B3
  8
0
  6
CONTINUOUS
 62
     7
 10
-734.9276221486
 20
819.2755350814
 30
0.0
 11
-735.5888909789
 21
819.4511303649
 31
0.0
  0
ARC
  5
2B4
  8
0
  6
CONTINUOUS
 62
     7
 10
-732.7239564278
 20
818.8053142559
 30
0.0
 40
1.376528081646246
 50
88.5581088647
 51
137.6589385097
  0
LINE
  5
2B5
  8
0
  6
CONTINUOUS
 62
     7
 10
-735.6893248054
 20
818.6813959823
 30
0.0
 11
-735.5888909789
 21
819.4511303649
 31
0.0
  0
LINE
  5
2B6
  8
0
  6
CONTINUOUS
 62
     7
 10
-735.6893248054
 20
818.6813959823
 30
0.0
 11
-735.6893248054
 21
818.0486330734
 31
0.0
  0
LINE
  5
2B7
  8
0
  6
CONTINUOUS
 62
     7
 10
-356.4893133136
 20
817.9742464767
 30
0.0
 11
-356.4893133136
 21
818.6813959823
 31
0.0
  0
LINE
  5
2B8
  8
0
  6
CONTINUOUS
 62
     7
 10
-741.8893254491
 20
798.3124623046
 30
0.0
 11
-737.6068360301
 21
797.7105746017
 31
0.0
  0
LINE
  5
2B9
  8
0
  6
CONTINUOUS
 62
     7
 10
-741.8893254491
 20
799.8271355377
 30
0.0
 11
-737.398085663
 21
799.1959223495
 31
0.0
  0
LINE
  5
2BA
  8
0
  6
CONTINUOUS
 62
     7
 10
-737.398085663
 20
799.1959223495
 30
0.0
 11
-737.6068360301
 21
797.7105746017
 31
0.0
  0
POLYLINE
  5
2BB
  8
0
  6
CONTINUOUS
 62
     7
 66
     1
 10
0.0
 20
0.0
 30
0.0
  0
VERTEX
  5
6DD
  8
0
  6
CONTINUOUS
 62
     7
 10
-736.2081087323
 20
799.5467552887
 30
0.0
  0
VERTEX
  5
6DE
  8
0
  6
CONTINUOUS
 62
     7
 10
-735.8251637908
 20
800.0575670944
 30
0.0
  0
VERTEX
  5
6DF
  8
0
  6
CONTINUOUS
 62
     7
 10
-735.6893248054
 20
800.6813893066
 30
0.0
  0
SEQEND
  5
6E0
  8
0
  6
CONTINUOUS
 62
     7
  0
LINE
  5
2BC
  8
0
  6
CONTINUOUS
 62
     7
 10
-735.6893248054
 20
798.9470133529
 30
0.0
 11
-736.2081087323
 21
799.5467552887
 31
0.0
  0
ARC
  5
2BD
  8
0
  6
CONTINUOUS
 62
     7
 10
-737.1896187591
 20
800.6823666332
 30
0.0
 40
1.5009913585496
 50
262.0166025915
 51
310.8368888755
  0
ARC
  5
2BE
  8
0
  6
CONTINUOUS
 62
     7
 10
-737.1469301732
 20
800.4124740483
 30
0.0
 40
2.740761576092613
 50
260.3399404279
 51
302.1288419657
  0
ARC
  5
2BF
  8
0
  6
CONTINUOUS
 62
     7
 10
-49.0265579848
 20
1345.5270308358
 30
0.0
 40
100.0000000000041
 50
81.1241878669
 51
98.8758121331
  0
ARC
  5
2C0
  8
0
  6
CONTINUOUS
 62
     7
 10
-64.3324531287
 20
1443.5391197522
 30
0.0
 40
0.8000000002423889
 50
98.8758094368
 51
168.2772923332
  0
ARC
  5
2C1
  8
0
  6
CONTINUOUS
 62
     7
 10
-33.7206628408
 20
1443.5391197522
 30
0.0
 40
0.8000000002456812
 50
11.7227076668
 51
81.1241905629
  0
ARC
  5
2C2
  8
0
  6
CONTINUOUS
 62
     7
 10
-11.2629336501
 20
1432.5270308352
 30
0.0
 40
55.00000000001659
 50
168.2773094144
 51
177.9136198395
  0
ARC
  5
2C3
  8
0
  6
CONTINUOUS
 62
     7
 10
-86.7901823194
 20
1432.5270308352
 30
0.0
 40
55.00000000002018
 50
2.0863170139
 51
11.7226905855
  0
LINE
  5
2C4
  8
0
  6
CONTINUOUS
 62
     7
 10
-48.3637832499
 20
1445.9413277211
 30
0.0
 11
-49.0265570975
 21
1445.9484653773
 31
0.0
  0
ARC
  5
2C5
  8
0
  6
CONTINUOUS
 62
     7
 10
-47.9592862274
 20
1401.5255394901
 30
0.0
 40
44.41763008114297
 50
76.553508575
 51
90.5217813855
  0
ARC
  5
2C6
  8
0
  6
CONTINUOUS
 62
     7
 10
-50.2543868709
 20
1402.9068649107
 30
0.0
 40
43.03815195510683
 50
89.2482869096
 51
103.3698986681
  0
LINE
  5
2C7
  8
0
  6
CONTINUOUS
 62
     7
 10
-49.0265570975
 20
1445.9484653773
 30
0.0
 11
-49.6897481776
 21
1445.9413128199
 31
0.0
  0
LINE
  5
2C8
  8
0
  6
CONTINUOUS
 62
     7
 10
-56.7265533305
 20
1398.0270313325
 30
0.0
 11
-52.956797967
 21
1398.0270313325
 31
0.0
  0
LINE
  5
2C9
  8
0
  6
CONTINUOUS
 62
     7
 10
-88.3265518046
 20
1413.3270370068
 30
0.0
 11
-88.3265518046
 21
1414.3270241322
 31
0.0
  0
LINE
  5
2CA
  8
0
  6
CONTINUOUS
 62
     7
 10
-98.3265720702
 20
1414.3270241322
 30
0.0
 11
-98.3265720702
 21
1413.3270370068
 31
0.0
  0
LINE
  5
2CB
  8
0
  6
CONTINUOUS
 62
     7
 10
681.6734291219
 20
1415.3270261588
 30
0.0
 11
681.6734291219
 21
1415.5470269027
 31
0.0
  0
LINE
  5
2CC
  8
0
  6
CONTINUOUS
 62
     7
 10
676.6734338903
 20
1415.5470269027
 30
0.0
 11
676.6734338903
 21
1415.3270261588
 31
0.0
  0
LINE
  5
2CD
  8
0
  6
CONTINUOUS
 62
     7
 10
681.6734291219
 20
1415.5470269027
 30
0.0
 11
681.2734521531
 21
1415.9470336738
 31
0.0
  0
LINE
  5
2CE
  8
0
  6
CONTINUOUS
 62
     7
 10
677.0734406614
 20
1415.9470336738
 30
0.0
 11
676.6734338903
 21
1415.5470269027
 31
0.0
  0
LINE
  5
2CF
  8
0
  6
CONTINUOUS
 62
     7
 10
670.4418278837
 20
1414.7353308501
 30
0.0
 11
670.4418278837
 21
1414.7815989556
 31
0.0
  0
LINE
  5
2D0
  8
0
  6
CONTINUOUS
 62
     7
 10
-84.5949434138
 20
1414.7815989556
 30
0.0
 11
-84.5949434138
 21
1414.7353308501
 31
0.0
  0
LINE
  5
2D1
  8
0
  6
CONTINUOUS
 62
     7
 10
681.63054358
 20
1399.8270320001
 30
0.0
 11
680.923453679
 21
1399.8270320001
 31
0.0
  0
LINE
  5
2D2
  8
0
  6
CONTINUOUS
 62
     7
 10
-95.0765692092
 20
1399.8270320001
 30
0.0
 11
-95.6603967047
 21
1399.8270320001
 31
0.0
  0
LINE
  5
2D3
  8
0
  6
CONTINUOUS
 62
     7
 10
646.9234443807
 20
1049.3246900143
 30
0.0
 11
646.9234443807
 21
1051.7270254197
 31
0.0
  0
LINE
  5
2D4
  8
0
  6
CONTINUOUS
 62
     7
 10
638.9234281682
 20
1051.7270254197
 30
0.0
 11
638.9234281682
 21
1049.3246900143
 31
0.0
  0
LINE
  5
2D5
  8
0
  6
CONTINUOUS
 62
     7
 10
-53.0765436984
 20
1049.3246900143
 30
0.0
 11
-53.0765436984
 21
1051.7270254197
 31
0.0
  0
LINE
  5
2D6
  8
0
  6
CONTINUOUS
 62
     7
 10
-61.0765599108
 20
1051.7270254197
 30
0.0
 11
-61.0765599108
 21
1049.3246900143
 31
0.0
  0
ARC
  5
2D7
  8
0
  6
CONTINUOUS
 62
     7
 10
-97.5537335058
 20
1031.6498687823
 30
0.0
 40
4.772323045516067
 50
198.6083558078
 51
251.3919287821
  0
ARC
  5
2D8
  8
0
  6
CONTINUOUS
 62
     7
 10
683.4006179757
 20
1031.6498687823
 30
0.0
 40
4.772323045515973
 50
288.6080712179
 51
341.3916441922
  0
LINE
  5
2D9
  8
0
  6
CONTINUOUS
 62
     7
 10
684.9234319829
 20
1027.1270262303
 30
0.0
 11
-99.0765475131
 21
1027.1270262303
 31
0.0
  0
LINE
  5
2DA
  8
0
  6
CONTINUOUS
 62
     7
 10
-102.0765684939
 20
1030.12703231
 30
0.0
 11
-102.0765684939
 21
1034.1270255151
 31
0.0
  0
LINE
  5
2DB
  8
0
  6
CONTINUOUS
 62
     7
 10
687.9234529638
 20
1030.12703231
 30
0.0
 11
687.9234529638
 21
1034.1270255151
 31
0.0
  0
ARC
  5
2DC
  8
0
  6
CONTINUOUS
 62
     7
 10
-49.0265570975
 20
1338.3948519679
 30
0.0
 40
101.3168657584546
 50
82.4990096992
 51
97.5009903008
  0
LINE
  5
2DD
  8
0
  6
CONTINUOUS
 62
     7
 10
-65.115758071
 20
1438.89415136
 30
0.0
 11
-65.4220067359
 21
1436.9842546286
 31
0.0
  0
LINE
  5
2DE
  8
0
  6
CONTINUOUS
 62
     7
 10
-32.6311074591
 20
1436.9842546286
 30
0.0
 11
-32.937356124
 21
1438.89415136
 31
0.0
  0
ARC
  5
2DF
  8
0
  6
CONTINUOUS
 62
     7
 10
-64.3386986728
 20
1438.7265789217
 30
0.0
 40
0.7949225310770343
 50
98.4766320936
 51
167.8305574472
  0
LINE
  5
2E0
  8
0
  6
CONTINUOUS
 62
     7
 10
-32.937356124
 20
1442.5927089753
 30
0.0
 11
-32.937356124
 21
1438.89415136
 31
0.0
  0
POLYLINE
  5
2E1
  8
0
  6
CONTINUOUS
 62
     7
 66
     1
 10
0.0
 20
0.0
 30
0.0
  0
VERTEX
  5
6E1
  8
0
  6
CONTINUOUS
 62
     7
 10
-101.1173211432
 20
1413.3270370068
 30
0.0
  0
VERTEX
  5
6E2
  8
0
  6
CONTINUOUS
 62
     7
 10
-101.0394476748
 20
1413.3969085517
 30
0.0
  0
VERTEX
  5
6E3
  8
0
  6
CONTINUOUS
 62
     7
 10
-100.8071981764
 20
1413.4770320954
 30
0.0
  0
SEQEND
  5
6E4
  8
0
  6
CONTINUOUS
 62
     7
  0
LINE
  5
2E2
  8
0
  6
CONTINUOUS
 62
     7
 10
-100.8071981764
 20
1413.4770320954
 30
0.0
 11
-98.3265720702
 21
1413.4770320954
 31
0.0
  0
LINE
  5
2E3
  8
0
  6
CONTINUOUS
 62
     7
 10
-88.3265518046
 20
1413.4770320954
 30
0.0
 11
-84.5328949786
 21
1413.4770320954
 31
0.0
  0
LINE
  5
2E4
  8
0
  6
CONTINUOUS
 62
     7
 10
-56.7265533305
 20
1398.0270313325
 30
0.0
 11
-56.7265533305
 21
1399.5672302546
 31
0.0
  0
LINE
  5
2E5
  8
0
  6
CONTINUOUS
 62
     7
 10
688.2373608255
 20
1431.0270237031
 30
0.0
 11
688.4734548234
 21
1431.0270237031
 31
0.0
  0
LINE
  5
2E6
  8
0
  6
CONTINUOUS
 62
     7
 10
688.4734548234
 20
1431.0270237031
 30
0.0
 11
688.4734548234
 21
1432.9765277209
 31
0.0
  0
ARC
  5
2E7
  8
0
  6
CONTINUOUS
 62
     7
 10
687.9734420152
 20
1430.5270308353
 30
0.0
 40
2.5
 50
78.4630409672
 51
90.0
  0
ARC
  5
2E8
  8
0
  6
CONTINUOUS
 62
     7
 10
687.9734420152
 20
1430.5270308353
 30
0.0
 40
2.5
 50
0.0
 51
78.4630409672
  0
LINE
  5
2E9
  8
0
  6
CONTINUOUS
 62
     7
 10
676.9734538698
 20
1419.5270376506
 30
0.0
 11
688.9734483861
 21
1419.5270376506
 31
0.0
  0
LINE
  5
2EA
  8
0
  6
CONTINUOUS
 62
     7
 10
676.9734538698
 20
1426.5270369353
 30
0.0
 11
676.9734538698
 21
1419.5270376506
 31
0.0
  0
LINE
  5
2EB
  8
0
  6
CONTINUOUS
 62
     7
 10
683.9734531545
 20
1426.5270369353
 30
0.0
 11
676.9734538698
 21
1426.5270369353
 31
0.0
  0
LINE
  5
2EC
  8
0
  6
CONTINUOUS
 62
     7
 10
688.352129569
 20
1430.9057133498
 30
0.0
 11
683.9734531545
 21
1426.5270369353
 31
0.0
  0
ARC
  5
2ED
  8
0
  6
CONTINUOUS
 62
     7
 10
690.4734420152
 20
1433.0270308353
 30
0.0
 40
3.000000000000106
 50
225.0
 51
240.0
  0
ARC
  5
2EE
  8
0
  6
CONTINUOUS
 62
     7
 10
690.4734420152
 20
1433.0270308353
 30
0.0
 40
2.999999999999944
 50
210.0
 51
225.0
  0
LINE
  5
2EF
  8
0
  6
CONTINUOUS
 62
     7
 10
-90.0265656806
 20
1419.5270376506
 30
0.0
 11
676.9734538698
 21
1419.5270376506
 31
0.0
  0
LINE
  5
2F0
  8
0
  6
CONTINUOUS
 62
     7
 10
-90.0265656806
 20
1426.5270369353
 30
0.0
 11
-90.0265656806
 21
1419.5270376506
 31
0.0
  0
LINE
  5
2F1
  8
0
  6
CONTINUOUS
 62
     7
 10
-97.0265649653
 20
1426.5270369353
 30
0.0
 11
-90.0265656806
 21
1426.5270369353
 31
0.0
  0
LINE
  5
2F2
  8
0
  6
CONTINUOUS
 62
     7
 10
-101.4052413798
 20
1430.9057133498
 30
0.0
 11
-97.0265649653
 21
1426.5270369353
 31
0.0
  0
ARC
  5
2F3
  8
0
  6
CONTINUOUS
 62
     7
 10
-103.5265579848
 20
1433.0270308353
 30
0.0
 40
2.999999999999994
 50
315.0
 51
330.0
  0
POLYLINE
  5
2F4
  8
0
  6
CONTINUOUS
 62
     7
 66
     1
 10
0.0
 20
0.0
 30
0.0
  0
VERTEX
  5
6E5
  8
0
  6
CONTINUOUS
 62
     7
 10
691.9734395646
 20
1430.4289506974
 30
0.0
  0
VERTEX
  5
6E6
  8
0
  6
CONTINUOUS
 62
     7
 10
691.8913043641
 20
1430.2493022981
 30
0.0
  0
VERTEX
  5
6E7
  8
0
  6
CONTINUOUS
 62
     7
 10
691.683015933
 20
1430.1206456723
 30
0.0
  0
VERTEX
  5
6E8
  8
0
  6
CONTINUOUS
 62
     7
 10
691.0943604612
 20
1430.0163226428
 30
0.0
  0
VERTEX
  5
6E9
  8
0
  6
CONTINUOUS
 62
     7
 10
690.2423418664
 20
1430.1182465854
 30
0.0
  0
VERTEX
  5
6EA
  8
0
  6
CONTINUOUS
 62
     7
 10
689.6555937433
 20
1430.2474992576
 30
0.0
  0
VERTEX
  5
6EB
  8
0
  6
CONTINUOUS
 62
     7
 10
688.9734483861
 20
1430.4289506974
 30
0.0
  0
SEQEND
  5
6EC
  8
0
  6
CONTINUOUS
 62
     7
  0
LINE
  5
2F5
  8
0
  6
CONTINUOUS
 62
     7
 10
691.9734395646
 20
1430.4289506974
 30
0.0
 11
691.9734395646
 21
1419.5270376506
 31
0.0
  0
LINE
  5
2F6
  8
0
  6
CONTINUOUS
 62
     7
 10
688.9734483861
 20
1419.5270376506
 30
0.0
 11
691.9734395646
 21
1419.5270376506
 31
0.0
  0
LINE
  5
2F7
  8
0
  6
CONTINUOUS
 62
     7
 10
-105.0265513755
 20
1419.5270376506
 30
0.0
 11
-102.0265601969
 21
1419.5270376506
 31
0.0
  0
LINE
  5
2F8
  8
0
  6
CONTINUOUS
 62
     7
 10
-105.0265513755
 20
1419.5270376506
 30
0.0
 11
-105.0265513755
 21
1430.4289506974
 31
0.0
  0
POLYLINE
  5
2F9
  8
0
  6
CONTINUOUS
 62
     7
 66
     1
 10
0.0
 20
0.0
 30
0.0
  0
VERTEX
  5
6ED
  8
0
  6
CONTINUOUS
 62
     7
 10
-102.0265601969
 20
1430.4289506974
 30
0.0
  0
VERTEX
  5
6EE
  8
0
  6
CONTINUOUS
 62
     7
 10
-102.7237557269
 20
1430.2493022981
 30
0.0
  0
VERTEX
  5
6EF
  8
0
  6
CONTINUOUS
 62
     7
 10
-103.314288745
 20
1430.1206456723
 30
0.0
  0
VERTEX
  5
6F0
  8
0
  6
CONTINUOUS
 62
     7
 10
-104.1482769347
 20
1430.0163226428
 30
0.0
  0
VERTEX
  5
6F1
  8
0
  6
CONTINUOUS
 62
     7
 10
-104.7449790335
 20
1430.1182465854
 30
0.0
  0
VERTEX
  5
6F2
  8
0
  6
CONTINUOUS
 62
     7
 10
-104.9479626513
 20
1430.2474992576
 30
0.0
  0
VERTEX
  5
6F3
  8
0
  6
CONTINUOUS
 62
     7
 10
-105.0265513755
 20
1430.4289506974
 30
0.0
  0
SEQEND
  5
6F4
  8
0
  6
CONTINUOUS
 62
     7
  0
ARC
  5
2FA
  8
0
  6
CONTINUOUS
 62
     7
 10
-103.5265579848
 20
1433.0270308353
 30
0.0
 40
3.000000000000083
 50
300.0
 51
315.0
  0
LINE
  5
2FB
  8
0
  6
CONTINUOUS
 62
     7
 10
-102.0265601969
 20
1419.5270376506
 30
0.0
 11
-90.0265656806
 21
1419.5270376506
 31
0.0
  0
LINE
  5
2FC
  8
0
  6
CONTINUOUS
 62
     7
 10
-103.5265706874
 20
1430.4289506974
 30
0.0
 11
-105.0265513755
 21
1430.4289506974
 31
0.0
  0
LINE
  5
2FD
  8
0
  6
CONTINUOUS
 62
     7
 10
691.9734395646
 20
1430.4289506974
 30
0.0
 11
690.4734290742
 21
1430.4289506974
 31
0.0
  0
POLYLINE
  5
2FE
  8
0
  6
CONTINUOUS
 62
     7
 66
     1
 10
0.0
 20
0.0
 30
0.0
  0
VERTEX
  5
6F5
  8
0
  6
CONTINUOUS
 62
     7
 10
687.8753520154
 20
1431.5270321669
 30
0.0
  0
VERTEX
  5
6F6
  8
0
  6
CONTINUOUS
 62
     7
 10
687.6957334184
 20
1432.2242276969
 30
0.0
  0
VERTEX
  5
6F7
  8
0
  6
CONTINUOUS
 62
     7
 10
687.5670767927
 20
1432.8147756162
 30
0.0
  0
VERTEX
  5
6F8
  8
0
  6
CONTINUOUS
 62
     7
 10
687.462738862
 20
1433.6487489047
 30
0.0
  0
VERTEX
  5
6F9
  8
0
  6
CONTINUOUS
 62
     7
 10
687.5646628045
 20
1434.2454659047
 30
0.0
  0
VERTEX
  5
6FA
  8
0
  6
CONTINUOUS
 62
     7
 10
687.6939154767
 20
1434.4484495225
 30
0.0
  0
VERTEX
  5
6FB
  8
0
  6
CONTINUOUS
 62
     7
 10
687.8753520154
 20
1434.5270382466
 30
0.0
  0
SEQEND
  5
6FC
  8
0
  6
CONTINUOUS
 62
     7
  0
LINE
  5
2FF
  8
0
  6
CONTINUOUS
 62
     7
 10
687.8753520154
 20
1433.0270277562
 30
0.0
 11
687.8753520154
 21
1434.5270382466
 31
0.0
  0
POLYLINE
  5
300
  8
0
  6
CONTINUOUS
 62
     7
 66
     1
 10
0.0
 20
0.0
 30
0.0
  0
VERTEX
  5
6FD
  8
0
  6
CONTINUOUS
 62
     7
 10
-100.9284936286
 20
1434.5270382466
 30
0.0
  0
VERTEX
  5
6FE
  8
0
  6
CONTINUOUS
 62
     7
 10
-100.7488452292
 20
1434.444888145
 30
0.0
  0
VERTEX
  5
6FF
  8
0
  6
CONTINUOUS
 62
     7
 10
-100.6201886035
 20
1434.2365997138
 30
0.0
  0
VERTEX
  5
700
  8
0
  6
CONTINUOUS
 62
     7
 10
-100.5158506728
 20
1433.647944242
 30
0.0
  0
VERTEX
  5
701
  8
0
  6
CONTINUOUS
 62
     7
 10
-100.6177746154
 20
1432.7959405484
 30
0.0
  0
VERTEX
  5
702
  8
0
  6
CONTINUOUS
 62
     7
 10
-100.7470272875
 20
1432.2091775241
 30
0.0
  0
VERTEX
  5
703
  8
0
  6
CONTINUOUS
 62
     7
 10
-100.9284936286
 20
1431.5270321669
 30
0.0
  0
SEQEND
  5
704
  8
0
  6
CONTINUOUS
 62
     7
  0
LINE
  5
301
  8
0
  6
CONTINUOUS
 62
     7
 10
-100.9284936286
 20
1434.5270382466
 30
0.0
 11
687.8753520154
 21
1434.5270382466
 31
0.0
  0
ARC
  5
302
  8
0
  6
CONTINUOUS
 62
     7
 10
-100.9276951129
 20
1432.6144338457
 30
0.0
 40
0.4125946831699701
 50
355.9734043831
 51
90.1108875264
  0
LINE
  5
303
  8
0
  6
CONTINUOUS
 62
     7
 10
-100.9284936286
 20
1434.5270382466
 30
0.0
 11
-100.9284936286
 21
1433.0270277562
 31
0.0
  0
LINE
  5
304
  8
0
  6
CONTINUOUS
 62
     7
 10
687.8753520154
 20
1433.0270277562
 30
0.0
 11
688.9734483861
 21
1433.0270277562
 31
0.0
  0
LINE
  5
305
  8
0
  6
CONTINUOUS
 62
     7
 10
687.8753520154
 20
1434.5270382466
 30
0.0
 11
688.9734483861
 21
1434.5270382466
 31
0.0
  0
LINE
  5
306
  8
0
  6
CONTINUOUS
 62
     7
 10
688.9734483861
 20
1434.5270382466
 30
0.0
 11
688.9734483861
 21
1433.0270277562
 31
0.0
  0
LINE
  5
307
  8
0
  6
CONTINUOUS
 62
     7
 10
691.9734395646
 20
1431.5270321669
 30
0.0
 11
690.4734290742
 21
1431.5270321669
 31
0.0
  0
LINE
  5
308
  8
0
  6
CONTINUOUS
 62
     7
 10
691.9734395646
 20
1431.5270321669
 30
0.0
 11
691.9734395646
 21
1430.4289506974
 31
0.0
  0
LINE
  5
309
  8
0
  6
CONTINUOUS
 62
     7
 10
690.4734290742
 20
1431.5270321669
 30
0.0
 11
690.4734290742
 21
1430.4289506974
 31
0.0
  0
LINE
  5
30A
  8
0
  6
CONTINUOUS
 62
     7
 10
-103.5265706874
 20
1431.5270321669
 30
0.0
 11
-105.0265513755
 21
1431.5270321669
 31
0.0
  0
LINE
  5
30B
  8
0
  6
CONTINUOUS
 62
     7
 10
-105.0265513755
 20
1430.4289506974
 30
0.0
 11
-105.0265513755
 21
1431.5270321669
 31
0.0
  0
LINE
  5
30C
  8
0
  6
CONTINUOUS
 62
     7
 10
-103.5265706874
 20
1430.4289506974
 30
0.0
 11
-103.5265706874
 21
1431.5270321669
 31
0.0
  0
LINE
  5
30D
  8
0
  6
CONTINUOUS
 62
     7
 10
-102.0265601969
 20
1433.0270277562
 30
0.0
 11
-102.0265601969
 21
1434.5270382466
 31
0.0
  0
LINE
  5
30E
  8
0
  6
CONTINUOUS
 62
     7
 10
-102.0265601969
 20
1433.0270277562
 30
0.0
 11
-100.9284936286
 21
1433.0270277562
 31
0.0
  0
LINE
  5
30F
  8
0
  6
CONTINUOUS
 62
     7
 10
-102.0265601969
 20
1434.5270382466
 30
0.0
 11
-100.9284936286
 21
1434.5270382466
 31
0.0
  0
ARC
  5
310
  8
0
  6
CONTINUOUS
 62
     7
 10
-102.026542391
 20
1431.5270292622
 30
0.0
 40
3.000008984488295
 50
90.000340068
 51
179.9999445233
  0
ARC
  5
311
  8
0
  6
CONTINUOUS
 62
     7
 10
-102.0265531541
 20
1431.5270102228
 30
0.0
 40
1.500017533406371
 50
90.0002690131
 51
179.9991618056
  0
ARC
  5
312
  8
0
  6
CONTINUOUS
 62
     7
 10
688.9734070357
 20
1431.5270057178
 30
0.0
 40
3.000032529088304
 50
0.0005051357
 51
89.999210273
  0
ARC
  5
313
  8
0
  6
CONTINUOUS
 62
     7
 10
688.9734608647
 20
1431.5270595465
 30
0.0
 40
1.499968209726668
 50
359.9989541549
 51
90.0004766582
  0
LINE
  5
314
  8
0
  6
CONTINUOUS
 62
     7
 10
-50.9534858561
 20
1053.5985069575
 30
0.0
 11
-52.0739935733
 21
1053.3270376029
 31
0.0
  0
POLYLINE
  5
315
  8
0
  6
CONTINUOUS
 62
     7
 66
     1
 10
0.0
 20
0.0
 30
0.0
  0
VERTEX
  5
705
  8
0
  6
CONTINUOUS
 62
     7
 10
-52.0739935733
 20
1053.3270376029
 30
0.0
  0
VERTEX
  5
706
  8
0
  6
CONTINUOUS
 62
     7
 10
-52.244343648
 20
1053.3301966491
 30
0.0
  0
VERTEX
  5
707
  8
0
  6
CONTINUOUS
 62
     7
 10
-54.4701002932
 20
1053.907586843
 30
0.0
  0
SEQEND
  5
708
  8
0
  6
CONTINUOUS
 62
     7
  0
LINE
  5
316
  8
0
  6
CONTINUOUS
 62
     7
 10
-54.4701002932
 20
1053.907586843
 30
0.0
 11
-54.4701002932
 21
1059.2464791837
 31
0.0
  0
LINE
  5
317
  8
0
  6
CONTINUOUS
 62
     7
 10
-53.9353274203
 20
1059.3852089944
 30
0.0
 11
-54.4701002932
 21
1059.2464791837
 31
0.0
  0
POLYLINE
  5
318
  8
0
  6
CONTINUOUS
 62
     7
 66
     1
 10
0.0
 20
0.0
 30
0.0
  0
VERTEX
  5
709
  8
0
  6
CONTINUOUS
 62
     7
 10
-54.4701002932
 20
1053.907586843
 30
0.0
  0
VERTEX
  5
70A
  8
0
  6
CONTINUOUS
 62
     7
 10
-55.4049097396
 20
1053.6614345612
 30
0.0
  0
VERTEX
  5
70B
  8
0
  6
CONTINUOUS
 62
     7
 10
-58.1694625712
 20
1053.3270376029
 30
0.0
  0
SEQEND
  5
70C
  8
0
  6
CONTINUOUS
 62
     7
  0
POLYLINE
  5
319
  8
0
  6
CONTINUOUS
 62
     7
 66
     1
 10
0.0
 20
0.0
 30
0.0
  0
VERTEX
  5
70D
  8
0
  6
CONTINUOUS
 62
     7
 10
-54.4701002932
 20
1059.2464791837
 30
0.0
  0
VERTEX
  5
70E
  8
0
  6
CONTINUOUS
 62
     7
 10
-55.4049097396
 20
1059.4926314654
 30
0.0
  0
VERTEX
  5
70F
  8
0
  6
CONTINUOUS
 62
     7
 10
-58.1694625712
 20
1059.8270284238
 30
0.0
  0
SEQEND
  5
710
  8
0
  6
CONTINUOUS
 62
     7
  0
LINE
  5
31A
  8
0
  6
CONTINUOUS
 62
     7
 10
-58.1694625712
 20
1059.8270284238
 30
0.0
 11
-54.5128666259
 21
1059.8270284238
 31
0.0
  0
POLYLINE
  5
31B
  8
0
  6
CONTINUOUS
 62
     7
 66
     1
 10
0.0
 20
0.0
 30
0.0
  0
VERTEX
  5
711
  8
0
  6
CONTINUOUS
 62
     7
 10
-58.1694625712
 20
1053.3270376029
 30
0.0
  0
VERTEX
  5
712
  8
0
  6
CONTINUOUS
 62
     7
 10
-59.1761850215
 20
1053.3730672898
 30
0.0
  0
VERTEX
  5
713
  8
0
  6
CONTINUOUS
 62
     7
 10
-61.8687950469
 20
1053.907586843
 30
0.0
  0
SEQEND
  5
714
  8
0
  6
CONTINUOUS
 62
     7
  0
LINE
  5
31C
  8
0
  6
CONTINUOUS
 62
     7
 10
-61.8687950469
 20
1053.907586843
 30
0.0
 11
-61.8687950469
 21
1058.1391142907
 31
0.0
  0
POLYLINE
  5
31D
  8
0
  6
CONTINUOUS
 62
     7
 66
     1
 10
0.0
 20
0.0
 30
0.0
  0
VERTEX
  5
715
  8
0
  6
CONTINUOUS
 62
     7
 10
-58.1694625712
 20
1059.8270284238
 30
0.0
  0
VERTEX
  5
716
  8
0
  6
CONTINUOUS
 62
     7
 10
-59.1761850215
 20
1059.7809987368
 30
0.0
  0
VERTEX
  5
717
  8
0
  6
CONTINUOUS
 62
     7
 10
-60.0006662703
 20
1059.6173243823
 30
0.0
  0
SEQEND
  5
718
  8
0
  6
CONTINUOUS
 62
     7
  0
LINE
  5
31E
  8
0
  6
CONTINUOUS
 62
     7
 10
-61.8687950469
 20
1053.907586843
 30
0.0
 11
-63.1720208026
 21
1053.3270376029
 31
0.0
  0
LINE
  5
31F
  8
0
  6
CONTINUOUS
 62
     7
 10
-59.6402369834
 20
1059.8270284238
 30
0.0
 11
-58.1694625712
 21
1059.8270284238
 31
0.0
  0
LINE
  5
320
  8
0
  6
CONTINUOUS
 62
     7
 10
645.6167615556
 20
1053.907586843
 30
0.0
 11
641.9098890924
 21
1053.3270376029
 31
0.0
  0
POLYLINE
  5
321
  8
0
  6
CONTINUOUS
 62
     7
 66
     1
 10
0.0
 20
0.0
 30
0.0
  0
VERTEX
  5
719
  8
0
  6
CONTINUOUS
 62
     7
 10
641.9098890924
 20
1053.3270376029
 30
0.0
  0
VERTEX
  5
71A
  8
0
  6
CONTINUOUS
 62
     7
 10
641.6463471555
 20
1053.3301966491
 30
0.0
  0
VERTEX
  5
71B
  8
0
  6
CONTINUOUS
 62
     7
 10
638.2030166292
 20
1053.907586843
 30
0.0
  0
SEQEND
  5
71C
  8
0
  6
CONTINUOUS
 62
     7
  0
LINE
  5
322
  8
0
  6
CONTINUOUS
 62
     7
 10
638.2030166292
 20
1053.907586843
 30
0.0
 11
638.2030166292
 21
1058.2233803573
 31
0.0
  0
POLYLINE
  5
323
  8
0
  6
CONTINUOUS
 62
     7
 66
     1
 10
0.0
 20
0.0
 30
0.0
  0
VERTEX
  5
71D
  8
0
  6
CONTINUOUS
 62
     7
 10
641.9098890924
 20
1059.8270284238
 30
0.0
  0
VERTEX
  5
71E
  8
0
  6
CONTINUOUS
 62
     7
 10
641.6463471555
 20
1059.8238693776
 30
0.0
  0
VERTEX
  5
71F
  8
0
  6
CONTINUOUS
 62
     7
 10
639.9976528787
 20
1059.547408134
 30
0.0
  0
SEQEND
  5
720
  8
0
  6
CONTINUOUS
 62
     7
  0
LINE
  5
324
  8
0
  6
CONTINUOUS
 62
     7
 10
645.6167615556
 20
1059.2464791837
 30
0.0
 11
641.9098890924
 21
1059.8270284238
 31
0.0
  0
LINE
  5
325
  8
0
  6
CONTINUOUS
 62
     7
 10
645.6167615556
 20
1053.907586843
 30
0.0
 11
645.6167615556
 21
1059.2464791837
 31
0.0
  0
POLYLINE
  5
326
  8
0
  6
CONTINUOUS
 62
     7
 66
     1
 10
0.0
 20
0.0
 30
0.0
  0
VERTEX
  5
721
  8
0
  6
CONTINUOUS
 62
     7
 10
647.9769862794
 20
1053.3270376029
 30
0.0
  0
VERTEX
  5
722
  8
0
  6
CONTINUOUS
 62
     7
 10
647.334656825
 20
1053.3730672898
 30
0.0
  0
VERTEX
  5
723
  8
0
  6
CONTINUOUS
 62
     7
 10
645.6167615556
 20
1053.907586843
 30
0.0
  0
SEQEND
  5
724
  8
0
  6
CONTINUOUS
 62
     7
  0
LINE
  5
327
  8
0
  6
CONTINUOUS
 62
     7
 10
646.0815585756
 20
1059.391094953
 30
0.0
 11
645.6167615556
 21
1059.2464791837
 31
0.0
  0
LINE
  5
328
  8
0
  6
CONTINUOUS
 62
     7
 10
641.9098890924
 20
1059.8270284238
 30
0.0
 11
645.4871214532
 21
1059.8270284238
 31
0.0
  0
LINE
  5
329
  8
0
  6
CONTINUOUS
 62
     7
 10
640.3597510957
 20
1059.8270284238
 30
0.0
 11
641.9098890924
 21
1059.8270284238
 31
0.0
  0
LINE
  5
32A
  8
0
  6
CONTINUOUS
 62
     7
 10
638.2030166292
 20
1053.907586843
 30
0.0
 11
636.8563688897
 21
1053.3270376029
 31
0.0
  0
LINE
  5
32B
  8
0
  6
CONTINUOUS
 62
     7
 10
649.0188456678
 20
1053.5245673957
 30
0.0
 11
647.9769862794
 21
1053.3270376029
 31
0.0
  0
LINE
  5
32C
  8
0
  6
CONTINUOUS
 62
     7
 10
638.9234281682
 20
1049.2270278039
 30
0.0
 11
646.9234443807
 21
1049.2270278039
 31
0.0
  0
LINE
  5
32D
  8
0
  6
CONTINUOUS
 62
     7
 10
-61.0765599108
 20
1049.2270278039
 30
0.0
 11
-53.0765436984
 21
1049.2270278039
 31
0.0
  0
LINE
  5
32E
  8
0
  6
CONTINUOUS
 62
     7
 10
649.1220213079
 20
1053.3270376029
 30
0.0
 11
636.724851241
 21
1053.3270376029
 31
0.0
  0
LINE
  5
32F
  8
0
  6
CONTINUOUS
 62
     7
 10
647.8438593053
 20
1051.7270254197
 30
0.0
 11
638.1734527253
 21
1051.7270254197
 31
0.0
  0
LINE
  5
330
  8
0
  6
CONTINUOUS
 62
     7
 10
-61.9969748355
 20
1051.7270254197
 30
0.0
 11
-52.3265682555
 21
1051.7270254197
 31
0.0
  0
LINE
  5
331
  8
0
  6
CONTINUOUS
 62
     7
 10
-63.275136838
 20
1053.3270376029
 30
0.0
 11
-50.8779667712
 21
1053.3270376029
 31
0.0
  0
LINE
  5
332
  8
0
  6
CONTINUOUS
 62
     7
 10
638.1734527253
 20
1050.0650095048
 30
0.0
 11
638.1734527253
 21
1051.7270254197
 31
0.0
  0
LINE
  5
333
  8
0
  6
CONTINUOUS
 62
     7
 10
-52.3265682555
 20
1050.0650095048
 30
0.0
 11
-52.3265682555
 21
1051.7270254197
 31
0.0
  0
LINE
  5
334
  8
0
  6
CONTINUOUS
 62
     7
 10
-52.3265682555
 20
1051.7270254197
 30
0.0
 11
-51.3057195044
 21
1051.7270254197
 31
0.0
  0
LINE
  5
335
  8
0
  6
CONTINUOUS
 62
     7
 10
637.1526039743
 20
1051.7270254197
 30
0.0
 11
638.1734527253
 21
1051.7270254197
 31
0.0
  0
LINE
  5
336
  8
0
  6
CONTINUOUS
 62
     7
 10
-61.826565156
 20
1050.0650095048
 30
0.0
 11
-61.826565156
 21
1051.7270254197
 31
0.0
  0
LINE
  5
337
  8
0
  6
CONTINUOUS
 62
     7
 10
-61.9969748355
 20
1051.7270254197
 30
0.0
 11
-62.8473841048
 21
1051.7270254197
 31
0.0
  0
LINE
  5
338
  8
0
  6
CONTINUOUS
 62
     7
 10
647.6734496259
 20
1050.0650095048
 30
0.0
 11
647.6734496259
 21
1051.7270254197
 31
0.0
  0
LINE
  5
339
  8
0
  6
CONTINUOUS
 62
     7
 10
647.8438593053
 20
1051.7270254197
 30
0.0
 11
648.6942685746
 21
1051.7270254197
 31
0.0
  0
LINE
  5
33A
  8
0
  6
CONTINUOUS
 62
     7
 10
-98.3265720702
 20
1414.3270241322
 30
0.0
 11
-88.3265518046
 21
1414.3270241322
 31
0.0
  0
LINE
  5
33B
  8
0
  6
CONTINUOUS
 62
     7
 10
673.424056878
 20
1419.5270376506
 30
0.0
 11
673.1539882325
 21
1417.605383903
 31
0.0
  0
ARC
  5
33C
  8
0
  6
CONTINUOUS
 62
     7
 10
675.1345145666
 20
1417.3270312609
 30
0.0
 40
2.000000082123506
 50
172.0000011903
 51
270.0
  0
LINE
  5
33D
  8
0
  6
CONTINUOUS
 62
     7
 10
675.1345015668
 20
1415.3270261588
 30
0.0
 11
684.17345654
 21
1415.3270261588
 31
0.0
  0
ARC
  5
33E
  8
0
  6
CONTINUOUS
 62
     7
 10
675.1345145666
 20
1417.3270312609
 30
0.0
 40
4.0
 50
172.0000011904
 51
270.0000000001
  0
LINE
  5
33F
  8
0
  6
CONTINUOUS
 62
     7
 10
671.173445096
 20
1417.883722693
 30
0.0
 11
671.4043832921
 21
1419.5270376506
 31
0.0
  0
LINE
  5
340
  8
0
  6
CONTINUOUS
 62
     7
 10
684.17345654
 20
1415.3270261588
 30
0.0
 11
684.17345654
 21
1413.3270370068
 31
0.0
  0
LINE
  5
341
  8
0
  6
CONTINUOUS
 62
     7
 10
677.7011967801
 20
1415.5470269027
 30
0.0
 11
676.6734338903
 21
1415.5470269027
 31
0.0
  0
LINE
  5
342
  8
0
  6
CONTINUOUS
 62
     7
 10
681.6734291219
 20
1415.5470269027
 30
0.0
 11
677.7011967801
 21
1415.5470269027
 31
0.0
  0
LINE
  5
343
  8
0
  6
CONTINUOUS
 62
     7
 10
677.9367543363
 20
1415.9470336738
 30
0.0
 11
681.2734521531
 21
1415.9470336738
 31
0.0
  0
LINE
  5
344
  8
0
  6
CONTINUOUS
 62
     7
 10
677.0734406614
 20
1415.9470336738
 30
0.0
 11
677.9367543363
 21
1415.9470336738
 31
0.0
  0
LINE
  5
345
  8
0
  6
CONTINUOUS
 62
     7
 10
690.716347804
 20
1037.1270315947
 30
0.0
 11
690.8543921613
 21
1036.9103389087
 31
0.0
  0
POLYLINE
  5
346
  8
0
  6
CONTINUOUS
 62
     7
 66
     1
 10
0.0
 20
0.0
 30
0.0
  0
VERTEX
  5
725
  8
0
  6
CONTINUOUS
 62
     7
 10
690.8543921613
 20
1036.9103389087
 30
0.0
  0
VERTEX
  5
726
  8
0
  6
CONTINUOUS
 62
     7
 10
690.4966748857
 20
1035.8304666581
 30
0.0
  0
VERTEX
  5
727
  8
0
  6
CONTINUOUS
 62
     7
 10
690.1389278077
 20
1034.930436522
 30
0.0
  0
VERTEX
  5
728
  8
0
  6
CONTINUOUS
 62
     7
 10
689.7811807298
 20
1034.3350904288
 30
0.0
  0
VERTEX
  5
729
  8
0
  6
CONTINUOUS
 62
     7
 10
689.4234336519
 20
1034.1270255151
 30
0.0
  0
SEQEND
  5
72A
  8
0
  6
CONTINUOUS
 62
     7
  0
LINE
  5
347
  8
0
  6
CONTINUOUS
 62
     7
 10
689.4234336519
 20
1034.1270255151
 30
0.0
 11
-103.576549182
 21
1034.1270255151
 31
0.0
  0
POLYLINE
  5
348
  8
0
  6
CONTINUOUS
 62
     7
 66
     1
 10
0.0
 20
0.0
 30
0.0
  0
VERTEX
  5
72B
  8
0
  6
CONTINUOUS
 62
     7
 10
-103.576549182
 20
1034.1270255151
 30
0.0
  0
VERTEX
  5
72C
  8
0
  6
CONTINUOUS
 62
     7
 10
-103.9342962599
 20
1034.3350904288
 30
0.0
  0
VERTEX
  5
72D
  8
0
  6
CONTINUOUS
 62
     7
 10
-104.2920433379
 20
1034.930436522
 30
0.0
  0
VERTEX
  5
72E
  8
0
  6
CONTINUOUS
 62
     7
 10
-104.6497904158
 20
1035.8304666581
 30
0.0
  0
VERTEX
  5
72F
  8
0
  6
CONTINUOUS
 62
     7
 10
-105.0075076914
 20
1036.9103389087
 30
0.0
  0
SEQEND
  5
730
  8
0
  6
CONTINUOUS
 62
     7
  0
LINE
  5
349
  8
0
  6
CONTINUOUS
 62
     7
 10
-105.0075076914
 20
1036.9103389087
 30
0.0
 11
-104.8694633341
 21
1037.1270315947
 31
0.0
  0
LINE
  5
34A
  8
0
  6
CONTINUOUS
 62
     7
 10
-105.0075076914
 20
1037.0186852517
 30
0.0
 11
-104.8694633341
 21
1037.1270315947
 31
0.0
  0
LINE
  5
34B
  8
0
  6
CONTINUOUS
 62
     7
 10
-105.0075076914
 20
1036.9103389087
 30
0.0
 11
-105.0075076914
 21
1037.0186852517
 31
0.0
  0
LINE
  5
34C
  8
0
  6
CONTINUOUS
 62
     7
 10
690.716347804
 20
1037.1270315947
 30
0.0
 11
662.0163239145
 21
1065.827025682
 31
0.0
  0
LINE
  5
34D
  8
0
  6
CONTINUOUS
 62
     7
 10
0.9234465265
 20
1065.827025682
 30
0.0
 11
-76.1694394446
 21
1065.827025682
 31
0.0
  0
LINE
  5
34E
  8
0
  6
CONTINUOUS
 62
     7
 10
0.9234465265
 20
1095.7270251813
 30
0.0
 11
0.9234465265
 21
1065.827025682
 31
0.0
  0
LINE
  5
34F
  8
0
  6
CONTINUOUS
 62
     7
 10
584.9234379434
 20
1065.827025682
 30
0.0
 11
584.9234379434
 21
1095.7270251813
 31
0.0
  0
LINE
  5
350
  8
0
  6
CONTINUOUS
 62
     7
 10
662.0163239145
 20
1065.827025682
 30
0.0
 11
584.9234379434
 21
1065.827025682
 31
0.0
  0
CIRCLE
  5
351
  8
0
  6
CONTINUOUS
 62
     7
 10
642.9234422349
 20
1054.127031261
 30
0.0
 40
6.25
  0
CIRCLE
  5
352
  8
0
  6
CONTINUOUS
 62
     7
 10
-57.0765577651
 20
1054.127031261
 30
0.0
 40
6.25
  0
LINE
  5
353
  8
0
  6
CONTINUOUS
 62
     7
 10
-76.1694394446
 20
1065.827025682
 30
0.0
 11
-104.8694633341
 21
1037.1270315947
 31
0.0
  0
LINE
  5
354
  8
0
  6
CONTINUOUS
 62
     7
 10
690.716347804
 20
1037.1270315947
 30
0.0
 11
690.8543921613
 21
1037.0186852517
 31
0.0
  0
LINE
  5
355
  8
0
  6
CONTINUOUS
 62
     7
 10
690.8543921613
 20
1036.9103389087
 30
0.0
 11
690.8543921613
 21
1037.0186852517
 31
0.0
  0
LINE
  5
356
  8
0
  6
CONTINUOUS
 62
     7
 10
0.9234465265
 20
1098.727031261
 30
0.0
 11
584.9234379434
 21
1098.727031261
 31
0.0
  0
LINE
  5
357
  8
0
  6
CONTINUOUS
 62
     7
 10
584.9234379434
 20
1098.727031261
 30
0.0
 11
584.9234379434
 21
1095.7270251813
 31
0.0
  0
LINE
  5
358
  8
0
  6
CONTINUOUS
 62
     7
 10
0.9234465265
 20
1095.7270251813
 30
0.0
 11
0.9234465265
 21
1098.727031261
 31
0.0
  0
LINE
  5
359
  8
0
  6
CONTINUOUS
 62
     7
 10
585.4234315061
 20
1348.727031261
 30
0.0
 11
0.4234529638
 21
1348.727031261
 31
0.0
  0
LINE
  5
35A
  8
0
  6
CONTINUOUS
 62
     7
 10
0.4234529638
 20
1348.727031261
 30
0.0
 11
0.4234529638
 21
1351.7270373406
 31
0.0
  0
LINE
  5
35B
  8
0
  6
CONTINUOUS
 62
     7
 10
585.4234315061
 20
1351.7270373406
 30
0.0
 11
585.4234315061
 21
1348.727031261
 31
0.0
  0
LINE
  5
35C
  8
0
  6
CONTINUOUS
 62
     7
 10
690.9234441423
 20
1409.8270373645
 30
0.0
 11
662.2234500551
 21
1381.1270283761
 31
0.0
  0
LINE
  5
35D
  8
0
  6
CONTINUOUS
 62
     7
 10
662.2234500551
 20
1381.1270283761
 30
0.0
 11
585.4234315061
 21
1381.1270283761
 31
0.0
  0
LINE
  5
35E
  8
0
  6
CONTINUOUS
 62
     7
 10
585.4234315061
 20
1381.1270283761
 30
0.0
 11
585.4234315061
 21
1351.7270373406
 31
0.0
  0
LINE
  5
35F
  8
0
  6
CONTINUOUS
 62
     7
 10
0.4234529638
 20
1351.7270373406
 30
0.0
 11
0.4234529638
 21
1381.1270283761
 31
0.0
  0
LINE
  5
360
  8
0
  6
CONTINUOUS
 62
     7
 10
0.4234529638
 20
1381.1270283761
 30
0.0
 11
-76.3765655852
 21
1381.1270283761
 31
0.0
  0
LINE
  5
361
  8
0
  6
CONTINUOUS
 62
     7
 10
-76.3765655852
 20
1381.1270283761
 30
0.0
 11
-105.0765596724
 21
1409.8270373645
 31
0.0
  0
LINE
  5
362
  8
0
  6
CONTINUOUS
 62
     7
 10
-105.0765596724
 20
1409.8270373645
 30
0.0
 11
-105.0765596724
 21
1410.3270309272
 31
0.0
  0
LINE
  5
363
  8
0
  6
CONTINUOUS
 62
     7
 10
690.9234441423
 20
1410.3270309272
 30
0.0
 11
690.9234441423
 21
1409.8270373645
 31
0.0
  0
CIRCLE
  5
364
  8
0
  6
CONTINUOUS
 62
     7
 10
-57.0765577651
 20
1393.327031261
 30
0.0
 40
6.250000000000227
  0
CIRCLE
  5
365
  8
0
  6
CONTINUOUS
 62
     7
 10
642.9234422349
 20
1393.327031261
 30
0.0
 40
6.25
  0
LINE
  5
366
  8
0
  6
CONTINUOUS
 62
     7
 10
-105.0765596724
 20
1410.3270309272
 30
0.0
 11
-105.0765596724
 21
1413.3270370068
 31
0.0
  0
LINE
  5
367
  8
0
  6
CONTINUOUS
 62
     7
 10
690.9234441423
 20
1413.3270370068
 30
0.0
 11
-105.0765596724
 21
1413.3270370068
 31
0.0
  0
LINE
  5
368
  8
0
  6
CONTINUOUS
 62
     7
 10
690.9234441423
 20
1413.3270370068
 30
0.0
 11
690.9234441423
 21
1410.3270309272
 31
0.0
  0
ARC
  5
369
  8
0
  6
CONTINUOUS
 62
     7
 10
487.3286267713
 20
1423.1436782246
 30
0.0
 40
183.3061513350555
 50
356.9301559071
 51
357.3710864358
  0
ARC
  5
36A
  8
0
  6
CONTINUOUS
 62
     7
 10
663.3428317141
 20
1415.1750968231
 30
0.0
 40
7.124468178412947
 50
344.9657634862
 51
358.8796706176
  0
ARC
  5
36B
  8
0
  6
CONTINUOUS
 62
     7
 10
98.5182576986
 20
1423.1436782246
 30
0.0
 40
183.3061513350555
 50
182.6289135642
 51
183.0698440929
  0
ARC
  5
36C
  8
0
  6
CONTINUOUS
 62
     7
 10
-77.4959472443
 20
1415.1750968231
 30
0.0
 40
7.124468178413008
 50
181.1203293824
 51
195.0342365138
  0
LINE
  5
36D
  8
0
  6
CONTINUOUS
 62
     7
 10
670.4659379625
 20
1415.0357978644
 30
0.0
 11
671.1033500337
 21
1419.5270376506
 31
0.0
  0
LINE
  5
36E
  8
0
  6
CONTINUOUS
 62
     7
 10
-85.2564655638
 20
1419.5270376506
 30
0.0
 11
-84.6190534926
 21
1415.0357978644
 31
0.0
  0
ARC
  5
36F
  8
0
  6
CONTINUOUS
 62
     7
 10
-105.3952927299
 20
1411.5177884715
 30
0.0
 40
2.381242421245049
 50
225.0857427223
 51
267.9924083795
  0
POLYLINE
  5
370
  8
0
  6
CONTINUOUS
 62
     7
 66
     1
 10
0.0
 20
0.0
 30
0.0
  0
VERTEX
  5
731
  8
0
  6
CONTINUOUS
 62
     7
 10
-105.4787122107
 20
1409.1380076709
 30
0.0
  0
VERTEX
  5
732
  8
0
  6
CONTINUOUS
 62
     7
 10
-104.7988914347
 20
1408.6752968135
 30
0.0
  0
VERTEX
  5
733
  8
0
  6
CONTINUOUS
 62
     7
 10
-104.076572547
 20
1408.2125710549
 30
0.0
  0
SEQEND
  5
734
  8
0
  6
CONTINUOUS
 62
     7
  0
ARC
  5
371
  8
0
  6
CONTINUOUS
 62
     7
 10
-103.7595838007
 20
1032.8890046072
 30
0.0
 40
5.74677169875473
 50
93.1620083073
 51
125.2531533161
  0
LINE
  5
372
  8
0
  6
CONTINUOUS
 62
     7
 10
-107.0765637255
 20
1409.8314779105
 30
0.0
 11
-107.0765637255
 21
1037.581874639
 31
0.0
  0
CIRCLE
  5
373
  8
0
  6
CONTINUOUS
 62
     7
 10
-62.0765577651
 20
1078.727031261
 30
0.0
 40
6.250000000705768
  0
CIRCLE
  5
374
  8
0
  6
CONTINUOUS
 62
     7
 10
-87.0765577651
 20
1083.727031261
 30
0.0
 40
6.250000000705768
  0
CIRCLE
  5
375
  8
0
  6
CONTINUOUS
 62
     7
 10
-87.0765577651
 20
1363.727031261
 30
0.0
 40
6.25
  0
CIRCLE
  5
376
  8
0
  6
CONTINUOUS
 62
     7
 10
-62.0765577651
 20
1368.727031261
 30
0.0
 40
6.25
  0
LINE
  5
377
  8
0
  6
CONTINUOUS
 62
     7
 10
-0.0765704013
 20
1380.6270348134
 30
0.0
 11
-76.3902746535
 21
1380.6270348134
 31
0.0
  0
LINE
  5
378
  8
0
  6
CONTINUOUS
 62
     7
 10
-0.0765704013
 20
1348.2270302477
 30
0.0
 11
-0.0765704013
 21
1380.6270348134
 31
0.0
  0
LINE
  5
379
  8
0
  6
CONTINUOUS
 62
     7
 10
-1.0765575267
 20
1348.2270302477
 30
0.0
 11
-0.0765704013
 21
1348.2270302477
 31
0.0
  0
LINE
  5
37A
  8
0
  6
CONTINUOUS
 62
     7
 10
0.4234529638
 20
1099.2270322742
 30
0.0
 11
-1.0765575267
 21
1099.2270322742
 31
0.0
  0
LINE
  5
37B
  8
0
  6
CONTINUOUS
 62
     7
 10
0.4234529638
 20
1066.3270341458
 30
0.0
 11
0.4234529638
 21
1099.2270322742
 31
0.0
  0
LINE
  5
37C
  8
0
  6
CONTINUOUS
 62
     7
 10
-76.3765655852
 20
1066.3270341458
 30
0.0
 11
0.4234529638
 21
1066.3270341458
 31
0.0
  0
LINE
  5
37D
  8
0
  6
CONTINUOUS
 62
     7
 10
-104.076572547
 20
1038.627027184
 30
0.0
 11
-76.3765655852
 21
1066.3270341458
 31
0.0
  0
LINE
  5
37E
  8
0
  6
CONTINUOUS
 62
     7
 10
-76.3902746535
 20
1380.6270348134
 30
0.0
 11
-104.076572547
 21
1408.2125710549
 31
0.0
  0
ARC
  5
37F
  8
0
  6
CONTINUOUS
 62
     7
 10
-103.5814157548
 20
1036.3174422425
 30
0.0
 40
2.362067494997108
 50
102.1005854264
 51
147.6352337009
  0
LINE
  5
380
  8
0
  6
CONTINUOUS
 62
     7
 10
-107.0765637255
 20
1037.581874639
 30
0.0
 11
-105.5765532351
 21
1037.581874639
 31
0.0
  0
LINE
  5
381
  8
0
  6
CONTINUOUS
 62
     7
 10
-104.7776423789
 20
1409.1380076709
 30
0.0
 11
-104.076572547
 21
1408.2125710549
 31
0.0
  0
LINE
  5
382
  8
0
  6
CONTINUOUS
 62
     7
 10
-105.4787122107
 20
1409.1380076709
 30
0.0
 11
-104.7776423789
 21
1409.1380076709
 31
0.0
  0
LINE
  5
383
  8
0
  6
CONTINUOUS
 62
     7
 10
-0.0765704013
 20
1348.2270302477
 30
0.0
 11
1.9234336519
 21
1348.2270302477
 31
0.0
  0
LINE
  5
384
  8
0
  6
CONTINUOUS
 62
     7
 10
1.9234336519
 20
1099.2270322742
 30
0.0
 11
1.9234336519
 21
1348.2270302477
 31
0.0
  0
LINE
  5
385
  8
0
  6
CONTINUOUS
 62
     7
 10
1.9234336519
 20
1099.2270322742
 30
0.0
 11
0.4234529638
 21
1099.2270322742
 31
0.0
  0
LINE
  5
386
  8
0
  6
CONTINUOUS
 62
     7
 10
-107.0765637255
 20
1409.8314779105
 30
0.0
 11
-105.5765532351
 21
1409.8314779105
 31
0.0
  0
ARC
  5
387
  8
0
  6
CONTINUOUS
 62
     7
 10
-104.4897986322
 20
1410.2765442853
 30
0.0
 40
1.174359248694721
 50
202.2709221302
 51
255.8118390784
  0
ARC
  5
388
  8
0
  6
CONTINUOUS
 62
     7
 10
-104.1980711681
 20
1037.0507037136
 30
0.0
 40
1.380593623989511
 50
176.8307137534
 51
252.5881949038
  0
LINE
  5
389
  8
0
  6
CONTINUOUS
 62
     7
 10
-104.076572547
 20
1034.1270255151
 30
0.0
 11
-104.076572547
 21
1034.5718400779
 31
0.0
  0
LINE
  5
38A
  8
0
  6
CONTINUOUS
 62
     7
 10
-107.0765637255
 20
1037.1270315947
 30
0.0
 11
-105.5765532351
 21
1037.1270315947
 31
0.0
  0
ARC
  5
38B
  8
0
  6
CONTINUOUS
 62
     7
 10
-104.0765340892
 20
1037.1270551512
 30
0.0
 40
3.000029636413401
 50
180.0004498914
 51
269.9992655172
  0
LINE
  5
38C
  8
0
  6
CONTINUOUS
 62
     7
 10
-105.5765532351
 20
1037.581874639
 30
0.0
 11
-105.5765532351
 21
1037.1270315947
 31
0.0
  0
LINE
  5
38D
  8
0
  6
CONTINUOUS
 62
     7
 10
-107.0765637255
 20
1037.581874639
 30
0.0
 11
-107.0765637255
 21
1037.1270315947
 31
0.0
  0
LINE
  5
38E
  8
0
  6
CONTINUOUS
 62
     7
 10
-107.0765637255
 20
1410.3270309272
 30
0.0
 11
-105.5765532351
 21
1410.3270309272
 31
0.0
  0
LINE
  5
38F
  8
0
  6
CONTINUOUS
 62
     7
 10
-105.5765532351
 20
1409.8314779105
 30
0.0
 11
-105.5765532351
 21
1410.3270309272
 31
0.0
  0
LINE
  5
390
  8
0
  6
CONTINUOUS
 62
     7
 10
-107.0765637255
 20
1410.3270309272
 30
0.0
 11
-107.0765637255
 21
1409.8314779105
 31
0.0
  0
POLYLINE
  5
391
  8
0
  6
CONTINUOUS
 62
     7
 66
     1
 10
0.0
 20
0.0
 30
0.0
  0
VERTEX
  5
735
  8
0
  6
CONTINUOUS
 62
     7
 10
-105.3112827635
 20
1411.178781301
 30
0.0
  0
VERTEX
  5
736
  8
0
  6
CONTINUOUS
 62
     7
 10
-105.508693347
 20
1410.7730822863
 30
0.0
  0
VERTEX
  5
737
  8
0
  6
CONTINUOUS
 62
     7
 10
-105.5765532351
 20
1410.3270309272
 30
0.0
  0
SEQEND
  5
738
  8
0
  6
CONTINUOUS
 62
     7
  0
LINE
  5
392
  8
0
  6
CONTINUOUS
 62
     7
 10
-106.5459929801
 20
1412.0305316748
 30
0.0
 11
-105.3112827635
 21
1411.178781301
 31
0.0
  0
POLYLINE
  5
393
  8
0
  6
CONTINUOUS
 62
     7
 66
     1
 10
0.0
 20
0.0
 30
0.0
  0
VERTEX
  5
739
  8
0
  6
CONTINUOUS
 62
     7
 10
-106.5459929801
 20
1412.0305316748
 30
0.0
  0
VERTEX
  5
73A
  8
0
  6
CONTINUOUS
 62
     7
 10
-106.9408439494
 20
1411.2191336455
 30
0.0
  0
VERTEX
  5
73B
  8
0
  6
CONTINUOUS
 62
     7
 10
-107.0765637255
 20
1410.3270309272
 30
0.0
  0
SEQEND
  5
73C
  8
0
  6
CONTINUOUS
 62
     7
  0
LINE
  5
394
  8
0
  6
CONTINUOUS
 62
     7
 10
-103.576549182
 20
1034.1270255151
 30
0.0
 11
-104.076572547
 21
1034.1270255151
 31
0.0
  0
LINE
  5
395
  8
0
  6
CONTINUOUS
 62
     7
 10
-105.0765596724
 20
1411.3868164124
 30
0.0
 11
-105.3112827635
 21
1411.178781301
 31
0.0
  0
ARC
  5
396
  8
0
  6
CONTINUOUS
 62
     7
 10
-104.2820963881
 20
1410.5432927959
 30
0.0
 40
2.708709519687913
 50
107.0555989468
 51
146.6975819278
  0
LINE
  5
397
  8
0
  6
CONTINUOUS
 62
     7
 10
1.9234336519
 20
1348.2270302477
 30
0.0
 11
3.4234441423
 21
1348.2270302477
 31
0.0
  0
LINE
  5
398
  8
0
  6
CONTINUOUS
 62
     7
 10
3.4234441423
 20
1099.2270322742
 30
0.0
 11
1.9234336519
 21
1099.2270322742
 31
0.0
  0
LINE
  5
399
  8
0
  6
CONTINUOUS
 62
     7
 10
16.4234555864
 20
1348.2270302477
 30
0.0
 11
16.4234555864
 21
1099.2270322742
 31
0.0
  0
LINE
  5
39A
  8
0
  6
CONTINUOUS
 62
     7
 10
16.4234555864
 20
1099.2270322742
 30
0.0
 11
3.4234441423
 21
1099.2270322742
 31
0.0
  0
LINE
  5
39B
  8
0
  6
CONTINUOUS
 62
     7
 10
3.4234441423
 20
1348.2270302477
 30
0.0
 11
16.4234555864
 21
1348.2270302477
 31
0.0
  0
CIRCLE
  5
39C
  8
0
  6
CONTINUOUS
 62
     7
 10
9.9234422349
 20
1223.727031261
 30
0.0
 40
2.099999999999909
  0
CIRCLE
  5
39D
  8
0
  6
CONTINUOUS
 62
     7
 10
9.9234422349
 20
1328.727031261
 30
0.0
 40
2.099999999999909
  0
CIRCLE
  5
39E
  8
0
  6
CONTINUOUS
 62
     7
 10
9.9234422349
 20
1118.727031261
 30
0.0
 40
2.100000000000136
  0
ARC
  5
39F
  8
0
  6
CONTINUOUS
 62
     7
 10
-86.0765576598
 20
1414.8270345792
 30
0.0
 40
1.499997572389283
 50
269.9996863432
 51
8.0001531964
  0
LINE
  5
3A0
  8
0
  6
CONTINUOUS
 62
     7
 10
679.9234367513
 20
1398.8270299735
 30
0.0
 11
679.9234367513
 21
1398.1199251714
 31
0.0
  0
LINE
  5
3A1
  8
0
  6
CONTINUOUS
 62
     7
 10
679.4234431886
 20
1398.3270364108
 30
0.0
 11
679.4234431886
 21
1397.6199316087
 31
0.0
  0
LINE
  5
3A2
  8
0
  6
CONTINUOUS
 62
     7
 10
-94.0765522814
 20
1398.2489543261
 30
0.0
 11
-94.0765522814
 21
1398.8270299735
 31
0.0
  0
LINE
  5
3A3
  8
0
  6
CONTINUOUS
 62
     7
 10
-93.5765587187
 20
1397.7507787051
 30
0.0
 11
-93.5765587187
 21
1398.3270364108
 31
0.0
  0
ARC
  5
3A4
  8
0
  6
CONTINUOUS
 62
     7
 10
689.6064682706
 20
1032.8890046072
 30
0.0
 40
5.74677169875473
 50
54.7468466839
 51
86.8379916927
  0
LINE
  5
3A5
  8
0
  6
CONTINUOUS
 62
     7
 10
691.423437705
 20
1037.581874639
 30
0.0
 11
692.9234481954
 21
1037.581874639
 31
0.0
  0
ARC
  5
3A6
  8
0
  6
CONTINUOUS
 62
     7
 10
689.4283002246
 20
1036.3174422425
 30
0.0
 40
2.362067494997097
 50
32.3647662991
 51
77.8994145736
  0
POLYLINE
  5
3A7
  8
0
  6
CONTINUOUS
 62
     7
 66
     1
 10
0.0
 20
0.0
 30
0.0
  0
VERTEX
  5
73D
  8
0
  6
CONTINUOUS
 62
     7
 10
691.5083445215
 20
1409.182949573
 30
0.0
  0
VERTEX
  5
73E
  8
0
  6
CONTINUOUS
 62
     7
 10
690.7476104402
 20
1408.6514400544
 30
0.0
  0
VERTEX
  5
73F
  8
0
  6
CONTINUOUS
 62
     7
 10
689.9234570169
 20
1408.1199305358
 30
0.0
  0
SEQEND
  5
740
  8
0
  6
CONTINUOUS
 62
     7
  0
ARC
  5
3A8
  8
0
  6
CONTINUOUS
 62
     7
 10
691.4304487311
 20
1411.2210784394
 30
0.0
 40
2.039616883203992
 50
272.1887373762
 51
317.0543203056
  0
LINE
  5
3A9
  8
0
  6
CONTINUOUS
 62
     7
 10
692.9234481954
 20
1409.8314779105
 30
0.0
 11
692.9234481954
 21
1037.581874639
 31
0.0
  0
CIRCLE
  5
3AA
  8
0
  6
CONTINUOUS
 62
     7
 10
672.9234422349
 20
1083.727031261
 30
0.0
 40
6.25
  0
CIRCLE
  5
3AB
  8
0
  6
CONTINUOUS
 62
     7
 10
647.9234422349
 20
1078.727031261
 30
0.0
 40
6.249999999999886
  0
CIRCLE
  5
3AC
  8
0
  6
CONTINUOUS
 62
     7
 10
647.9234422349
 20
1368.727031261
 30
0.0
 40
6.25
  0
CIRCLE
  5
3AD
  8
0
  6
CONTINUOUS
 62
     7
 10
672.9234422349
 20
1363.727031261
 30
0.0
 40
6.249999999999773
  0
LINE
  5
3AE
  8
0
  6
CONTINUOUS
 62
     7
 10
662.4305463933
 20
1380.6270348134
 30
0.0
 11
585.9234548711
 21
1380.6270348134
 31
0.0
  0
LINE
  5
3AF
  8
0
  6
CONTINUOUS
 62
     7
 10
689.9234570169
 20
1408.1199305358
 30
0.0
 11
662.4305463933
 21
1380.6270348134
 31
0.0
  0
LINE
  5
3B0
  8
0
  6
CONTINUOUS
 62
     7
 10
662.2234500551
 20
1066.3270341458
 30
0.0
 11
689.9234570169
 21
1038.627027184
 31
0.0
  0
LINE
  5
3B1
  8
0
  6
CONTINUOUS
 62
     7
 10
585.4234315061
 20
1066.3270341458
 30
0.0
 11
662.2234500551
 21
1066.3270341458
 31
0.0
  0
LINE
  5
3B2
  8
0
  6
CONTINUOUS
 62
     7
 10
585.4234315061
 20
1099.2270322742
 30
0.0
 11
585.4234315061
 21
1066.3270341458
 31
0.0
  0
LINE
  5
3B3
  8
0
  6
CONTINUOUS
 62
     7
 10
586.9234419965
 20
1099.2270322742
 30
0.0
 11
585.4234315061
 21
1099.2270322742
 31
0.0
  0
LINE
  5
3B4
  8
0
  6
CONTINUOUS
 62
     7
 10
585.9234548711
 20
1348.2270302477
 30
0.0
 11
586.9234419965
 21
1348.2270302477
 31
0.0
  0
LINE
  5
3B5
  8
0
  6
CONTINUOUS
 62
     7
 10
585.9234548711
 20
1380.6270348134
 30
0.0
 11
585.9234548711
 21
1348.2270302477
 31
0.0
  0
LINE
  5
3B6
  8
0
  6
CONTINUOUS
 62
     7
 10
690.7159007692
 20
1409.182949573
 30
0.0
 11
689.9234570169
 21
1408.1199305358
 31
0.0
  0
LINE
  5
3B7
  8
0
  6
CONTINUOUS
 62
     7
 10
690.7159007692
 20
1409.182949573
 30
0.0
 11
691.5083445215
 21
1409.182949573
 31
0.0
  0
LINE
  5
3B8
  8
0
  6
CONTINUOUS
 62
     7
 10
583.923450818
 20
1099.2270322742
 30
0.0
 11
585.4234315061
 21
1099.2270322742
 31
0.0
  0
LINE
  5
3B9
  8
0
  6
CONTINUOUS
 62
     7
 10
583.923450818
 20
1099.2270322742
 30
0.0
 11
583.923450818
 21
1348.2270302477
 31
0.0
  0
LINE
  5
3BA
  8
0
  6
CONTINUOUS
 62
     7
 10
585.9234548711
 20
1348.2270302477
 30
0.0
 11
583.923450818
 21
1348.2270302477
 31
0.0
  0
LINE
  5
3BB
  8
0
  6
CONTINUOUS
 62
     7
 10
691.423437705
 20
1409.8314779105
 30
0.0
 11
692.9234481954
 21
1409.8314779105
 31
0.0
  0
ARC
  5
3BC
  8
0
  6
CONTINUOUS
 62
     7
 10
690.4367607787
 20
1410.1977095697
 30
0.0
 40
1.052452842227459
 50
285.3805026161
 51
339.6362385869
  0
ARC
  5
3BD
  8
0
  6
CONTINUOUS
 62
     7
 10
689.9234185591
 20
1037.1270551512
 30
0.0
 40
3.00002963641333
 50
270.0007344828
 51
359.9995501086
  0
LINE
  5
3BE
  8
0
  6
CONTINUOUS
 62
     7
 10
689.9234570169
 20
1034.5718400779
 30
0.0
 11
689.9234570169
 21
1034.1270255151
 31
0.0
  0
ARC
  5
3BF
  8
0
  6
CONTINUOUS
 62
     7
 10
690.0449556379
 20
1037.0507037136
 30
0.0
 40
1.380593623989525
 50
287.4118050962
 51
3.1692862466
  0
LINE
  5
3C0
  8
0
  6
CONTINUOUS
 62
     7
 10
691.423437705
 20
1037.1270315947
 30
0.0
 11
692.9234481954
 21
1037.1270315947
 31
0.0
  0
LINE
  5
3C1
  8
0
  6
CONTINUOUS
 62
     7
 10
691.423437705
 20
1037.581874639
 30
0.0
 11
691.423437705
 21
1037.1270315947
 31
0.0
  0
LINE
  5
3C2
  8
0
  6
CONTINUOUS
 62
     7
 10
692.9234481954
 20
1037.581874639
 30
0.0
 11
692.9234481954
 21
1037.1270315947
 31
0.0
  0
LINE
  5
3C3
  8
0
  6
CONTINUOUS
 62
     7
 10
691.423437705
 20
1410.3270309272
 30
0.0
 11
692.9234481954
 21
1410.3270309272
 31
0.0
  0
LINE
  5
3C4
  8
0
  6
CONTINUOUS
 62
     7
 10
691.423437705
 20
1410.3270309272
 30
0.0
 11
691.423437705
 21
1409.8314779105
 31
0.0
  0
LINE
  5
3C5
  8
0
  6
CONTINUOUS
 62
     7
 10
692.9234481954
 20
1409.8314779105
 30
0.0
 11
692.9234481954
 21
1410.3270309272
 31
0.0
  0
POLYLINE
  5
3C6
  8
0
  6
CONTINUOUS
 62
     7
 66
     1
 10
0.0
 20
0.0
 30
0.0
  0
VERTEX
  5
741
  8
0
  6
CONTINUOUS
 62
     7
 10
692.4960828924
 20
1411.870254785
 30
0.0
  0
VERTEX
  5
742
  8
0
  6
CONTINUOUS
 62
     7
 10
692.8146399164
 20
1411.1276852193
 30
0.0
  0
VERTEX
  5
743
  8
0
  6
CONTINUOUS
 62
     7
 10
692.9234481954
 20
1410.3270309272
 30
0.0
  0
SEQEND
  5
744
  8
0
  6
CONTINUOUS
 62
     7
  0
LINE
  5
3C7
  8
0
  6
CONTINUOUS
 62
     7
 10
691.2097550535
 20
1411.0986428561
 30
0.0
 11
692.4960828924
 21
1411.870254785
 31
0.0
  0
POLYLINE
  5
3C8
  8
0
  6
CONTINUOUS
 62
     7
 66
     1
 10
0.0
 20
0.0
 30
0.0
  0
VERTEX
  5
745
  8
0
  6
CONTINUOUS
 62
     7
 10
691.2097550535
 20
1411.0986428561
 30
0.0
  0
VERTEX
  5
746
  8
0
  6
CONTINUOUS
 62
     7
 10
691.3690484666
 20
1410.7273506226
 30
0.0
  0
VERTEX
  5
747
  8
0
  6
CONTINUOUS
 62
     7
 10
691.423437705
 20
1410.3270309272
 30
0.0
  0
SEQEND
  5
748
  8
0
  6
CONTINUOUS
 62
     7
  0
LINE
  5
3C9
  8
0
  6
CONTINUOUS
 62
     7
 10
689.4234336519
 20
1034.1270255151
 30
0.0
 11
689.9234570169
 21
1034.1270255151
 31
0.0
  0
ARC
  5
3CA
  8
0
  6
CONTINUOUS
 62
     7
 10
690.0983521244
 20
1410.4929675528
 30
0.0
 40
2.765146100241752
 50
29.8736107904
 51
72.6390699858
  0
LINE
  5
3CB
  8
0
  6
CONTINUOUS
 62
     7
 10
690.9234441423
 20
1411.3778757157
 30
0.0
 11
691.2097550535
 21
1411.0986428561
 31
0.0
  0
LINE
  5
3CC
  8
0
  6
CONTINUOUS
 62
     7
 10
582.4234403276
 20
1099.2270322742
 30
0.0
 11
583.923450818
 21
1099.2270322742
 31
0.0
  0
LINE
  5
3CD
  8
0
  6
CONTINUOUS
 62
     7
 10
583.923450818
 20
1348.2270302477
 30
0.0
 11
582.4234403276
 21
1348.2270302477
 31
0.0
  0
LINE
  5
3CE
  8
0
  6
CONTINUOUS
 62
     7
 10
569.4234288835
 20
1348.2270302477
 30
0.0
 11
569.4234288835
 21
1099.2270322742
 31
0.0
  0
LINE
  5
3CF
  8
0
  6
CONTINUOUS
 62
     7
 10
582.4234403276
 20
1348.2270302477
 30
0.0
 11
569.4234288835
 21
1348.2270302477
 31
0.0
  0
CIRCLE
  5
3D0
  8
0
  6
CONTINUOUS
 62
     7
 10
575.9234422349
 20
1118.727031261
 30
0.0
 40
2.099999999999909
  0
CIRCLE
  5
3D1
  8
0
  6
CONTINUOUS
 62
     7
 10
575.9234422349
 20
1223.727031261
 30
0.0
 40
2.099999999999909
  0
CIRCLE
  5
3D2
  8
0
  6
CONTINUOUS
 62
     7
 10
575.9234422349
 20
1328.727031261
 30
0.0
 40
2.100000000000136
  0
LINE
  5
3D3
  8
0
  6
CONTINUOUS
 62
     7
 10
569.4234288835
 20
1099.2270322742
 30
0.0
 11
582.4234403276
 21
1099.2270322742
 31
0.0
  0
ARC
  5
3D4
  8
0
  6
CONTINUOUS
 62
     7
 10
671.9234421297
 20
1414.8270345792
 30
0.0
 40
1.499997572389297
 50
171.9998468036
 51
270.0003136568
  0
ARC
  5
3D5
  8
0
  6
CONTINUOUS
 62
     7
 10
106.8633138856
 20
1430.5988746341
 30
0.0
 40
192.2641484299795
 50
184.5805519163
 51
185.1091721095
  0
ARC
  5
3D6
  8
0
  6
CONTINUOUS
 62
     7
 10
477.2130955893
 20
1430.7457069898
 30
0.0
 40
194.0406947850823
 50
354.8871852508
 51
355.4179799009
  0
LINE
  5
3D7
  8
0
  6
CONTINUOUS
 62
     7
 10
670.6336356305
 20
1415.0357978644
 30
0.0
 11
670.598737111
 21
1414.8240374627
 31
0.0
  0
LINE
  5
3D8
  8
0
  6
CONTINUOUS
 62
     7
 10
670.6336356305
 20
1415.0357978644
 30
0.0
 11
670.6336356305
 21
1415.2445482316
 31
0.0
  0
LINE
  5
3D9
  8
0
  6
CONTINUOUS
 62
     7
 10
-84.7518526412
 20
1414.8240374627
 30
0.0
 11
-84.7867511607
 21
1415.0357978644
 31
0.0
  0
LINE
  5
3DA
  8
0
  6
CONTINUOUS
 62
     7
 10
-84.7867511607
 20
1415.2445482316
 30
0.0
 11
-84.7867511607
 21
1415.0357978644
 31
0.0
  0
LINE
  5
3DB
  8
0
  6
CONTINUOUS
 62
     7
 10
-85.4241632319
 20
1419.5270376506
 30
0.0
 11
-84.7867511607
 21
1415.0357978644
 31
0.0
  0
LINE
  5
3DC
  8
0
  6
CONTINUOUS
 62
     7
 10
-84.7867511607
 20
1415.2445482316
 30
0.0
 11
-85.3945099211
 21
1419.5270376506
 31
0.0
  0
LINE
  5
3DD
  8
0
  6
CONTINUOUS
 62
     7
 10
671.241394391
 20
1419.5270376506
 30
0.0
 11
670.6336356305
 21
1415.2445482316
 31
0.0
  0
LINE
  5
3DE
  8
0
  6
CONTINUOUS
 62
     7
 10
671.2710477018
 20
1419.5270376506
 30
0.0
 11
670.6336356305
 21
1415.0357978644
 31
0.0
  0
LINE
  5
3DF
  8
0
  6
CONTINUOUS
 62
     7
 10
-105.5199288226
 20
1036.9528221192
 30
0.0
 11
-105.3213559485
 21
1036.3419639172
 31
0.0
  0
POLYLINE
  5
3E0
  8
0
  6
CONTINUOUS
 62
     7
 66
     1
 10
0.0
 20
0.0
 30
0.0
  0
VERTEX
  5
749
  8
0
  6
CONTINUOUS
 62
     7
 10
691.164604535
 20
1036.3365249934
 30
0.0
  0
VERTEX
  5
74A
  8
0
  6
CONTINUOUS
 62
     7
 10
691.2761844301
 20
1036.666228086
 30
0.0
  0
VERTEX
  5
74B
  8
0
  6
CONTINUOUS
 62
     7
 10
691.367886176
 20
1036.9532244506
 30
0.0
  0
SEQEND
  5
74C
  8
0
  6
CONTINUOUS
 62
     7
  0
ARC
  5
3E1
  8
0
  6
CONTINUOUS
 62
     7
 10
-103.5918016436
 20
1410.1572211911
 30
0.0
 40
1.967476573600397
 50
138.9948782716
 51
175.0487333626
  0
ARC
  5
3E2
  8
0
  6
CONTINUOUS
 62
     7
 10
689.4386861135
 20
1410.1572211911
 30
0.0
 40
1.967476573600157
 50
4.9512666373
 51
41.0051217284
  0
POLYLINE
  5
3E3
  8
0
  6
CONTINUOUS
 62
     7
 66
     1
 10
0.0
 20
0.0
 30
0.0
  0
VERTEX
  5
74D
  8
0
  6
CONTINUOUS
 62
     7
 10
-105.5519365168
 20
1410.3270309272
 30
0.0
  0
VERTEX
  5
74E
  8
0
  6
CONTINUOUS
 62
     7
 10
-105.4796360827
 20
1410.9786289039
 30
0.0
  0
VERTEX
  5
74F
  8
0
  6
CONTINUOUS
 62
     7
 10
-105.4423831797
 20
1411.2421857419
 30
0.0
  0
SEQEND
  5
750
  8
0
  6
CONTINUOUS
 62
     7
  0
POLYLINE
  5
3E4
  8
0
  6
CONTINUOUS
 62
     7
 66
     1
 10
0.0
 20
0.0
 30
0.0
  0
VERTEX
  5
751
  8
0
  6
CONTINUOUS
 62
     7
 10
691.2967182302
 20
1411.1893909278
 30
0.0
  0
VERTEX
  5
752
  8
0
  6
CONTINUOUS
 62
     7
 10
691.3265205526
 20
1410.9786289039
 30
0.0
  0
VERTEX
  5
753
  8
0
  6
CONTINUOUS
 62
     7
 10
691.3988209867
 20
1410.3270309272
 30
0.0
  0
SEQEND
  5
754
  8
0
  6
CONTINUOUS
 62
     7
  0
ARC
  5
3E5
  8
0
  6
CONTINUOUS
 62
     7
 10
686.4234422349
 20
1409.8314786501
 30
0.0
 40
5.00000000000648
 50
0.0
 51
5.6879527015
  0
ARC
  5
3E6
  8
0
  6
CONTINUOUS
 62
     7
 10
-100.5765577651
 20
1409.8314786501
 30
0.0
 40
5.000000000006438
 50
174.3120472985
 51
180.0
  0
ARC
  5
3E7
  8
0
  6
CONTINUOUS
 62
     7
 10
-36.2219304951
 20
-986.2623868527
 30
0.0
 40
0.6802848318046879
 50
304.768196185
 51
10.2816558902
  0
LINE
  5
3E8
  8
0
  6
CONTINUOUS
 62
     7
 10
-49.6893309451
 20
-988.6753393123
 30
0.0
 11
-49.0265570975
 21
-988.6824769685
 31
0.0
  0
ARC
  5
3E9
  8
0
  6
CONTINUOUS
 62
     7
 10
-50.359363373
 20
-947.428759529
 30
0.0
 40
41.25202161442796
 50
254.3923581601
 51
270.9306627151
  0
ARC
  5
3EA
  8
0
  6
CONTINUOUS
 62
     7
 10
-47.7651047542
 20
-946.7315368659
 30
0.0
 40
41.94805394982325
 50
269.1828224591
 51
285.4539245835
  0
LINE
  5
3EB
  8
0
  6
CONTINUOUS
 62
     7
 10
-49.0265570975
 20
-988.6824769685
 30
0.0
 11
-48.3633660174
 21
-988.6753244111
 31
0.0
  0
LINE
  5
3EC
  8
0
  6
CONTINUOUS
 62
     7
 10
-35.5265520907
 20
-986.1664009998
 30
0.0
 11
-35.5265520907
 21
-985.7617748687
 31
0.0
  0
LINE
  5
3ED
  8
0
  6
CONTINUOUS
 62
     7
 10
-62.5265621043
 20
-985.763190479
 30
0.0
 11
-62.5265621043
 21
-986.1664009998
 31
0.0
  0
ARC
  5
3EE
  8
0
  6
CONTINUOUS
 62
     7
 10
-86.7901823194
 20
-975.2610424264
 30
0.0
 40
55.0000000000202
 50
348.2773094145
 51
357.9136198395
  0
ARC
  5
3EF
  8
0
  6
CONTINUOUS
 62
     7
 10
-11.2629336501
 20
-975.2610424264
 30
0.0
 40
55.00000000001664
 50
182.0863170139
 51
191.7226905856
  0
POLYLINE
  5
3F0
  8
0
  6
CONTINUOUS
 62
     7
 66
     1
 10
0.0
 20
0.0
 30
0.0
  0
VERTEX
  5
755
  8
0
  6
CONTINUOUS
 62
     7
 10
-64.4558750487
 20
-987.0635552118
 30
0.0
  0
VERTEX
  5
756
  8
0
  6
CONTINUOUS
 62
     7
 10
-60.6188558436
 20
-987.5868690917
 30
0.0
  0
VERTEX
  5
757
  8
0
  6
CONTINUOUS
 62
     7
 10
-60.4373298979
 20
-987.607879729
 30
0.0
  0
SEQEND
  5
758
  8
0
  6
CONTINUOUS
 62
     7
  0
POLYLINE
  5
3F1
  8
0
  6
CONTINUOUS
 62
     7
 66
     1
 10
0.0
 20
0.0
 30
0.0
  0
VERTEX
  5
759
  8
0
  6
CONTINUOUS
 62
     7
 10
-37.8307782508
 20
-987.6323325345
 30
0.0
  0
VERTEX
  5
75A
  8
0
  6
CONTINUOUS
 62
     7
 10
-37.4342583514
 20
-987.5868690917
 30
0.0
  0
VERTEX
  5
75B
  8
0
  6
CONTINUOUS
 62
     7
 10
-33.5972391463
 20
-987.0635552118
 30
0.0
  0
SEQEND
  5
75C
  8
0
  6
CONTINUOUS
 62
     7
  0
ARC
  5
3F2
  8
0
  6
CONTINUOUS
 62
     7
 10
-64.3324531287
 20
-986.2731313434
 30
0.0
 40
0.8000000002425013
 50
191.7227076668
 51
261.1241905632
  0
ARC
  5
3F3
  8
0
  6
CONTINUOUS
 62
     7
 10
-33.7206628408
 20
-986.2731313434
 30
0.0
 40
0.8000000002459058
 50
278.8758094371
 51
348.2772923332
  0
LINE
  5
3F4
  8
0
  6
CONTINUOUS
 62
     7
 10
-98.3265720702
 20
-956.061048598
 30
0.0
 11
-98.3265720702
 21
-957.0610357234
 31
0.0
  0
LINE
  5
3F5
  8
0
  6
CONTINUOUS
 62
     7
 10
-88.3265518046
 20
-957.0610357234
 30
0.0
 11
-88.3265518046
 21
-956.061048598
 31
0.0
  0
LINE
  5
3F6
  8
0
  6
CONTINUOUS
 62
     7
 10
676.6734338903
 20
-958.06103775
 30
0.0
 11
676.6734338903
 21
-958.2810384939
 31
0.0
  0
LINE
  5
3F7
  8
0
  6
CONTINUOUS
 62
     7
 10
681.6734291219
 20
-958.2810384939
 30
0.0
 11
681.6734291219
 21
-958.06103775
 31
0.0
  0
LINE
  5
3F8
  8
0
  6
CONTINUOUS
 62
     7
 10
676.6734338903
 20
-958.2810384939
 30
0.0
 11
677.0734406614
 21
-958.681045265
 31
0.0
  0
LINE
  5
3F9
  8
0
  6
CONTINUOUS
 62
     7
 10
681.2734521531
 20
-958.681045265
 30
0.0
 11
681.6734291219
 21
-958.2810384939
 31
0.0
  0
POLYLINE
  5
3FA
  8
0
  6
CONTINUOUS
 62
     7
 66
     1
 10
0.0
 20
0.0
 30
0.0
  0
VERTEX
  5
75D
  8
0
  6
CONTINUOUS
 62
     7
 10
684.9234319829
 20
-569.8610378215
 30
0.0
  0
VERTEX
  5
75E
  8
0
  6
CONTINUOUS
 62
     7
 10
685.6875039243
 20
-570.0979364822
 30
0.0
  0
VERTEX
  5
75F
  8
0
  6
CONTINUOUS
 62
     7
 10
686.4523209237
 20
-570.7720352123
 30
0.0
  0
VERTEX
  5
760
  8
0
  6
CONTINUOUS
 62
     7
 10
687.2171081209
 20
-571.7766715
 30
0.0
  0
VERTEX
  5
761
  8
0
  6
CONTINUOUS
 62
     7
 10
687.9234529638
 20
-572.8610439012
 30
0.0
  0
SEQEND
  5
762
  8
0
  6
CONTINUOUS
 62
     7
  0
ARC
  5
3FB
  8
0
  6
CONTINUOUS
 62
     7
 10
-97.4394299094
 20
-574.4981845377
 30
0.0
 40
4.917650223039339
 50
109.4452819848
 51
160.5544334252
  0
LINE
  5
3FC
  8
0
  6
CONTINUOUS
 62
     7
 10
-99.0765475131
 20
-569.8610378215
 30
0.0
 11
684.9234319829
 21
-569.8610378215
 31
0.0
  0
LINE
  5
3FD
  8
0
  6
CONTINUOUS
 62
     7
 10
-102.0765684939
 20
-572.8610439012
 30
0.0
 11
-102.0765684939
 21
-576.8610371063
 31
0.0
  0
LINE
  5
3FE
  8
0
  6
CONTINUOUS
 62
     7
 10
687.9234529638
 20
-572.8610439012
 30
0.0
 11
687.9234529638
 21
-576.8610371063
 31
0.0
  0
ARC
  5
3FF
  8
0
  6
CONTINUOUS
 62
     7
 10
-49.0265570975
 20
-881.1288635591
 30
0.0
 40
101.3168657584541
 50
262.4990096992
 51
277.5009903008
  0
LINE
  5
400
  8
0
  6
CONTINUOUS
 62
     7
 10
-32.937356124
 20
-981.6281629512
 30
0.0
 11
-32.6311372615
 21
-979.7184450338
 31
0.0
  0
LINE
  5
401
  8
0
  6
CONTINUOUS
 62
     7
 10
-65.4219769335
 20
-979.7184450338
 30
0.0
 11
-65.115758071
 21
-981.6281629512
 31
0.0
  0
ARC
  5
402
  8
0
  6
CONTINUOUS
 62
     7
 10
-33.7144417618
 20
-981.4605625251
 30
0.0
 40
0.7949540812823447
 50
278.4782052908
 51
347.82898425
  0
POLYLINE
  5
403
  8
0
  6
CONTINUOUS
 62
     7
 66
     1
 10
0.0
 20
0.0
 30
0.0
  0
VERTEX
  5
763
  8
0
  6
CONTINUOUS
 62
     7
 10
-44.2912660933
 20
-985.284520478
 30
0.0
  0
VERTEX
  5
764
  8
0
  6
CONTINUOUS
 62
     7
 10
-42.2359489299
 20
-985.2846396873
 30
0.0
  0
VERTEX
  5
765
  8
0
  6
CONTINUOUS
 62
     7
 10
-40.3725289202
 20
-985.2942956397
 30
0.0
  0
VERTEX
  5
766
  8
0
  6
CONTINUOUS
 62
     7
 10
-38.7567364073
 20
-985.3210134218
 30
0.0
  0
VERTEX
  5
767
  8
0
  6
CONTINUOUS
 62
     7
 10
-37.4303840495
 20
-985.3721095035
 30
0.0
  0
VERTEX
  5
768
  8
0
  6
CONTINUOUS
 62
     7
 10
-36.4351354933
 20
-985.4546619365
 30
0.0
  0
VERTEX
  5
769
  8
0
  6
CONTINUOUS
 62
     7
 10
-35.7952796317
 20
-985.5722768018
 30
0.0
  0
VERTEX
  5
76A
  8
0
  6
CONTINUOUS
 62
     7
 10
-35.5345987178
 20
-985.7266081283
 30
0.0
  0
VERTEX
  5
76B
  8
0
  6
CONTINUOUS
 62
     7
 10
-35.5566822386
 20
-985.7616705606
 30
0.0
  0
SEQEND
  5
76C
  8
0
  6
CONTINUOUS
 62
     7
  0
POLYLINE
  5
404
  8
0
  6
CONTINUOUS
 62
     7
 66
     1
 10
0.0
 20
0.0
 30
0.0
  0
VERTEX
  5
76D
  8
0
  6
CONTINUOUS
 62
     7
 10
-53.761877904
 20
-985.284520478
 30
0.0
  0
VERTEX
  5
76E
  8
0
  6
CONTINUOUS
 62
     7
 10
-52.2302471495
 20
-985.2867109487
 30
0.0
  0
VERTEX
  5
76F
  8
0
  6
CONTINUOUS
 62
     7
 10
-49.0265570975
 20
-985.2896911809
 30
0.0
  0
VERTEX
  5
770
  8
0
  6
CONTINUOUS
 62
     7
 10
-47.4265598155
 20
-985.2888567159
 30
0.0
  0
VERTEX
  5
771
  8
0
  6
CONTINUOUS
 62
     7
 10
-44.2912660933
 20
-985.284520478
 30
0.0
  0
SEQEND
  5
772
  8
0
  6
CONTINUOUS
 62
     7
  0
POLYLINE
  5
405
  8
0
  6
CONTINUOUS
 62
     7
 66
     1
 10
0.0
 20
0.0
 30
0.0
  0
VERTEX
  5
773
  8
0
  6
CONTINUOUS
 62
     7
 10
-62.4802492953
 20
-985.7632500837
 30
0.0
  0
VERTEX
  5
774
  8
0
  6
CONTINUOUS
 62
     7
 10
-62.4547683097
 20
-985.6563342521
 30
0.0
  0
VERTEX
  5
775
  8
0
  6
CONTINUOUS
 62
     7
 10
-62.0315157271
 20
-985.5181706855
 30
0.0
  0
VERTEX
  5
776
  8
0
  6
CONTINUOUS
 62
     7
 10
-61.2442575789
 20
-985.4158593128
 30
0.0
  0
VERTEX
  5
777
  8
0
  6
CONTINUOUS
 62
     7
 10
-60.1098619796
 20
-985.347567291
 30
0.0
  0
VERTEX
  5
778
  8
0
  6
CONTINUOUS
 62
     7
 10
-58.6653136111
 20
-985.3074086616
 30
0.0
  0
VERTEX
  5
779
  8
0
  6
CONTINUOUS
 62
     7
 10
-56.9413386679
 20
-985.2887375066
 30
0.0
  0
VERTEX
  5
77A
  8
0
  6
CONTINUOUS
 62
     7
 10
-54.9941443301
 20
-985.2838499258
 30
0.0
  0
VERTEX
  5
77B
  8
0
  6
CONTINUOUS
 62
     7
 10
-53.761877904
 20
-985.284520478
 30
0.0
  0
SEQEND
  5
77C
  8
0
  6
CONTINUOUS
 62
     7
  0
LINE
  5
406
  8
0
  6
CONTINUOUS
 62
     7
 10
-65.115758071
 20
-985.3267205665
 30
0.0
 11
-65.115758071
 21
-981.6281629512
 31
0.0
  0
POLYLINE
  5
407
  8
0
  6
CONTINUOUS
 62
     7
 66
     1
 10
0.0
 20
0.0
 30
0.0
  0
VERTEX
  5
77D
  8
0
  6
CONTINUOUS
 62
     7
 10
-37.0044194556
 20
-986.5948093841
 30
0.0
  0
VERTEX
  5
77E
  8
0
  6
CONTINUOUS
 62
     7
 10
-36.1739181376
 20
-986.4545149515
 30
0.0
  0
VERTEX
  5
77F
  8
0
  6
CONTINUOUS
 62
     7
 10
-35.661824832
 20
-986.2993789623
 30
0.0
  0
VERTEX
  5
780
  8
0
  6
CONTINUOUS
 62
     7
 10
-35.5317078925
 20
-986.1404282758
 30
0.0
  0
VERTEX
  5
781
  8
0
  6
CONTINUOUS
 62
     7
 10
-35.787262807
 20
-985.9822226474
 30
0.0
  0
VERTEX
  5
782
  8
0
  6
CONTINUOUS
 62
     7
 10
-36.4212178088
 20
-985.8292920301
 30
0.0
  0
VERTEX
  5
783
  8
0
  6
CONTINUOUS
 62
     7
 10
-37.415453086
 20
-985.6859875629
 30
0.0
  0
VERTEX
  5
784
  8
0
  6
CONTINUOUS
 62
     7
 10
-38.7415372229
 20
-985.5564070651
 30
0.0
  0
VERTEX
  5
785
  8
0
  6
CONTINUOUS
 62
     7
 10
-40.3615914679
 20
-985.444260926
 30
0.0
  0
VERTEX
  5
786
  8
0
  6
CONTINUOUS
 62
     7
 10
-42.2292732096
 20
-985.3527677963
 30
0.0
  0
VERTEX
  5
787
  8
0
  6
CONTINUOUS
 62
     7
 10
-44.2912660933
 20
-985.284520478
 30
0.0
  0
SEQEND
  5
788
  8
0
  6
CONTINUOUS
 62
     7
  0
POLYLINE
  5
408
  8
0
  6
CONTINUOUS
 62
     7
 66
     1
 10
0.0
 20
0.0
 30
0.0
  0
VERTEX
  5
789
  8
0
  6
CONTINUOUS
 62
     7
 10
-61.0486947394
 20
-986.5948093841
 30
0.0
  0
VERTEX
  5
78A
  8
0
  6
CONTINUOUS
 62
     7
 10
-61.8791960574
 20
-986.4545149515
 30
0.0
  0
VERTEX
  5
78B
  8
0
  6
CONTINUOUS
 62
     7
 10
-62.391289363
 20
-986.2993789623
 30
0.0
  0
VERTEX
  5
78C
  8
0
  6
CONTINUOUS
 62
     7
 10
-62.5214361048
 20
-986.1404282758
 30
0.0
  0
VERTEX
  5
78D
  8
0
  6
CONTINUOUS
 62
     7
 10
-62.265851388
 20
-985.9822226474
 30
0.0
  0
VERTEX
  5
78E
  8
0
  6
CONTINUOUS
 62
     7
 10
-61.6318963862
 20
-985.8292920301
 30
0.0
  0
VERTEX
  5
78F
  8
0
  6
CONTINUOUS
 62
     7
 10
-60.637661109
 20
-985.6859875629
 30
0.0
  0
VERTEX
  5
790
  8
0
  6
CONTINUOUS
 62
     7
 10
-59.3115769721
 20
-985.5564070651
 30
0.0
  0
VERTEX
  5
791
  8
0
  6
CONTINUOUS
 62
     7
 10
-57.6915227271
 20
-985.444260926
 30
0.0
  0
VERTEX
  5
792
  8
0
  6
CONTINUOUS
 62
     7
 10
-55.8238409854
 20
-985.3527677963
 30
0.0
  0
VERTEX
  5
793
  8
0
  6
CONTINUOUS
 62
     7
 10
-53.761877904
 20
-985.284520478
 30
0.0
  0
SEQEND
  5
794
  8
0
  6
CONTINUOUS
 62
     7
  0
POLYLINE
  5
409
  8
0
  6
CONTINUOUS
 62
     7
 66
     1
 10
0.0
 20
0.0
 30
0.0
  0
VERTEX
  5
795
  8
0
  6
CONTINUOUS
 62
     7
 10
-49.0265570975
 20
-986.0258234451
 30
0.0
  0
VERTEX
  5
796
  8
0
  6
CONTINUOUS
 62
     7
 10
-51.1560820437
 20
-986.0381318042
 30
0.0
  0
VERTEX
  5
797
  8
0
  6
CONTINUOUS
 62
     7
 10
-53.2275222636
 20
-986.0747290561
 30
0.0
  0
VERTEX
  5
798
  8
0
  6
CONTINUOUS
 62
     7
 10
-55.1843427516
 20
-986.1346019218
 30
0.0
  0
VERTEX
  5
799
  8
0
  6
CONTINUOUS
 62
     7
 10
-56.9732271529
 20
-986.2161261747
 30
0.0
  0
VERTEX
  5
79A
  8
0
  6
CONTINUOUS
 62
     7
 10
-58.5453294612
 20
-986.3170815418
 30
0.0
  0
VERTEX
  5
79B
  8
0
  6
CONTINUOUS
 62
     7
 10
-59.8577939368
 20
-986.4347113082
 30
0.0
  0
VERTEX
  5
79C
  8
0
  6
CONTINUOUS
 62
     7
 10
-60.8747981883
 20
-986.5657968233
 30
0.0
  0
VERTEX
  5
79D
  8
0
  6
CONTINUOUS
 62
     7
 10
-61.5686260558
 20
-986.7067767093
 30
0.0
  0
VERTEX
  5
79E
  8
0
  6
CONTINUOUS
 62
     7
 10
-61.9203232623
 20
-986.8538064668
 30
0.0
  0
VERTEX
  5
79F
  8
0
  6
CONTINUOUS
 62
     7
 10
-61.9203232623
 20
-987.0028627822
 30
0.0
  0
VERTEX
  5
7A0
  8
0
  6
CONTINUOUS
 62
     7
 10
-61.6190217829
 20
-987.1355129192
 30
0.0
  0
SEQEND
  5
7A1
  8
0
  6
CONTINUOUS
 62
     7
  0
POLYLINE
  5
40A
  8
0
  6
CONTINUOUS
 62
     7
 66
     1
 10
0.0
 20
0.0
 30
0.0
  0
VERTEX
  5
7A2
  8
0
  6
CONTINUOUS
 62
     7
 10
-36.7927931643
 20
-987.2220141599
 30
0.0
  0
VERTEX
  5
7A3
  8
0
  6
CONTINUOUS
 62
     7
 10
-36.4844881392
 20
-987.1498776386
 30
0.0
  0
VERTEX
  5
7A4
  8
0
  6
CONTINUOUS
 62
     7
 10
-36.1327909327
 20
-987.0028627822
 30
0.0
  0
VERTEX
  5
7A5
  8
0
  6
CONTINUOUS
 62
     7
 10
-36.1327909327
 20
-986.8538064668
 30
0.0
  0
VERTEX
  5
7A6
  8
0
  6
CONTINUOUS
 62
     7
 10
-36.4844881392
 20
-986.7067767093
 30
0.0
  0
VERTEX
  5
7A7
  8
0
  6
CONTINUOUS
 62
     7
 10
-37.1783160067
 20
-986.5657968233
 30
0.0
  0
VERTEX
  5
7A8
  8
0
  6
CONTINUOUS
 62
     7
 10
-38.1953202582
 20
-986.4347113082
 30
0.0
  0
VERTEX
  5
7A9
  8
0
  6
CONTINUOUS
 62
     7
 10
-39.5077847338
 20
-986.3170815418
 30
0.0
  0
VERTEX
  5
7AA
  8
0
  6
CONTINUOUS
 62
     7
 10
-41.0798870421
 20
-986.2161261747
 30
0.0
  0
VERTEX
  5
7AB
  8
0
  6
CONTINUOUS
 62
     7
 10
-42.8687714434
 20
-986.1346019218
 30
0.0
  0
VERTEX
  5
7AC
  8
0
  6
CONTINUOUS
 62
     7
 10
-44.8255919314
 20
-986.0747290561
 30
0.0
  0
VERTEX
  5
7AD
  8
0
  6
CONTINUOUS
 62
     7
 10
-46.8970321513
 20
-986.0381318042
 30
0.0
  0
VERTEX
  5
7AE
  8
0
  6
CONTINUOUS
 62
     7
 10
-49.0265570975
 20
-986.0258234451
 30
0.0
  0
SEQEND
  5
7AF
  8
0
  6
CONTINUOUS
 62
     7
  0
LINE
  5
40B
  8
0
  6
CONTINUOUS
 62
     7
 10
-41.5046893454
 20
-987.9138750741
 30
0.0
 11
-43.9876102305
 21
-988.1497455547
 31
0.0
  0
ARC
  5
40C
  8
0
  6
CONTINUOUS
 62
     7
 10
-48.3189529981
 20
-1025.2959995101
 30
0.0
 40
37.39792391416641
 50
83.3492071269
 51
91.0841550459
  0
ARC
  5
40D
  8
0
  6
CONTINUOUS
 62
     7
 10
-49.7344506839
 20
-1025.2900449888
 30
0.0
 40
37.39197593831992
 50
88.9152288152
 51
96.651409012
  0
LINE
  5
40E
  8
0
  6
CONTINUOUS
 62
     7
 10
-54.0655039645
 20
-988.1497455547
 30
0.0
 11
-56.5484248496
 21
-987.9138750741
 31
0.0
  0
ARC
  5
40F
  8
0
  6
CONTINUOUS
 62
     7
 10
-55.4751978655
 20
-979.3469439202
 30
0.0
 40
8.923966735706903
 50
258.8272576331
 51
263.0953914072
  0
LINE
  5
410
  8
0
  6
CONTINUOUS
 62
     7
 10
-56.5480076171
 20
-988.2061911533
 30
0.0
 11
-54.0646993018
 21
-988.4367717216
 31
0.0
  0
ARC
  5
411
  8
0
  6
CONTINUOUS
 62
     7
 10
-49.4413735725
 20
-940.173218323
 30
0.0
 40
48.50837991028742
 50
266.2788810761
 51
270.4899673626
  0
ARC
  5
412
  8
0
  6
CONTINUOUS
 62
     7
 10
-48.6121142157
 20
-940.1615492762
 30
0.0
 40
48.52004533791077
 50
269.510591621
 51
273.7208767125
  0
LINE
  5
413
  8
0
  6
CONTINUOUS
 62
     7
 10
-43.9884148932
 20
-988.4367717216
 30
0.0
 11
-41.5051065779
 21
-988.2061911533
 31
0.0
  0
ARC
  5
414
  8
0
  6
CONTINUOUS
 62
     7
 10
-42.5725870569
 20
-979.3813940838
 30
0.0
 40
8.889125822638608
 50
276.8972017031
 51
281.1891330098
  0
LINE
  5
415
  8
0
  6
CONTINUOUS
 62
     7
 10
-85.3009902335
 20
-956.2110436866
 30
0.0
 11
-88.3265518046
 21
-956.2110436866
 31
0.0
  0
LINE
  5
416
  8
0
  6
CONTINUOUS
 62
     7
 10
-98.3265720702
 20
-956.2110436866
 30
0.0
 11
-100.8071981764
 21
-956.2110436866
 31
0.0
  0
ARC
  5
417
  8
0
  6
CONTINUOUS
 62
     7
 10
-100.809706667
 20
-955.8444323825
 30
0.0
 40
0.3666198860666046
 50
216.2171283821
 51
270.3920328623
  0
LINE
  5
418
  8
0
  6
CONTINUOUS
 62
     7
 10
688.2373608255
 20
-973.7610352943
 30
0.0
 11
688.4734548234
 21
-973.7610352943
 31
0.0
  0
LINE
  5
419
  8
0
  6
CONTINUOUS
 62
     7
 10
688.4734548234
 20
-973.7610352943
 30
0.0
 11
688.4734548234
 21
-975.7105393121
 31
0.0
  0
ARC
  5
41A
  8
0
  6
CONTINUOUS
 62
     7
 10
687.9734420152
 20
-973.2610424265
 30
0.0
 40
2.5
 50
270.0
 51
281.5369590328
  0
LINE
  5
41B
  8
0
  6
CONTINUOUS
 62
     7
 10
690.4734290742
 20
-972.8281033943
 30
0.0
 11
690.4734290742
 21
-973.1629622886
 31
0.0
  0
ARC
  5
41C
  8
0
  6
CONTINUOUS
 62
     7
 10
687.9734420152
 20
-973.2610424265
 30
0.0
 40
2.500000000000114
 50
281.5369590328
 51
0.0000000001
  0
POLYLINE
  5
41D
  8
0
  6
CONTINUOUS
 62
     7
 66
     1
 10
0.0
 20
0.0
 30
0.0
  0
VERTEX
  5
7B0
  8
0
  6
CONTINUOUS
 62
     7
 10
-105.0265513755
 20
-973.1629622886
 30
0.0
  0
VERTEX
  5
7B1
  8
0
  6
CONTINUOUS
 62
     7
 10
-104.944416175
 20
-972.9833138893
 30
0.0
  0
VERTEX
  5
7B2
  8
0
  6
CONTINUOUS
 62
     7
 10
-104.7361277438
 20
-972.8546572635
 30
0.0
  0
VERTEX
  5
7B3
  8
0
  6
CONTINUOUS
 62
     7
 10
-104.147472272
 20
-972.750334234
 30
0.0
  0
VERTEX
  5
7B4
  8
0
  6
CONTINUOUS
 62
     7
 10
-103.2954536772
 20
-972.8522581766
 30
0.0
  0
VERTEX
  5
7B5
  8
0
  6
CONTINUOUS
 62
     7
 10
-102.7087055541
 20
-972.9815108488
 30
0.0
  0
VERTEX
  5
7B6
  8
0
  6
CONTINUOUS
 62
     7
 10
-102.0265601969
 20
-973.1629622886
 30
0.0
  0
SEQEND
  5
7B7
  8
0
  6
CONTINUOUS
 62
     7
  0
LINE
  5
41E
  8
0
  6
CONTINUOUS
 62
     7
 10
-105.0265513755
 20
-973.1629622886
 30
0.0
 11
-105.0265513755
 21
-962.2610492418
 31
0.0
  0
LINE
  5
41F
  8
0
  6
CONTINUOUS
 62
     7
 10
-102.0265601969
 20
-962.2610492418
 30
0.0
 11
-105.0265513755
 21
-962.2610492418
 31
0.0
  0
ARC
  5
420
  8
0
  6
CONTINUOUS
 62
     7
 10
690.4734420152
 20
-975.7610424265
 30
0.0
 40
3.00000000000008
 50
120.0
 51
135.0
  0
LINE
  5
421
  8
0
  6
CONTINUOUS
 62
     7
 10
683.9734531545
 20
-969.2610485265
 30
0.0
 11
688.352129569
 21
-973.639724941
 31
0.0
  0
LINE
  5
422
  8
0
  6
CONTINUOUS
 62
     7
 10
676.9734538698
 20
-969.2610485265
 30
0.0
 11
683.9734531545
 21
-969.2610485265
 31
0.0
  0
LINE
  5
423
  8
0
  6
CONTINUOUS
 62
     7
 10
676.9734538698
 20
-962.2610492418
 30
0.0
 11
676.9734538698
 21
-969.2610485265
 31
0.0
  0
LINE
  5
424
  8
0
  6
CONTINUOUS
 62
     7
 10
688.9734483861
 20
-962.2610492418
 30
0.0
 11
676.9734538698
 21
-962.2610492418
 31
0.0
  0
POLYLINE
  5
425
  8
0
  6
CONTINUOUS
 62
     7
 66
     1
 10
0.0
 20
0.0
 30
0.0
  0
VERTEX
  5
7B8
  8
0
  6
CONTINUOUS
 62
     7
 10
688.9734483861
 20
-973.1629622886
 30
0.0
  0
VERTEX
  5
7B9
  8
0
  6
CONTINUOUS
 62
     7
 10
689.6706439161
 20
-972.9833138893
 30
0.0
  0
VERTEX
  5
7BA
  8
0
  6
CONTINUOUS
 62
     7
 10
690.2611769342
 20
-972.8546572635
 30
0.0
  0
VERTEX
  5
7BB
  8
0
  6
CONTINUOUS
 62
     7
 10
691.0951651239
 20
-972.750334234
 30
0.0
  0
VERTEX
  5
7BC
  8
0
  6
CONTINUOUS
 62
     7
 10
691.6918672227
 20
-972.8522581766
 30
0.0
  0
VERTEX
  5
7BD
  8
0
  6
CONTINUOUS
 62
     7
 10
691.8948508405
 20
-972.9815108488
 30
0.0
  0
VERTEX
  5
7BE
  8
0
  6
CONTINUOUS
 62
     7
 10
691.9734395646
 20
-973.1629622886
 30
0.0
  0
SEQEND
  5
7BF
  8
0
  6
CONTINUOUS
 62
     7
  0
LINE
  5
426
  8
0
  6
CONTINUOUS
 62
     7
 10
690.4734290742
 20
-973.1629622886
 30
0.0
 11
691.9734395646
 21
-973.1629622886
 31
0.0
  0
ARC
  5
427
  8
0
  6
CONTINUOUS
 62
     7
 10
-103.5265579848
 20
-975.7610424265
 30
0.0
 40
2.999999999999833
 50
30.0
 51
45.0
  0
LINE
  5
428
  8
0
  6
CONTINUOUS
 62
     7
 10
-97.0265649653
 20
-969.2610485265
 30
0.0
 11
-101.4052413798
 21
-973.639724941
 31
0.0
  0
LINE
  5
429
  8
0
  6
CONTINUOUS
 62
     7
 10
-90.0265656806
 20
-969.2610485265
 30
0.0
 11
-97.0265649653
 21
-969.2610485265
 31
0.0
  0
LINE
  5
42A
  8
0
  6
CONTINUOUS
 62
     7
 10
-90.0265656806
 20
-962.2610492418
 30
0.0
 11
-90.0265656806
 21
-969.2610485265
 31
0.0
  0
LINE
  5
42B
  8
0
  6
CONTINUOUS
 62
     7
 10
676.9734538698
 20
-962.2610492418
 30
0.0
 11
-90.0265656806
 21
-962.2610492418
 31
0.0
  0
ARC
  5
42C
  8
0
  6
CONTINUOUS
 62
     7
 10
690.4734420152
 20
-975.7610424265
 30
0.0
 40
3.000000000000024
 50
135.0
 51
150.0
  0
LINE
  5
42D
  8
0
  6
CONTINUOUS
 62
     7
 10
-105.0265513755
 20
-973.1629622886
 30
0.0
 11
-103.5265706874
 21
-973.1629622886
 31
0.0
  0
POLYLINE
  5
42E
  8
0
  6
CONTINUOUS
 62
     7
 66
     1
 10
0.0
 20
0.0
 30
0.0
  0
VERTEX
  5
7C0
  8
0
  6
CONTINUOUS
 62
     7
 10
-100.9284936286
 20
-974.2610437582
 30
0.0
  0
VERTEX
  5
7C1
  8
0
  6
CONTINUOUS
 62
     7
 10
-100.7488452292
 20
-974.9582392881
 30
0.0
  0
VERTEX
  5
7C2
  8
0
  6
CONTINUOUS
 62
     7
 10
-100.6201886035
 20
-975.5487872074
 30
0.0
  0
VERTEX
  5
7C3
  8
0
  6
CONTINUOUS
 62
     7
 10
-100.5158506728
 20
-976.3827604959
 30
0.0
  0
VERTEX
  5
7C4
  8
0
  6
CONTINUOUS
 62
     7
 10
-100.6177746154
 20
-976.9794774959
 30
0.0
  0
VERTEX
  5
7C5
  8
0
  6
CONTINUOUS
 62
     7
 10
-100.7470272875
 20
-977.1824611137
 30
0.0
  0
VERTEX
  5
7C6
  8
0
  6
CONTINUOUS
 62
     7
 10
-100.9284936286
 20
-977.2610498378
 30
0.0
  0
SEQEND
  5
7C7
  8
0
  6
CONTINUOUS
 62
     7
  0
LINE
  5
42F
  8
0
  6
CONTINUOUS
 62
     7
 10
-100.9284936286
 20
-975.7610393474
 30
0.0
 11
-100.9284936286
 21
-977.2610498378
 31
0.0
  0
LINE
  5
430
  8
0
  6
CONTINUOUS
 62
     7
 10
691.9734395646
 20
-962.2610492418
 30
0.0
 11
688.9734483861
 21
-962.2610492418
 31
0.0
  0
LINE
  5
431
  8
0
  6
CONTINUOUS
 62
     7
 10
691.9734395646
 20
-962.2610492418
 30
0.0
 11
691.9734395646
 21
-973.1629622886
 31
0.0
  0
LINE
  5
432
  8
0
  6
CONTINUOUS
 62
     7
 10
-90.0265656806
 20
-962.2610492418
 30
0.0
 11
-102.0265601969
 21
-962.2610492418
 31
0.0
  0
ARC
  5
433
  8
0
  6
CONTINUOUS
 62
     7
 10
-103.5265579848
 20
-975.7610424265
 30
0.0
 40
2.999999999999979
 50
45.0
 51
60.0
  0
POLYLINE
  5
434
  8
0
  6
CONTINUOUS
 62
     7
 66
     1
 10
0.0
 20
0.0
 30
0.0
  0
VERTEX
  5
7C8
  8
0
  6
CONTINUOUS
 62
     7
 10
687.8753520154
 20
-977.2610498378
 30
0.0
  0
VERTEX
  5
7C9
  8
0
  6
CONTINUOUS
 62
     7
 10
687.6957334184
 20
-977.1788997362
 30
0.0
  0
VERTEX
  5
7CA
  8
0
  6
CONTINUOUS
 62
     7
 10
687.5670767927
 20
-976.970611305
 30
0.0
  0
VERTEX
  5
7CB
  8
0
  6
CONTINUOUS
 62
     7
 10
687.462738862
 20
-976.3819558332
 30
0.0
  0
VERTEX
  5
7CC
  8
0
  6
CONTINUOUS
 62
     7
 10
687.5646628045
 20
-975.5299521396
 30
0.0
  0
VERTEX
  5
7CD
  8
0
  6
CONTINUOUS
 62
     7
 10
687.6939154767
 20
-974.9431891153
 30
0.0
  0
VERTEX
  5
7CE
  8
0
  6
CONTINUOUS
 62
     7
 10
687.8753520154
 20
-974.2610437582
 30
0.0
  0
SEQEND
  5
7CF
  8
0
  6
CONTINUOUS
 62
     7
  0
LINE
  5
435
  8
0
  6
CONTINUOUS
 62
     7
 10
687.8753520154
 20
-977.2610498378
 30
0.0
 11
-100.9284936286
 21
-977.2610498378
 31
0.0
  0
LINE
  5
436
  8
0
  6
CONTINUOUS
 62
     7
 10
687.8753520154
 20
-977.2610498378
 30
0.0
 11
687.8753520154
 21
-975.7610393474
 31
0.0
  0
LINE
  5
437
  8
0
  6
CONTINUOUS
 62
     7
 10
-103.5265706874
 20
-974.2610437582
 30
0.0
 11
-103.5265706874
 21
-973.1629622886
 31
0.0
  0
LINE
  5
438
  8
0
  6
CONTINUOUS
 62
     7
 10
-105.0265513755
 20
-974.2610437582
 30
0.0
 11
-103.5265706874
 21
-974.2610437582
 31
0.0
  0
LINE
  5
439
  8
0
  6
CONTINUOUS
 62
     7
 10
-105.0265513755
 20
-974.2610437582
 30
0.0
 11
-105.0265513755
 21
-973.1629622886
 31
0.0
  0
LINE
  5
43A
  8
0
  6
CONTINUOUS
 62
     7
 10
-100.9284936286
 20
-975.7610393474
 30
0.0
 11
-102.0265601969
 21
-975.7610393474
 31
0.0
  0
LINE
  5
43B
  8
0
  6
CONTINUOUS
 62
     7
 10
-102.0265601969
 20
-977.2610498378
 30
0.0
 11
-102.0265601969
 21
-975.7610393474
 31
0.0
  0
LINE
  5
43C
  8
0
  6
CONTINUOUS
 62
     7
 10
-100.9284936286
 20
-977.2610498378
 30
0.0
 11
-102.0265601969
 21
-977.2610498378
 31
0.0
  0
LINE
  5
43D
  8
0
  6
CONTINUOUS
 62
     7
 10
688.9734483861
 20
-975.7610393474
 30
0.0
 11
687.8753520154
 21
-975.7610393474
 31
0.0
  0
LINE
  5
43E
  8
0
  6
CONTINUOUS
 62
     7
 10
688.9734483861
 20
-975.7610393474
 30
0.0
 11
688.9734483861
 21
-977.2610498378
 31
0.0
  0
LINE
  5
43F
  8
0
  6
CONTINUOUS
 62
     7
 10
688.9734483861
 20
-977.2610498378
 30
0.0
 11
687.8753520154
 21
-977.2610498378
 31
0.0
  0
LINE
  5
440
  8
0
  6
CONTINUOUS
 62
     7
 10
690.4734290742
 20
-974.2610437582
 30
0.0
 11
691.9734395646
 21
-974.2610437582
 31
0.0
  0
LINE
  5
441
  8
0
  6
CONTINUOUS
 62
     7
 10
691.9734395646
 20
-973.1629622886
 30
0.0
 11
691.9734395646
 21
-974.2610437582
 31
0.0
  0
LINE
  5
442
  8
0
  6
CONTINUOUS
 62
     7
 10
690.4734290742
 20
-973.1629622886
 30
0.0
 11
690.4734290742
 21
-974.2610437582
 31
0.0
  0
ARC
  5
443
  8
0
  6
CONTINUOUS
 62
     7
 10
-102.0265188465
 20
-974.261017309
 30
0.0
 40
3.000032529088221
 50
180.0005051357
 51
269.999210273
  0
ARC
  5
444
  8
0
  6
CONTINUOUS
 62
     7
 10
-102.0265751266
 20
-974.2610437867
 30
0.0
 40
1.499995560742832
 50
179.999998908
 51
270.0005702733
  0
ARC
  5
445
  8
0
  6
CONTINUOUS
 62
     7
 10
688.9734193518
 20
-974.2610296251
 30
0.0
 40
3.000020212886037
 50
270.0005545113
 51
359.99973008
  0
ARC
  5
446
  8
0
  6
CONTINUOUS
 62
     7
 10
688.9734691619
 20
-974.2610794348
 30
0.0
 40
1.49995991274239
 50
269.9992064026
 51
0.0013627844
  0
LINE
  5
447
  8
0
  6
CONTINUOUS
 62
     7
 10
-88.3265518046
 20
-957.0610357234
 30
0.0
 11
-98.3265720702
 21
-957.0610357234
 31
0.0
  0
CIRCLE
  5
448
  8
0
  6
CONTINUOUS
 62
     7
 10
664.9234422349
 20
-641.0610428522
 30
0.0
 40
9.350000000000023
  0
CIRCLE
  5
449
  8
0
  6
CONTINUOUS
 62
     7
 10
-79.0765577651
 20
-641.0610428522
 30
0.0
 40
9.349999999999985
  0
CIRCLE
  5
44A
  8
0
  6
CONTINUOUS
 62
     7
 10
-79.0765577651
 20
-891.0610428522
 30
0.0
 40
9.349999999999971
  0
CIRCLE
  5
44B
  8
0
  6
CONTINUOUS
 62
     7
 10
664.9234422349
 20
-891.0610428522
 30
0.0
 40
9.350000000000023
  0
ARC
  5
44C
  8
0
  6
CONTINUOUS
 62
     7
 10
675.1345145667
 20
-960.0610428522
 30
0.0
 40
4.000000000000114
 50
89.9999999999
 51
187.9999988096
  0
LINE
  5
44D
  8
0
  6
CONTINUOUS
 62
     7
 10
684.17345654
 20
-958.06103775
 30
0.0
 11
684.17345654
 21
-956.061048598
 31
0.0
  0
LINE
  5
44E
  8
0
  6
CONTINUOUS
 62
     7
 10
675.1345015668
 20
-958.06103775
 30
0.0
 11
684.17345654
 21
-958.06103775
 31
0.0
  0
ARC
  5
44F
  8
0
  6
CONTINUOUS
 62
     7
 10
675.1345145667
 20
-960.0610428522
 30
0.0
 40
2.00000008212362
 50
89.9999999998
 51
187.9999988096
  0
LINE
  5
450
  8
0
  6
CONTINUOUS
 62
     7
 10
673.424056878
 20
-962.2610492418
 30
0.0
 11
673.1539882325
 21
-960.3393954942
 31
0.0
  0
LINE
  5
451
  8
0
  6
CONTINUOUS
 62
     7
 10
671.173445096
 20
-960.6177342842
 30
0.0
 11
671.4043832921
 21
-962.2610492418
 31
0.0
  0
LINE
  5
452
  8
0
  6
CONTINUOUS
 62
     7
 10
676.6734338903
 20
-958.2810384939
 30
0.0
 11
681.6734291219
 21
-958.2810384939
 31
0.0
  0
LINE
  5
453
  8
0
  6
CONTINUOUS
 62
     7
 10
681.2734521531
 20
-958.681045265
 30
0.0
 11
677.0734406614
 21
-958.681045265
 31
0.0
  0
ARC
  5
454
  8
0
  6
CONTINUOUS
 62
     7
 10
422.0055938243
 20
-969.0772834978
 30
0.0
 40
248.7072716425291
 50
2.6749995471
 51
2.8903832074
  0
ARC
  5
455
  8
0
  6
CONTINUOUS
 62
     7
 10
163.8412906455
 20
-969.0772834978
 30
0.0
 40
248.7072716425292
 50
177.1096167926
 51
177.3250004529
  0
LINE
  5
456
  8
0
  6
CONTINUOUS
 62
     7
 10
-84.6190534926
 20
-957.7698094556
 30
0.0
 11
-84.5949732161
 21
-957.5155062387
 31
0.0
  0
LINE
  5
457
  8
0
  6
CONTINUOUS
 62
     7
 10
689.9278975629
 20
-956.061048598
 30
0.0
 11
690.9234441423
 21
-956.061048598
 31
0.0
  0
LINE
  5
458
  8
0
  6
CONTINUOUS
 62
     7
 10
-105.0765596724
 20
-956.061048598
 30
0.0
 11
-104.0810130931
 21
-956.061048598
 31
0.0
  0
LINE
  5
459
  8
0
  6
CONTINUOUS
 62
     7
 10
-107.0765637255
 20
-579.8610431859
 30
0.0
 11
-105.5765532351
 21
-579.8610431859
 31
0.0
  0
ARC
  5
45A
  8
0
  6
CONTINUOUS
 62
     7
 10
-104.0766524319
 20
-579.8610182482
 30
0.0
 40
2.999911293788704
 50
132.4253070807
 51
180.0004762893
  0
LINE
  5
45B
  8
0
  6
CONTINUOUS
 62
     7
 10
-106.1004780627
 20
-577.6466114233
 30
0.0
 11
-105.0885104037
 21
-578.7538273046
 31
0.0
  0
LINE
  5
45C
  8
0
  6
CONTINUOUS
 62
     7
 10
-105.5765532351
 20
-952.5654895017
 30
0.0
 11
-107.0765637255
 21
-952.5654895017
 31
0.0
  0
LINE
  5
45D
  8
0
  6
CONTINUOUS
 62
     7
 10
-107.0765637255
 20
-579.8610431859
 30
0.0
 11
-107.0765637255
 21
-952.5654895017
 31
0.0
  0
LINE
  5
45E
  8
0
  6
CONTINUOUS
 62
     7
 10
-105.5765532351
 20
-953.0610425184
 30
0.0
 11
-107.0765637255
 21
-953.0610425184
 31
0.0
  0
LINE
  5
45F
  8
0
  6
CONTINUOUS
 62
     7
 10
-107.0765637255
 20
-953.0610425184
 30
0.0
 11
-107.0765637255
 21
-952.5654895017
 31
0.0
  0
POLYLINE
  5
460
  8
0
  6
CONTINUOUS
 62
     7
 66
     1
 10
0.0
 20
0.0
 30
0.0
  0
VERTEX
  5
7D0
  8
0
  6
CONTINUOUS
 62
     7
 10
-105.5765532351
 20
-953.0610425184
 30
0.0
  0
VERTEX
  5
7D1
  8
0
  6
CONTINUOUS
 62
     7
 10
-105.5392705298
 20
-953.3934427211
 30
0.0
  0
VERTEX
  5
7D2
  8
0
  6
CONTINUOUS
 62
     7
 10
-105.5037461615
 20
-953.4954113672
 30
0.0
  0
SEQEND
  5
7D3
  8
0
  6
CONTINUOUS
 62
     7
  0
LINE
  5
461
  8
0
  6
CONTINUOUS
 62
     7
 10
-105.9559069968
 20
-955.3994221399
 30
0.0
 11
-105.3212665415
 21
-954.6097649047
 31
0.0
  0
ARC
  5
462
  8
0
  6
CONTINUOUS
 62
     7
 10
-104.076578038
 20
-953.0610387688
 30
0.0
 40
2.999985687524897
 50
180.0000716116
 51
231.2116029582
  0
POLYLINE
  5
463
  8
0
  6
CONTINUOUS
 62
     7
 66
     1
 10
0.0
 20
0.0
 30
0.0
  0
VERTEX
  5
7D4
  8
0
  6
CONTINUOUS
 62
     7
 10
-104.076572547
 20
-576.8610371063
 30
0.0
  0
VERTEX
  5
7D5
  8
0
  6
CONTINUOUS
 62
     7
 10
-105.1620625354
 20
-577.0643187473
 30
0.0
  0
VERTEX
  5
7D6
  8
0
  6
CONTINUOUS
 62
     7
 10
-106.1004780627
 20
-577.6466114233
 30
0.0
  0
SEQEND
  5
7D7
  8
0
  6
CONTINUOUS
 62
     7
  0
POLYLINE
  5
464
  8
0
  6
CONTINUOUS
 62
     7
 66
     1
 10
0.0
 20
0.0
 30
0.0
  0
VERTEX
  5
7D8
  8
0
  6
CONTINUOUS
 62
     7
 10
-105.9559069968
 20
-955.3994221399
 30
0.0
  0
VERTEX
  5
7D9
  8
0
  6
CONTINUOUS
 62
     7
 10
-105.0727747775
 20
-955.8908028314
 30
0.0
  0
VERTEX
  5
7DA
  8
0
  6
CONTINUOUS
 62
     7
 10
-104.076572547
 20
-956.061048598
 30
0.0
  0
SEQEND
  5
7DB
  8
0
  6
CONTINUOUS
 62
     7
  0
ARC
  5
465
  8
0
  6
CONTINUOUS
 62
     7
 10
-86.0765576598
 20
-957.5610461704
 30
0.0
 40
1.499997572389265
 50
351.9998468036
 51
90.0003136568
  0
ARC
  5
466
  8
0
  6
CONTINUOUS
 62
     7
 10
689.9235369017
 20
-579.8610182482
 30
0.0
 40
2.999911293788714
 50
359.9995237107
 51
47.5746929193
  0
LINE
  5
467
  8
0
  6
CONTINUOUS
 62
     7
 10
691.423437705
 20
-579.8610431859
 30
0.0
 11
692.9234481954
 21
-579.8610431859
 31
0.0
  0
LINE
  5
468
  8
0
  6
CONTINUOUS
 62
     7
 10
690.9353948736
 20
-578.7538273046
 30
0.0
 11
691.9473625325
 21
-577.6466114233
 31
0.0
  0
LINE
  5
469
  8
0
  6
CONTINUOUS
 62
     7
 10
692.9234481954
 20
-579.8610431859
 30
0.0
 11
692.9234481954
 21
-952.5654895017
 31
0.0
  0
LINE
  5
46A
  8
0
  6
CONTINUOUS
 62
     7
 10
692.9234481954
 20
-952.5654895017
 30
0.0
 11
691.423437705
 21
-952.5654895017
 31
0.0
  0
LINE
  5
46B
  8
0
  6
CONTINUOUS
 62
     7
 10
692.9234481954
 20
-953.0610425184
 30
0.0
 11
691.423437705
 21
-953.0610425184
 31
0.0
  0
LINE
  5
46C
  8
0
  6
CONTINUOUS
 62
     7
 10
692.9234481954
 20
-952.5654895017
 30
0.0
 11
692.9234481954
 21
-953.0610425184
 31
0.0
  0
ARC
  5
46D
  8
0
  6
CONTINUOUS
 62
     7
 10
689.9234625079
 20
-953.0610387688
 30
0.0
 40
2.99998568752501
 50
308.7883970418
 51
359.9999283884
  0
LINE
  5
46E
  8
0
  6
CONTINUOUS
 62
     7
 10
691.1681510114
 20
-954.6097649047
 30
0.0
 11
691.8027914666
 21
-955.3994221399
 31
0.0
  0
POLYLINE
  5
46F
  8
0
  6
CONTINUOUS
 62
     7
 66
     1
 10
0.0
 20
0.0
 30
0.0
  0
VERTEX
  5
7DC
  8
0
  6
CONTINUOUS
 62
     7
 10
691.423437705
 20
-953.0610425184
 30
0.0
  0
VERTEX
  5
7DD
  8
0
  6
CONTINUOUS
 62
     7
 10
691.3861549997
 20
-953.3934427211
 30
0.0
  0
VERTEX
  5
7DE
  8
0
  6
CONTINUOUS
 62
     7
 10
691.3506306314
 20
-953.4954113672
 30
0.0
  0
SEQEND
  5
7DF
  8
0
  6
CONTINUOUS
 62
     7
  0
POLYLINE
  5
470
  8
0
  6
CONTINUOUS
 62
     7
 66
     1
 10
0.0
 20
0.0
 30
0.0
  0
VERTEX
  5
7E0
  8
0
  6
CONTINUOUS
 62
     7
 10
689.9234570169
 20
-576.8610371063
 30
0.0
  0
VERTEX
  5
7E1
  8
0
  6
CONTINUOUS
 62
     7
 10
691.0089470052
 20
-577.0643187473
 30
0.0
  0
VERTEX
  5
7E2
  8
0
  6
CONTINUOUS
 62
     7
 10
691.9473625325
 20
-577.6466114233
 30
0.0
  0
SEQEND
  5
7E3
  8
0
  6
CONTINUOUS
 62
     7
  0
POLYLINE
  5
471
  8
0
  6
CONTINUOUS
 62
     7
 66
     1
 10
0.0
 20
0.0
 30
0.0
  0
VERTEX
  5
7E4
  8
0
  6
CONTINUOUS
 62
     7
 10
691.8027914666
 20
-955.3994221399
 30
0.0
  0
VERTEX
  5
7E5
  8
0
  6
CONTINUOUS
 62
     7
 10
690.9196592473
 20
-955.8908028314
 30
0.0
  0
VERTEX
  5
7E6
  8
0
  6
CONTINUOUS
 62
     7
 10
689.9234570169
 20
-956.061048598
 30
0.0
  0
SEQEND
  5
7E7
  8
0
  6
CONTINUOUS
 62
     7
  0
ARC
  5
472
  8
0
  6
CONTINUOUS
 62
     7
 10
671.9234421297
 20
-957.5610461704
 30
0.0
 40
1.499997572389265
 50
89.9996863432
 51
188.0001531964
  0
LINE
  5
473
  8
0
  6
CONTINUOUS
 62
     7
 10
-105.5765532351
 20
-579.8610431859
 30
0.0
 11
-105.5765532351
 21
-952.5654895017
 31
0.0
  0
LINE
  5
474
  8
0
  6
CONTINUOUS
 62
     7
 10
691.423437705
 20
-952.5654895017
 30
0.0
 11
691.423437705
 21
-579.8610431859
 31
0.0
  0
ARC
  5
475
  8
0
  6
CONTINUOUS
 62
     7
 10
686.4234422349
 20
-952.5654902413
 30
0.0
 40
5.00000000000648
 50
354.3120472985
 51
0.0
  0
ARC
  5
476
  8
0
  6
CONTINUOUS
 62
     7
 10
-100.5765577651
 20
-952.5654902413
 30
0.0
 40
5.000000000006438
 50
180.0
 51
185.6879527015
  0
LINE
  5
477
  8
0
  6
CONTINUOUS
 62
     7
 10
689.9278975629
 20
-956.061048598
 30
0.0
 11
690.4234505796
 21
-955.9606147716
 31
0.0
  0
LINE
  5
478
  8
0
  6
CONTINUOUS
 62
     7
 10
-104.0810130931
 20
-956.061048598
 30
0.0
 11
689.9278975629
 21
-956.061048598
 31
0.0
  0
LINE
  5
479
  8
0
  6
CONTINUOUS
 62
     7
 10
-104.5765661097
 20
-955.9606147716
 30
0.0
 11
-104.0810130931
 21
-956.061048598
 31
0.0
  0
ARC
  5
47A
  8
0
  6
CONTINUOUS
 62
     7
 10
-101.3254231435
 20
-953.2531457747
 30
0.0
 40
4.230876854319213
 50
177.3975864459
 51
219.7866699655
  0
ARC
  5
47B
  8
0
  6
CONTINUOUS
 62
     7
 10
686.8304775097
 20
-953.1381595153
 30
0.0
 40
4.568994326429755
 50
321.8486405569
 51
0.9671030318
  0
POLYLINE
  5
47C
  8
0
  6
CONTINUOUS
 62
     7
 66
     1
 10
0.0
 20
0.0
 30
0.0
  0
VERTEX
  5
7E8
  8
0
  6
CONTINUOUS
 62
     7
 10
-105.5765532351
 20
-579.8610431859
 30
0.0
  0
VERTEX
  5
7E9
  8
0
  6
CONTINUOUS
 62
     7
 10
-105.2384160853
 20
-578.8208080242
 30
0.0
  0
VERTEX
  5
7EA
  8
0
  6
CONTINUOUS
 62
     7
 10
-104.9002193309
 20
-577.909497709
 30
0.0
  0
VERTEX
  5
7EB
  8
0
  6
CONTINUOUS
 62
     7
 10
-104.5620225764
 20
-577.2404355714
 30
0.0
  0
VERTEX
  5
7EC
  8
0
  6
CONTINUOUS
 62
     7
 10
-104.2238258219
 20
-576.8966359804
 30
0.0
  0
VERTEX
  5
7ED
  8
0
  6
CONTINUOUS
 62
     7
 10
-104.076572547
 20
-576.8610371063
 30
0.0
  0
SEQEND
  5
7EE
  8
0
  6
CONTINUOUS
 62
     7
  0
LINE
  5
47D
  8
0
  6
CONTINUOUS
 62
     7
 10
-104.076572547
 20
-576.8610371063
 30
0.0
 11
689.9234570169
 21
-576.8610371063
 31
0.0
  0
POLYLINE
  5
47E
  8
0
  6
CONTINUOUS
 62
     7
 66
     1
 10
0.0
 20
0.0
 30
0.0
  0
VERTEX
  5
7EF
  8
0
  6
CONTINUOUS
 62
     7
 10
689.9234570169
 20
-576.8610371063
 30
0.0
  0
VERTEX
  5
7F0
  8
0
  6
CONTINUOUS
 62
     7
 10
690.2615941667
 20
-577.0471675107
 30
0.0
  0
VERTEX
  5
7F1
  8
0
  6
CONTINUOUS
 62
     7
 10
690.5997909211
 20
-577.5825662324
 30
0.0
  0
VERTEX
  5
7F2
  8
0
  6
CONTINUOUS
 62
     7
 10
690.9379876756
 20
-578.4007740924
 30
0.0
  0
VERTEX
  5
7F3
  8
0
  6
CONTINUOUS
 62
     7
 10
691.2761844301
 20
-579.4002396772
 30
0.0
  0
VERTEX
  5
7F4
  8
0
  6
CONTINUOUS
 62
     7
 10
691.423437705
 20
-579.8610431859
 30
0.0
  0
SEQEND
  5
7F5
  8
0
  6
CONTINUOUS
 62
     7
  0
LINE
  5
47F
  8
0
  6
CONTINUOUS
 62
     7
 10
671.2710477018
 20
-962.2610492418
 30
0.0
 11
670.6336356305
 21
-957.7698094556
 31
0.0
  0
LINE
  5
480
  8
0
  6
CONTINUOUS
 62
     7
 10
-85.4241632319
 20
-962.2610492418
 30
0.0
 11
-84.7867511607
 21
-957.7698094556
 31
0.0
  0
ARC
  5
481
  8
0
  6
CONTINUOUS
 62
     7
 10
642.1933072738
 20
-962.1799145434
 30
0.0
 40
28.78022418124477
 50
8.8143807607
 51
11.2202421757
  0
ARC
  5
482
  8
0
  6
CONTINUOUS
 62
     7
 10
-56.346422804
 20
-962.1799145434
 30
0.0
 40
28.78022418124483
 50
168.7797578243
 51
171.1856192393
  0
POLYLINE
  5
483
  8
0
  6
CONTINUOUS
 62
     7
 66
     1
 10
0.0
 20
0.0
 30
0.0
  0
VERTEX
  5
7F6
  8
0
  6
CONTINUOUS
 62
     7
 10
-86.0810064173
 20
-956.061048598
 30
0.0
  0
VERTEX
  5
7F7
  8
0
  6
CONTINUOUS
 62
     7
 10
-85.3287958003
 20
-956.1968875835
 30
0.0
  0
VERTEX
  5
7F8
  8
0
  6
CONTINUOUS
 62
     7
 10
-84.5765553809
 20
-956.579832525
 30
0.0
  0
SEQEND
  5
7F9
  8
0
  6
CONTINUOUS
 62
     7
  0
POLYLINE
  5
484
  8
0
  6
CONTINUOUS
 62
     7
 66
     1
 10
0.0
 20
0.0
 30
0.0
  0
VERTEX
  5
7FA
  8
0
  6
CONTINUOUS
 62
     7
 10
670.4234398507
 20
-956.579832525
 30
0.0
  0
VERTEX
  5
7FB
  8
0
  6
CONTINUOUS
 62
     7
 10
671.1756802701
 20
-956.1968875835
 30
0.0
  0
VERTEX
  5
7FC
  8
0
  6
CONTINUOUS
 62
     7
 10
671.9278908872
 20
-956.061048598
 30
0.0
  0
SEQEND
  5
7FD
  8
0
  6
CONTINUOUS
 62
     7
  0
ARC
  5
485
  8
0
  6
CONTINUOUS
 62
     7
 10
61.8536517832
 20
-969.4126495984
 30
0.0
 40
147.0842790719603
 50
174.9769301896
 51
175.3782343599
  0
ARC
  5
486
  8
0
  6
CONTINUOUS
 62
     7
 10
523.9932326866
 20
-969.4126495984
 30
0.0
 40
147.0842790719602
 50
4.6217656401
 51
5.0230698104
  0
LINE
  5
487
  8
0
  6
CONTINUOUS
 62
     7
 10
-972.1079926407
 20
515.9959561593
 30
0.0
 11
-1528.6391726696
 21
837.2745677825
 31
0.0
  0
POLYLINE
  5
488
  8
0
  6
CONTINUOUS
 62
     7
 66
     1
 10
0.0
 20
0.0
 30
0.0
  0
VERTEX
  5
7FE
  8
0
  6
CONTINUOUS
 62
     7
 10
-972.5475631973
 20
514.3455052197
 30
0.0
  0
VERTEX
  5
7FF
  8
0
  6
CONTINUOUS
 62
     7
 10
-972.4862922162
 20
515.0142252459
 30
0.0
  0
VERTEX
  5
800
  8
0
  6
CONTINUOUS
 62
     7
 10
-972.4085523542
 20
515.344366731
 30
0.0
  0
VERTEX
  5
801
  8
0
  6
CONTINUOUS
 62
     7
 10
-972.3299590184
 20
515.5791632503
 30
0.0
  0
VERTEX
  5
802
  8
0
  6
CONTINUOUS
 62
     7
 10
-972.2881493447
 20
515.6842329132
 30
0.0
  0
VERTEX
  5
803
  8
0
  6
CONTINUOUS
 62
     7
 10
-972.2926590575
 20
515.6786308521
 30
0.0
  0
SEQEND
  5
804
  8
0
  6
CONTINUOUS
 62
     7
  0
LINE
  5
489
  8
0
  6
CONTINUOUS
 62
     7
 10
-971.6688962362
 20
-442.7302845237
 30
0.0
 11
-971.6688962362
 21
514.5819318024
 31
0.0
  0
POLYLINE
  5
48A
  8
0
  6
CONTINUOUS
 62
     7
 66
     1
 10
0.0
 20
0.0
 30
0.0
  0
VERTEX
  5
805
  8
0
  6
CONTINUOUS
 62
     7
 10
-1792.0470713533
 20
220.8623071054
 30
0.0
  0
VERTEX
  5
806
  8
0
  6
CONTINUOUS
 62
     7
 10
-1793.0317903219
 20
220.2161543827
 30
0.0
  0
VERTEX
  5
807
  8
0
  6
CONTINUOUS
 62
     7
 10
-1793.930951188
 20
219.2823254645
 30
0.0
  0
VERTEX
  5
808
  8
0
  6
CONTINUOUS
 62
     7
 10
-1794.655634638
 20
218.1425353538
 30
0.0
  0
VERTEX
  5
809
  8
0
  6
CONTINUOUS
 62
     7
 10
-1795.1924906577
 20
216.8312123565
 30
0.0
  0
VERTEX
  5
80A
  8
0
  6
CONTINUOUS
 62
     7
 10
-1795.5371254379
 20
215.385230156
 30
0.0
  0
VERTEX
  5
80B
  8
0
  6
CONTINUOUS
 62
     7
 10
-1795.6921836936
 20
213.8419730202
 30
0.0
  0
VERTEX
  5
80C
  8
0
  6
CONTINUOUS
 62
     7
 10
-1795.6661264045
 20
212.2450056263
 30
0.0
  0
VERTEX
  5
80D
  8
0
  6
CONTINUOUS
 62
     7
 10
-1795.4771715459
 20
210.6541106634
 30
0.0
  0
VERTEX
  5
80E
  8
0
  6
CONTINUOUS
 62
     7
 10
-1795.1326105226
 20
209.0383343052
 30
0.0
  0
VERTEX
  5
80F
  8
0
  6
CONTINUOUS
 62
     7
 10
-1794.7888397528
 20
207.8637972108
 30
0.0
  0
VERTEX
  5
810
  8
0
  6
CONTINUOUS
 62
     7
 10
-1794.3825652065
 20
206.7310720463
 30
0.0
  0
VERTEX
  5
811
  8
0
  6
CONTINUOUS
 62
     7
 10
-1793.6271988508
 20
205.0267768469
 30
0.0
  0
SEQEND
  5
812
  8
0
  6
CONTINUOUS
 62
     7
  0
ARC
  5
48B
  8
0
  6
CONTINUOUS
 62
     7
 10
-1782.5522666307
 20
201.8972822446
 30
0.0
 40
5.784215655868621
 50
250.2123722339
 51
311.7219242486
  0
ARC
  5
48C
  8
0
  6
CONTINUOUS
 62
     7
 10
-1779.2892976259
 20
211.1415064957
 30
0.0
 40
15.5873451945671
 50
203.0969452603
 51
250.4299341533
  0
ARC
  5
48D
  8
0
  6
CONTINUOUS
 62
     7
 10
-1782.0745318118
 20
206.0465316405
 30
0.0
 40
0.7673344251640586
 50
4.2930609044
 51
65.1731465801
  0
LINE
  5
48E
  8
0
  6
CONTINUOUS
 62
     7
 10
-1790.9726112075
 20
242.0975275785
 30
0.0
 11
-1793.6456907806
 21
239.31085532
 31
0.0
  0
LINE
  5
48F
  8
0
  6
CONTINUOUS
 62
     7
 10
-1783.6754006867
 20
207.6615977813
 30
0.0
 11
-1781.7336005454
 21
206.7344515105
 31
0.0
  0
ARC
  5
490
  8
0
  6
CONTINUOUS
 62
     7
 10
-1791.5743339981
 20
237.7111555512
 30
0.0
 40
2.6348990580991
 50
146.2163775162
 51
174.8316687221
  0
LINE
  5
491
  8
0
  6
CONTINUOUS
 62
     7
 10
-1789.329748126
 20
212.8640622569
 30
0.0
 11
-1789.5234128949
 21
212.7522619655
 31
0.0
  0
ARC
  5
492
  8
0
  6
CONTINUOUS
 62
     7
 10
-1526.629242594
 20
198.9217812917
 30
0.0
 40
270.3803098539963
 50
171.690739094
 51
177.7459081244
  0
LINE
  5
493
  8
0
  6
CONTINUOUS
 62
     7
 10
-1791.7804398529
 20
221.0163743986
 30
0.0
 11
-1791.9048152029
 21
220.9545999802
 31
0.0
  0
LINE
  5
494
  8
0
  6
CONTINUOUS
 62
     7
 10
-1781.4315340821
 20
204.1094027682
 30
0.0
 11
-1781.4718475427
 21
204.0539733268
 31
0.0
  0
ARC
  5
495
  8
0
  6
CONTINUOUS
 62
     7
 10
-1783.5107559367
 20
207.9882848528
 30
0.0
 40
0.3606439893747374
 50
191.0411800327
 51
246.3142562971
  0
LINE
  5
496
  8
0
  6
CONTINUOUS
 62
     7
 10
-1781.5326970553
 20
204.0181905449
 30
0.0
 11
-1781.4459377676
 21
204.0682756156
 31
0.0
  0
ARC
  5
497
  8
0
  6
CONTINUOUS
 62
     7
 10
-1788.4209308105
 20
210.6901691205
 30
0.0
 40
2.338461748676529
 50
54.2642228777
 51
117.2074249219
  0
LINE
  5
498
  8
0
  6
CONTINUOUS
 62
     7
 10
-1781.4021893389
 20
206.4009129724
 30
0.0
 11
-1783.8774210684
 21
204.9719921104
 31
0.0
  0
LINE
  5
499
  8
0
  6
CONTINUOUS
 62
     7
 10
-1792.3790304689
 20
212.8795169898
 30
0.0
 11
-1790.7783563827
 21
211.7624254077
 31
0.0
  0
LINE
  5
49A
  8
0
  6
CONTINUOUS
 62
     7
 10
-1790.3690894102
 20
211.7569858633
 30
0.0
 11
-1788.2183673409
 21
212.998571286
 31
0.0
  0
POLYLINE
  5
49B
  8
0
  6
CONTINUOUS
 62
     7
 66
     1
 10
0.0
 20
0.0
 30
0.0
  0
VERTEX
  5
813
  8
0
  6
CONTINUOUS
 62
     7
 10
-1796.8093702071
 20
209.5515040079
 30
0.0
  0
VERTEX
  5
814
  8
0
  6
CONTINUOUS
 62
     7
 10
-1797.2612371067
 20
197.4020937617
 30
0.0
  0
VERTEX
  5
815
  8
0
  6
CONTINUOUS
 62
     7
 10
-1797.5318093374
 20
184.6803969488
 30
0.0
  0
VERTEX
  5
816
  8
0
  6
CONTINUOUS
 62
     7
 10
-1797.5954721521
 20
172.0695075764
 30
0.0
  0
VERTEX
  5
817
  8
0
  6
CONTINUOUS
 62
     7
 10
-1797.4519726696
 20
159.5742925834
 30
0.0
  0
VERTEX
  5
818
  8
0
  6
CONTINUOUS
 62
     7
 10
-1797.1011844495
 20
147.1995702467
 30
0.0
  0
VERTEX
  5
819
  8
0
  6
CONTINUOUS
 62
     7
 10
-1796.7889184488
 20
140.3471502131
 30
0.0
  0
SEQEND
  5
81A
  8
0
  6
CONTINUOUS
 62
     7
  0
ARC
  5
49C
  8
0
  6
CONTINUOUS
 62
     7
 10
-1604.598986913
 20
147.2603562145
 30
0.0
 40
192.3151108972293
 50
182.0602347252
 51
189.6853509344
  0
LINE
  5
49D
  8
0
  6
CONTINUOUS
 62
     7
 10
-1772.2839083244
 20
100.6690049957
 30
0.0
 11
-1768.5483067003
 21
101.5582953108
 31
0.0
  0
ARC
  5
49E
  8
0
  6
CONTINUOUS
 62
     7
 10
-1772.5642102341
 20
102.9506481703
 30
0.0
 40
2.32356977813656
 50
245.2748338151
 51
274.0676211483
  0
ARC
  5
49F
  8
0
  6
CONTINUOUS
 62
     7
 10
-1745.7431927109
 20
170.6470112087
 30
0.0
 40
75.13579591032442
 50
231.6937024562
 51
248.3016287423
  0
ARC
  5
4A0
  8
0
  6
CONTINUOUS
 62
     7
 10
-1788.5823424304
 20
116.0208705483
 30
0.0
 40
5.719261459541428
 50
190.9942528043
 51
229.544664228
  0
LINE
  5
4A1
  8
0
  6
CONTINUOUS
 62
     7
 10
-1817.959238309
 20
673.0178359194
 30
0.0
 11
-1817.959238309
 21
-283.5423647373
 31
0.0
  0
LINE
  5
4A2
  8
0
  6
CONTINUOUS
 62
     7
 10
-1807.97383857
 20
681.7478707752
 30
0.0
 11
-1815.3909041912
 21
677.4660899323
 31
0.0
  0
LINE
  5
4A3
  8
0
  6
CONTINUOUS
 62
     7
 10
-1253.0696744076
 20
-609.6467783866
 30
0.0
 11
-1245.6526087863
 21
-605.3649975437
 31
0.0
  0
LINE
  5
4A4
  8
0
  6
CONTINUOUS
 62
     7
 10
-1815.3909041912
 20
-287.9906978363
 30
0.0
 11
-1258.2058368811
 21
-609.646790552
 31
0.0
  0
LINE
  5
4A5
  8
0
  6
CONTINUOUS
 62
     7
 10
-1046.3857123848
 20
501.187221651
 30
0.0
 11
-1046.3857123848
 21
500.867267536
 31
0.0
  0
LINE
  5
4A6
  8
0
  6
CONTINUOUS
 62
     7
 10
-1027.6857141463
 20
500.8672614533
 30
0.0
 11
-1027.6857141463
 21
501.1872155683
 31
0.0
  0
LINE
  5
4A7
  8
0
  6
CONTINUOUS
 62
     7
 10
-1572.4731489897
 20
804.8910342856
 30
0.0
 11
-1572.4731489897
 21
804.5710801706
 31
0.0
  0
LINE
  5
4A8
  8
0
  6
CONTINUOUS
 62
     7
 10
-1553.7731507511
 20
804.5710740879
 30
0.0
 11
-1553.7731507511
 21
804.8910282029
 31
0.0
  0
LINE
  5
4A9
  8
0
  6
CONTINUOUS
 62
     7
 10
-1749.2498442863
 20
702.8400203077
 30
0.0
 11
-1749.2498442863
 21
702.5200661927
 31
0.0
  0
LINE
  5
4AA
  8
0
  6
CONTINUOUS
 62
     7
 10
-1730.5498407794
 20
702.5200631514
 30
0.0
 11
-1730.5498407794
 21
702.8400172664
 31
0.0
  0
LINE
  5
4AB
  8
0
  6
CONTINUOUS
 62
     7
 10
-1223.1624076815
 20
399.1362076732
 30
0.0
 11
-1223.1624076815
 21
398.8162535582
 31
0.0
  0
LINE
  5
4AC
  8
0
  6
CONTINUOUS
 62
     7
 10
-1204.4624041746
 20
398.8162505168
 30
0.0
 11
-1204.4624041746
 21
399.1362046318
 31
0.0
  0
LINE
  5
4AD
  8
0
  6
CONTINUOUS
 62
     7
 10
-1253.4893305782
 20
-609.7594526831
 30
0.0
 11
-1240.7681262187
 21
-617.1032476427
 31
0.0
  0
LINE
  5
4AE
  8
0
  6
CONTINUOUS
 62
     7
 10
-1804.418130232
 20
685.5738839255
 30
0.0
 11
-1804.418130232
 21
680.4125675295
 31
0.0
  0
LINE
  5
4AF
  8
0
  6
CONTINUOUS
 62
     7
 10
-1240.7177396613
 20
360.0027017655
 30
0.0
 11
-1241.4505679898
 21
359.4845445607
 31
0.0
  0
LINE
  5
4B0
  8
0
  6
CONTINUOUS
 62
     7
 10
-973.0831126646
 20
-461.7582242513
 30
0.0
 11
-973.0831126646
 21
513.8069706815
 31
0.0
  0
LINE
  5
4B1
  8
0
  6
CONTINUOUS
 62
     7
 10
-1237.7699574663
 20
-616.2877442009
 30
0.0
 11
-975.2744116124
 21
-464.7522911022
 31
0.0
  0
LINE
  5
4B2
  8
0
  6
CONTINUOUS
 62
     7
 10
-1241.4447833348
 20
360.0009354125
 30
0.0
 11
-1240.7984192661
 21
360.3186314255
 31
0.0
  0
LINE
  5
4B3
  8
0
  6
CONTINUOUS
 62
     7
 10
-974.0530907729
 20
515.4866813769
 30
0.0
 11
-1536.5566267498
 21
840.213060701
 31
0.0
  0
LINE
  5
4B4
  8
0
  6
CONTINUOUS
 62
     7
 10
-972.5475631973
 20
515.2353806439
 30
0.0
 11
-974.9185868438
 21
513.8666178276
 31
0.0
  0
LINE
  5
4B5
  8
0
  6
CONTINUOUS
 62
     7
 10
-1531.1619355075
 20
837.7165935729
 30
0.0
 11
-1531.6969897493
 21
837.4077133338
 31
0.0
  0
LINE
  5
4B6
  8
0
  6
CONTINUOUS
 62
     7
 10
-972.5475631973
 20
515.2353806439
 30
0.0
 11
-972.5475631973
 21
514.3455052197
 31
0.0
  0
LINE
  5
4B7
  8
0
  6
CONTINUOUS
 62
     7
 10
-972.5475631973
 20
514.0105608602
 30
0.0
 11
-973.0830915912
 21
513.7014068989
 31
0.0
  0
LINE
  5
4B8
  8
0
  6
CONTINUOUS
 62
     7
 10
-972.5475631973
 20
-444.5267322861
 30
0.0
 11
-973.0830915912
 21
-444.8358862474
 31
0.0
  0
LINE
  5
4B9
  8
0
  6
CONTINUOUS
 62
     7
 10
-972.5475631973
 20
513.9288932294
 30
0.0
 11
-973.0830915912
 21
513.6197392681
 31
0.0
  0
LINE
  5
4BA
  8
0
  6
CONTINUOUS
 62
     7
 10
-972.5475631973
 20
513.9288932294
 30
0.0
 11
-972.7579391916
 21
514.0503407058
 31
0.0
  0
LINE
  5
4BB
  8
0
  6
CONTINUOUS
 62
     7
 10
-972.547573734
 20
515.2349764582
 30
0.0
 11
-972.1748059323
 21
515.7803981885
 31
0.0
  0
POLYLINE
  5
4BC
  8
0
  6
CONTINUOUS
 62
     7
 66
     1
 10
0.0
 20
0.0
 30
0.0
  0
VERTEX
  5
81B
  8
0
  6
CONTINUOUS
 62
     7
 10
-972.1130291891
 20
515.9890577126
 30
0.0
  0
VERTEX
  5
81C
  8
0
  6
CONTINUOUS
 62
     7
 10
-972.1106584289
 20
515.9971464965
 30
0.0
  0
VERTEX
  5
81D
  8
0
  6
CONTINUOUS
 62
     7
 10
-972.2802573473
 20
515.8006872823
 30
0.0
  0
VERTEX
  5
81E
  8
0
  6
CONTINUOUS
 62
     7
 10
-972.5475631973
 20
515.2353806439
 30
0.0
  0
SEQEND
  5
81F
  8
0
  6
CONTINUOUS
 62
     7
  0
ARC
  5
4BD
  8
0
  6
CONTINUOUS
 62
     7
 10
-1530.4108596858
 20
834.7087111365
 30
0.0
 40
3.100237352370794
 50
55.3802614206
 51
104.0202005599
  0
ARC
  5
4BE
  8
0
  6
CONTINUOUS
 62
     7
 10
-974.0176848922
 20
-442.7371193928
 30
0.0
 40
2.316025065882278
 50
309.4022383865
 51
0.2137796033
  0
POLYLINE
  5
4BF
  8
0
  6
CONTINUOUS
 62
     7
 66
     1
 10
0.0
 20
0.0
 30
0.0
  0
VERTEX
  5
820
  8
0
  6
CONTINUOUS
 62
     7
 10
-972.5475631973
 20
513.9288932294
 30
0.0
  0
VERTEX
  5
821
  8
0
  6
CONTINUOUS
 62
     7
 10
-971.8972583982
 20
514.2049655237
 30
0.0
  0
VERTEX
  5
822
  8
0
  6
CONTINUOUS
 62
     7
 10
-971.6688962362
 20
514.5819318024
 30
0.0
  0
VERTEX
  5
823
  8
0
  6
CONTINUOUS
 62
     7
 10
-971.8972373247
 20
514.9588980811
 30
0.0
  0
VERTEX
  5
824
  8
0
  6
CONTINUOUS
 62
     7
 10
-972.547573734
 20
515.2349764582
 30
0.0
  0
SEQEND
  5
825
  8
0
  6
CONTINUOUS
 62
     7
  0
LINE
  5
4C0
  8
0
  6
CONTINUOUS
 62
     7
 10
-972.5475631973
 20
-445.8331984077
 30
0.0
 11
-972.5475631973
 21
-444.6083862286
 31
0.0
  0
LINE
  5
4C1
  8
0
  6
CONTINUOUS
 62
     7
 10
-972.5475631973
 20
-445.8331984077
 30
0.0
 11
-973.0830915912
 21
-446.1423523689
 31
0.0
  0
LINE
  5
4C2
  8
0
  6
CONTINUOUS
 62
     7
 10
-972.5475631973
 20
-444.6083862286
 30
0.0
 11
-973.0830915912
 21
-444.9175401899
 31
0.0
  0
LINE
  5
4C3
  8
0
  6
CONTINUOUS
 62
     7
 10
-972.5475631973
 20
-444.6083862286
 30
0.0
 11
-972.572461448
 21
-444.4119733542
 31
0.0
  0
POLYLINE
  5
4C4
  8
0
  6
CONTINUOUS
 62
     7
 66
     1
 10
0.0
 20
0.0
 30
0.0
  0
VERTEX
  5
826
  8
0
  6
CONTINUOUS
 62
     7
 10
-972.5475631973
 20
-445.8331984077
 30
0.0
  0
VERTEX
  5
827
  8
0
  6
CONTINUOUS
 62
     7
 10
-972.2073327627
 20
-444.8583682419
 30
0.0
  0
VERTEX
  5
828
  8
0
  6
CONTINUOUS
 62
     7
 10
-972.1162850332
 20
-443.9890364293
 30
0.0
  0
SEQEND
  5
829
  8
0
  6
CONTINUOUS
 62
     7
  0
POLYLINE
  5
4C5
  8
0
  6
CONTINUOUS
 62
     7
 66
     1
 10
0.0
 20
0.0
 30
0.0
  0
VERTEX
  5
82A
  8
0
  6
CONTINUOUS
 62
     7
 10
-1781.9289933351
 20
217.5879376028
 30
0.0
  0
VERTEX
  5
82B
  8
0
  6
CONTINUOUS
 62
     7
 10
-1780.475748925
 20
215.9499882438
 30
0.0
  0
VERTEX
  5
82C
  8
0
  6
CONTINUOUS
 62
     7
 10
-1779.1649397895
 20
214.1178714835
 30
0.0
  0
VERTEX
  5
82D
  8
0
  6
CONTINUOUS
 62
     7
 10
-1778.0412942715
 20
212.1384712235
 30
0.0
  0
VERTEX
  5
82E
  8
0
  6
CONTINUOUS
 62
     7
 10
-1777.1395519109
 20
210.0663134061
 30
0.0
  0
VERTEX
  5
82F
  8
0
  6
CONTINUOUS
 62
     7
 10
-1776.4941782931
 20
207.9554251041
 30
0.0
  0
VERTEX
  5
830
  8
0
  6
CONTINUOUS
 62
     7
 10
-1776.1248981431
 20
205.8644761781
 30
0.0
  0
VERTEX
  5
831
  8
0
  6
CONTINUOUS
 62
     7
 10
-1776.0496976287
 20
203.8575934747
 30
0.0
  0
VERTEX
  5
832
  8
0
  6
CONTINUOUS
 62
     7
 10
-1776.2662481363
 20
201.9840122084
 30
0.0
  0
VERTEX
  5
833
  8
0
  6
CONTINUOUS
 62
     7
 10
-1776.7707037661
 20
200.3025796275
 30
0.0
  0
VERTEX
  5
834
  8
0
  6
CONTINUOUS
 62
     7
 10
-1777.5419910939
 20
198.8551279112
 30
0.0
  0
VERTEX
  5
835
  8
0
  6
CONTINUOUS
 62
     7
 10
-1778.1052099673
 20
198.1387192585
 30
0.0
  0
SEQEND
  5
836
  8
0
  6
CONTINUOUS
 62
     7
  0
ARC
  5
4C6
  8
0
  6
CONTINUOUS
 62
     7
 10
-1791.1401500689
 20
209.3651584453
 30
0.0
 40
12.34744934986832
 50
41.7552186694
 51
78.2501578633
  0
ARC
  5
4C7
  8
0
  6
CONTINUOUS
 62
     7
 10
-1789.5046863954
 20
216.6377275466
 30
0.0
 40
4.895701321116716
 50
79.657211049
 51
117.4817539408
  0
LINE
  5
4C8
  8
0
  6
CONTINUOUS
 62
     7
 10
-1767.7319538548
 20
227.0996125219
 30
0.0
 11
-1767.4776819177
 21
199.1532700018
 31
0.0
  0
ARC
  5
4C9
  8
0
  6
CONTINUOUS
 62
     7
 10
-1772.5882373071
 20
226.8343692749
 30
0.0
 40
4.863501282665907
 50
3.1264637447
 51
55.0844854552
  0
ARC
  5
4CA
  8
0
  6
CONTINUOUS
 62
     7
 10
-1771.5961961372
 20
226.5541169566
 30
0.0
 40
1.559870781590667
 50
246.4595715501
 51
280.3805140267
  0
ARC
  5
4CB
  8
0
  6
CONTINUOUS
 62
     7
 10
-1715.9012674177
 20
349.7195973656
 30
0.0
 40
133.958203061455
 50
235.3788369307
 51
244.626539602
  0
ARC
  5
4CC
  8
0
  6
CONTINUOUS
 62
     7
 10
-1864.1854586984
 20
89.9640499364
 30
0.0
 40
169.5548363946275
 50
56.176280344
 51
63.8290961887
  0
POLYLINE
  5
4CD
  8
0
  6
CONTINUOUS
 62
     7
 66
     1
 10
0.0
 20
0.0
 30
0.0
  0
VERTEX
  5
837
  8
0
  6
CONTINUOUS
 62
     7
 10
-1789.4032733032
 20
242.1365418406
 30
0.0
  0
VERTEX
  5
838
  8
0
  6
CONTINUOUS
 62
     7
 10
-1790.137113156
 20
242.3483196925
 30
0.0
  0
VERTEX
  5
839
  8
0
  6
CONTINUOUS
 62
     7
 10
-1790.7687047544
 20
242.2318305178
 30
0.0
  0
VERTEX
  5
83A
  8
0
  6
CONTINUOUS
 62
     7
 10
-1790.9695766344
 20
242.0417567836
 30
0.0
  0
SEQEND
  5
83B
  8
0
  6
CONTINUOUS
 62
     7
  0
ARC
  5
4CE
  8
0
  6
CONTINUOUS
 62
     7
 10
-1769.0366468788
 20
102.8228508367
 30
0.0
 40
1.321258883129781
 50
289.5414890429
 51
9.0882883646
  0
LINE
  5
4CF
  8
0
  6
CONTINUOUS
 62
     7
 10
-1767.7319538548
 20
103.0315397433
 30
0.0
 11
-1767.4776819177
 21
130.6843061338
 31
0.0
  0
LINE
  5
4D0
  8
0
  6
CONTINUOUS
 62
     7
 10
-1767.4776819177
 20
199.1532700018
 30
0.0
 11
-1767.4776819177
 21
130.6843061338
 31
0.0
  0
LINE
  5
4D1
  8
0
  6
CONTINUOUS
 62
     7
 10
-1781.8178204855
 20
206.9543184831
 30
0.0
 11
-1783.7402962967
 21
207.8673393147
 31
0.0
  0
ARC
  5
4D2
  8
0
  6
CONTINUOUS
 62
     7
 10
-1791.4395971518
 20
206.2257944754
 30
0.0
 40
7.87235054579892
 50
12.0356516972
 51
56.8100780274
  0
LINE
  5
4D3
  8
0
  6
CONTINUOUS
 62
     7
 10
-1790.8664432961
 20
211.981176412
 30
0.0
 11
-1792.4553478748
 21
213.095232332
 31
0.0
  0
LINE
  5
4D4
  8
0
  6
CONTINUOUS
 62
     7
 10
-1792.6617515287
 20
209.6867414861
 30
0.0
 11
-1791.0688324626
 21
208.5829119458
 31
0.0
  0
LINE
  5
4D5
  8
0
  6
CONTINUOUS
 62
     7
 10
-1783.9438234282
 20
204.469683112
 30
0.0
 11
-1782.0248141952
 21
203.5461682692
 31
0.0
  0
ARC
  5
4D6
  8
0
  6
CONTINUOUS
 62
     7
 10
-1782.5280035755
 20
201.9711428888
 30
0.0
 40
5.82742571321559
 50
252.503034719
 51
297.1828330089
  0
LINE
  5
4D7
  8
0
  6
CONTINUOUS
 62
     7
 10
-1792.0409811337
 20
220.8844376024
 30
0.0
 11
-1791.9048152029
 21
220.9545999802
 31
0.0
  0
LINE
  5
4D8
  8
0
  6
CONTINUOUS
 62
     7
 10
-1781.2053846297
 20
206.0074521461
 30
0.0
 11
-1781.3171159252
 21
204.2566458739
 31
0.0
  0
ARC
  5
4D9
  8
0
  6
CONTINUOUS
 62
     7
 10
-1790.8004381295
 20
206.569381398
 30
0.0
 40
7.21359520546036
 50
11.755298136
 51
56.7937496955
  0
LINE
  5
4DA
  8
0
  6
CONTINUOUS
 62
     7
 10
-1793.6278732004
 20
239.2946188784
 30
0.0
 11
-1793.7342834562
 21
239.1644978955
 31
0.0
  0
ARC
  5
4DB
  8
0
  6
CONTINUOUS
 62
     7
 10
-1781.2573441843
 20
204.0946602733
 30
0.0
 40
0.1726615064339669
 50
110.2537663638
 51
175.5254072511
  0
ARC
  5
4DC
  8
0
  6
CONTINUOUS
 62
     7
 10
-1783.5435295452
 20
207.8195002676
 30
0.0
 40
0.2025335694664095
 50
166.3197390914
 51
235.5177059888
  0
POLYLINE
  5
4DD
  8
0
  6
CONTINUOUS
 62
     7
 66
     1
 10
0.0
 20
0.0
 30
0.0
  0
VERTEX
  5
83C
  8
0
  6
CONTINUOUS
 62
     7
 10
-1796.7999609232
 20
209.6216552812
 30
0.0
  0
VERTEX
  5
83D
  8
0
  6
CONTINUOUS
 62
     7
 10
-1796.8084429764
 20
209.5930364103
 30
0.0
  0
VERTEX
  5
83E
  8
0
  6
CONTINUOUS
 62
     7
 10
-1796.8140801174
 20
209.5566195549
 30
0.0
  0
SEQEND
  5
83F
  8
0
  6
CONTINUOUS
 62
     7
  0
ARC
  5
4DE
  8
0
  6
CONTINUOUS
 62
     7
 10
-1790.4844631877
 20
212.2854149492
 30
0.0
 40
0.4882945640993471
 50
218.5347207744
 51
291.3926919879
  0
POLYLINE
  5
4DF
  8
0
  6
CONTINUOUS
 62
     7
 66
     1
 10
0.0
 20
0.0
 30
0.0
  0
VERTEX
  5
840
  8
0
  6
CONTINUOUS
 62
     7
 10
-1784.0512978919
 20
204.7568462657
 30
0.0
  0
VERTEX
  5
841
  8
0
  6
CONTINUOUS
 62
     7
 10
-1784.5822849629
 20
204.081601936
 30
0.0
  0
VERTEX
  5
842
  8
0
  6
CONTINUOUS
 62
     7
 10
-1784.7888782775
 20
203.98325419
 30
0.0
  0
SEQEND
  5
843
  8
0
  6
CONTINUOUS
 62
     7
  0
ARC
  5
4E0
  8
0
  6
CONTINUOUS
 62
     7
 10
-1780.4446507984
 20
212.1259960503
 30
0.0
 40
6.460901059464723
 50
191.444947636
 51
253.8910902735
  0
ARC
  5
4E1
  8
0
  6
CONTINUOUS
 62
     7
 10
-1787.3787123596
 20
210.6768384982
 30
0.0
 40
0.624416850551358
 50
15.5263591931
 51
57.1283441949
  0
LINE
  5
4E2
  8
0
  6
CONTINUOUS
 62
     7
 10
-1788.7746741311
 20
212.2027979435
 30
0.0
 11
-1787.0398044792
 21
211.2012790114
 31
0.0
  0
ARC
  5
4E3
  8
0
  6
CONTINUOUS
 62
     7
 10
-1788.3726049192
 20
212.8361788588
 30
0.0
 40
0.7502206575155712
 50
205.1382761759
 51
237.5926837463
  0
ARC
  5
4E4
  8
0
  6
CONTINUOUS
 62
     7
 10
-1790.4470645351
 20
211.8868531912
 30
0.0
 40
0.1514781930423588
 50
300.9815071359
 51
338.2666606387
  0
ARC
  5
4E5
  8
0
  6
CONTINUOUS
 62
     7
 10
-1790.6645935171
 20
211.9351295956
 30
0.0
 40
0.2070229427905177
 50
167.138206622
 51
233.118640653
  0
ARC
  5
4E6
  8
0
  6
CONTINUOUS
 62
     7
 10
-1792.2327208771
 20
213.053602436
 30
0.0
 40
0.2264905928928769
 50
169.4164111595
 51
229.9591538758
  0
POLYLINE
  5
4E7
  8
0
  6
CONTINUOUS
 62
     7
 66
     1
 10
0.0
 20
0.0
 30
0.0
  0
VERTEX
  5
844
  8
0
  6
CONTINUOUS
 62
     7
 10
-1792.3442803923
 20
212.9204644171
 30
0.0
  0
VERTEX
  5
845
  8
0
  6
CONTINUOUS
 62
     7
 10
-1792.4074795916
 20
212.8606308916
 30
0.0
  0
VERTEX
  5
846
  8
0
  6
CONTINUOUS
 62
     7
 10
-1792.4531562387
 20
212.7472586269
 30
0.0
  0
SEQEND
  5
847
  8
0
  6
CONTINUOUS
 62
     7
  0
ARC
  5
4E8
  8
0
  6
CONTINUOUS
 62
     7
 10
-1796.4510719023
 20
140.3600418183
 30
0.0
 40
0.3639476891307281
 50
182.1871038382
 51
234.8238408572
  0
ARC
  5
4E9
  8
0
  6
CONTINUOUS
 62
     7
 10
-1793.8038554334
 20
114.9569363309
 30
0.0
 40
0.3919947246523677
 50
181.603703323
 51
233.0385462246
  0
LINE
  5
4EA
  8
0
  6
CONTINUOUS
 62
     7
 10
-1772.3964404099
 20
100.6470931289
 30
0.0
 11
-1772.2855836616
 21
100.6758001154
 31
0.0
  0
POLYLINE
  5
4EB
  8
0
  6
CONTINUOUS
 62
     7
 66
     1
 10
0.0
 20
0.0
 30
0.0
  0
VERTEX
  5
848
  8
0
  6
CONTINUOUS
 62
     7
 10
-1788.2466057294
 20
212.9822910267
 30
0.0
  0
VERTEX
  5
849
  8
0
  6
CONTINUOUS
 62
     7
 10
-1788.204416734
 20
212.7146850521
 30
0.0
  0
VERTEX
  5
84A
  8
0
  6
CONTINUOUS
 62
     7
 10
-1787.9919966175
 20
211.7509490692
 30
0.0
  0
SEQEND
  5
84B
  8
0
  6
CONTINUOUS
 62
     7
  0
LINE
  5
4EC
  8
0
  6
CONTINUOUS
 62
     7
 10
-1787.8063397498
 20
212.9125400959
 30
0.0
 11
-1787.8063397498
 21
212.6643250082
 31
0.0
  0
LINE
  5
4ED
  8
0
  6
CONTINUOUS
 62
     7
 10
-1787.8063397498
 20
212.6643250082
 30
0.0
 11
-1786.0524829427
 21
211.6518450247
 31
0.0
  0
ARC
  5
4EE
  8
0
  6
CONTINUOUS
 62
     7
 10
-1778.0111821946
 20
213.6218792978
 30
0.0
 40
8.279103378956808
 50
193.7657333026
 51
224.9279120433
  0
ARC
  5
4EF
  8
0
  6
CONTINUOUS
 62
     7
 10
-1780.5293590594
 20
210.7851077408
 30
0.0
 40
4.487021727260506
 50
225.1941088711
 51
258.4971262458
  0
LINE
  5
4F0
  8
0
  6
CONTINUOUS
 62
     7
 10
-1786.0524829427
 20
211.6518450247
 30
0.0
 11
-1785.8529386885
 21
211.7670394707
 31
0.0
  0
LINE
  5
4F1
  8
0
  6
CONTINUOUS
 62
     7
 10
-1787.8063397498
 20
212.6643250082
 30
0.0
 11
-1787.5483378167
 21
212.8132663539
 31
0.0
  0
ARC
  5
4F2
  8
0
  6
CONTINUOUS
 62
     7
 10
-1255.63778718
 20
-597.0213230548
 30
0.0
 40
11.17514733995558
 50
259.0575260748
 51
280.9426382163
  0
ARC
  5
4F3
  8
0
  6
CONTINUOUS
 62
     7
 10
-1255.6377747608
 20
351.5503757425
 30
0.0
 40
3.136017985920192
 50
227.4342217349
 51
312.5659425562
  0
LINE
  5
4F4
  8
0
  6
CONTINUOUS
 62
     7
 10
-1254.5771196648
 20
349.853011051
 30
0.0
 11
-1253.5164520752
 21
349.2407006849
 31
0.0
  0
LINE
  5
4F5
  8
0
  6
CONTINUOUS
 62
     7
 10
-1256.6984232339
 20
349.8530049683
 30
0.0
 11
-1257.7590908236
 21
349.2406946022
 31
0.0
  0
ARC
  5
4F6
  8
0
  6
CONTINUOUS
 62
     7
 10
-1255.6377734628
 20
350.5551852603
 30
0.0
 40
1.272020086092465
 50
213.5056913315
 51
326.4946372531
  0
ARC
  5
4F7
  8
0
  6
CONTINUOUS
 62
     7
 10
-1255.474303917
 20
351.267620132
 30
0.0
 40
3.136326527393512
 50
107.4391371303
 51
192.561027041
  0
LINE
  5
4F8
  8
0
  6
CONTINUOUS
 62
     7
 10
-1256.4142375711
 20
354.2597880438
 30
0.0
 11
-1256.4142375711
 21
353.0349682601
 31
0.0
  0
ARC
  5
4F9
  8
0
  6
CONTINUOUS
 62
     7
 10
-1256.3362803611
 20
351.7652146178
 30
0.0
 40
1.272144503847409
 50
93.513295375
 51
206.4870331141
  0
LINE
  5
4FA
  8
0
  6
CONTINUOUS
 62
     7
 10
-1258.5355622137
 20
350.585533827
 30
0.0
 11
-1257.4748946241
 21
351.1978441931
 31
0.0
  0
ARC
  5
4FB
  8
0
  6
CONTINUOUS
 62
     7
 10
-1805.7456535566
 20
668.9320539099
 30
0.0
 40
11.17037652486437
 50
139.0527397755
 51
160.9474243958
  0
ARC
  5
4FC
  8
0
  6
CONTINUOUS
 62
     7
 10
-1249.6369659471
 20
354.8260923154
 30
0.0
 40
4.610560252615948
 50
2.606193141
 51
57.3934783699
  0
ARC
  5
4FD
  8
0
  6
CONTINUOUS
 62
     7
 10
-1255.8009901522
 20
351.2677676182
 30
0.0
 40
3.136105450663342
 50
347.4353123847
 51
72.5643591262
  0
LINE
  5
4FE
  8
0
  6
CONTINUOUS
 62
     7
 10
-1254.8613053276
 20
353.0349621774
 30
0.0
 11
-1254.8613053276
 21
354.2597819611
 31
0.0
  0
LINE
  5
4FF
  8
0
  6
CONTINUOUS
 62
     7
 10
-1253.8006588114
 20
351.1978441931
 30
0.0
 11
-1252.7399912218
 21
350.585533827
 31
0.0
  0
ARC
  5
500
  8
0
  6
CONTINUOUS
 62
     7
 10
-1254.9391954366
 20
351.7652556844
 30
0.0
 40
1.272093332807833
 50
333.5097517959
 51
86.4895910769
  0
ARC
  5
501
  8
0
  6
CONTINUOUS
 62
     7
 10
-1253.759606939
 20
352.4464569806
 30
0.0
 40
5.125698368974898
 50
201.2880857476
 51
218.7137101112
  0
ARC
  5
502
  8
0
  6
CONTINUOUS
 62
     7
 10
-1252.6989393494
 20
353.0587673467
 30
0.0
 40
5.125698368959512
 50
201.2880857475
 51
218.7137101113
  0
ARC
  5
503
  8
0
  6
CONTINUOUS
 62
     7
 10
-1257.678373014
 20
-609.0295806366
 30
0.0
 40
1.039432649952563
 50
94.4538245936
 51
145.5550755655
  0
ARC
  5
504
  8
0
  6
CONTINUOUS
 62
     7
 10
-1821.0811398761
 20
-288.3101675715
 30
0.0
 40
5.12688446445057
 50
21.2890417304
 51
38.7106778362
  0
ARC
  5
505
  8
0
  6
CONTINUOUS
 62
     7
 10
-1817.1610028888
 20
673.1659082823
 30
0.0
 40
1.038920886557565
 50
274.4407705597
 51
325.5672878806
  0
ARC
  5
506
  8
0
  6
CONTINUOUS
 62
     7
 10
-1257.5154228761
 20
352.446137824
 30
0.0
 40
5.125094605864629
 50
321.2855395285
 51
338.7131135318
  0
ARC
  5
507
  8
0
  6
CONTINUOUS
 62
     7
 10
-1258.5760904658
 20
353.0584481901
 30
0.0
 40
5.125094605864951
 50
321.2855395285
 51
338.7131135318
  0
LINE
  5
508
  8
0
  6
CONTINUOUS
 62
     7
 10
-1245.0311745785
 20
-603.9914580793
 30
0.0
 11
-1245.0311745785
 21
355.0357389499
 31
0.0
  0
ARC
  5
509
  8
0
  6
CONTINUOUS
 62
     7
 10
-1253.5971239736
 20
-609.0294669309
 30
0.0
 40
1.039321787376111
 50
34.4415152061
 51
85.5482380232
  0
LINE
  5
50A
  8
0
  6
CONTINUOUS
 62
     7
 10
-1255.637766181
 20
354.3187903738
 30
0.0
 11
-1255.637766181
 21
353.0939705902
 31
0.0
  0
ARC
  5
50B
  8
0
  6
CONTINUOUS
 62
     7
 10
-1255.6413067793
 20
348.0018772133
 30
0.0
 40
5.092094607803609
 50
89.9601615107
 51
98.7306938841
  0
ARC
  5
50C
  8
0
  6
CONTINUOUS
 62
     7
 10
-1255.6413067793
 20
349.226696997
 30
0.0
 40
5.092094607803609
 50
89.9601615107
 51
98.7306938841
  0
ARC
  5
50D
  8
0
  6
CONTINUOUS
 62
     7
 10
-1255.6342655672
 20
349.2268276998
 30
0.0
 40
5.09196387737807
 50
81.2687449773
 51
90.039389599
  0
ARC
  5
50E
  8
0
  6
CONTINUOUS
 62
     7
 10
-1255.6342655672
 20
348.0020079161
 30
0.0
 40
5.091963877378183
 50
81.2687449773
 51
90.039389599
  0
ARC
  5
50F
  8
0
  6
CONTINUOUS
 62
     7
 10
-1815.1405743726
 20
676.7069309595
 30
0.0
 40
1.060032561348541
 50
334.6282030343
 51
359.6768503694
  0
LINE
  5
510
  8
0
  6
CONTINUOUS
 62
     7
 10
-1807.8881751004
 20
676.700952381
 30
0.0
 11
-1814.080558671
 21
676.700952381
 31
0.0
  0
LINE
  5
511
  8
0
  6
CONTINUOUS
 62
     7
 10
-1802.9384281378
 20
673.8435242816
 30
0.0
 11
-1807.8881751004
 21
676.700952381
 31
0.0
  0
LINE
  5
512
  8
0
  6
CONTINUOUS
 62
     7
 10
-1797.9886811753
 20
676.700952381
 30
0.0
 11
-1802.9384281378
 21
673.8435242816
 31
0.0
  0
LINE
  5
513
  8
0
  6
CONTINUOUS
 62
     7
 10
-1255.637766181
 20
363.6084335165
 30
0.0
 11
-1797.9886811753
 21
676.700952381
 31
0.0
  0
LINE
  5
514
  8
0
  6
CONTINUOUS
 62
     7
 10
-1260.5875131436
 20
360.7510054171
 30
0.0
 11
-1255.637766181
 21
363.6084335165
 31
0.0
  0
LINE
  5
515
  8
0
  6
CONTINUOUS
 62
     7
 10
-1255.637766181
 20
357.8935773177
 30
0.0
 11
-1260.5875131436
 21
360.7510054171
 31
0.0
  0
LINE
  5
516
  8
0
  6
CONTINUOUS
 62
     7
 10
-1255.637766181
 20
354.3187903738
 30
0.0
 11
-1255.637766181
 21
357.8935773177
 31
0.0
  0
LINE
  5
517
  8
0
  6
CONTINUOUS
 62
     7
 10
-1247.1524886843
 20
358.709987084
 30
0.0
 11
-1255.637766181
 21
363.6084335165
 31
0.0
  0
LINE
  5
518
  8
0
  6
CONTINUOUS
 62
     7
 10
-1797.9886811753
 20
676.700952381
 30
0.0
 11
-1806.473958672
 21
681.5993988135
 31
0.0
  0
ARC
  5
519
  8
0
  6
CONTINUOUS
 62
     7
 10
-1815.1411795679
 20
676.6948644727
 30
0.0
 40
1.060638368949424
 50
0.3288711596
 51
25.3631778086
  0
LINE
  5
51A
  8
0
  6
CONTINUOUS
 62
     7
 10
-1817.0805608113
 20
672.1301063318
 30
0.0
 11
-1816.3050587987
 21
672.5777941143
 31
0.0
  0
LINE
  5
51B
  8
0
  6
CONTINUOUS
 62
     7
 10
-1814.1827753153
 20
677.1491936906
 30
0.0
 11
-1814.1827753153
 21
676.2526991974
 31
0.0
  0
POLYLINE
  5
51C
  8
0
  6
CONTINUOUS
 62
     7
 66
     1
 10
0.0
 20
0.0
 30
0.0
  0
VERTEX
  5
84C
  8
0
  6
CONTINUOUS
 62
     7
 10
-1817.0805608113
 20
672.1301063318
 30
0.0
  0
VERTEX
  5
84D
  8
0
  6
CONTINUOUS
 62
     7
 10
-1817.5154636043
 20
672.3015481297
 30
0.0
  0
VERTEX
  5
84E
  8
0
  6
CONTINUOUS
 62
     7
 10
-1817.7857513438
 20
672.5225038951
 30
0.0
  0
VERTEX
  5
84F
  8
0
  6
CONTINUOUS
 62
     7
 10
-1817.9592277723
 20
673.0180609641
 30
0.0
  0
VERTEX
  5
850
  8
0
  6
CONTINUOUS
 62
     7
 10
-1817.7787022834
 20
673.6926536032
 30
0.0
  0
VERTEX
  5
851
  8
0
  6
CONTINUOUS
 62
     7
 10
-1817.5073292626
 20
674.1205471327
 30
0.0
  0
VERTEX
  5
852
  8
0
  6
CONTINUOUS
 62
     7
 10
-1817.0805502746
 20
674.579329548
 30
0.0
  0
SEQEND
  5
853
  8
0
  6
CONTINUOUS
 62
     7
  0
LINE
  5
51D
  8
0
  6
CONTINUOUS
 62
     7
 10
-1817.0805502746
 20
674.579329548
 30
0.0
 11
-1816.0199037584
 21
673.9670313473
 31
0.0
  0
ARC
  5
51E
  8
0
  6
CONTINUOUS
 62
     7
 10
-1814.9997034987
 20
672.918630822
 30
0.0
 40
1.462857556790374
 50
134.2189618542
 51
176.1155069938
  0
ARC
  5
51F
  8
0
  6
CONTINUOUS
 62
     7
 10
-1815.9790612595
 20
-283.4561940356
 30
0.0
 40
1.981957146278667
 50
182.4923953874
 51
236.23667725
  0
POLYLINE
  5
520
  8
0
  6
CONTINUOUS
 62
     7
 66
     1
 10
0.0
 20
0.0
 30
0.0
  0
VERTEX
  5
854
  8
0
  6
CONTINUOUS
 62
     7
 10
-1816.3040894212
 20
675.92416269
 30
0.0
  0
VERTEX
  5
855
  8
0
  6
CONTINUOUS
 62
     7
 10
-1816.1189804625
 20
676.5332079077
 30
0.0
  0
VERTEX
  5
856
  8
0
  6
CONTINUOUS
 62
     7
 10
-1815.8807243279
 20
676.9829205266
 30
0.0
  0
VERTEX
  5
857
  8
0
  6
CONTINUOUS
 62
     7
 10
-1815.3907145304
 20
677.4661994528
 30
0.0
  0
VERTEX
  5
858
  8
0
  6
CONTINUOUS
 62
     7
 10
-1814.8603175153
 20
677.5640765259
 30
0.0
  0
VERTEX
  5
859
  8
0
  6
CONTINUOUS
 62
     7
 10
-1814.5368193795
 20
677.4374735008
 30
0.0
  0
VERTEX
  5
85A
  8
0
  6
CONTINUOUS
 62
     7
 10
-1814.1827753153
 20
677.1491936906
 30
0.0
  0
SEQEND
  5
85B
  8
0
  6
CONTINUOUS
 62
     7
  0
ARC
  5
521
  8
0
  6
CONTINUOUS
 62
     7
 10
-1813.6667201874
 20
674.8408513747
 30
0.0
 40
1.64557220511017
 50
126.3014294119
 51
163.3675786722
  0
LINE
  5
522
  8
0
  6
CONTINUOUS
 62
     7
 10
-1816.3040894212
 20
675.92416269
 30
0.0
 11
-1815.243442905
 21
675.3118644894
 31
0.0
  0
ARC
  5
523
  8
0
  6
CONTINUOUS
 62
     7
 10
-1807.3527004131
 20
680.3724650879
 30
0.0
 40
1.509156524250423
 50
54.3893972479
 51
114.3041064246
  0
ARC
  5
524
  8
0
  6
CONTINUOUS
 62
     7
 10
-1820.0188745593
 20
677.1724684864
 30
0.0
 40
5.125094605855796
 50
321.2855395285
 51
338.7131135318
  0
ARC
  5
525
  8
0
  6
CONTINUOUS
 62
     7
 10
-1821.0795210755
 20
677.784766687
 30
0.0
 40
5.125094605851881
 50
321.2855395285
 51
338.7131135318
  0
LINE
  5
526
  8
0
  6
CONTINUOUS
 62
     7
 10
-1252.7399912218
 20
-608.4416632022
 30
0.0
 11
-1253.3205008398
 21
-608.106542133
 31
0.0
  0
LINE
  5
527
  8
0
  6
CONTINUOUS
 62
     7
 10
-1258.0397782979
 20
-608.1554532398
 30
0.0
 11
-1258.5355622137
 21
-608.4416632022
 31
0.0
  0
LINE
  5
528
  8
0
  6
CONTINUOUS
 62
     7
 10
-1256.4142375711
 20
-608.4418592108
 30
0.0
 11
-1256.4142375711
 21
-609.6666713899
 31
0.0
  0
POLYLINE
  5
529
  8
0
  6
CONTINUOUS
 62
     7
 66
     1
 10
0.0
 20
0.0
 30
0.0
  0
VERTEX
  5
85C
  8
0
  6
CONTINUOUS
 62
     7
 10
-1256.4142375711
 20
-609.6666713899
 30
0.0
  0
VERTEX
  5
85D
  8
0
  6
CONTINUOUS
 62
     7
 10
-1257.0342387862
 20
-609.8108770871
 30
0.0
  0
VERTEX
  5
85E
  8
0
  6
CONTINUOUS
 62
     7
 10
-1257.542793197
 20
-609.8293393771
 30
0.0
  0
VERTEX
  5
85F
  8
0
  6
CONTINUOUS
 62
     7
 10
-1258.206279423
 20
-609.6465273982
 30
0.0
  0
VERTEX
  5
860
  8
0
  6
CONTINUOUS
 62
     7
 10
-1258.5561509492
 20
-609.2360135932
 30
0.0
  0
VERTEX
  5
861
  8
0
  6
CONTINUOUS
 62
     7
 10
-1258.6082866008
 20
-608.892519359
 30
0.0
  0
VERTEX
  5
862
  8
0
  6
CONTINUOUS
 62
     7
 10
-1258.5355622137
 20
-608.4416632022
 30
0.0
  0
SEQEND
  5
863
  8
0
  6
CONTINUOUS
 62
     7
  0
ARC
  5
52A
  8
0
  6
CONTINUOUS
 62
     7
 10
-1256.7946509263
 20
-606.8418304323
 30
0.0
 40
1.644629567054819
 50
246.2927401512
 51
283.373997556
  0
POLYLINE
  5
52B
  8
0
  6
CONTINUOUS
 62
     7
 66
     1
 10
0.0
 20
0.0
 30
0.0
  0
VERTEX
  5
864
  8
0
  6
CONTINUOUS
 62
     7
 10
-1252.7399912218
 20
-608.4416632022
 30
0.0
  0
VERTEX
  5
865
  8
0
  6
CONTINUOUS
 62
     7
 10
-1252.6710389776
 20
-608.9040952418
 30
0.0
  0
VERTEX
  5
866
  8
0
  6
CONTINUOUS
 62
     7
 10
-1252.7273471672
 20
-609.2487502548
 30
0.0
  0
VERTEX
  5
867
  8
0
  6
CONTINUOUS
 62
     7
 10
-1253.0698219215
 20
-609.6468559716
 30
0.0
  0
VERTEX
  5
868
  8
0
  6
CONTINUOUS
 62
     7
 10
-1253.7443611585
 20
-609.8279019922
 30
0.0
  0
VERTEX
  5
869
  8
0
  6
CONTINUOUS
 62
     7
 10
-1254.2506501763
 20
-609.8068964226
 30
0.0
  0
VERTEX
  5
86A
  8
0
  6
CONTINUOUS
 62
     7
 10
-1254.8613053276
 20
-609.6666774726
 30
0.0
  0
SEQEND
  5
86B
  8
0
  6
CONTINUOUS
 62
     7
  0
ARC
  5
52C
  8
0
  6
CONTINUOUS
 62
     7
 10
-1246.6083348373
 20
-604.1052474792
 30
0.0
 40
1.581259785614883
 50
307.1862534123
 51
4.1266416161
  0
LINE
  5
52D
  8
0
  6
CONTINUOUS
 62
     7
 10
-1254.8613053276
 20
-609.6666774726
 30
0.0
 11
-1254.8613053276
 21
-608.4418652935
 31
0.0
  0
ARC
  5
52E
  8
0
  6
CONTINUOUS
 62
     7
 10
-1254.4610145585
 20
-607.0615273929
 30
0.0
 40
1.437207507584503
 50
253.8281175061
 51
296.5049366581
  0
ARC
  5
52F
  8
0
  6
CONTINUOUS
 62
     7
 10
-1813.9645711642
 20
-286.1044903515
 30
0.0
 40
2.364730012331571
 50
188.3705327275
 51
232.9037247671
  0
ARC
  5
530
  8
0
  6
CONTINUOUS
 62
     7
 10
-1255.6413067793
 20
-613.4749502577
 30
0.0
 40
5.092094607812175
 50
89.9601615107
 51
98.7306938841
  0
LINE
  5
531
  8
0
  6
CONTINUOUS
 62
     7
 10
-1255.637766181
 20
-609.6076690598
 30
0.0
 11
-1255.637766181
 21
-608.3828568808
 31
0.0
  0
ARC
  5
532
  8
0
  6
CONTINUOUS
 62
     7
 10
-1255.6413067793
 20
-614.6997624367
 30
0.0
 40
5.092094607812062
 50
89.9601615107
 51
98.7306938841
  0
ARC
  5
533
  8
0
  6
CONTINUOUS
 62
     7
 10
-1255.6342655672
 20
-613.4748195548
 30
0.0
 40
5.09196387734373
 50
81.2687449773
 51
90.039389599
  0
ARC
  5
534
  8
0
  6
CONTINUOUS
 62
     7
 10
-1255.6342655672
 20
-614.6996317339
 30
0.0
 40
5.091963877369531
 50
81.2687449773
 51
90.039389599
  0
POLYLINE
  5
535
  8
0
  6
CONTINUOUS
 62
     7
 66
     1
 10
0.0
 20
0.0
 30
0.0
  0
VERTEX
  5
86C
  8
0
  6
CONTINUOUS
 62
     7
 10
-1043.6471524142
 20
497.3705038645
 30
0.0
  0
VERTEX
  5
86D
  8
0
  6
CONTINUOUS
 62
     7
 10
-1042.2302912711
 20
496.6992459128
 30
0.0
  0
VERTEX
  5
86E
  8
0
  6
CONTINUOUS
 62
     7
 10
-1040.6138068484
 20
496.2004542049
 30
0.0
  0
VERTEX
  5
86F
  8
0
  6
CONTINUOUS
 62
     7
 10
-1038.8598025273
 20
495.8932892913
 30
0.0
  0
VERTEX
  5
870
  8
0
  6
CONTINUOUS
 62
     7
 10
-1037.0357079972
 20
495.7895790101
 30
0.0
  0
VERTEX
  5
871
  8
0
  6
CONTINUOUS
 62
     7
 10
-1035.2116134671
 20
495.8932892913
 30
0.0
  0
VERTEX
  5
872
  8
0
  6
CONTINUOUS
 62
     7
 10
-1033.4576196828
 20
496.2004481222
 30
0.0
  0
VERTEX
  5
873
  8
0
  6
CONTINUOUS
 62
     7
 10
-1031.84113526
 20
496.6992459128
 30
0.0
  0
VERTEX
  5
874
  8
0
  6
CONTINUOUS
 62
     7
 10
-1030.4242477752
 20
497.3705069059
 30
0.0
  0
VERTEX
  5
875
  8
0
  6
CONTINUOUS
 62
     7
 10
-1029.261479445
 20
498.1884495162
 30
0.0
  0
VERTEX
  5
876
  8
0
  6
CONTINUOUS
 62
     7
 10
-1028.3974374404
 20
499.1216291516
 30
0.0
  0
VERTEX
  5
877
  8
0
  6
CONTINUOUS
 62
     7
 10
-1027.8653650881
 20
500.1341882104
 30
0.0
  0
VERTEX
  5
878
  8
0
  6
CONTINUOUS
 62
     7
 10
-1027.6857141463
 20
501.1872155683
 30
0.0
  0
VERTEX
  5
879
  8
0
  6
CONTINUOUS
 62
     7
 10
-1027.8653650881
 20
502.2402429262
 30
0.0
  0
VERTEX
  5
87A
  8
0
  6
CONTINUOUS
 62
     7
 10
-1028.3974479771
 20
503.2528080677
 30
0.0
  0
VERTEX
  5
87B
  8
0
  6
CONTINUOUS
 62
     7
 10
-1029.2614689083
 20
504.1859877031
 30
0.0
  0
VERTEX
  5
87C
  8
0
  6
CONTINUOUS
 62
     7
 10
-1030.4242583119
 20
505.003918148
 30
0.0
  0
VERTEX
  5
87D
  8
0
  6
CONTINUOUS
 62
     7
 10
-1031.8411299917
 20
505.6751943479
 30
0.0
  0
VERTEX
  5
87E
  8
0
  6
CONTINUOUS
 62
     7
 10
-1033.4576196828
 20
506.1739830144
 30
0.0
  0
VERTEX
  5
87F
  8
0
  6
CONTINUOUS
 62
     7
 10
-1035.2116240038
 20
506.4811479281
 30
0.0
  0
VERTEX
  5
880
  8
0
  6
CONTINUOUS
 62
     7
 10
-1037.0357185339
 20
506.5848582092
 30
0.0
  0
VERTEX
  5
881
  8
0
  6
CONTINUOUS
 62
     7
 10
-1038.8598130641
 20
506.4811479281
 30
0.0
  0
VERTEX
  5
882
  8
0
  6
CONTINUOUS
 62
     7
 10
-1040.6138068484
 20
506.1739890971
 30
0.0
  0
VERTEX
  5
883
  8
0
  6
CONTINUOUS
 62
     7
 10
-1042.2302965395
 20
505.6751882652
 30
0.0
  0
VERTEX
  5
884
  8
0
  6
CONTINUOUS
 62
     7
 10
-1043.6471471459
 20
505.0039242307
 30
0.0
  0
VERTEX
  5
885
  8
0
  6
CONTINUOUS
 62
     7
 10
-1044.8099523545
 20
504.1859846617
 30
0.0
  0
VERTEX
  5
886
  8
0
  6
CONTINUOUS
 62
     7
 10
-1045.6739890908
 20
503.2528080677
 30
0.0
  0
VERTEX
  5
887
  8
0
  6
CONTINUOUS
 62
     7
 10
-1046.2060614431
 20
502.2402490089
 30
0.0
  0
VERTEX
  5
888
  8
0
  6
CONTINUOUS
 62
     7
 10
-1046.3857123848
 20
501.187221651
 30
0.0
  0
VERTEX
  5
889
  8
0
  6
CONTINUOUS
 62
     7
 10
-1046.2060614431
 20
500.1341942931
 30
0.0
  0
VERTEX
  5
88A
  8
0
  6
CONTINUOUS
 62
     7
 10
-1045.673978554
 20
499.1216291516
 30
0.0
  0
VERTEX
  5
88B
  8
0
  6
CONTINUOUS
 62
     7
 10
-1044.8099523545
 20
498.1884525576
 30
0.0
  0
VERTEX
  5
88C
  8
0
  6
CONTINUOUS
 62
     7
 10
-1043.6471524142
 20
497.3705038645
 30
0.0
  0
SEQEND
  5
88D
  8
0
  6
CONTINUOUS
 62
     7
  0
POLYLINE
  5
536
  8
0
  6
CONTINUOUS
 62
     7
 66
     1
 10
0.0
 20
0.0
 30
0.0
  0
VERTEX
  5
88E
  8
0
  6
CONTINUOUS
 62
     7
 10
-1043.6471524142
 20
497.0505497495
 30
0.0
  0
VERTEX
  5
88F
  8
0
  6
CONTINUOUS
 62
     7
 10
-1042.2302912711
 20
496.3792917978
 30
0.0
  0
VERTEX
  5
890
  8
0
  6
CONTINUOUS
 62
     7
 10
-1040.6138068484
 20
495.8805000899
 30
0.0
  0
VERTEX
  5
891
  8
0
  6
CONTINUOUS
 62
     7
 10
-1038.8598025273
 20
495.5733351763
 30
0.0
  0
VERTEX
  5
892
  8
0
  6
CONTINUOUS
 62
     7
 10
-1037.0357079972
 20
495.4696248951
 30
0.0
  0
VERTEX
  5
893
  8
0
  6
CONTINUOUS
 62
     7
 10
-1035.2116134671
 20
495.5733351763
 30
0.0
  0
VERTEX
  5
894
  8
0
  6
CONTINUOUS
 62
     7
 10
-1033.4576196828
 20
495.8804940072
 30
0.0
  0
VERTEX
  5
895
  8
0
  6
CONTINUOUS
 62
     7
 10
-1031.84113526
 20
496.3792917978
 30
0.0
  0
VERTEX
  5
896
  8
0
  6
CONTINUOUS
 62
     7
 10
-1030.4242477752
 20
497.0505527909
 30
0.0
  0
VERTEX
  5
897
  8
0
  6
CONTINUOUS
 62
     7
 10
-1029.261479445
 20
497.8684954012
 30
0.0
  0
VERTEX
  5
898
  8
0
  6
CONTINUOUS
 62
     7
 10
-1028.3974374404
 20
498.8016750366
 30
0.0
  0
VERTEX
  5
899
  8
0
  6
CONTINUOUS
 62
     7
 10
-1027.8653650881
 20
499.8142340954
 30
0.0
  0
VERTEX
  5
89A
  8
0
  6
CONTINUOUS
 62
     7
 10
-1027.6857141463
 20
500.8672614533
 30
0.0
  0
SEQEND
  5
89B
  8
0
  6
CONTINUOUS
 62
     7
  0
ARC
  5
537
  8
0
  6
CONTINUOUS
 62
     7
 10
-1041.706425818
 20
501.3338946998
 30
0.0
 40
4.702495474153214
 50
185.6948142869
 51
245.6253523834
  0
POLYLINE
  5
538
  8
0
  6
CONTINUOUS
 62
     7
 66
     1
 10
0.0
 20
0.0
 30
0.0
  0
VERTEX
  5
89C
  8
0
  6
CONTINUOUS
 62
     7
 10
-1555.4626598573
 20
801.7962586688
 30
0.0
  0
VERTEX
  5
89D
  8
0
  6
CONTINUOUS
 62
     7
 10
-1554.5639836799
 20
802.7184590046
 30
0.0
  0
VERTEX
  5
89E
  8
0
  6
CONTINUOUS
 62
     7
 10
-1553.9942425817
 20
803.7241750097
 30
0.0
  0
VERTEX
  5
89F
  8
0
  6
CONTINUOUS
 62
     7
 10
-1553.7753213138
 20
804.7747145374
 30
0.0
  0
VERTEX
  5
8A0
  8
0
  6
CONTINUOUS
 62
     7
 10
-1553.9156387092
 20
805.8297431084
 30
0.0
  0
VERTEX
  5
8A1
  8
0
  6
CONTINUOUS
 62
     7
 10
-1554.4097894346
 20
806.8486829346
 30
0.0
  0
VERTEX
  5
8A2
  8
0
  6
CONTINUOUS
 62
     7
 10
-1555.2387863347
 20
807.7923978314
 30
0.0
  0
VERTEX
  5
8A3
  8
0
  6
CONTINUOUS
 62
     7
 10
-1556.370766392
 20
808.6246104898
 30
0.0
  0
VERTEX
  5
8A4
  8
0
  6
CONTINUOUS
 62
     7
 10
-1557.7622445956
 20
809.3133440801
 30
0.0
  0
VERTEX
  5
8A5
  8
0
  6
CONTINUOUS
 62
     7
 10
-1559.3597576681
 20
809.8321387944
 30
0.0
  0
VERTEX
  5
8A6
  8
0
  6
CONTINUOUS
 62
     7
 10
-1561.1018660412
 20
810.1610372467
 30
0.0
  0
VERTEX
  5
8A7
  8
0
  6
CONTINUOUS
 62
     7
 10
-1562.9216721295
 20
810.2874178046
 30
0.0
  0
VERTEX
  5
8A8
  8
0
  6
CONTINUOUS
 62
     7
 10
-1564.7492121645
 20
810.2064142964
 30
0.0
  0
VERTEX
  5
8A9
  8
0
  6
CONTINUOUS
 62
     7
 10
-1566.5142800332
 20
809.9211593202
 30
0.0
  0
VERTEX
  5
8AA
  8
0
  6
CONTINUOUS
 62
     7
 10
-1568.149008773
 20
809.4425835137
 30
0.0
  0
VERTEX
  5
8AB
  8
0
  6
CONTINUOUS
 62
     7
 10
-1569.5905995795
 20
808.7891053363
 30
0.0
  0
VERTEX
  5
8AC
  8
0
  6
CONTINUOUS
 62
     7
 10
-1570.7836556886
 20
807.9858190264
 30
0.0
  0
VERTEX
  5
8AD
  8
0
  6
CONTINUOUS
 62
     7
 10
-1571.6823213293
 20
807.0636004424
 30
0.0
  0
VERTEX
  5
8AE
  8
0
  6
CONTINUOUS
 62
     7
 10
-1572.2520518908
 20
806.0578905201
 30
0.0
  0
VERTEX
  5
8AF
  8
0
  6
CONTINUOUS
 62
     7
 10
-1572.4709836953
 20
805.0073449097
 30
0.0
  0
VERTEX
  5
8B0
  8
0
  6
CONTINUOUS
 62
     7
 10
-1572.330682105
 20
803.9523315455
 30
0.0
  0
VERTEX
  5
8B1
  8
0
  6
CONTINUOUS
 62
     7
 10
-1571.836536648
 20
802.9333886779
 30
0.0
  0
VERTEX
  5
8B2
  8
0
  6
CONTINUOUS
 62
     7
 10
-1571.0075344796
 20
801.9896768225
 30
0.0
  0
VERTEX
  5
8B3
  8
0
  6
CONTINUOUS
 62
     7
 10
-1569.8755280805
 20
801.15745504
 30
0.0
  0
VERTEX
  5
8B4
  8
0
  6
CONTINUOUS
 62
     7
 10
-1568.4840498769
 20
800.4687214497
 30
0.0
  0
VERTEX
  5
8B5
  8
0
  6
CONTINUOUS
 62
     7
 10
-1566.8865631461
 20
799.9499358594
 30
0.0
  0
VERTEX
  5
8B6
  8
0
  6
CONTINUOUS
 62
     7
 10
-1565.1444284313
 20
799.621028283
 30
0.0
  0
VERTEX
  5
8B7
  8
0
  6
CONTINUOUS
 62
     7
 10
-1563.3246276114
 20
799.4946446838
 30
0.0
  0
VERTEX
  5
8B8
  8
0
  6
CONTINUOUS
 62
     7
 10
-1561.4970928447
 20
799.5756451506
 30
0.0
  0
VERTEX
  5
8B9
  8
0
  6
CONTINUOUS
 62
     7
 10
-1559.732040781
 20
799.8609153337
 30
0.0
  0
VERTEX
  5
8BA
  8
0
  6
CONTINUOUS
 62
     7
 10
-1558.0972909678
 20
800.3394789747
 30
0.0
  0
VERTEX
  5
8BB
  8
0
  6
CONTINUOUS
 62
     7
 10
-1556.6557212348
 20
800.9929693175
 30
0.0
  0
VERTEX
  5
8BC
  8
0
  6
CONTINUOUS
 62
     7
 10
-1555.4626598573
 20
801.7962586688
 30
0.0
  0
SEQEND
  5
8BD
  8
0
  6
CONTINUOUS
 62
     7
  0
ARC
  5
539
  8
0
  6
CONTINUOUS
 62
     7
 10
-1557.7454878364
 20
804.7311118317
 30
0.0
 40
3.975559583045744
 50
305.044712474
 51
357.6929120488
  0
POLYLINE
  5
53A
  8
0
  6
CONTINUOUS
 62
     7
 66
     1
 10
0.0
 20
0.0
 30
0.0
  0
VERTEX
  5
8BE
  8
0
  6
CONTINUOUS
 62
     7
 10
-1572.4731489897
 20
804.5710801706
 30
0.0
  0
VERTEX
  5
8BF
  8
0
  6
CONTINUOUS
 62
     7
 10
-1572.330682105
 20
803.6323774305
 30
0.0
  0
VERTEX
  5
8C0
  8
0
  6
CONTINUOUS
 62
     7
 10
-1571.836536648
 20
802.6134345629
 30
0.0
  0
VERTEX
  5
8C1
  8
0
  6
CONTINUOUS
 62
     7
 10
-1571.0075344796
 20
801.6697227075
 30
0.0
  0
VERTEX
  5
8C2
  8
0
  6
CONTINUOUS
 62
     7
 10
-1569.8755280805
 20
800.837500925
 30
0.0
  0
VERTEX
  5
8C3
  8
0
  6
CONTINUOUS
 62
     7
 10
-1568.4840498769
 20
800.1487673347
 30
0.0
  0
VERTEX
  5
8C4
  8
0
  6
CONTINUOUS
 62
     7
 10
-1566.8865631461
 20
799.6299817445
 30
0.0
  0
VERTEX
  5
8C5
  8
0
  6
CONTINUOUS
 62
     7
 10
-1565.1444284313
 20
799.301074168
 30
0.0
  0
VERTEX
  5
8C6
  8
0
  6
CONTINUOUS
 62
     7
 10
-1563.3246276114
 20
799.1746905688
 30
0.0
  0
VERTEX
  5
8C7
  8
0
  6
CONTINUOUS
 62
     7
 10
-1561.4970928447
 20
799.2556910356
 30
0.0
  0
VERTEX
  5
8C8
  8
0
  6
CONTINUOUS
 62
     7
 10
-1559.732040781
 20
799.5409612187
 30
0.0
  0
VERTEX
  5
8C9
  8
0
  6
CONTINUOUS
 62
     7
 10
-1558.0972909678
 20
800.0195248597
 30
0.0
  0
VERTEX
  5
8CA
  8
0
  6
CONTINUOUS
 62
     7
 10
-1556.6557212348
 20
800.6730152026
 30
0.0
  0
VERTEX
  5
8CB
  8
0
  6
CONTINUOUS
 62
     7
 10
-1555.4626598573
 20
801.4763045538
 30
0.0
  0
SEQEND
  5
8CC
  8
0
  6
CONTINUOUS
 62
     7
  0
POLYLINE
  5
53B
  8
0
  6
CONTINUOUS
 62
     7
 66
     1
 10
0.0
 20
0.0
 30
0.0
  0
VERTEX
  5
8CD
  8
0
  6
CONTINUOUS
 62
     7
 10
-1732.2393604223
 20
699.7452416496
 30
0.0
  0
VERTEX
  5
8CE
  8
0
  6
CONTINUOUS
 62
     7
 10
-1731.3406737082
 20
700.6674480682
 30
0.0
  0
VERTEX
  5
8CF
  8
0
  6
CONTINUOUS
 62
     7
 10
-1730.7709431467
 20
701.6731579905
 30
0.0
  0
VERTEX
  5
8D0
  8
0
  6
CONTINUOUS
 62
     7
 10
-1730.5520113421
 20
702.7237036009
 30
0.0
  0
VERTEX
  5
8D1
  8
0
  6
CONTINUOUS
 62
     7
 10
-1730.6923340059
 20
703.7787291305
 30
0.0
  0
VERTEX
  5
8D2
  8
0
  6
CONTINUOUS
 62
     7
 10
-1731.1864794629
 20
704.7976719981
 30
0.0
  0
VERTEX
  5
8D3
  8
0
  6
CONTINUOUS
 62
     7
 10
-1732.0154816313
 20
705.7413838535
 30
0.0
  0
VERTEX
  5
8D4
  8
0
  6
CONTINUOUS
 62
     7
 10
-1733.147466957
 20
706.5735934706
 30
0.0
  0
VERTEX
  5
8D5
  8
0
  6
CONTINUOUS
 62
     7
 10
-1734.5389451606
 20
707.2623270609
 30
0.0
  0
VERTEX
  5
8D6
  8
0
  6
CONTINUOUS
 62
     7
 10
-1736.1364529647
 20
707.7811248166
 30
0.0
  0
VERTEX
  5
8D7
  8
0
  6
CONTINUOUS
 62
     7
 10
-1737.8785613378
 20
708.1100232689
 30
0.0
  0
VERTEX
  5
8D8
  8
0
  6
CONTINUOUS
 62
     7
 10
-1739.6983674261
 20
708.2364038268
 30
0.0
  0
VERTEX
  5
8D9
  8
0
  6
CONTINUOUS
 62
     7
 10
-1741.5259021927
 20
708.15540336
 30
0.0
  0
VERTEX
  5
8DA
  8
0
  6
CONTINUOUS
 62
     7
 10
-1743.2909753299
 20
707.8701453424
 30
0.0
  0
VERTEX
  5
8DB
  8
0
  6
CONTINUOUS
 62
     7
 10
-1744.9256988013
 20
707.3915725772
 30
0.0
  0
VERTEX
  5
8DC
  8
0
  6
CONTINUOUS
 62
     7
 10
-1746.3673001445
 20
706.7380883171
 30
0.0
  0
VERTEX
  5
8DD
  8
0
  6
CONTINUOUS
 62
     7
 10
-1747.5603562536
 20
705.9348020072
 30
0.0
  0
VERTEX
  5
8DE
  8
0
  6
CONTINUOUS
 62
     7
 10
-1748.4590113576
 20
705.012589506
 30
0.0
  0
VERTEX
  5
8DF
  8
0
  6
CONTINUOUS
 62
     7
 10
-1749.0287524557
 20
704.0068735009
 30
0.0
  0
VERTEX
  5
8E0
  8
0
  6
CONTINUOUS
 62
     7
 10
-1749.2476737236
 20
702.9563339732
 30
0.0
  0
VERTEX
  5
8E1
  8
0
  6
CONTINUOUS
 62
     7
 10
-1749.1073774016
 20
701.9013175677
 30
0.0
  0
VERTEX
  5
8E2
  8
0
  6
CONTINUOUS
 62
     7
 10
-1748.6132266763
 20
700.8823777414
 30
0.0
  0
VERTEX
  5
8E3
  8
0
  6
CONTINUOUS
 62
     7
 10
-1747.7842297762
 20
699.9386628447
 30
0.0
  0
VERTEX
  5
8E4
  8
0
  6
CONTINUOUS
 62
     7
 10
-1746.6522286455
 20
699.1064380208
 30
0.0
  0
VERTEX
  5
8E5
  8
0
  6
CONTINUOUS
 62
     7
 10
-1745.2607504419
 20
698.4177044305
 30
0.0
  0
VERTEX
  5
8E6
  8
0
  6
CONTINUOUS
 62
     7
 10
-1743.6632584428
 20
697.8989218816
 30
0.0
  0
VERTEX
  5
8E7
  8
0
  6
CONTINUOUS
 62
     7
 10
-1741.9211289963
 20
697.5700112638
 30
0.0
  0
VERTEX
  5
8E8
  8
0
  6
CONTINUOUS
 62
     7
 10
-1740.101322908
 20
697.443630706
 30
0.0
  0
VERTEX
  5
8E9
  8
0
  6
CONTINUOUS
 62
     7
 10
-1738.273782873
 20
697.5246342141
 30
0.0
  0
VERTEX
  5
8EA
  8
0
  6
CONTINUOUS
 62
     7
 10
-1736.5087360776
 20
697.8099013558
 30
0.0
  0
VERTEX
  5
8EB
  8
0
  6
CONTINUOUS
 62
     7
 10
-1734.8739862645
 20
698.2884649969
 30
0.0
  0
VERTEX
  5
8EC
  8
0
  6
CONTINUOUS
 62
     7
 10
-1733.4324112631
 20
698.9419583811
 30
0.0
  0
VERTEX
  5
8ED
  8
0
  6
CONTINUOUS
 62
     7
 10
-1732.2393604223
 20
699.7452416496
 30
0.0
  0
SEQEND
  5
8EE
  8
0
  6
CONTINUOUS
 62
     7
  0
ARC
  5
53C
  8
0
  6
CONTINUOUS
 62
     7
 10
-1734.522197375
 20
702.6801129214
 30
0.0
 40
3.975579561643855
 50
305.0446684928
 51
357.6927501877
  0
POLYLINE
  5
53D
  8
0
  6
CONTINUOUS
 62
     7
 66
     1
 10
0.0
 20
0.0
 30
0.0
  0
VERTEX
  5
8EF
  8
0
  6
CONTINUOUS
 62
     7
 10
-1749.2498442863
 20
702.5200661927
 30
0.0
  0
VERTEX
  5
8F0
  8
0
  6
CONTINUOUS
 62
     7
 10
-1749.1073774016
 20
701.5813634527
 30
0.0
  0
VERTEX
  5
8F1
  8
0
  6
CONTINUOUS
 62
     7
 10
-1748.6132266763
 20
700.5624236264
 30
0.0
  0
VERTEX
  5
8F2
  8
0
  6
CONTINUOUS
 62
     7
 10
-1747.7842297762
 20
699.6187087297
 30
0.0
  0
VERTEX
  5
8F3
  8
0
  6
CONTINUOUS
 62
     7
 10
-1746.6522286455
 20
698.7864839058
 30
0.0
  0
VERTEX
  5
8F4
  8
0
  6
CONTINUOUS
 62
     7
 10
-1745.2607504419
 20
698.0977503155
 30
0.0
  0
VERTEX
  5
8F5
  8
0
  6
CONTINUOUS
 62
     7
 10
-1743.6632584428
 20
697.5789677666
 30
0.0
  0
VERTEX
  5
8F6
  8
0
  6
CONTINUOUS
 62
     7
 10
-1741.9211289963
 20
697.2500571489
 30
0.0
  0
VERTEX
  5
8F7
  8
0
  6
CONTINUOUS
 62
     7
 10
-1740.101322908
 20
697.123676591
 30
0.0
  0
VERTEX
  5
8F8
  8
0
  6
CONTINUOUS
 62
     7
 10
-1738.273782873
 20
697.2046800992
 30
0.0
  0
VERTEX
  5
8F9
  8
0
  6
CONTINUOUS
 62
     7
 10
-1736.5087360776
 20
697.4899472408
 30
0.0
  0
VERTEX
  5
8FA
  8
0
  6
CONTINUOUS
 62
     7
 10
-1734.8739862645
 20
697.9685108819
 30
0.0
  0
VERTEX
  5
8FB
  8
0
  6
CONTINUOUS
 62
     7
 10
-1733.4324112631
 20
698.6220042661
 30
0.0
  0
VERTEX
  5
8FC
  8
0
  6
CONTINUOUS
 62
     7
 10
-1732.2393604223
 20
699.4252875346
 30
0.0
  0
SEQEND
  5
8FD
  8
0
  6
CONTINUOUS
 62
     7
  0
POLYLINE
  5
53E
  8
0
  6
CONTINUOUS
 62
     7
 66
     1
 10
0.0
 20
0.0
 30
0.0
  0
VERTEX
  5
8FE
  8
0
  6
CONTINUOUS
 62
     7
 10
-1220.4238424425
 20
395.319492928
 30
0.0
  0
VERTEX
  5
8FF
  8
0
  6
CONTINUOUS
 62
     7
 10
-1219.0069918361
 20
394.6482288936
 30
0.0
  0
VERTEX
  5
900
  8
0
  6
CONTINUOUS
 62
     7
 10
-1217.390502145
 20
394.1494402271
 30
0.0
  0
VERTEX
  5
901
  8
0
  6
CONTINUOUS
 62
     7
 10
-1215.636497824
 20
393.8422753134
 30
0.0
  0
VERTEX
  5
902
  8
0
  6
CONTINUOUS
 62
     7
 10
-1213.8124032939
 20
393.7385650323
 30
0.0
  0
VERTEX
  5
903
  8
0
  6
CONTINUOUS
 62
     7
 10
-1211.9883087637
 20
393.8422753134
 30
0.0
  0
VERTEX
  5
904
  8
0
  6
CONTINUOUS
 62
     7
 10
-1210.2343149794
 20
394.1494341443
 30
0.0
  0
VERTEX
  5
905
  8
0
  6
CONTINUOUS
 62
     7
 10
-1208.6178252883
 20
394.6482349763
 30
0.0
  0
VERTEX
  5
906
  8
0
  6
CONTINUOUS
 62
     7
 10
-1207.2009483401
 20
395.3194898867
 30
0.0
  0
VERTEX
  5
907
  8
0
  6
CONTINUOUS
 62
     7
 10
-1206.0381694733
 20
396.1374385798
 30
0.0
  0
VERTEX
  5
908
  8
0
  6
CONTINUOUS
 62
     7
 10
-1205.174132737
 20
397.0706151738
 30
0.0
  0
VERTEX
  5
909
  8
0
  6
CONTINUOUS
 62
     7
 10
-1204.6420603847
 20
398.0831742325
 30
0.0
  0
VERTEX
  5
90A
  8
0
  6
CONTINUOUS
 62
     7
 10
-1204.4624041746
 20
399.1362046318
 30
0.0
  0
VERTEX
  5
90B
  8
0
  6
CONTINUOUS
 62
     7
 10
-1204.6420603847
 20
400.1892289484
 30
0.0
  0
VERTEX
  5
90C
  8
0
  6
CONTINUOUS
 62
     7
 10
-1205.1741380054
 20
401.2017971312
 30
0.0
  0
VERTEX
  5
90D
  8
0
  6
CONTINUOUS
 62
     7
 10
-1206.0381642049
 20
402.1349737253
 30
0.0
  0
VERTEX
  5
90E
  8
0
  6
CONTINUOUS
 62
     7
 10
-1207.2009483401
 20
402.9529072115
 30
0.0
  0
VERTEX
  5
90F
  8
0
  6
CONTINUOUS
 62
     7
 10
-1208.6178252883
 20
403.62418037
 30
0.0
  0
VERTEX
  5
910
  8
0
  6
CONTINUOUS
 62
     7
 10
-1210.234309711
 20
404.122972078
 30
0.0
  0
VERTEX
  5
911
  8
0
  6
CONTINUOUS
 62
     7
 10
-1211.9883193004
 20
404.4301339502
 30
0.0
  0
VERTEX
  5
912
  8
0
  6
CONTINUOUS
 62
     7
 10
-1213.8124085622
 20
404.5338472727
 30
0.0
  0
VERTEX
  5
913
  8
0
  6
CONTINUOUS
 62
     7
 10
-1215.6365083607
 20
404.4301339502
 30
0.0
  0
VERTEX
  5
914
  8
0
  6
CONTINUOUS
 62
     7
 10
-1217.390502145
 20
404.1229751193
 30
0.0
  0
VERTEX
  5
915
  8
0
  6
CONTINUOUS
 62
     7
 10
-1219.0069865678
 20
403.6241773287
 30
0.0
  0
VERTEX
  5
916
  8
0
  6
CONTINUOUS
 62
     7
 10
-1220.4238477109
 20
402.9529072115
 30
0.0
  0
VERTEX
  5
917
  8
0
  6
CONTINUOUS
 62
     7
 10
-1221.5866423828
 20
402.1349737253
 30
0.0
  0
VERTEX
  5
918
  8
0
  6
CONTINUOUS
 62
     7
 10
-1222.4506843874
 20
401.2017940899
 30
0.0
  0
VERTEX
  5
919
  8
0
  6
CONTINUOUS
 62
     7
 10
-1222.9827567397
 20
400.1892350311
 30
0.0
  0
VERTEX
  5
91A
  8
0
  6
CONTINUOUS
 62
     7
 10
-1223.1624076815
 20
399.1362076732
 30
0.0
  0
VERTEX
  5
91B
  8
0
  6
CONTINUOUS
 62
     7
 10
-1222.9827567397
 20
398.0831803153
 30
0.0
  0
VERTEX
  5
91C
  8
0
  6
CONTINUOUS
 62
     7
 10
-1222.4506738507
 20
397.0706151738
 30
0.0
  0
VERTEX
  5
91D
  8
0
  6
CONTINUOUS
 62
     7
 10
-1221.5866529195
 20
396.1374355384
 30
0.0
  0
VERTEX
  5
91E
  8
0
  6
CONTINUOUS
 62
     7
 10
-1220.4238424425
 20
395.319492928
 30
0.0
  0
SEQEND
  5
91F
  8
0
  6
CONTINUOUS
 62
     7
  0
POLYLINE
  5
53F
  8
0
  6
CONTINUOUS
 62
     7
 66
     1
 10
0.0
 20
0.0
 30
0.0
  0
VERTEX
  5
920
  8
0
  6
CONTINUOUS
 62
     7
 10
-1220.4238424425
 20
394.999538813
 30
0.0
  0
VERTEX
  5
921
  8
0
  6
CONTINUOUS
 62
     7
 10
-1219.0069918361
 20
394.3282747786
 30
0.0
  0
VERTEX
  5
922
  8
0
  6
CONTINUOUS
 62
     7
 10
-1217.390502145
 20
393.8294861121
 30
0.0
  0
VERTEX
  5
923
  8
0
  6
CONTINUOUS
 62
     7
 10
-1215.636497824
 20
393.5223211984
 30
0.0
  0
VERTEX
  5
924
  8
0
  6
CONTINUOUS
 62
     7
 10
-1213.8124032939
 20
393.4186109173
 30
0.0
  0
VERTEX
  5
925
  8
0
  6
CONTINUOUS
 62
     7
 10
-1211.9883087637
 20
393.5223211984
 30
0.0
  0
VERTEX
  5
926
  8
0
  6
CONTINUOUS
 62
     7
 10
-1210.2343149794
 20
393.8294800294
 30
0.0
  0
VERTEX
  5
927
  8
0
  6
CONTINUOUS
 62
     7
 10
-1208.6178252883
 20
394.3282808613
 30
0.0
  0
VERTEX
  5
928
  8
0
  6
CONTINUOUS
 62
     7
 10
-1207.2009483401
 20
394.9995357717
 30
0.0
  0
VERTEX
  5
929
  8
0
  6
CONTINUOUS
 62
     7
 10
-1206.0381694733
 20
395.8174844648
 30
0.0
  0
VERTEX
  5
92A
  8
0
  6
CONTINUOUS
 62
     7
 10
-1205.174132737
 20
396.7506610588
 30
0.0
  0
VERTEX
  5
92B
  8
0
  6
CONTINUOUS
 62
     7
 10
-1204.6420603847
 20
397.7632201175
 30
0.0
  0
VERTEX
  5
92C
  8
0
  6
CONTINUOUS
 62
     7
 10
-1204.4624041746
 20
398.8162505168
 30
0.0
  0
SEQEND
  5
92D
  8
0
  6
CONTINUOUS
 62
     7
  0
ARC
  5
540
  8
0
  6
CONTINUOUS
 62
     7
 10
-1218.4831590666
 20
399.2828595828
 30
0.0
 40
4.702455611938511
 50
185.6946038789
 51
245.6257104602
  0
LINE
  5
541
  8
0
  6
CONTINUOUS
 62
     7
 10
-1246.7666237495
 20
-606.0081068297
 30
0.0
 11
-1241.3895709633
 21
-615.3214441683
 31
0.0
  0
LINE
  5
542
  8
0
  6
CONTINUOUS
 62
     7
 10
-1241.3895709633
 20
-615.3214441683
 30
0.0
 11
-1241.3895709633
 21
-615.7297146412
 31
0.0
  0
LINE
  5
543
  8
0
  6
CONTINUOUS
 62
     7
 10
-1241.3895709633
 20
-615.3214441683
 30
0.0
 11
-1240.6073781385
 21
-614.8698938621
 31
0.0
  0
ARC
  5
544
  8
0
  6
CONTINUOUS
 62
     7
 10
-1240.0963437951
 20
-615.939490058
 30
0.0
 40
1.310130617164008
 50
170.7862579987
 51
309.2031904868
  0
ARC
  5
545
  8
0
  6
CONTINUOUS
 62
     7
 10
-1239.6822963386
 20
-615.2223022835
 30
0.0
 40
0.655060493329075
 50
170.7852770012
 51
309.2036785844
  0
LINE
  5
546
  8
0
  6
CONTINUOUS
 62
     7
 10
-1238.914697482
 20
-615.52581182
 30
0.0
 11
-1238.914697482
 21
-616.7506230485
 31
0.0
  0
LINE
  5
547
  8
0
  6
CONTINUOUS
 62
     7
 10
-1239.2682463208
 20
-616.9547224487
 30
0.0
 11
-1238.914697482
 21
-616.7506230485
 31
0.0
  0
LINE
  5
548
  8
0
  6
CONTINUOUS
 62
     7
 10
-1800.6746471473
 20
678.2515200075
 30
0.0
 11
-1803.5394738077
 21
683.2255910559
 31
0.0
  0
LINE
  5
549
  8
0
  6
CONTINUOUS
 62
     7
 10
-1803.5394738077
 20
683.2255910559
 30
0.0
 11
-1803.3173177692
 21
683.353839007
 31
0.0
  0
ARC
  5
54A
  8
0
  6
CONTINUOUS
 62
     7
 10
-1802.2314886977
 20
685.5212310235
 30
0.0
 40
2.1781236693077
 50
126.9060879675
 51
185.2360657934
  0
POLYLINE
  5
54B
  8
0
  6
CONTINUOUS
 62
     7
 66
     1
 10
0.0
 20
0.0
 30
0.0
  0
VERTEX
  5
92E
  8
0
  6
CONTINUOUS
 62
     7
 10
-1804.4005233861
 20
685.3224566807
 30
0.0
  0
VERTEX
  5
92F
  8
0
  6
CONTINUOUS
 62
     7
 10
-1804.1235132242
 20
684.2315573974
 30
0.0
  0
VERTEX
  5
930
  8
0
  6
CONTINUOUS
 62
     7
 10
-1803.5394738077
 20
683.2255910559
 30
0.0
  0
SEQEND
  5
931
  8
0
  6
CONTINUOUS
 62
     7
  0
LINE
  5
54C
  8
0
  6
CONTINUOUS
 62
     7
 10
-1804.4005233861
 20
685.3224566807
 30
0.0
 11
-1803.7934612536
 21
685.3605953002
 31
0.0
  0
LINE
  5
54D
  8
0
  6
CONTINUOUS
 62
     7
 10
-1803.2829154041
 20
687.1148022059
 30
0.0
 11
-1803.539463271
 21
687.2629041371
 31
0.0
  0
LINE
  5
54E
  8
0
  6
CONTINUOUS
 62
     7
 10
-1803.539463271
 20
687.2629041371
 30
0.0
 11
-1803.1890543725
 21
687.6185975465
 31
0.0
  0
LINE
  5
54F
  8
0
  6
CONTINUOUS
 62
     7
 10
-1803.0002997114
 20
687.5096318001
 30
0.0
 11
-1803.1890543725
 21
687.6185975465
 31
0.0
  0
LINE
  5
550
  8
0
  6
CONTINUOUS
 62
     7
 10
-1802.1631368595
 20
688.2108471204
 30
0.0
 11
-1803.1890543725
 21
687.6185975465
 31
0.0
  0
ARC
  5
551
  8
0
  6
CONTINUOUS
 62
     7
 10
-1240.8627891103
 20
364.4460484166
 30
0.0
 40
4.805007710307517
 50
276.7269830275
 51
308.7682292714
  0
POLYLINE
  5
552
  8
0
  6
CONTINUOUS
 62
     7
 66
     1
 10
0.0
 20
0.0
 30
0.0
  0
VERTEX
  5
932
  8
0
  6
CONTINUOUS
 62
     7
 10
-1239.247446851
 20
-615.5818277205
 30
0.0
  0
VERTEX
  5
933
  8
0
  6
CONTINUOUS
 62
     7
 10
-1238.4971170437
 20
-615.4962834361
 30
0.0
  0
VERTEX
  5
934
  8
0
  6
CONTINUOUS
 62
     7
 10
-1237.8540298924
 20
-615.3014082523
 30
0.0
  0
SEQEND
  5
935
  8
0
  6
CONTINUOUS
 62
     7
  0
ARC
  5
553
  8
0
  6
CONTINUOUS
 62
     7
 10
-1236.9196419929
 20
-609.3668468068
 30
0.0
 40
6.63661534337296
 50
218.7329858072
 51
249.4666938083
  0
POLYLINE
  5
554
  8
0
  6
CONTINUOUS
 62
     7
 66
     1
 10
0.0
 20
0.0
 30
0.0
  0
VERTEX
  5
936
  8
0
  6
CONTINUOUS
 62
     7
 10
-1240.299937952
 20
359.6741203293
 30
0.0
  0
VERTEX
  5
937
  8
0
  6
CONTINUOUS
 62
     7
 10
-1241.2718653521
 20
359.3042173537
 30
0.0
  0
VERTEX
  5
938
  8
0
  6
CONTINUOUS
 62
     7
 10
-1242.0966686408
 20
359.1115585941
 30
0.0
  0
SEQEND
  5
939
  8
0
  6
CONTINUOUS
 62
     7
  0
LINE
  5
555
  8
0
  6
CONTINUOUS
 62
     7
 10
-1240.1376409751
 20
360.5349643246
 30
0.0
 11
-1240.299937952
 21
359.6741203293
 31
0.0
  0
ARC
  5
556
  8
0
  6
CONTINUOUS
 62
     7
 10
-1240.99428106
 20
363.2341679157
 30
0.0
 40
2.831877868338189
 50
287.6077579169
 51
317.2521435617
  0
LINE
  5
557
  8
0
  6
CONTINUOUS
 62
     7
 10
-1237.8540298924
 20
360.6996545418
 30
0.0
 11
-1238.914697482
 21
361.3119649079
 31
0.0
  0
LINE
  5
558
  8
0
  6
CONTINUOUS
 62
     7
 10
-1241.4505679898
 20
359.4845445607
 30
0.0
 11
-1242.0966686408
 21
359.1115585941
 31
0.0
  0
POLYLINE
  5
559
  8
0
  6
CONTINUOUS
 62
     7
 66
     1
 10
0.0
 20
0.0
 30
0.0
  0
VERTEX
  5
93A
  8
0
  6
CONTINUOUS
 62
     7
 10
-1240.1376409751
 20
360.5349643246
 30
0.0
  0
VERTEX
  5
93B
  8
0
  6
CONTINUOUS
 62
     7
 10
-1240.6236152119
 20
360.0851101505
 30
0.0
  0
VERTEX
  5
93C
  8
0
  6
CONTINUOUS
 62
     7
 10
-1240.7434070921
 20
359.98018873
 30
0.0
  0
SEQEND
  5
93D
  8
0
  6
CONTINUOUS
 62
     7
  0
LINE
  5
55A
  8
0
  6
CONTINUOUS
 62
     7
 10
-973.9617796256
 20
513.1948145935
 30
0.0
 11
-1237.5036209939
 21
361.0553479512
 31
0.0
  0
LINE
  5
55B
  8
0
  6
CONTINUOUS
 62
     7
 10
-974.2834022266
 20
-463.1654251399
 30
0.0
 11
-973.9617796256
 21
-462.9797563644
 31
0.0
  0
ARC
  5
55C
  8
0
  6
CONTINUOUS
 62
     7
 10
-1239.6908274048
 20
-611.3404995592
 30
0.0
 40
4.366076359441333
 50
294.8786329031
 51
300.0631816308
  0
LINE
  5
55D
  8
0
  6
CONTINUOUS
 62
     7
 10
-1237.5036209939
 20
361.0553479512
 30
0.0
 11
-1237.8540298924
 21
360.6996545418
 31
0.0
  0
LINE
  5
55E
  8
0
  6
CONTINUOUS
 62
     7
 10
-1238.5642885835
 20
361.6676583173
 30
0.0
 11
-1238.914697482
 21
361.3119649079
 31
0.0
  0
LINE
  5
55F
  8
0
  6
CONTINUOUS
 62
     7
 10
-1237.5036209939
 20
361.0553479512
 30
0.0
 11
-1238.5642885835
 21
361.6676583173
 31
0.0
  0
LINE
  5
560
  8
0
  6
CONTINUOUS
 62
     7
 10
-975.0224472152
 20
513.8071249596
 30
0.0
 11
-1238.5642885835
 21
361.6676583173
 31
0.0
  0
LINE
  5
561
  8
0
  6
CONTINUOUS
 62
     7
 10
-975.0224472152
 20
513.8071249596
 30
0.0
 11
-973.9617796256
 21
513.1948145935
 31
0.0
  0
LINE
  5
562
  8
0
  6
CONTINUOUS
 62
     7
 10
-1254.8245954226
 20
349.3260662238
 30
0.0
 11
-1255.5317141735
 21
349.8490401655
 31
0.0
  0
LINE
  5
563
  8
0
  6
CONTINUOUS
 62
     7
 10
-1255.5317141735
 20
349.8490401655
 30
0.0
 11
-1255.5317141735
 21
351.2965721534
 31
0.0
  0
LINE
  5
564
  8
0
  6
CONTINUOUS
 62
     7
 10
-1242.0966686408
 20
359.1115585941
 30
0.0
 11
-1245.6168998689
 21
357.0638674982
 31
0.0
  0
LINE
  5
565
  8
0
  6
CONTINUOUS
 62
     7
 10
-1253.779627534
 20
352.3157081617
 30
0.0
 11
-1255.5317141735
 21
351.2965721534
 31
0.0
  0
LINE
  5
566
  8
0
  6
CONTINUOUS
 62
     7
 10
-1246.5166086441
 20
-605.8637703272
 30
0.0
 11
-1242.0966686408
 21
-613.519322972
 31
0.0
  0
ARC
  5
567
  8
0
  6
CONTINUOUS
 62
     7
 10
-1256.2155850816
 20
346.3521813342
 30
0.0
 40
4.022620460867191
 50
80.2115087949
 51
98.1359645607
  0
POLYLINE
  5
568
  8
0
  6
CONTINUOUS
 62
     7
 66
     1
 10
0.0
 20
0.0
 30
0.0
  0
VERTEX
  5
93E
  8
0
  6
CONTINUOUS
 62
     7
 10
-973.086136701
 20
513.8496960556
 30
0.0
  0
VERTEX
  5
93F
  8
0
  6
CONTINUOUS
 62
     7
 10
-973.122699092
 20
513.6533358444
 30
0.0
  0
VERTEX
  5
940
  8
0
  6
CONTINUOUS
 62
     7
 10
-973.2863763782
 20
513.4690194078
 30
0.0
  0
VERTEX
  5
941
  8
0
  6
CONTINUOUS
 62
     7
 10
-973.5701300358
 20
513.3116128999
 30
0.0
  0
VERTEX
  5
942
  8
0
  6
CONTINUOUS
 62
     7
 10
-973.9617796256
 20
513.1948145935
 30
0.0
  0
SEQEND
  5
943
  8
0
  6
CONTINUOUS
 62
     7
  0
POLYLINE
  5
569
  8
0
  6
CONTINUOUS
 62
     7
 66
     1
 10
0.0
 20
0.0
 30
0.0
  0
VERTEX
  5
944
  8
0
  6
CONTINUOUS
 62
     7
 10
-974.5846257529
 20
513.8108153449
 30
0.0
  0
VERTEX
  5
945
  8
0
  6
CONTINUOUS
 62
     7
 10
-974.6847350548
 20
513.7823461112
 30
0.0
  0
VERTEX
  5
946
  8
0
  6
CONTINUOUS
 62
     7
 10
-975.0224472152
 20
513.8071249596
 30
0.0
  0
SEQEND
  5
947
  8
0
  6
CONTINUOUS
 62
     7
  0
LINE
  5
56A
  8
0
  6
CONTINUOUS
 62
     7
 10
-974.5846257529
 20
513.8108153449
 30
0.0
 11
-973.086136701
 21
513.8496960556
 31
0.0
  0
POLYLINE
  5
56B
  8
0
  6
CONTINUOUS
 62
     7
 66
     1
 10
0.0
 20
0.0
 30
0.0
  0
VERTEX
  5
948
  8
0
  6
CONTINUOUS
 62
     7
 10
-973.9617796256
 20
-462.9797563644
 30
0.0
  0
VERTEX
  5
949
  8
0
  6
CONTINUOUS
 62
     7
 10
-973.3114748265
 20
-462.4003840924
 30
0.0
  0
VERTEX
  5
94A
  8
0
  6
CONTINUOUS
 62
     7
 10
-973.0831126646
 20
-461.7201176459
 30
0.0
  0
SEQEND
  5
94B
  8
0
  6
CONTINUOUS
 62
     7
  0
POLYLINE
  5
56C
  8
0
  6
CONTINUOUS
 62
     7
 66
     1
 10
0.0
 20
0.0
 30
0.0
  0
VERTEX
  5
94C
  8
0
  6
CONTINUOUS
 62
     7
 10
-973.9617690889
 20
513.8418015947
 30
0.0
  0
VERTEX
  5
94D
  8
0
  6
CONTINUOUS
 62
     7
 10
-973.3379535841
 20
513.8931362199
 30
0.0
  0
VERTEX
  5
94E
  8
0
  6
CONTINUOUS
 62
     7
 10
-973.086136701
 20
513.8496960556
 30
0.0
  0
SEQEND
  5
94F
  8
0
  6
CONTINUOUS
 62
     7
  0
ARC
  5
56D
  8
0
  6
CONTINUOUS
 62
     7
 10
-976.1141440732
 20
-463.1249596697
 30
0.0
 40
1.831189002554633
 50
297.2950157064
 51
358.7337793129
  0
POLYLINE
  5
56E
  8
0
  6
CONTINUOUS
 62
     7
 66
     1
 10
0.0
 20
0.0
 30
0.0
  0
VERTEX
  5
950
  8
0
  6
CONTINUOUS
 62
     7
 10
-1238.0456716126
 20
-616.3567097882
 30
0.0
  0
VERTEX
  5
951
  8
0
  6
CONTINUOUS
 62
     7
 10
-1238.2077578552
 20
-616.1047120434
 30
0.0
  0
VERTEX
  5
952
  8
0
  6
CONTINUOUS
 62
     7
 10
-1238.4146883447
 20
-615.6455763167
 30
0.0
  0
SEQEND
  5
953
  8
0
  6
CONTINUOUS
 62
     7
  0
POLYLINE
  5
56F
  8
0
  6
CONTINUOUS
 62
     7
 66
     1
 10
0.0
 20
0.0
 30
0.0
  0
VERTEX
  5
954
  8
0
  6
CONTINUOUS
 62
     7
 10
-1237.5036209939
 20
-615.1192230067
 30
0.0
  0
VERTEX
  5
955
  8
0
  6
CONTINUOUS
 62
     7
 10
-1237.4568169186
 20
-615.6283498823
 30
0.0
  0
VERTEX
  5
956
  8
0
  6
CONTINUOUS
 62
     7
 10
-1237.5412897397
 20
-616.0223885517
 30
0.0
  0
VERTEX
  5
957
  8
0
  6
CONTINUOUS
 62
     7
 10
-1237.7443427191
 20
-616.2719022992
 30
0.0
  0
VERTEX
  5
958
  8
0
  6
CONTINUOUS
 62
     7
 10
-1238.0456716126
 20
-616.3567097882
 30
0.0
  0
SEQEND
  5
959
  8
0
  6
CONTINUOUS
 62
     7
  0
LINE
  5
570
  8
0
  6
CONTINUOUS
 62
     7
 10
-1238.4101364851
 20
-615.4699150486
 30
0.0
 11
-1238.0456716126
 21
-616.3567097882
 31
0.0
  0
LINE
  5
571
  8
0
  6
CONTINUOUS
 62
     7
 10
-1242.0935287005
 20
359.6264226846
 30
0.0
 11
-1241.6721023623
 21
360.0936529663
 31
0.0
  0
LINE
  5
572
  8
0
  6
CONTINUOUS
 62
     7
 10
-1803.8220052067
 20
684.6158842285
 30
0.0
 11
-1803.5426137479
 21
683.7440804441
 31
0.0
  0
ARC
  5
573
  8
0
  6
CONTINUOUS
 62
     7
 10
-1800.2311901738
 20
685.1535859262
 30
0.0
 40
3.630850550008579
 50
127.8964224592
 51
188.5163996909
  0
ARC
  5
574
  8
0
  6
CONTINUOUS
 62
     7
 10
-1235.2458167061
 20
356.0818674004
 30
0.0
 40
7.575722458060669
 50
119.116841496
 51
148.0243943707
  0
LINE
  5
575
  8
0
  6
CONTINUOUS
 62
     7
 10
-1238.9321041305
 20
361.4754202103
 30
0.0
 11
-1238.9321041305
 21
362.7002399939
 31
0.0
  0
ARC
  5
576
  8
0
  6
CONTINUOUS
 62
     7
 10
-1234.5914798439
 20
352.8510989669
 30
0.0
 40
9.655047182956594
 50
116.7161303315
 51
128.8425384226
  0
LINE
  5
577
  8
0
  6
CONTINUOUS
 62
     7
 10
-1240.6469540292
 20
360.3711500636
 30
0.0
 11
-1241.6721023623
 21
360.0936529663
 31
0.0
  0
LINE
  5
578
  8
0
  6
CONTINUOUS
 62
     7
 10
-1538.5865454146
 20
840.3705736064
 30
0.0
 11
-1802.1283867829
 21
688.2311069641
 31
0.0
  0
LINE
  5
579
  8
0
  6
CONTINUOUS
 62
     7
 10
-1238.5642885835
 20
362.892478101
 30
0.0
 11
-975.0224472152
 21
515.0319447433
 31
0.0
  0
ARC
  5
57A
  8
0
  6
CONTINUOUS
 62
     7
 10
-1241.0937677976
 20
367.2842186894
 30
0.0
 40
5.068101270742279
 50
295.2471263446
 51
299.940342161
  0
ARC
  5
57B
  8
0
  6
CONTINUOUS
 62
     7
 10
-1799.9490204902
 20
684.4459524144
 30
0.0
 40
4.367726227996965
 50
119.9319084283
 51
125.1144800956
  0
ARC
  5
57C
  8
0
  6
CONTINUOUS
 62
     7
 10
-1241.0937677976
 20
366.0593989057
 30
0.0
 40
5.068101270702061
 50
295.2471263445
 51
299.940342161
  0
LINE
  5
57D
  8
0
  6
CONTINUOUS
 62
     7
 10
-1242.0935287005
 20
359.6264226846
 30
0.0
 11
-1241.0328611109
 21
360.2387330507
 31
0.0
  0
LINE
  5
57E
  8
0
  6
CONTINUOUS
 62
     7
 10
-1240.8406293349
 20
360.3046951123
 30
0.0
 11
-1240.6469540292
 21
360.3711500636
 31
0.0
  0
LINE
  5
57F
  8
0
  6
CONTINUOUS
 62
     7
 10
-975.0224472152
 20
515.0319447433
 30
0.0
 11
-975.0224472152
 21
513.8071249596
 31
0.0
  0
LINE
  5
580
  8
0
  6
CONTINUOUS
 62
     7
 10
-1242.0935287005
 20
359.6264226846
 30
0.0
 11
-1245.8574319334
 21
357.4528855761
 31
0.0
  0
LINE
  5
581
  8
0
  6
CONTINUOUS
 62
     7
 10
-1254.0889432552
 20
352.6993661266
 30
0.0
 11
-1254.8214554824
 21
352.2763583511
 31
0.0
  0
LINE
  5
582
  8
0
  6
CONTINUOUS
 62
     7
 10
-1245.8573265663
 20
357.4527230367
 30
0.0
 11
-1241.443898251
 21
360.0013935575
 31
0.0
  0
LINE
  5
583
  8
0
  6
CONTINUOUS
 62
     7
 10
-1254.0888484248
 20
352.6992834032
 30
0.0
 11
-1254.8214554824
 21
352.2763583511
 31
0.0
  0
LINE
  5
584
  8
0
  6
CONTINUOUS
 62
     7
 10
-1800.2199247987
 20
677.9890143833
 30
0.0
 11
-1803.5426137479
 21
683.7440804441
 31
0.0
  0
LINE
  5
585
  8
0
  6
CONTINUOUS
 62
     7
 10
-1257.2566687792
 20
350.7136857103
 30
0.0
 11
-1256.9449085407
 21
350.8942110885
 31
0.0
  0
LINE
  5
586
  8
0
  6
CONTINUOUS
 62
     7
 10
-1256.9449085407
 20
350.8942110885
 30
0.0
 11
-1257.0072015828
 21
350.3464403038
 31
0.0
  0
ARC
  5
587
  8
0
  6
CONTINUOUS
 62
     7
 10
-1258.0808279026
 20
352.5201216925
 30
0.0
 40
1.983405679383561
 50
304.9395283945
 51
337.2224223556
  0
POLYLINE
  5
588
  8
0
  6
CONTINUOUS
 62
     7
 66
     1
 10
0.0
 20
0.0
 30
0.0
  0
VERTEX
  5
95A
  8
0
  6
CONTINUOUS
 62
     7
 10
-1256.2520986449
 20
351.7522366808
 30
0.0
  0
VERTEX
  5
95B
  8
0
  6
CONTINUOUS
 62
     7
 10
-1255.4494013783
 20
352.0185874555
 30
0.0
  0
VERTEX
  5
95C
  8
0
  6
CONTINUOUS
 62
     7
 10
-1254.8214554824
 20
352.2763583511
 30
0.0
  0
SEQEND
  5
95D
  8
0
  6
CONTINUOUS
 62
     7
  0
LINE
  5
589
  8
0
  6
CONTINUOUS
 62
     7
 10
-1255.558266688
 20
351.2263997008
 30
0.0
 11
-1256.2520986449
 21
351.7522366808
 31
0.0
  0
ARC
  5
58A
  8
0
  6
CONTINUOUS
 62
     7
 10
-1258.1896269118
 20
355.9332027601
 30
0.0
 40
5.361551048042912
 50
304.7690085494
 51
321.7223893544
  0
ARC
  5
58B
  8
0
  6
CONTINUOUS
 62
     7
 10
-1258.9989514124
 20
352.9128966379
 30
0.0
 40
3.831779130041436
 50
306.8127330396
 51
333.8874565172
  0
POLYLINE
  5
58C
  8
0
  6
CONTINUOUS
 62
     7
 66
     1
 10
0.0
 20
0.0
 30
0.0
  0
VERTEX
  5
95E
  8
0
  6
CONTINUOUS
 62
     7
 10
-973.9617690889
 20
514.4192180261
 30
0.0
  0
VERTEX
  5
95F
  8
0
  6
CONTINUOUS
 62
     7
 10
-973.8542840885
 20
515.0545921802
 30
0.0
  0
VERTEX
  5
960
  8
0
  6
CONTINUOUS
 62
     7
 10
-973.9937269368
 20
515.4421455304
 30
0.0
  0
VERTEX
  5
961
  8
0
  6
CONTINUOUS
 62
     7
 10
-974.3331460446
 20
515.516364348
 30
0.0
  0
VERTEX
  5
962
  8
0
  6
CONTINUOUS
 62
     7
 10
-974.8007337187
 20
515.2510515529
 30
0.0
  0
VERTEX
  5
963
  8
0
  6
CONTINUOUS
 62
     7
 10
-975.0224472152
 20
515.0319447433
 30
0.0
  0
SEQEND
  5
964
  8
0
  6
CONTINUOUS
 62
     7
  0
LINE
  5
58D
  8
0
  6
CONTINUOUS
 62
     7
 10
-974.9185868438
 20
513.8668588935
 30
0.0
 11
-973.9617690889
 21
514.4192180261
 31
0.0
  0
LINE
  5
58E
  8
0
  6
CONTINUOUS
 62
     7
 10
-974.8915074936
 20
514.0010632038
 30
0.0
 11
-974.8283715146
 21
514.09469108
 31
0.0
  0
POLYLINE
  5
58F
  8
0
  6
CONTINUOUS
 62
     7
 66
     1
 10
0.0
 20
0.0
 30
0.0
  0
VERTEX
  5
965
  8
0
  6
CONTINUOUS
 62
     7
 10
-974.8094791897
 20
514.1773570254
 30
0.0
  0
VERTEX
  5
966
  8
0
  6
CONTINUOUS
 62
     7
 10
-974.8070346725
 20
514.1880942579
 30
0.0
  0
VERTEX
  5
967
  8
0
  6
CONTINUOUS
 62
     7
 10
-974.8987567516
 20
514.0728978563
 30
0.0
  0
VERTEX
  5
968
  8
0
  6
CONTINUOUS
 62
     7
 10
-975.0224472152
 20
513.8071249596
 30
0.0
  0
SEQEND
  5
969
  8
0
  6
CONTINUOUS
 62
     7
  0
ARC
  5
590
  8
0
  6
CONTINUOUS
 62
     7
 10
-1537.7458125968
 20
838.4690070944
 30
0.0
 40
2.07913127779555
 50
55.6976200189
 51
113.8514884947
  0
LINE
  5
591
  8
0
  6
CONTINUOUS
 62
     7
 10
-974.7572697811
 20
513.9598602977
 30
0.0
 11
-973.9617690889
 21
514.4192180261
 31
0.0
  0
ENDSEC
  0
EOF
