  0
SECTION
  2
HEADER
  9
$ACADVER
  1
AC1009
  9
$DWGCODEPAGE
  3
ansi_1252
  9
$INSBASE
 10
0.0
 20
0.0
 30
0.0
  9
$EXTMIN
 10
0.0
 20
0.0
 30
0.0
  9
$EXTMAX
 10
297.0
 20
210.0
 30
0.0
  9
$LIMMIN
 10
0.0
 20
0.0
  9
$LIMMAX
 10
0.0
 20
0.0
  9
$ORTHOMODE
 70
     0
  9
$REGENMODE
 70
     1
  9
$FILLMODE
 70
     1
  9
$QTEXTMODE
 70
     0
  9
$MIRRTEXT
 70
     1
  9
$DRAGMODE
 70
     2
  9
$LTSCALE
 40
1.0
  9
$OSMODE
 70
    37
  9
$ATTMODE
 70
     1
  9
$TEXTSIZE
 40
3.5277777778
  9
$TRACEWID
 40
1.0
  9
$TEXTSTYLE
  7
STANDARD
  9
$CLAYER
  8
0
  9
$CELTYPE
  6
BYLAYER
  9
$CECOLOR
 62
   256
  9
$DIMSCALE
 40
1.0
  9
$DIMASZ
 40
1.8
  9
$DIMEXO
 40
0.7
  9
$DIMDLI
 40
3.75
  9
$DIMRND
 40
0.0
  9
$DIMDLE
 40
0.0
  9
$DIMEXE
 40
0.5
  9
$DIMTP
 40
0.0
  9
$DIMTM
 40
0.0
  9
$DIMTXT
 40
2.4694444444
  9
$DIMCEN
 40
2.5
  9
$DIMTSZ
 40
0.0
  9
$DIMTOL
 70
     0
  9
$DIMLIM
 70
     0
  9
$DIMTIH
 70
     1
  9
$DIMTOH
 70
     1
  9
$DIMSE1
 70
     0
  9
$DIMSE2
 70
     0
  9
$DIMTAD
 70
     1
  9
$DIMZIN
 70
     0
  9
$DIMBLK
  1

  9
$DIMASO
 70
     1
  9
$DIMSHO
 70
     1
  9
$DIMPOST
  1

  9
$DIMAPOST
  1

  9
$DIMALT
 70
     0
  9
$DIMALTD
 70
     3
  9
$DIMALTF
 40
0.0393700787
  9
$DIMLFAC
 40
1.0
  9
$DIMTOFL
 70
     1
  9
$DIMTVP
 40
0.0
  9
$DIMTIX
 70
     0
  9
$DIMSOXD
 70
     0
  9
$DIMSAH
 70
     0
  9
$DIMBLK1
  1

  9
$DIMBLK2
  1

  9
$DIMSTYLE
  2
ISO-25
  9
$DIMCLRD
 70
     0
  9
$DIMCLRE
 70
     0
  9
$DIMCLRT
 70
     0
  9
$DIMTFAC
 40
1.0
  9
$DIMGAP
 40
2.0
  9
$LUNITS
 70
     2
  9
$LUPREC
 70
     2
  9
$SKETCHINC
 40
1.0
  9
$FILLETRAD
 40
10.0
  9
$AUNITS
 70
     0
  9
$AUPREC
 70
     0
  9
$MENU
  1
.
  9
$ELEVATION
 40
0.0
  9
$PELEVATION
 40
0.0
  9
$THICKNESS
 40
0.0
  9
$LIMCHECK
 70
     0
  9
$CHAMFERA
 40
10.0
  9
$CHAMFERB
 40
10.0
  9
$SKPOLY
 70
     0
  9
$TDCREATE
 40
2455124.676205509
  9
$TDUPDATE
 40
2455124.676205521
  9
$TDINDWG
 40
0.0000000116
  9
$TDUSRTIMER
 40
0.0000000116
  9
$USRTIMER
 70
     1
  9
$ANGBASE
 50
0.0
  9
$ANGDIR
 70
     0
  9
$PDMODE
 70
     0
  9
$PDSIZE
 40
-1.0
  9
$PLINEWID
 40
0.0
  9
$COORDS
 70
     1
  9
$SPLFRAME
 70
     0
  9
$SPLINETYPE
 70
     6
  9
$SPLINESEGS
 70
     8
  9
$ATTDIA
 70
     0
  9
$ATTREQ
 70
     1
  9
$HANDLING
 70
     1
  9
$HANDSEED
  5
82
  9
$SURFTAB1
 70
     6
  9
$SURFTAB2
 70
     6
  9
$SURFTYPE
 70
     6
  9
$SURFU
 70
     6
  9
$SURFV
 70
     6
  9
$UCSNAME
  2

  9
$UCSORG
 10
0.0
 20
0.0
 30
0.0
  9
$UCSXDIR
 10
1.0
 20
0.0
 30
0.0
  9
$UCSYDIR
 10
0.0
 20
1.0
 30
0.0
  9
$PUCSNAME
  2

  9
$PUCSORG
 10
0.0
 20
0.0
 30
0.0
  9
$PUCSXDIR
 10
1.0
 20
0.0
 30
0.0
  9
$PUCSYDIR
 10
0.0
 20
1.0
 30
0.0
  9
$USERI1
 70
     0
  9
$USERI2
 70
     0
  9
$USERI3
 70
     0
  9
$USERI4
 70
     0
  9
$USERI5
 70
     0
  9
$USERR1
 40
0.0
  9
$USERR2
 40
0.0
  9
$USERR3
 40
0.0
  9
$USERR4
 40
0.0
  9
$USERR5
 40
0.0
  9
$WORLDVIEW
 70
     1
  9
$SHADEDGE
 70
     3
  9
$SHADEDIF
 70
    70
  9
$TILEMODE
 70
     1
  9
$MAXACTVP
 70
    64
  9
$PLIMCHECK
 70
     0
  9
$PEXTMIN
 10
1.0000000000E+20
 20
1.0000000000E+20
 30
1.0000000000E+20
  9
$PEXTMAX
 10
-1.0000000000E+20
 20
-1.0000000000E+20
 30
-1.0000000000E+20
  9
$PLIMMIN
 10
0.0
 20
0.0
  9
$PLIMMAX
 10
420.0
 20
297.0
  9
$UNITMODE
 70
     0
  9
$VISRETAIN
 70
     1
  9
$PLINEGEN
 70
     0
  9
$PSLTSCALE
 70
     1
  0
ENDSEC
  0
SECTION
  2
TABLES
  0
TABLE
  2
VPORT
 70
     1
  0
VPORT
  2
*ACTIVE
 70
     0
 10
0.0
 20
0.0
 11
1.0
 21
1.0
 12
148.5
 22
105.0
 13
0.0
 23
0.0
 14
10.0
 24
10.0
 15
10.0
 25
10.0
 16
0.0
 26
0.0
 36
1.0
 17
0.0
 27
0.0
 37
0.0
 40
210.0
 41
1.4142857143
 42
50.0
 43
0.0
 44
0.0
 50
0.0
 51
0.0
 71
     0
 72
  2000
 73
     1
 74
     3
 75
     0
 76
     0
 77
     0
 78
     0
  0
ENDTAB
  0
TABLE
  2
LTYPE
 70
     6
  0
LTYPE
  2
CONTINUOUS
 70
     0
  3
Solid line
 72
    65
 73
     0
 40
0.0
  0
LTYPE
  2
HIDDEN
 70
     0
  3
Hidden __ __ __ __ __ __ __ __ __ __ __ __ __ __
 72
    65
 73
     2
 40
1.905
 49
1.27
 49
-0.635
  0
LTYPE
  2
PHANTOM
 70
     0
  3
Phantom ______  __  __  ______  __  __  ______
 72
    65
 73
     6
 40
12.7
 49
6.35
 49
-1.27
 49
1.27
 49
-1.27
 49
1.27
 49
-1.27
  0
LTYPE
  2
CENTER
 70
     0
  3
Center ____ _ ____ _ ____ _ ____ _ ____ _ ____
 72
    65
 73
     4
 40
10.16
 49
6.35
 49
-1.27
 49
1.27
 49
-1.27
  0
LTYPE
  2
CENTERX2
 70
     0
  3
Center (2x) ________  __  ________  __  _____
 72
    65
 73
     4
 40
20.32
 49
12.7
 49
-2.54
 49
2.54
 49
-2.54
  0
LTYPE
  2
DOT2
 70
     0
  3
Dot (.5x) ........................................
 72
    65
 73
     2
 40
0.635
 49
0.0
 49
-0.635
  0
ENDTAB
  0
TABLE
  2
LAYER
 70
     5
  0
LAYER
  2
0
 70
     0
 62
     7
  6
CONTINUOUS
  0
LAYER
  2
SLD-0
 70
     0
 62
     7
  6
CONTINUOUS
  0
LAYER
  2
AM_BOR
 70
     0
 62
     7
  6
CONTINUOUS
  0
LAYER
  2
BIEGLINIE__ZU_
 70
     0
 62
     8
  6
CONTINUOUS
  0
LAYER
  2
BIEGELINIE__WEG_
 70
     0
 62
     8
  6
HIDDEN
  0
ENDTAB
  0
TABLE
  2
STYLE
 70
     1
  0
STYLE
  2
STANDARD
 70
     0
 40
0.0
 41
1.0
 50
0.0
 71
     0
 42
2.5
  3
txt
  4

  0
ENDTAB
  0
TABLE
  2
VIEW
 70
     0
  0
ENDTAB
  0
TABLE
  2
UCS
 70
     0
  0
ENDTAB
  0
TABLE
  2
APPID
 70
     1
  0
APPID
  2
ACAD
 70
     0
  0
ENDTAB
  0
TABLE
  2
DIMSTYLE
 70
     1
  0
DIMSTYLE
  2
ISO-25
 70
     0
  3

  4

  5

  6

  7

 40
1.0
 41
2.5
 42
0.625
 43
3.75
 44
1.25
 45
0.0
 46
0.0
 47
0.0
 48
0.0
140
2.5
141
2.5
142
0.0
143
0.0393700787
144
1.0
145
0.0
146
1.0
147
0.625
 71
     0
 72
     0
 73
     0
 74
     0
 75
     0
 76
     0
 77
     1
 78
     8
170
     0
171
     3
172
     1
173
     0
174
     0
175
     0
176
     0
177
     0
178
     0
  0
ENDTAB
  0
ENDSEC
  0
SECTION
  2
BLOCKS
  0
BLOCK
  8
0
  2
$MODEL_SPACE
 70
     0
 10
0.0
 20
0.0
 30
0.0
  3
$MODEL_SPACE
  1

  0
ENDBLK
  5
21
  8
0
  0
BLOCK
 67
     1
  8
0
  2
$PAPER_SPACE
 70
     0
 10
0.0
 20
0.0
 30
0.0
  3
$PAPER_SPACE
  1

  0
ENDBLK
  5
1D
 67
     1
  8
0
  0
ENDSEC
  0
SECTION
  2
ENTITIES
  0
TEXT
  5
33
  8
SLD-0
 10
298.4665505775
 20
-67.4322884755
 30
0.0
 40
19.05
  1
MP-7022
 41
0.7
 11
298.4665505775
 21
-72.8751456184
 31
0.0
 73
     1
  0
LINE
  5
34
  8
0
  6
CONTINUOUS
 62
     7
 10
373.7817952462
 20
162.2754924446
 30
0.0
 11
363.7817952462
 21
162.2754924446
 31
0.0
  0
ARC
  5
35
  8
0
  6
CONTINUOUS
 62
     7
 10
363.7817952462
 20
159.2754924446
 30
0.0
 40
3.0
 50
90.0
 51
270.0
  0
LINE
  5
36
  8
0
  6
CONTINUOUS
 62
     7
 10
363.7817952462
 20
156.2754924446
 30
0.0
 11
373.7817952462
 21
156.2754924446
 31
0.0
  0
LINE
  5
37
  8
0
  6
CONTINUOUS
 62
     7
 10
373.7817952462
 20
112.2754924446
 30
0.0
 11
363.7817952462
 21
112.2754924446
 31
0.0
  0
ARC
  5
38
  8
0
  6
CONTINUOUS
 62
     7
 10
363.7817952462
 20
109.2754924446
 30
0.0
 40
3.000000000000014
 50
90.0
 51
270.0
  0
LINE
  5
39
  8
0
  6
CONTINUOUS
 62
     7
 10
363.7817952462
 20
106.2754924446
 30
0.0
 11
373.7817952462
 21
106.2754924446
 31
0.0
  0
LINE
  5
3A
  8
0
  6
CONTINUOUS
 62
     7
 10
363.7817952462
 20
62.2754924446
 30
0.0
 11
373.7817952462
 21
62.2754924446
 31
0.0
  0
ARC
  5
3B
  8
0
  6
CONTINUOUS
 62
     7
 10
363.7817952462
 20
59.2754924446
 30
0.0
 40
3.000000000000007
 50
90.0
 51
270.0
  0
LINE
  5
3C
  8
0
  6
CONTINUOUS
 62
     7
 10
373.7817952462
 20
56.2754924446
 30
0.0
 11
363.7817952462
 21
56.2754924446
 31
0.0
  0
LINE
  5
3D
  8
0
  6
CONTINUOUS
 62
     7
 10
-106.2182047538
 20
56.2754924446
 30
0.0
 11
-96.2182047538
 21
56.2754924446
 31
0.0
  0
ARC
  5
3E
  8
0
  6
CONTINUOUS
 62
     7
 10
-96.2182047538
 20
59.2754924446
 30
0.0
 40
3.000000000000007
 50
270.0
 51
90.0
  0
LINE
  5
3F
  8
0
  6
CONTINUOUS
 62
     7
 10
-96.2182047538
 20
62.2754924446
 30
0.0
 11
-106.2182047538
 21
62.2754924446
 31
0.0
  0
LINE
  5
40
  8
0
  6
CONTINUOUS
 62
     7
 10
-96.2182047538
 20
106.2754924446
 30
0.0
 11
-106.2182047538
 21
106.2754924446
 31
0.0
  0
ARC
  5
41
  8
0
  6
CONTINUOUS
 62
     7
 10
-96.2182047538
 20
109.2754924446
 30
0.0
 40
3.000000000000014
 50
270.0
 51
90.0
  0
LINE
  5
42
  8
0
  6
CONTINUOUS
 62
     7
 10
-106.2182047538
 20
112.2754924446
 30
0.0
 11
-96.2182047538
 21
112.2754924446
 31
0.0
  0
LINE
  5
43
  8
0
  6
CONTINUOUS
 62
     7
 10
-96.2182047538
 20
156.2754924446
 30
0.0
 11
-106.2182047538
 21
156.2754924446
 31
0.0
  0
ARC
  5
44
  8
0
  6
CONTINUOUS
 62
     7
 10
-96.2182047538
 20
159.2754924446
 30
0.0
 40
3.0
 50
270.0
 51
90.0
  0
LINE
  5
45
  8
0
  6
CONTINUOUS
 62
     7
 10
-106.2182047538
 20
162.2754924446
 30
0.0
 11
-96.2182047538
 21
162.2754924446
 31
0.0
  0
CIRCLE
  5
46
  8
0
  6
CONTINUOUS
 62
     7
 10
-76.2182047538
 20
-17.2245075554
 30
0.0
 40
3.0
  0
CIRCLE
  5
47
  8
0
  6
CONTINUOUS
 62
     7
 10
343.7817952462
 20
-17.2245075554
 30
0.0
 40
3.0
  0
CIRCLE
  5
48
  8
0
  6
CONTINUOUS
 62
     7
 10
343.7817952462
 20
235.7754924446
 30
0.0
 40
3.0
  0
CIRCLE
  5
49
  8
0
  6
CONTINUOUS
 62
     7
 10
-76.2182047538
 20
235.7754924446
 30
0.0
 40
3.000000000000014
  0
LINE
  5
4A
  8
0
  6
CONTINUOUS
 62
     7
 10
-106.2182047538
 20
56.2754924446
 30
0.0
 11
-106.2182047538
 21
1.059763692
 31
0.0
  0
LINE
  5
4B
  8
0
  6
CONTINUOUS
 62
     7
 10
-106.2182047538
 20
217.4912211971
 30
0.0
 11
-106.2182047538
 21
162.2754924446
 31
0.0
  0
LINE
  5
4C
  8
0
  6
CONTINUOUS
 62
     7
 10
373.7817952462
 20
112.2754924446
 30
0.0
 11
373.7817952462
 21
156.2754924446
 31
0.0
  0
LINE
  5
4D
  8
0
  6
CONTINUOUS
 62
     7
 10
373.7817952462
 20
1.059763692
 30
0.0
 11
373.7817952462
 21
56.2754924446
 31
0.0
  0
LINE
  5
4E
  8
0
  6
CONTINUOUS
 62
     7
 10
-106.2182047538
 20
106.2754924446
 30
0.0
 11
-106.2182047538
 21
62.2754924446
 31
0.0
  0
LINE
  5
4F
  8
0
  6
CONTINUOUS
 62
     7
 10
-106.2182047538
 20
156.2754924446
 30
0.0
 11
-106.2182047538
 21
112.2754924446
 31
0.0
  0
LINE
  5
50
  8
0
  6
CONTINUOUS
 62
     7
 10
373.7817952462
 20
62.2754924446
 30
0.0
 11
373.7817952462
 21
106.2754924446
 31
0.0
  0
LINE
  5
51
  8
0
  6
CONTINUOUS
 62
     7
 10
-77.9339335063
 20
-27.2245075554
 30
0.0
 11
345.4975239987
 21
-27.2245075554
 31
0.0
  0
LINE
  5
52
  8
0
  6
CONTINUOUS
 62
     7
 10
345.4975239987
 20
245.7754924446
 30
0.0
 11
-77.9339335063
 21
245.7754924446
 31
0.0
  0
LINE
  5
53
  8
0
  6
CONTINUOUS
 62
     7
 10
373.7817952462
 20
162.2754924446
 30
0.0
 11
373.7817952462
 21
217.4912211971
 31
0.0
  0
ARC
  5
54
  8
0
  6
CONTINUOUS
 62
     7
 10
345.4975239987
 20
235.7754924446
 30
0.0
 40
10.00000000000003
 50
19.4712206345
 51
90.0
  0
ARC
  5
55
  8
0
  6
CONTINUOUS
 62
     7
 10
373.7817952462
 20
245.7754924446
 30
0.0
 40
20.00000000000001
 50
199.4712206345
 51
250.5287793655
  0
ARC
  5
56
  8
0
  6
CONTINUOUS
 62
     7
 10
363.7817952462
 20
217.4912211971
 30
0.0
 40
10.00000000000002
 50
0.0000000006
 51
70.5287793655
  0
ARC
  5
57
  8
0
  6
CONTINUOUS
 62
     7
 10
363.7817952462
 20
1.059763692
 30
0.0
 40
10.0
 50
289.4712206345
 51
0.0
  0
ARC
  5
58
  8
0
  6
CONTINUOUS
 62
     7
 10
373.7817952462
 20
-27.2245075554
 30
0.0
 40
20.0
 50
109.4712206345
 51
160.5287793655
  0
ARC
  5
59
  8
0
  6
CONTINUOUS
 62
     7
 10
345.4975239987
 20
-17.2245075554
 30
0.0
 40
10.00000000000001
 50
270.0
 51
340.5287793655
  0
ARC
  5
5A
  8
0
  6
CONTINUOUS
 62
     7
 10
-77.9339335063
 20
-17.2245075554
 30
0.0
 40
10.00000000000002
 50
199.4712206345
 51
270.0
  0
ARC
  5
5B
  8
0
  6
CONTINUOUS
 62
     7
 10
-106.2182047538
 20
-27.2245075554
 30
0.0
 40
19.99999999999999
 50
19.4712206345
 51
70.5287793655
  0
ARC
  5
5C
  8
0
  6
CONTINUOUS
 62
     7
 10
-96.2182047538
 20
1.059763692
 30
0.0
 40
10.00000000000001
 50
180.0
 51
250.5287793655
  0
ARC
  5
5D
  8
0
  6
CONTINUOUS
 62
     7
 10
-96.2182047538
 20
217.4912211971
 30
0.0
 40
10.00000000000002
 50
109.4712206345
 51
180.0
  0
ARC
  5
5E
  8
0
  6
CONTINUOUS
 62
     7
 10
-106.2182047538
 20
245.7754924446
 30
0.0
 40
20.0
 50
289.4712206345
 51
340.5287793655
  0
ARC
  5
5F
  8
0
  6
CONTINUOUS
 62
     7
 10
-77.9339335063
 20
235.7754924446
 30
0.0
 40
10.00000000000003
 50
90.0
 51
160.5287793655
  0
LINE
  5
60
  8
0
  6
CONTINUOUS
 62
     7
 10
399.4555510922
 20
162.2754924446
 30
0.0
 11
396.9555510922
 21
162.2754924446
 31
0.0
  0
LINE
  5
61
  8
0
  6
CONTINUOUS
 62
     7
 10
396.9555510922
 20
217.4912211971
 30
0.0
 11
396.9555510922
 21
162.2754924446
 31
0.0
  0
LINE
  5
62
  8
0
  6
CONTINUOUS
 62
     7
 10
399.4555510924
 20
217.4912211971
 30
0.0
 11
399.4555510922
 21
162.2754924446
 31
0.0
  0
LINE
  5
63
  8
0
  6
CONTINUOUS
 62
     7
 10
396.9555510922
 20
156.2754924446
 30
0.0
 11
399.4555510922
 21
156.2754924446
 31
0.0
  0
LINE
  5
64
  8
0
  6
CONTINUOUS
 62
     7
 10
399.4555510922
 20
112.2754924446
 30
0.0
 11
396.9555510922
 21
112.2754924446
 31
0.0
  0
LINE
  5
65
  8
0
  6
CONTINUOUS
 62
     7
 10
396.9555510922
 20
156.2754924446
 30
0.0
 11
396.9555510922
 21
112.2754924446
 31
0.0
  0
LINE
  5
66
  8
0
  6
CONTINUOUS
 62
     7
 10
399.4555510922
 20
156.2754924446
 30
0.0
 11
399.4555510922
 21
112.2754924446
 31
0.0
  0
LINE
  5
67
  8
0
  6
CONTINUOUS
 62
     7
 10
396.9555510922
 20
106.2754924446
 30
0.0
 11
399.4555510922
 21
106.2754924446
 31
0.0
  0
LINE
  5
68
  8
0
  6
CONTINUOUS
 62
     7
 10
396.9555510922
 20
62.2754924446
 30
0.0
 11
399.4555510922
 21
62.2754924446
 31
0.0
  0
LINE
  5
69
  8
0
  6
CONTINUOUS
 62
     7
 10
396.9555510922
 20
106.2754924446
 30
0.0
 11
396.9555510922
 21
62.2754924446
 31
0.0
  0
LINE
  5
6A
  8
0
  6
CONTINUOUS
 62
     7
 10
399.4555510922
 20
106.2754924446
 30
0.0
 11
399.4555510922
 21
62.2754924446
 31
0.0
  0
LINE
  5
6B
  8
0
  6
CONTINUOUS
 62
     7
 10
396.9555510922
 20
226.9193116129
 30
0.0
 11
396.9555510922
 21
217.4912211971
 31
0.0
  0
LINE
  5
6C
  8
0
  6
CONTINUOUS
 62
     7
 10
399.4555510924
 20
217.4912211971
 30
0.0
 11
399.4555510924
 21
226.9193116129
 31
0.0
  0
LINE
  5
6D
  8
0
  6
CONTINUOUS
 62
     7
 10
396.9555510922
 20
-8.3683267238
 30
0.0
 11
396.9555510922
 21
1.059763692
 31
0.0
  0
LINE
  5
6E
  8
0
  6
CONTINUOUS
 62
     7
 10
399.4555510924
 20
1.059763692
 30
0.0
 11
399.4555510924
 21
-8.3683267238
 31
0.0
  0
LINE
  5
6F
  8
0
  6
CONTINUOUS
 62
     7
 10
399.4555510922
 20
56.2754924446
 30
0.0
 11
396.9555510922
 21
56.2754924446
 31
0.0
  0
LINE
  5
70
  8
0
  6
CONTINUOUS
 62
     7
 10
396.9555510922
 20
56.2754924446
 30
0.0
 11
396.9555510922
 21
1.059763692
 31
0.0
  0
LINE
  5
71
  8
0
  6
CONTINUOUS
 62
     7
 10
399.4555510922
 20
56.2754924446
 30
0.0
 11
399.4555510924
 21
1.059763692
 31
0.0
  0
LINE
  5
72
  8
0
  6
CONTINUOUS
 62
     7
 10
396.9555510922
 20
-20.5578408888
 30
0.0
 11
396.9555510922
 21
-8.3683267238
 31
0.0
  0
LINE
  5
73
  8
0
  6
CONTINUOUS
 62
     7
 10
399.4555510924
 20
-8.3683267238
 30
0.0
 11
399.4555510924
 21
-20.5578408888
 31
0.0
  0
LINE
  5
74
  8
0
  6
CONTINUOUS
 62
     7
 10
396.9555510922
 20
239.1088257779
 30
0.0
 11
396.9555510922
 21
226.9193116129
 31
0.0
  0
LINE
  5
75
  8
0
  6
CONTINUOUS
 62
     7
 10
399.4555510924
 20
226.9193116129
 30
0.0
 11
399.4555510924
 21
239.1088257779
 31
0.0
  0
LINE
  5
76
  8
0
  6
CONTINUOUS
 62
     7
 10
396.9555510922
 20
112.2754924446
 30
0.0
 11
396.9555510922
 21
106.2754924446
 31
0.0
  0
LINE
  5
77
  8
0
  6
CONTINUOUS
 62
     7
 10
399.4555510922
 20
112.2754924446
 30
0.0
 11
399.4555510922
 21
106.2754924446
 31
0.0
  0
LINE
  5
78
  8
0
  6
CONTINUOUS
 62
     7
 10
396.9555510922
 20
56.2754924446
 30
0.0
 11
396.9555510922
 21
62.2754924446
 31
0.0
  0
LINE
  5
79
  8
0
  6
CONTINUOUS
 62
     7
 10
399.4555510922
 20
56.2754924446
 30
0.0
 11
399.4555510922
 21
62.2754924446
 31
0.0
  0
LINE
  5
7A
  8
0
  6
CONTINUOUS
 62
     7
 10
396.9555510922
 20
162.2754924446
 30
0.0
 11
396.9555510922
 21
156.2754924446
 31
0.0
  0
LINE
  5
7B
  8
0
  6
CONTINUOUS
 62
     7
 10
399.4555510922
 20
162.2754924446
 30
0.0
 11
399.4555510922
 21
156.2754924446
 31
0.0
  0
LINE
  5
7C
  8
0
  6
CONTINUOUS
 62
     7
 10
396.9555510922
 20
245.7754924446
 30
0.0
 11
399.4555510922
 21
245.7754924446
 31
0.0
  0
LINE
  5
7D
  8
0
  6
CONTINUOUS
 62
     7
 10
396.9555510922
 20
245.7754924446
 30
0.0
 11
396.9555510922
 21
239.1088257779
 31
0.0
  0
LINE
  5
7E
  8
0
  6
CONTINUOUS
 62
     7
 10
399.4555510924
 20
239.1088257779
 30
0.0
 11
399.4555510922
 21
245.7754924446
 31
0.0
  0
LINE
  5
7F
  8
0
  6
CONTINUOUS
 62
     7
 10
396.9555510922
 20
-27.2245075554
 30
0.0
 11
399.4555510924
 21
-27.2245075554
 31
0.0
  0
LINE
  5
80
  8
0
  6
CONTINUOUS
 62
     7
 10
396.9555510922
 20
-27.2245075554
 30
0.0
 11
396.9555510922
 21
-20.5578408888
 31
0.0
  0
LINE
  5
81
  8
0
  6
CONTINUOUS
 62
     7
 10
399.4555510924
 20
-20.5578408888
 30
0.0
 11
399.4555510924
 21
-27.2245075554
 31
0.0
  0
ENDSEC
  0
EOF
