  0
SECTION
  2
HEADER
  9
$ACADVER
  1
AC1009
  9
$DWGCODEPAGE
  3
ansi_1252
  9
$INSBASE
 10
0.0
 20
0.0
 30
0.0
  9
$EXTMIN
 10
0.0
 20
0.0
 30
0.0
  9
$EXTMAX
 10
297.0
 20
210.0
 30
0.0
  9
$LIMMIN
 10
0.0
 20
0.0
  9
$LIMMAX
 10
0.0
 20
0.0
  9
$ORTHOMODE
 70
     0
  9
$REGENMODE
 70
     1
  9
$FILLMODE
 70
     1
  9
$QTEXTMODE
 70
     0
  9
$MIRRTEXT
 70
     1
  9
$DRAGMODE
 70
     2
  9
$LTSCALE
 40
1.0
  9
$OSMODE
 70
    37
  9
$ATTMODE
 70
     1
  9
$TEXTSIZE
 40
3.5277777778
  9
$TRACEWID
 40
1.0
  9
$TEXTSTYLE
  7
STANDARD
  9
$CLAYER
  8
0
  9
$CELTYPE
  6
BYLAYER
  9
$CECOLOR
 62
   256
  9
$DIMSCALE
 40
1.0
  9
$DIMASZ
 40
1.8
  9
$DIMEXO
 40
0.7
  9
$DIMDLI
 40
3.75
  9
$DIMRND
 40
0.0
  9
$DIMDLE
 40
0.0
  9
$DIMEXE
 40
0.5
  9
$DIMTP
 40
0.0
  9
$DIMTM
 40
0.0
  9
$DIMTXT
 40
2.4694444444
  9
$DIMCEN
 40
2.5
  9
$DIMTSZ
 40
0.0
  9
$DIMTOL
 70
     0
  9
$DIMLIM
 70
     0
  9
$DIMTIH
 70
     1
  9
$DIMTOH
 70
     1
  9
$DIMSE1
 70
     0
  9
$DIMSE2
 70
     0
  9
$DIMTAD
 70
     1
  9
$DIMZIN
 70
     0
  9
$DIMBLK
  1

  9
$DIMASO
 70
     1
  9
$DIMSHO
 70
     1
  9
$DIMPOST
  1

  9
$DIMAPOST
  1

  9
$DIMALT
 70
     0
  9
$DIMALTD
 70
     3
  9
$DIMALTF
 40
0.0393700787
  9
$DIMLFAC
 40
1.0
  9
$DIMTOFL
 70
     1
  9
$DIMTVP
 40
0.0
  9
$DIMTIX
 70
     0
  9
$DIMSOXD
 70
     0
  9
$DIMSAH
 70
     0
  9
$DIMBLK1
  1

  9
$DIMBLK2
  1

  9
$DIMSTYLE
  2
ISO-25
  9
$DIMCLRD
 70
     0
  9
$DIMCLRE
 70
     0
  9
$DIMCLRT
 70
     0
  9
$DIMTFAC
 40
1.0
  9
$DIMGAP
 40
2.0
  9
$LUNITS
 70
     2
  9
$LUPREC
 70
     2
  9
$SKETCHINC
 40
1.0
  9
$FILLETRAD
 40
10.0
  9
$AUNITS
 70
     0
  9
$AUPREC
 70
     0
  9
$MENU
  1
.
  9
$ELEVATION
 40
0.0
  9
$PELEVATION
 40
0.0
  9
$THICKNESS
 40
0.0
  9
$LIMCHECK
 70
     0
  9
$CHAMFERA
 40
10.0
  9
$CHAMFERB
 40
10.0
  9
$SKPOLY
 70
     0
  9
$TDCREATE
 40
2455110.325596065
  9
$TDUPDATE
 40
2455110.325596076
  9
$TDINDWG
 40
0.0000000116
  9
$TDUSRTIMER
 40
0.0000000116
  9
$USRTIMER
 70
     1
  9
$ANGBASE
 50
0.0
  9
$ANGDIR
 70
     0
  9
$PDMODE
 70
     0
  9
$PDSIZE
 40
-1.0
  9
$PLINEWID
 40
0.0
  9
$COORDS
 70
     1
  9
$SPLFRAME
 70
     0
  9
$SPLINETYPE
 70
     6
  9
$SPLINESEGS
 70
     8
  9
$ATTDIA
 70
     0
  9
$ATTREQ
 70
     1
  9
$HANDLING
 70
     1
  9
$HANDSEED
  5
390
  9
$SURFTAB1
 70
     6
  9
$SURFTAB2
 70
     6
  9
$SURFTYPE
 70
     6
  9
$SURFU
 70
     6
  9
$SURFV
 70
     6
  9
$UCSNAME
  2

  9
$UCSORG
 10
0.0
 20
0.0
 30
0.0
  9
$UCSXDIR
 10
1.0
 20
0.0
 30
0.0
  9
$UCSYDIR
 10
0.0
 20
1.0
 30
0.0
  9
$PUCSNAME
  2

  9
$PUCSORG
 10
0.0
 20
0.0
 30
0.0
  9
$PUCSXDIR
 10
1.0
 20
0.0
 30
0.0
  9
$PUCSYDIR
 10
0.0
 20
1.0
 30
0.0
  9
$USERI1
 70
     0
  9
$USERI2
 70
     0
  9
$USERI3
 70
     0
  9
$USERI4
 70
     0
  9
$USERI5
 70
     0
  9
$USERR1
 40
0.0
  9
$USERR2
 40
0.0
  9
$USERR3
 40
0.0
  9
$USERR4
 40
0.0
  9
$USERR5
 40
0.0
  9
$WORLDVIEW
 70
     1
  9
$SHADEDGE
 70
     3
  9
$SHADEDIF
 70
    70
  9
$TILEMODE
 70
     1
  9
$MAXACTVP
 70
    64
  9
$PLIMCHECK
 70
     0
  9
$PEXTMIN
 10
1.0000000000E+20
 20
1.0000000000E+20
 30
1.0000000000E+20
  9
$PEXTMAX
 10
-1.0000000000E+20
 20
-1.0000000000E+20
 30
-1.0000000000E+20
  9
$PLIMMIN
 10
0.0
 20
0.0
  9
$PLIMMAX
 10
420.0
 20
297.0
  9
$UNITMODE
 70
     0
  9
$VISRETAIN
 70
     1
  9
$PLINEGEN
 70
     0
  9
$PSLTSCALE
 70
     1
  0
ENDSEC
  0
SECTION
  2
TABLES
  0
TABLE
  2
VPORT
 70
     1
  0
VPORT
  2
*ACTIVE
 70
     0
 10
0.0
 20
0.0
 11
1.0
 21
1.0
 12
148.5
 22
105.0
 13
0.0
 23
0.0
 14
10.0
 24
10.0
 15
10.0
 25
10.0
 16
0.0
 26
0.0
 36
1.0
 17
0.0
 27
0.0
 37
0.0
 40
210.0
 41
1.4142857143
 42
50.0
 43
0.0
 44
0.0
 50
0.0
 51
0.0
 71
     0
 72
  2000
 73
     1
 74
     3
 75
     0
 76
     0
 77
     0
 78
     0
  0
ENDTAB
  0
TABLE
  2
LTYPE
 70
     6
  0
LTYPE
  2
CONTINUOUS
 70
     0
  3
Solid line
 72
    65
 73
     0
 40
0.0
  0
LTYPE
  2
HIDDEN
 70
     0
  3
Hidden __ __ __ __ __ __ __ __ __ __ __ __ __ __
 72
    65
 73
     2
 40
1.905
 49
1.27
 49
-0.635
  0
LTYPE
  2
PHANTOM
 70
     0
  3
Phantom ______  __  __  ______  __  __  ______
 72
    65
 73
     6
 40
12.7
 49
6.35
 49
-1.27
 49
1.27
 49
-1.27
 49
1.27
 49
-1.27
  0
LTYPE
  2
CENTER
 70
     0
  3
Center ____ _ ____ _ ____ _ ____ _ ____ _ ____
 72
    65
 73
     4
 40
10.16
 49
6.35
 49
-1.27
 49
1.27
 49
-1.27
  0
LTYPE
  2
CENTERX2
 70
     0
  3
Center (2x) ________  __  ________  __  _____
 72
    65
 73
     4
 40
20.32
 49
12.7
 49
-2.54
 49
2.54
 49
-2.54
  0
LTYPE
  2
DOT2
 70
     0
  3
Dot (.5x) ........................................
 72
    65
 73
     2
 40
0.635
 49
0.0
 49
-0.635
  0
ENDTAB
  0
TABLE
  2
LAYER
 70
     5
  0
LAYER
  2
0
 70
     0
 62
     7
  6
CONTINUOUS
  0
LAYER
  2
SLD-0
 70
     0
 62
     7
  6
CONTINUOUS
  0
LAYER
  2
AM_BOR
 70
     0
 62
     7
  6
CONTINUOUS
  0
LAYER
  2
BIEGLINIE__ZU_
 70
     0
 62
     8
  6
CONTINUOUS
  0
LAYER
  2
BIEGELINIE__WEG_
 70
     0
 62
     8
  6
HIDDEN
  0
ENDTAB
  0
TABLE
  2
STYLE
 70
     1
  0
STYLE
  2
STANDARD
 70
     0
 40
0.0
 41
1.0
 50
0.0
 71
     0
 42
2.5
  3
txt
  4

  0
ENDTAB
  0
TABLE
  2
VIEW
 70
     0
  0
ENDTAB
  0
TABLE
  2
UCS
 70
     0
  0
ENDTAB
  0
TABLE
  2
APPID
 70
     1
  0
APPID
  2
ACAD
 70
     0
  0
ENDTAB
  0
TABLE
  2
DIMSTYLE
 70
     1
  0
DIMSTYLE
  2
ISO-25
 70
     0
  3

  4

  5

  6

  7

 40
1.0
 41
2.5
 42
0.625
 43
3.75
 44
1.25
 45
0.0
 46
0.0
 47
0.0
 48
0.0
140
2.5
141
2.5
142
0.0
143
0.0393700787
144
1.0
145
0.0
146
1.0
147
0.625
 71
     0
 72
     0
 73
     0
 74
     0
 75
     0
 76
     0
 77
     1
 78
     8
170
     0
171
     3
172
     1
173
     0
174
     0
175
     0
176
     0
177
     0
178
     0
  0
ENDTAB
  0
ENDSEC
  0
SECTION
  2
BLOCKS
  0
BLOCK
  8
0
  2
$MODEL_SPACE
 70
     0
 10
0.0
 20
0.0
 30
0.0
  3
$MODEL_SPACE
  1

  0
ENDBLK
  5
21
  8
0
  0
BLOCK
 67
     1
  8
0
  2
$PAPER_SPACE
 70
     0
 10
0.0
 20
0.0
 30
0.0
  3
$PAPER_SPACE
  1

  0
ENDBLK
  5
1D
 67
     1
  8
0
  0
ENDSEC
  0
SECTION
  2
ENTITIES
  0
TEXT
  5
33
  8
SLD-0
 10
580.4215191887
 20
-922.7666145783
 30
0.0
 40
19.05
  1
RS/GA  BxH 600 x 1800
 41
0.6166666667
 11
580.4215191887
 21
-928.2094717212
 31
0.0
 73
     1
  0
ARC
  5
34
  8
0
  6
CONTINUOUS
 62
     7
 10
389.7958232352
 20
-748.3925592949
 30
0.0
 40
19.99999999999994
 50
270.0
 51
0.0
  0
ARC
  5
35
  8
0
  6
CONTINUOUS
 62
     7
 10
389.7958232352
 20
-748.3925592949
 30
0.0
 40
5.000000000000057
 50
270.0
 51
0.0
  0
ARC
  5
36
  8
0
  6
CONTINUOUS
 62
     7
 10
-99.2041767648
 20
-748.3925592949
 30
0.0
 40
19.99999999999989
 50
180.0
 51
270.0
  0
ARC
  5
37
  8
0
  6
CONTINUOUS
 62
     7
 10
-99.2041767648
 20
-748.3925592949
 30
0.0
 40
5.0
 50
180.0
 51
270.0
  0
LINE
  5
38
  8
0
  6
CONTINUOUS
 62
     7
 10
-99.2041730693
 20
956.6074526261
 30
0.0
 11
389.7958195398
 21
956.6074526261
 31
0.0
  0
LINE
  5
39
  8
0
  6
CONTINUOUS
 62
     7
 10
-99.2041730693
 20
941.6074669312
 30
0.0
 11
389.7958195398
 21
941.6074669312
 31
0.0
  0
ARC
  5
3A
  8
0
  6
CONTINUOUS
 62
     7
 10
389.7958232352
 20
936.6074407051
 30
0.0
 40
20.0
 50
0.0
 51
90.0
  0
ARC
  5
3B
  8
0
  6
CONTINUOUS
 62
     7
 10
389.7958232352
 20
936.6074407051
 30
0.0
 40
5.000000000000114
 50
0.0
 51
90.0
  0
LINE
  5
3C
  8
0
  6
CONTINUOUS
 62
     7
 10
409.7958153674
 20
936.6074120949
 30
0.0
 11
409.7958153674
 21
-748.3925306846
 31
0.0
  0
LINE
  5
3D
  8
0
  6
CONTINUOUS
 62
     7
 10
394.7958296725
 20
936.6074120949
 30
0.0
 11
394.7958296725
 21
-748.3925306846
 31
0.0
  0
ARC
  5
3E
  8
0
  6
CONTINUOUS
 62
     7
 10
-99.2041767648
 20
936.6074407051
 30
0.0
 40
20.00000000000018
 50
90.0
 51
180.0
  0
ARC
  5
3F
  8
0
  6
CONTINUOUS
 62
     7
 10
-99.2041767648
 20
936.6074407051
 30
0.0
 40
5.000000000000227
 50
90.0
 51
180.0
  0
LINE
  5
40
  8
0
  6
CONTINUOUS
 62
     7
 10
389.7958195398
 20
-768.3925712158
 30
0.0
 11
-99.2041730693
 21
-768.3925712158
 31
0.0
  0
LINE
  5
41
  8
0
  6
CONTINUOUS
 62
     7
 10
389.7958195398
 20
-753.3925855209
 30
0.0
 11
-99.2041730693
 21
-753.3925855209
 31
0.0
  0
LINE
  5
42
  8
0
  6
CONTINUOUS
 62
     7
 10
-104.2041832021
 20
936.6074120949
 30
0.0
 11
-104.2041832021
 21
-748.3925306846
 31
0.0
  0
LINE
  5
43
  8
0
  6
CONTINUOUS
 62
     7
 10
-119.2041688969
 20
936.6074120949
 30
0.0
 11
-119.2041688969
 21
-748.3925306846
 31
0.0
  0
CIRCLE
  5
44
  8
0
  6
CONTINUOUS
 62
     7
 10
341.2958232352
 20
-693.8925592949
 30
0.0
 40
3.500000000000051
  0
CIRCLE
  5
45
  8
0
  6
CONTINUOUS
 62
     7
 10
341.2958232352
 20
-693.8925592949
 30
0.0
 40
4.000000000000042
  0
CIRCLE
  5
46
  8
0
  6
CONTINUOUS
 62
     7
 10
341.2958232352
 20
-693.8925592949
 30
0.0
 40
5.000000000000024
  0
ARC
  5
47
  8
0
  6
CONTINUOUS
 62
     7
 10
-146.704176146
 20
-789.8925592949
 30
0.0
 40
2.000000618793848
 50
180.0
 51
269.9999822729
  0
ARC
  5
48
  8
0
  6
CONTINUOUS
 62
     7
 10
-146.7041767648
 20
-789.8925592949
 30
0.0
 40
4.0
 50
180.0
 51
270.0
  0
LINE
  5
49
  8
0
  6
CONTINUOUS
 62
     7
 10
-148.7041765263
 20
978.107444043
 30
0.0
 11
-148.7041765263
 21
-789.8925626327
 31
0.0
  0
LINE
  5
4A
  8
0
  6
CONTINUOUS
 62
     7
 10
-150.7041805795
 20
978.107444043
 30
0.0
 11
-150.7041805795
 21
-789.8925626327
 31
0.0
  0
LINE
  5
4B
  8
0
  6
CONTINUOUS
 62
     7
 10
-130.2041762879
 20
-791.8925368835
 30
0.0
 11
-130.2041762879
 21
-793.892570739
 31
0.0
  0
LINE
  5
4C
  8
0
  6
CONTINUOUS
 62
     7
 10
-146.7041724732
 20
-791.8925368835
 30
0.0
 11
-130.2041762879
 21
-791.8925368835
 31
0.0
  0
LINE
  5
4D
  8
0
  6
CONTINUOUS
 62
     7
 10
-146.7041724732
 20
-793.892570739
 30
0.0
 11
-130.2041762879
 21
-793.892570739
 31
0.0
  0
LINE
  5
4E
  8
0
  6
CONTINUOUS
 62
     7
 10
420.7958227584
 20
982.1074521492
 30
0.0
 11
420.7958227584
 21
980.1074182938
 31
0.0
  0
LINE
  5
4F
  8
0
  6
CONTINUOUS
 62
     7
 10
420.7958227584
 20
980.1074182938
 30
0.0
 11
-130.2041762879
 21
980.1074182938
 31
0.0
  0
LINE
  5
50
  8
0
  6
CONTINUOUS
 62
     7
 10
-130.2041762879
 20
982.1074521492
 30
0.0
 11
-130.2041762879
 21
980.1074182938
 31
0.0
  0
LINE
  5
51
  8
0
  6
CONTINUOUS
 62
     7
 10
420.7958227584
 20
982.1074521492
 30
0.0
 11
-130.2041762879
 21
982.1074521492
 31
0.0
  0
LINE
  5
52
  8
0
  6
CONTINUOUS
 62
     7
 10
-130.2041762879
 20
-793.892570739
 30
0.0
 11
-130.2041762879
 21
-791.8925368835
 31
0.0
  0
LINE
  5
53
  8
0
  6
CONTINUOUS
 62
     7
 10
-130.2041762879
 20
-791.8925368835
 30
0.0
 11
420.7958227584
 21
-791.8925368835
 31
0.0
  0
LINE
  5
54
  8
0
  6
CONTINUOUS
 62
     7
 10
420.7958227584
 20
-793.892570739
 30
0.0
 11
420.7958227584
 21
-791.8925368835
 31
0.0
  0
LINE
  5
55
  8
0
  6
CONTINUOUS
 62
     7
 10
-130.2041762879
 20
-793.892570739
 30
0.0
 11
420.7958227584
 21
-793.892570739
 31
0.0
  0
LINE
  5
56
  8
0
  6
CONTINUOUS
 62
     7
 10
-130.2041762879
 20
980.1074182938
 30
0.0
 11
-130.2041762879
 21
982.1074521492
 31
0.0
  0
LINE
  5
57
  8
0
  6
CONTINUOUS
 62
     7
 10
-130.2041762879
 20
982.1074521492
 30
0.0
 11
-146.7041724732
 21
982.1074521492
 31
0.0
  0
LINE
  5
58
  8
0
  6
CONTINUOUS
 62
     7
 10
-130.2041762879
 20
980.1074182938
 30
0.0
 11
-146.7041724732
 21
980.1074182938
 31
0.0
  0
ARC
  5
59
  8
0
  6
CONTINUOUS
 62
     7
 10
437.2958232352
 20
978.1074407051
 30
0.0
 40
4.000000618793877
 50
0.0
 51
90.0
  0
ARC
  5
5A
  8
0
  6
CONTINUOUS
 62
     7
 10
437.2958226164
 20
978.1074407051
 30
0.0
 40
2.000001237587696
 50
0.0
 51
89.9999822729
  0
LINE
  5
5B
  8
0
  6
CONTINUOUS
 62
     7
 10
420.7958227584
 20
980.1074182938
 30
0.0
 11
420.7958227584
 21
982.1074521492
 31
0.0
  0
LINE
  5
5C
  8
0
  6
CONTINUOUS
 62
     7
 10
437.2958189437
 20
980.1074182938
 30
0.0
 11
420.7958227584
 21
980.1074182938
 31
0.0
  0
LINE
  5
5D
  8
0
  6
CONTINUOUS
 62
     7
 10
437.2958189437
 20
982.1074521492
 30
0.0
 11
420.7958227584
 21
982.1074521492
 31
0.0
  0
ARC
  5
5E
  8
0
  6
CONTINUOUS
 62
     7
 10
-146.7041767648
 20
978.1074407051
 30
0.0
 40
4.0
 50
90.0
 51
180.0
  0
ARC
  5
5F
  8
0
  6
CONTINUOUS
 62
     7
 10
-146.704176146
 20
978.1074407051
 30
0.0
 40
2.000001237587696
 50
90.0000177271
 51
180.0
  0
LINE
  5
60
  8
0
  6
CONTINUOUS
 62
     7
 10
439.2958229968
 20
-789.8925626327
 30
0.0
 11
439.2958229968
 21
978.107444043
 31
0.0
  0
LINE
  5
61
  8
0
  6
CONTINUOUS
 62
     7
 10
441.2958270499
 20
-789.8925626327
 30
0.0
 11
441.2958270499
 21
978.107444043
 31
0.0
  0
LINE
  5
62
  8
0
  6
CONTINUOUS
 62
     7
 10
420.7958227584
 20
-791.8925368835
 30
0.0
 11
420.7958227584
 21
-793.892570739
 31
0.0
  0
LINE
  5
63
  8
0
  6
CONTINUOUS
 62
     7
 10
420.7958227584
 20
-793.892570739
 30
0.0
 11
437.2958189437
 21
-793.892570739
 31
0.0
  0
LINE
  5
64
  8
0
  6
CONTINUOUS
 62
     7
 10
420.7958227584
 20
-791.8925368835
 30
0.0
 11
437.2958189437
 21
-791.8925368835
 31
0.0
  0
ARC
  5
65
  8
0
  6
CONTINUOUS
 62
     7
 10
437.2958232352
 20
-789.8925592949
 30
0.0
 40
4.0
 50
270.0
 51
0.0
  0
ARC
  5
66
  8
0
  6
CONTINUOUS
 62
     7
 10
437.2958226164
 20
-789.8925592949
 30
0.0
 40
2.000000928190843
 50
270.0000177271
 51
0.0
  0
CIRCLE
  5
67
  8
0
  6
CONTINUOUS
 62
     7
 10
-129.7041767648
 20
86.1074407051
 30
0.0
 40
4.516838966197497
  0
CIRCLE
  5
68
  8
0
  6
CONTINUOUS
 62
     7
 10
-129.7041767648
 20
-713.8925592949
 30
0.0
 40
4.516838966197497
  0
CIRCLE
  5
69
  8
0
  6
CONTINUOUS
 62
     7
 10
-129.7041767648
 20
886.1074407051
 30
0.0
 40
4.516838966197497
  0
CIRCLE
  5
6A
  8
0
  6
CONTINUOUS
 62
     7
 10
-129.7041767648
 20
-713.8925592949
 30
0.0
 40
3.0
  0
CIRCLE
  5
6B
  8
0
  6
CONTINUOUS
 62
     7
 10
-129.7041767648
 20
86.1074407051
 30
0.0
 40
3.0
  0
CIRCLE
  5
6C
  8
0
  6
CONTINUOUS
 62
     7
 10
-129.7041767648
 20
886.1074407051
 30
0.0
 40
3.0
  0
CIRCLE
  5
6D
  8
0
  6
CONTINUOUS
 62
     7
 10
420.2958232352
 20
86.1074407051
 30
0.0
 40
4.516838966197497
  0
CIRCLE
  5
6E
  8
0
  6
CONTINUOUS
 62
     7
 10
420.2958232352
 20
86.1074407051
 30
0.0
 40
3.0
  0
CIRCLE
  5
6F
  8
0
  6
CONTINUOUS
 62
     7
 10
420.2958232352
 20
-713.8925592949
 30
0.0
 40
4.516838966197497
  0
CIRCLE
  5
70
  8
0
  6
CONTINUOUS
 62
     7
 10
420.2958232352
 20
-713.8925592949
 30
0.0
 40
3.0
  0
CIRCLE
  5
71
  8
0
  6
CONTINUOUS
 62
     7
 10
420.2958232352
 20
886.1074407051
 30
0.0
 40
4.516838966197497
  0
CIRCLE
  5
72
  8
0
  6
CONTINUOUS
 62
     7
 10
420.2958232352
 20
886.1074407051
 30
0.0
 40
3.0
  0
ARC
  5
73
  8
0
  6
CONTINUOUS
 62
     7
 10
-153.3924549992
 20
-793.3351570306
 30
0.0
 40
7.732918835098461
 50
12.5352661406
 51
26.4352991268
  0
ARC
  5
74
  8
0
  6
CONTINUOUS
 62
     7
 10
443.9841014697
 20
-793.3351570306
 30
0.0
 40
7.732918835098486
 50
153.5647008732
 51
167.4647338594
  0
POLYLINE
  5
75
  8
0
  6
CONTINUOUS
 62
     7
 66
     1
 10
0.0
 20
0.0
 30
0.0
  0
VERTEX
  5
209
  8
0
  6
CONTINUOUS
 62
     7
 10
437.0597547481
 20
-791.8925368835
 30
0.0
  0
VERTEX
  5
20A
  8
0
  6
CONTINUOUS
 62
     7
 10
436.7274588535
 20
-791.8511116554
 30
0.0
  0
VERTEX
  5
20B
  8
0
  6
CONTINUOUS
 62
     7
 10
436.4898151347
 20
-791.7301738311
 30
0.0
  0
VERTEX
  5
20C
  8
0
  6
CONTINUOUS
 62
     7
 10
436.3468533942
 20
-791.5369951774
 30
0.0
  0
VERTEX
  5
20D
  8
0
  6
CONTINUOUS
 62
     7
 10
436.2985140273
 20
-791.2814104606
 30
0.0
  0
VERTEX
  5
20E
  8
0
  6
CONTINUOUS
 62
     7
 10
436.3427108714
 20
-790.9893477012
 30
0.0
  0
VERTEX
  5
20F
  8
0
  6
CONTINUOUS
 62
     7
 10
436.4821857402
 20
-790.6667673637
 30
0.0
  0
VERTEX
  5
210
  8
0
  6
CONTINUOUS
 62
     7
 10
436.7212003657
 20
-790.2977550079
 30
0.0
  0
VERTEX
  5
211
  8
0
  6
CONTINUOUS
 62
     7
 10
437.0597547481
 20
-789.8925626327
 30
0.0
  0
SEQEND
  5
208
  8
0
  6
CONTINUOUS
 62
     7
  0
POLYLINE
  5
76
  8
0
  6
CONTINUOUS
 62
     7
 66
     1
 10
0.0
 20
0.0
 30
0.0
  0
VERTEX
  5
213
  8
0
  6
CONTINUOUS
 62
     7
 10
437.2958189437
 20
-789.6564686348
 30
0.0
  0
VERTEX
  5
214
  8
0
  6
CONTINUOUS
 62
     7
 10
437.700832505
 20
-789.3241727401
 30
0.0
  0
VERTEX
  5
215
  8
0
  6
CONTINUOUS
 62
     7
 10
438.0852526614
 20
-789.0865886261
 30
0.0
  0
VERTEX
  5
216
  8
0
  6
CONTINUOUS
 62
     7
 10
438.4341782519
 20
-788.9435970832
 30
0.0
  0
VERTEX
  5
217
  8
0
  6
CONTINUOUS
 62
     7
 10
438.7349432895
 20
-788.8952577163
 30
0.0
  0
VERTEX
  5
218
  8
0
  6
CONTINUOUS
 62
     7
 10
438.9682656715
 20
-788.9394247581
 30
0.0
  0
VERTEX
  5
219
  8
0
  6
CONTINUOUS
 62
     7
 10
439.1398972461
 20
-789.0788996269
 30
0.0
  0
VERTEX
  5
21A
  8
0
  6
CONTINUOUS
 62
     7
 10
439.2543381641
 20
-789.3179142524
 30
0.0
  0
VERTEX
  5
21B
  8
0
  6
CONTINUOUS
 62
     7
 10
439.2958229968
 20
-789.6564686348
 30
0.0
  0
SEQEND
  5
212
  8
0
  6
CONTINUOUS
 62
     7
  0
ARC
  5
77
  8
0
  6
CONTINUOUS
 62
     7
 10
440.6346148486
 20
-796.4845134693
 30
0.0
 40
7.600641706886821
 50
101.6946082454
 51
116.0578339848
  0
POLYLINE
  5
78
  8
0
  6
CONTINUOUS
 62
     7
 66
     1
 10
0.0
 20
0.0
 30
0.0
  0
VERTEX
  5
21D
  8
0
  6
CONTINUOUS
 62
     7
 10
-148.7041765263
 20
-789.6564686348
 30
0.0
  0
VERTEX
  5
21E
  8
0
  6
CONTINUOUS
 62
     7
 10
-148.6626916936
 20
-789.3179142524
 30
0.0
  0
VERTEX
  5
21F
  8
0
  6
CONTINUOUS
 62
     7
 10
-148.5482507756
 20
-789.0788996269
 30
0.0
  0
VERTEX
  5
220
  8
0
  6
CONTINUOUS
 62
     7
 10
-148.376619201
 20
-788.9394247581
 30
0.0
  0
VERTEX
  5
221
  8
0
  6
CONTINUOUS
 62
     7
 10
-148.143296819
 20
-788.8952577163
 30
0.0
  0
VERTEX
  5
222
  8
0
  6
CONTINUOUS
 62
     7
 10
-147.8425317815
 20
-788.9435970832
 30
0.0
  0
VERTEX
  5
223
  8
0
  6
CONTINUOUS
 62
     7
 10
-147.493606191
 20
-789.0865886261
 30
0.0
  0
VERTEX
  5
224
  8
0
  6
CONTINUOUS
 62
     7
 10
-147.1091860345
 20
-789.3241727401
 30
0.0
  0
VERTEX
  5
225
  8
0
  6
CONTINUOUS
 62
     7
 10
-146.7041724732
 20
-789.6564686348
 30
0.0
  0
SEQEND
  5
21C
  8
0
  6
CONTINUOUS
 62
     7
  0
ARC
  5
79
  8
0
  6
CONTINUOUS
 62
     7
 10
-150.0429683781
 20
-796.4845134693
 30
0.0
 40
7.600641706886833
 50
63.9421660152
 51
78.3053917546
  0
POLYLINE
  5
7A
  8
0
  6
CONTINUOUS
 62
     7
 66
     1
 10
0.0
 20
0.0
 30
0.0
  0
VERTEX
  5
227
  8
0
  6
CONTINUOUS
 62
     7
 10
439.2958229968
 20
977.871350045
 30
0.0
  0
VERTEX
  5
228
  8
0
  6
CONTINUOUS
 62
     7
 10
439.2543381641
 20
977.5327956627
 30
0.0
  0
VERTEX
  5
229
  8
0
  6
CONTINUOUS
 62
     7
 10
439.1398972461
 20
977.2937810372
 30
0.0
  0
VERTEX
  5
22A
  8
0
  6
CONTINUOUS
 62
     7
 10
438.9682656715
 20
977.1543061684
 30
0.0
  0
VERTEX
  5
22B
  8
0
  6
CONTINUOUS
 62
     7
 10
438.7349432895
 20
977.1101391266
 30
0.0
  0
VERTEX
  5
22C
  8
0
  6
CONTINUOUS
 62
     7
 10
438.4341782519
 20
977.1584784935
 30
0.0
  0
VERTEX
  5
22D
  8
0
  6
CONTINUOUS
 62
     7
 10
438.0852526614
 20
977.3014700363
 30
0.0
  0
VERTEX
  5
22E
  8
0
  6
CONTINUOUS
 62
     7
 10
437.700832505
 20
977.5390541504
 30
0.0
  0
VERTEX
  5
22F
  8
0
  6
CONTINUOUS
 62
     7
 10
437.2958189437
 20
977.871350045
 30
0.0
  0
SEQEND
  5
226
  8
0
  6
CONTINUOUS
 62
     7
  0
ARC
  5
7B
  8
0
  6
CONTINUOUS
 62
     7
 10
440.6346148486
 20
984.6993948796
 30
0.0
 40
7.600641706886821
 50
243.9421660152
 51
258.3053917546
  0
POLYLINE
  5
7C
  8
0
  6
CONTINUOUS
 62
     7
 66
     1
 10
0.0
 20
0.0
 30
0.0
  0
VERTEX
  5
231
  8
0
  6
CONTINUOUS
 62
     7
 10
-146.4681082776
 20
980.1074182938
 30
0.0
  0
VERTEX
  5
232
  8
0
  6
CONTINUOUS
 62
     7
 10
-146.135812383
 20
980.0659930657
 30
0.0
  0
VERTEX
  5
233
  8
0
  6
CONTINUOUS
 62
     7
 10
-145.8981686643
 20
979.9450552414
 30
0.0
  0
VERTEX
  5
234
  8
0
  6
CONTINUOUS
 62
     7
 10
-145.7552069238
 20
979.7518765877
 30
0.0
  0
VERTEX
  5
235
  8
0
  6
CONTINUOUS
 62
     7
 10
-145.7068675568
 20
979.4962918709
 30
0.0
  0
VERTEX
  5
236
  8
0
  6
CONTINUOUS
 62
     7
 10
-145.7510644009
 20
979.2042291115
 30
0.0
  0
VERTEX
  5
237
  8
0
  6
CONTINUOUS
 62
     7
 10
-145.8905392697
 20
978.881648774
 30
0.0
  0
VERTEX
  5
238
  8
0
  6
CONTINUOUS
 62
     7
 10
-146.1295538953
 20
978.5126364182
 30
0.0
  0
VERTEX
  5
239
  8
0
  6
CONTINUOUS
 62
     7
 10
-146.4681082776
 20
978.107444043
 30
0.0
  0
SEQEND
  5
230
  8
0
  6
CONTINUOUS
 62
     7
  0
ARC
  5
7D
  8
0
  6
CONTINUOUS
 62
     7
 10
-153.3924549992
 20
981.5500384409
 30
0.0
 40
7.732918835098461
 50
333.5647008732
 51
347.4647338594
  0
POLYLINE
  5
7E
  8
0
  6
CONTINUOUS
 62
     7
 66
     1
 10
0.0
 20
0.0
 30
0.0
  0
VERTEX
  5
23B
  8
0
  6
CONTINUOUS
 62
     7
 10
437.0597547481
 20
978.107444043
 30
0.0
  0
VERTEX
  5
23C
  8
0
  6
CONTINUOUS
 62
     7
 10
436.7212003657
 20
978.5126364182
 30
0.0
  0
VERTEX
  5
23D
  8
0
  6
CONTINUOUS
 62
     7
 10
436.4821857402
 20
978.881648774
 30
0.0
  0
VERTEX
  5
23E
  8
0
  6
CONTINUOUS
 62
     7
 10
436.3427108714
 20
979.2042291115
 30
0.0
  0
VERTEX
  5
23F
  8
0
  6
CONTINUOUS
 62
     7
 10
436.2985140273
 20
979.4962918709
 30
0.0
  0
VERTEX
  5
240
  8
0
  6
CONTINUOUS
 62
     7
 10
436.3468533942
 20
979.7518765877
 30
0.0
  0
VERTEX
  5
241
  8
0
  6
CONTINUOUS
 62
     7
 10
436.4898151347
 20
979.9450552414
 30
0.0
  0
VERTEX
  5
242
  8
0
  6
CONTINUOUS
 62
     7
 10
436.7274588535
 20
980.0659930657
 30
0.0
  0
VERTEX
  5
243
  8
0
  6
CONTINUOUS
 62
     7
 10
437.0597547481
 20
980.1074182938
 30
0.0
  0
SEQEND
  5
23A
  8
0
  6
CONTINUOUS
 62
     7
  0
ARC
  5
7F
  8
0
  6
CONTINUOUS
 62
     7
 10
443.9841014697
 20
981.5500384409
 30
0.0
 40
7.732918835098486
 50
192.5352661406
 51
206.4352991268
  0
POLYLINE
  5
80
  8
0
  6
CONTINUOUS
 62
     7
 66
     1
 10
0.0
 20
0.0
 30
0.0
  0
VERTEX
  5
245
  8
0
  6
CONTINUOUS
 62
     7
 10
-146.4681082776
 20
-789.8925626327
 30
0.0
  0
VERTEX
  5
246
  8
0
  6
CONTINUOUS
 62
     7
 10
-146.1295538953
 20
-790.2977550079
 30
0.0
  0
VERTEX
  5
247
  8
0
  6
CONTINUOUS
 62
     7
 10
-145.8905392697
 20
-790.6667673637
 30
0.0
  0
VERTEX
  5
248
  8
0
  6
CONTINUOUS
 62
     7
 10
-145.7510644009
 20
-790.9893477012
 30
0.0
  0
VERTEX
  5
249
  8
0
  6
CONTINUOUS
 62
     7
 10
-145.7068675568
 20
-791.2814104606
 30
0.0
  0
VERTEX
  5
24A
  8
0
  6
CONTINUOUS
 62
     7
 10
-145.7552069238
 20
-791.5369951774
 30
0.0
  0
VERTEX
  5
24B
  8
0
  6
CONTINUOUS
 62
     7
 10
-145.8981686643
 20
-791.7301738311
 30
0.0
  0
VERTEX
  5
24C
  8
0
  6
CONTINUOUS
 62
     7
 10
-146.135812383
 20
-791.8511116554
 30
0.0
  0
VERTEX
  5
24D
  8
0
  6
CONTINUOUS
 62
     7
 10
-146.4681082776
 20
-791.8925368835
 30
0.0
  0
SEQEND
  5
244
  8
0
  6
CONTINUOUS
 62
     7
  0
POLYLINE
  5
81
  8
0
  6
CONTINUOUS
 62
     7
 66
     1
 10
0.0
 20
0.0
 30
0.0
  0
VERTEX
  5
24F
  8
0
  6
CONTINUOUS
 62
     7
 10
-146.7041724732
 20
977.871350045
 30
0.0
  0
VERTEX
  5
250
  8
0
  6
CONTINUOUS
 62
     7
 10
-147.1091860345
 20
977.5390541504
 30
0.0
  0
VERTEX
  5
251
  8
0
  6
CONTINUOUS
 62
     7
 10
-147.493606191
 20
977.3014700363
 30
0.0
  0
VERTEX
  5
252
  8
0
  6
CONTINUOUS
 62
     7
 10
-147.8425317815
 20
977.1584784935
 30
0.0
  0
VERTEX
  5
253
  8
0
  6
CONTINUOUS
 62
     7
 10
-148.143296819
 20
977.1101391266
 30
0.0
  0
VERTEX
  5
254
  8
0
  6
CONTINUOUS
 62
     7
 10
-148.376619201
 20
977.1543061684
 30
0.0
  0
VERTEX
  5
255
  8
0
  6
CONTINUOUS
 62
     7
 10
-148.5482507756
 20
977.2937810372
 30
0.0
  0
VERTEX
  5
256
  8
0
  6
CONTINUOUS
 62
     7
 10
-148.6626916936
 20
977.5327956627
 30
0.0
  0
VERTEX
  5
257
  8
0
  6
CONTINUOUS
 62
     7
 10
-148.7041765263
 20
977.871350045
 30
0.0
  0
SEQEND
  5
24E
  8
0
  6
CONTINUOUS
 62
     7
  0
ARC
  5
82
  8
0
  6
CONTINUOUS
 62
     7
 10
-150.0429683781
 20
984.6993948796
 30
0.0
 40
7.600641706886833
 50
281.6946082454
 51
296.0578339848
  0
ARC
  5
83
  8
0
  6
CONTINUOUS
 62
     7
 10
-148.7041767648
 20
980.1074407051
 30
0.0
 40
3.000000000000076
 50
311.8103148958
 51
318.1896851042
  0
ARC
  5
84
  8
0
  6
CONTINUOUS
 62
     7
 10
439.2958232352
 20
-791.8925592949
 30
0.0
 40
2.999999999999962
 50
131.8103148958
 51
138.1896851042
  0
ARC
  5
85
  8
0
  6
CONTINUOUS
 62
     7
 10
439.2958232352
 20
980.1074407051
 30
0.0
 40
3.000000000000029
 50
221.8103148958
 51
228.1896851042
  0
ARC
  5
86
  8
0
  6
CONTINUOUS
 62
     7
 10
-148.7041767648
 20
-791.8925592949
 30
0.0
 40
3.00000000000002
 50
41.8103148958
 51
48.1896851042
  0
LINE
  5
87
  8
0
  6
HIDDEN
 62
     7
 10
-139.4541913083
 20
-793.892570739
 30
0.0
 11
-139.4541913083
 21
-791.8925368835
 31
0.0
  0
LINE
  5
88
  8
0
  6
HIDDEN
 62
     7
 10
-139.4541913083
 20
982.1074521492
 30
0.0
 11
-139.4541913083
 21
980.1074182938
 31
0.0
  0
LINE
  5
89
  8
0
  6
HIDDEN
 62
     7
 10
430.0458377788
 20
982.1074521492
 30
0.0
 11
430.0458377788
 21
980.1074182938
 31
0.0
  0
LINE
  5
8A
  8
0
  6
HIDDEN
 62
     7
 10
437.1744936893
 20
982.1074521492
 30
0.0
 11
437.1744936893
 21
980.1074182938
 31
0.0
  0
LINE
  5
8B
  8
0
  6
HIDDEN
 62
     7
 10
430.0458377788
 20
-793.892570739
 30
0.0
 11
430.0458377788
 21
-791.8925368835
 31
0.0
  0
LINE
  5
8C
  8
0
  6
HIDDEN
 62
     7
 10
-146.5828472188
 20
980.1074182938
 30
0.0
 11
-146.5828472188
 21
982.1074521492
 31
0.0
  0
LINE
  5
8D
  8
0
  6
HIDDEN
 62
     7
 10
-139.4541913083
 20
-793.892570739
 30
0.0
 11
-139.4541913083
 21
-791.8925368835
 31
0.0
  0
LINE
  5
8E
  8
0
  6
HIDDEN
 62
     7
 10
-146.5828472188
 20
-793.892570739
 30
0.0
 11
-146.5828472188
 21
-791.8925368835
 31
0.0
  0
LINE
  5
8F
  8
0
  6
HIDDEN
 62
     7
 10
437.1744936893
 20
-791.8925368835
 30
0.0
 11
437.1744936893
 21
-793.892570739
 31
0.0
  0
LINE
  5
90
  8
0
  6
HIDDEN
 62
     7
 10
-139.4541913083
 20
982.1074521492
 30
0.0
 11
-139.4541913083
 21
980.1074182938
 31
0.0
  0
LINE
  5
91
  8
0
  6
HIDDEN
 62
     7
 10
430.0458377788
 20
982.1074521492
 30
0.0
 11
430.0458377788
 21
980.1074182938
 31
0.0
  0
LINE
  5
92
  8
0
  6
HIDDEN
 62
     7
 10
430.0458377788
 20
-793.892570739
 30
0.0
 11
430.0458377788
 21
-791.8925368835
 31
0.0
  0
LINE
  5
93
  8
0
  6
HIDDEN
 62
     7
 10
-146.7041724732
 20
-793.892570739
 30
0.0
 11
-146.7041724732
 21
-791.8925368835
 31
0.0
  0
LINE
  5
94
  8
0
  6
HIDDEN
 62
     7
 10
-146.5828472188
 20
-793.892570739
 30
0.0
 11
-146.5828472188
 21
-791.8925368835
 31
0.0
  0
LINE
  5
95
  8
0
  6
HIDDEN
 62
     7
 10
-150.7041805795
 20
-789.8925626327
 30
0.0
 11
-148.7041765263
 21
-789.8925626327
 31
0.0
  0
LINE
  5
96
  8
0
  6
HIDDEN
 62
     7
 10
437.2958189437
 20
980.1074182938
 30
0.0
 11
437.2958189437
 21
982.1074521492
 31
0.0
  0
LINE
  5
97
  8
0
  6
HIDDEN
 62
     7
 10
437.1744936893
 20
982.1074521492
 30
0.0
 11
437.1744936893
 21
980.1074182938
 31
0.0
  0
LINE
  5
98
  8
0
  6
HIDDEN
 62
     7
 10
-146.7041724732
 20
982.1074521492
 30
0.0
 11
-146.7041724732
 21
980.1074182938
 31
0.0
  0
LINE
  5
99
  8
0
  6
HIDDEN
 62
     7
 10
-146.5828472188
 20
980.1074182938
 30
0.0
 11
-146.5828472188
 21
982.1074521492
 31
0.0
  0
LINE
  5
9A
  8
0
  6
HIDDEN
 62
     7
 10
439.2958229968
 20
978.107444043
 30
0.0
 11
441.2958270499
 21
978.107444043
 31
0.0
  0
LINE
  5
9B
  8
0
  6
HIDDEN
 62
     7
 10
-150.7041805795
 20
978.107444043
 30
0.0
 11
-148.7041765263
 21
978.107444043
 31
0.0
  0
LINE
  5
9C
  8
0
  6
HIDDEN
 62
     7
 10
439.2958229968
 20
-789.8925626327
 30
0.0
 11
441.2958270499
 21
-789.8925626327
 31
0.0
  0
LINE
  5
9D
  8
0
  6
HIDDEN
 62
     7
 10
437.2958189437
 20
-791.8925368835
 30
0.0
 11
437.2958189437
 21
-793.892570739
 31
0.0
  0
LINE
  5
9E
  8
0
  6
HIDDEN
 62
     7
 10
437.1744936893
 20
-791.8925368835
 30
0.0
 11
437.1744936893
 21
-793.892570739
 31
0.0
  0
POLYLINE
  5
9F
  8
0
  6
HIDDEN
 62
     7
 66
     1
 10
0.0
 20
0.0
 30
0.0
  0
VERTEX
  5
259
  8
0
  6
HIDDEN
 62
     7
 10
-145.8438688329
 20
-791.6568005134
 30
0.0
  0
VERTEX
  5
25A
  8
0
  6
HIDDEN
 62
     7
 10
-145.7510644009
 20
-792.0861327697
 30
0.0
  0
VERTEX
  5
25B
  8
0
  6
HIDDEN
 62
     7
 10
-145.7068675568
 20
-792.6703178932
 30
0.0
  0
VERTEX
  5
25C
  8
0
  6
HIDDEN
 62
     7
 10
-145.7552069238
 20
-793.1814277221
 30
0.0
  0
VERTEX
  5
25D
  8
0
  6
HIDDEN
 62
     7
 10
-145.8981686643
 20
-793.5677850296
 30
0.0
  0
VERTEX
  5
25E
  8
0
  6
HIDDEN
 62
     7
 10
-146.135812383
 20
-793.8096606781
 30
0.0
  0
VERTEX
  5
25F
  8
0
  6
HIDDEN
 62
     7
 10
-146.4681082776
 20
-793.892570739
 30
0.0
  0
SEQEND
  5
258
  8
0
  6
HIDDEN
 62
     7
  0
POLYLINE
  5
A0
  8
0
  6
HIDDEN
 62
     7
 66
     1
 10
0.0
 20
0.0
 30
0.0
  0
VERTEX
  5
261
  8
0
  6
HIDDEN
 62
     7
 10
437.0597547481
 20
-793.892570739
 30
0.0
  0
VERTEX
  5
262
  8
0
  6
HIDDEN
 62
     7
 10
436.7274588535
 20
-793.8096606781
 30
0.0
  0
VERTEX
  5
263
  8
0
  6
HIDDEN
 62
     7
 10
436.4898151347
 20
-793.5677850296
 30
0.0
  0
VERTEX
  5
264
  8
0
  6
HIDDEN
 62
     7
 10
436.3468533942
 20
-793.1814277221
 30
0.0
  0
VERTEX
  5
265
  8
0
  6
HIDDEN
 62
     7
 10
436.2985140273
 20
-792.6703178932
 30
0.0
  0
VERTEX
  5
266
  8
0
  6
HIDDEN
 62
     7
 10
436.3427108714
 20
-792.0861327697
 30
0.0
  0
VERTEX
  5
267
  8
0
  6
HIDDEN
 62
     7
 10
436.4355153033
 20
-791.6568005134
 30
0.0
  0
SEQEND
  5
260
  8
0
  6
HIDDEN
 62
     7
  0
POLYLINE
  5
A1
  8
0
  6
HIDDEN
 62
     7
 66
     1
 10
0.0
 20
0.0
 30
0.0
  0
VERTEX
  5
269
  8
0
  6
HIDDEN
 62
     7
 10
437.0597547481
 20
-789.8925626327
 30
0.0
  0
VERTEX
  5
26A
  8
0
  6
HIDDEN
 62
     7
 10
437.0597547481
 20
-789.8925626327
 30
0.0
  0
SEQEND
  5
268
  8
0
  6
HIDDEN
 62
     7
  0
LINE
  5
A2
  8
0
  6
HIDDEN
 62
     7
 10
437.0597547481
 20
-793.892570739
 30
0.0
 11
437.0597547481
 21
-791.8925368835
 31
0.0
  0
POLYLINE
  5
A3
  8
0
  6
HIDDEN
 62
     7
 66
     1
 10
0.0
 20
0.0
 30
0.0
  0
VERTEX
  5
26C
  8
0
  6
HIDDEN
 62
     7
 10
439.0940016696
 20
-789.0416467239
 30
0.0
  0
VERTEX
  5
26D
  8
0
  6
HIDDEN
 62
     7
 10
439.5725375602
 20
-788.9435970832
 30
0.0
  0
VERTEX
  5
26E
  8
0
  6
HIDDEN
 62
     7
 10
440.1740676353
 20
-788.8952577163
 30
0.0
  0
VERTEX
  5
26F
  8
0
  6
HIDDEN
 62
     7
 10
440.6407123992
 20
-788.9394247581
 30
0.0
  0
VERTEX
  5
270
  8
0
  6
HIDDEN
 62
     7
 10
440.9839755485
 20
-789.0788996269
 30
0.0
  0
VERTEX
  5
271
  8
0
  6
HIDDEN
 62
     7
 10
441.2128573844
 20
-789.3179142524
 30
0.0
  0
VERTEX
  5
272
  8
0
  6
HIDDEN
 62
     7
 10
441.2958270499
 20
-789.6564686348
 30
0.0
  0
SEQEND
  5
26B
  8
0
  6
HIDDEN
 62
     7
  0
POLYLINE
  5
A4
  8
0
  6
HIDDEN
 62
     7
 66
     1
 10
0.0
 20
0.0
 30
0.0
  0
VERTEX
  5
274
  8
0
  6
HIDDEN
 62
     7
 10
437.2958189437
 20
-789.6564686348
 30
0.0
  0
VERTEX
  5
275
  8
0
  6
HIDDEN
 62
     7
 10
437.2958189437
 20
-789.6564686348
 30
0.0
  0
SEQEND
  5
273
  8
0
  6
HIDDEN
 62
     7
  0
LINE
  5
A5
  8
0
  6
HIDDEN
 62
     7
 10
441.2958270499
 20
-789.6564686348
 30
0.0
 11
439.2958229968
 21
-789.6564686348
 31
0.0
  0
POLYLINE
  5
A6
  8
0
  6
HIDDEN
 62
     7
 66
     1
 10
0.0
 20
0.0
 30
0.0
  0
VERTEX
  5
277
  8
0
  6
HIDDEN
 62
     7
 10
-146.7041724732
 20
-789.6564686348
 30
0.0
  0
VERTEX
  5
278
  8
0
  6
HIDDEN
 62
     7
 10
-146.7041724732
 20
-789.6564686348
 30
0.0
  0
SEQEND
  5
276
  8
0
  6
HIDDEN
 62
     7
  0
POLYLINE
  5
A7
  8
0
  6
HIDDEN
 62
     7
 66
     1
 10
0.0
 20
0.0
 30
0.0
  0
VERTEX
  5
27A
  8
0
  6
HIDDEN
 62
     7
 10
-150.7041805795
 20
-789.6564686348
 30
0.0
  0
VERTEX
  5
27B
  8
0
  6
HIDDEN
 62
     7
 10
-150.6212109139
 20
-789.3179142524
 30
0.0
  0
VERTEX
  5
27C
  8
0
  6
HIDDEN
 62
     7
 10
-150.392329078
 20
-789.0788996269
 30
0.0
  0
VERTEX
  5
27D
  8
0
  6
HIDDEN
 62
     7
 10
-150.0490659287
 20
-788.9394247581
 30
0.0
  0
VERTEX
  5
27E
  8
0
  6
HIDDEN
 62
     7
 10
-149.5824211648
 20
-788.8952577163
 30
0.0
  0
VERTEX
  5
27F
  8
0
  6
HIDDEN
 62
     7
 10
-148.9808910897
 20
-788.9435970832
 30
0.0
  0
VERTEX
  5
280
  8
0
  6
HIDDEN
 62
     7
 10
-148.5023551991
 20
-789.0416467239
 30
0.0
  0
SEQEND
  5
279
  8
0
  6
HIDDEN
 62
     7
  0
LINE
  5
A8
  8
0
  6
HIDDEN
 62
     7
 10
-150.7041805795
 20
-789.6564686348
 30
0.0
 11
-148.7041765263
 21
-789.6564686348
 31
0.0
  0
POLYLINE
  5
A9
  8
0
  6
HIDDEN
 62
     7
 66
     1
 10
0.0
 20
0.0
 30
0.0
  0
VERTEX
  5
282
  8
0
  6
HIDDEN
 62
     7
 10
437.2958189437
 20
977.871350045
 30
0.0
  0
VERTEX
  5
283
  8
0
  6
HIDDEN
 62
     7
 10
437.2958189437
 20
977.871350045
 30
0.0
  0
SEQEND
  5
281
  8
0
  6
HIDDEN
 62
     7
  0
POLYLINE
  5
AA
  8
0
  6
HIDDEN
 62
     7
 66
     1
 10
0.0
 20
0.0
 30
0.0
  0
VERTEX
  5
285
  8
0
  6
HIDDEN
 62
     7
 10
441.2958270499
 20
977.871350045
 30
0.0
  0
VERTEX
  5
286
  8
0
  6
HIDDEN
 62
     7
 10
441.2128573844
 20
977.5327956627
 30
0.0
  0
VERTEX
  5
287
  8
0
  6
HIDDEN
 62
     7
 10
440.9839755485
 20
977.2937810372
 30
0.0
  0
VERTEX
  5
288
  8
0
  6
HIDDEN
 62
     7
 10
440.6407123992
 20
977.1543061684
 30
0.0
  0
VERTEX
  5
289
  8
0
  6
HIDDEN
 62
     7
 10
440.1740676353
 20
977.1101391266
 30
0.0
  0
VERTEX
  5
28A
  8
0
  6
HIDDEN
 62
     7
 10
439.5725375602
 20
977.1584784935
 30
0.0
  0
VERTEX
  5
28B
  8
0
  6
HIDDEN
 62
     7
 10
439.0940016696
 20
977.2565281342
 30
0.0
  0
SEQEND
  5
284
  8
0
  6
HIDDEN
 62
     7
  0
LINE
  5
AB
  8
0
  6
HIDDEN
 62
     7
 10
439.2958229968
 20
977.871350045
 30
0.0
 11
441.2958270499
 21
977.871350045
 31
0.0
  0
POLYLINE
  5
AC
  8
0
  6
HIDDEN
 62
     7
 66
     1
 10
0.0
 20
0.0
 30
0.0
  0
VERTEX
  5
28D
  8
0
  6
HIDDEN
 62
     7
 10
-146.4681082776
 20
978.107444043
 30
0.0
  0
VERTEX
  5
28E
  8
0
  6
HIDDEN
 62
     7
 10
-146.4681082776
 20
978.107444043
 30
0.0
  0
SEQEND
  5
28C
  8
0
  6
HIDDEN
 62
     7
  0
POLYLINE
  5
AD
  8
0
  6
HIDDEN
 62
     7
 66
     1
 10
0.0
 20
0.0
 30
0.0
  0
VERTEX
  5
290
  8
0
  6
HIDDEN
 62
     7
 10
-146.4681082776
 20
982.1074521492
 30
0.0
  0
VERTEX
  5
291
  8
0
  6
HIDDEN
 62
     7
 10
-146.135812383
 20
982.0245420884
 30
0.0
  0
VERTEX
  5
292
  8
0
  6
HIDDEN
 62
     7
 10
-145.8981686643
 20
981.7826664399
 30
0.0
  0
VERTEX
  5
293
  8
0
  6
HIDDEN
 62
     7
 10
-145.7552069238
 20
981.3963091324
 30
0.0
  0
VERTEX
  5
294
  8
0
  6
HIDDEN
 62
     7
 10
-145.7068675568
 20
980.8851993035
 30
0.0
  0
VERTEX
  5
295
  8
0
  6
HIDDEN
 62
     7
 10
-145.7510644009
 20
980.30101418
 30
0.0
  0
VERTEX
  5
296
  8
0
  6
HIDDEN
 62
     7
 10
-145.8438688329
 20
979.8716819237
 30
0.0
  0
SEQEND
  5
28F
  8
0
  6
HIDDEN
 62
     7
  0
LINE
  5
AE
  8
0
  6
HIDDEN
 62
     7
 10
-146.4681082776
 20
980.1074182938
 30
0.0
 11
-146.4681082776
 21
982.1074521492
 31
0.0
  0
POLYLINE
  5
AF
  8
0
  6
HIDDEN
 62
     7
 66
     1
 10
0.0
 20
0.0
 30
0.0
  0
VERTEX
  5
298
  8
0
  6
HIDDEN
 62
     7
 10
436.4355153033
 20
979.8716819237
 30
0.0
  0
VERTEX
  5
299
  8
0
  6
HIDDEN
 62
     7
 10
436.3427108714
 20
980.30101418
 30
0.0
  0
VERTEX
  5
29A
  8
0
  6
HIDDEN
 62
     7
 10
436.2985140273
 20
980.8851993035
 30
0.0
  0
VERTEX
  5
29B
  8
0
  6
HIDDEN
 62
     7
 10
436.3468533942
 20
981.3963091324
 30
0.0
  0
VERTEX
  5
29C
  8
0
  6
HIDDEN
 62
     7
 10
436.4898151347
 20
981.7826664399
 30
0.0
  0
VERTEX
  5
29D
  8
0
  6
HIDDEN
 62
     7
 10
436.7274588535
 20
982.0245420884
 30
0.0
  0
VERTEX
  5
29E
  8
0
  6
HIDDEN
 62
     7
 10
437.0597547481
 20
982.1074521492
 30
0.0
  0
SEQEND
  5
297
  8
0
  6
HIDDEN
 62
     7
  0
POLYLINE
  5
B0
  8
0
  6
HIDDEN
 62
     7
 66
     1
 10
0.0
 20
0.0
 30
0.0
  0
VERTEX
  5
2A0
  8
0
  6
HIDDEN
 62
     7
 10
437.0597547481
 20
978.107444043
 30
0.0
  0
VERTEX
  5
2A1
  8
0
  6
HIDDEN
 62
     7
 10
437.0597547481
 20
978.107444043
 30
0.0
  0
SEQEND
  5
29F
  8
0
  6
HIDDEN
 62
     7
  0
LINE
  5
B1
  8
0
  6
HIDDEN
 62
     7
 10
437.0597547481
 20
982.1074521492
 30
0.0
 11
437.0597547481
 21
980.1074182938
 31
0.0
  0
POLYLINE
  5
B2
  8
0
  6
HIDDEN
 62
     7
 66
     1
 10
0.0
 20
0.0
 30
0.0
  0
VERTEX
  5
2A3
  8
0
  6
HIDDEN
 62
     7
 10
-146.4681082776
 20
-789.8925626327
 30
0.0
  0
VERTEX
  5
2A4
  8
0
  6
HIDDEN
 62
     7
 10
-146.4681082776
 20
-789.8925626327
 30
0.0
  0
SEQEND
  5
2A2
  8
0
  6
HIDDEN
 62
     7
  0
LINE
  5
B3
  8
0
  6
HIDDEN
 62
     7
 10
-146.4681082776
 20
-791.8925368835
 30
0.0
 11
-146.4681082776
 21
-793.892570739
 31
0.0
  0
POLYLINE
  5
B4
  8
0
  6
HIDDEN
 62
     7
 66
     1
 10
0.0
 20
0.0
 30
0.0
  0
VERTEX
  5
2A6
  8
0
  6
HIDDEN
 62
     7
 10
-148.5023551991
 20
977.2565281342
 30
0.0
  0
VERTEX
  5
2A7
  8
0
  6
HIDDEN
 62
     7
 10
-148.9808910897
 20
977.1584784935
 30
0.0
  0
VERTEX
  5
2A8
  8
0
  6
HIDDEN
 62
     7
 10
-149.5824211648
 20
977.1101391266
 30
0.0
  0
VERTEX
  5
2A9
  8
0
  6
HIDDEN
 62
     7
 10
-150.0490659287
 20
977.1543061684
 30
0.0
  0
VERTEX
  5
2AA
  8
0
  6
HIDDEN
 62
     7
 10
-150.392329078
 20
977.2937810372
 30
0.0
  0
VERTEX
  5
2AB
  8
0
  6
HIDDEN
 62
     7
 10
-150.6212109139
 20
977.5327956627
 30
0.0
  0
VERTEX
  5
2AC
  8
0
  6
HIDDEN
 62
     7
 10
-150.7041805795
 20
977.871350045
 30
0.0
  0
SEQEND
  5
2A5
  8
0
  6
HIDDEN
 62
     7
  0
POLYLINE
  5
B5
  8
0
  6
HIDDEN
 62
     7
 66
     1
 10
0.0
 20
0.0
 30
0.0
  0
VERTEX
  5
2AE
  8
0
  6
HIDDEN
 62
     7
 10
-146.7041724732
 20
977.871350045
 30
0.0
  0
VERTEX
  5
2AF
  8
0
  6
HIDDEN
 62
     7
 10
-146.7041724732
 20
977.871350045
 30
0.0
  0
SEQEND
  5
2AD
  8
0
  6
HIDDEN
 62
     7
  0
LINE
  5
B6
  8
0
  6
HIDDEN
 62
     7
 10
-148.7041765263
 20
977.871350045
 30
0.0
 11
-150.7041805795
 21
977.871350045
 31
0.0
  0
LINE
  5
B7
  8
0
  6
HIDDEN
 62
     7
 10
436.2985140273
 20
-791.2784302284
 30
0.0
 11
436.2985140273
 21
-792.6643574287
 31
0.0
  0
LINE
  5
B8
  8
0
  6
HIDDEN
 62
     7
 10
436.2985140273
 20
-792.6643574287
 30
0.0
 11
436.2985140273
 21
-791.2784302284
 31
0.0
  0
LINE
  5
B9
  8
0
  6
HIDDEN
 62
     7
 10
440.1797896812
 20
-788.8952577163
 30
0.0
 11
438.7378043124
 21
-788.8952577163
 31
0.0
  0
LINE
  5
BA
  8
0
  6
HIDDEN
 62
     7
 10
-148.146157842
 20
-788.8952577163
 30
0.0
 11
-149.5881432107
 21
-788.8952577163
 31
0.0
  0
LINE
  5
BB
  8
0
  6
HIDDEN
 62
     7
 10
438.7378043124
 20
977.1101391266
 30
0.0
 11
440.1797896812
 21
977.1101391266
 31
0.0
  0
LINE
  5
BC
  8
0
  6
HIDDEN
 62
     7
 10
-145.7068675568
 20
979.4933116387
 30
0.0
 11
-145.7068675568
 21
980.879238839
 31
0.0
  0
LINE
  5
BD
  8
0
  6
HIDDEN
 62
     7
 10
-145.7068675568
 20
980.879238839
 30
0.0
 11
-145.7068675568
 21
979.4933116387
 31
0.0
  0
LINE
  5
BE
  8
0
  6
HIDDEN
 62
     7
 10
436.2985140273
 20
980.879238839
 30
0.0
 11
436.2985140273
 21
979.4933116387
 31
0.0
  0
LINE
  5
BF
  8
0
  6
HIDDEN
 62
     7
 10
-145.7068675568
 20
-792.6643574287
 30
0.0
 11
-145.7068675568
 21
-791.2784302284
 31
0.0
  0
LINE
  5
C0
  8
0
  6
HIDDEN
 62
     7
 10
-149.5881432107
 20
977.1101391266
 30
0.0
 11
-148.146157842
 21
977.1101391266
 31
0.0
  0
LINE
  5
C1
  8
0
  6
CONTINUOUS
 62
     7
 10
337.2958249042
 20
-929.144192371
 30
0.0
 11
337.2958249042
 21
-930.1441925349
 31
0.0
  0
LINE
  5
C2
  8
0
  6
CONTINUOUS
 62
     7
 10
345.2958262155
 20
-930.1441925349
 30
0.0
 11
345.2958262155
 21
-929.144192371
 31
0.0
  0
LINE
  5
C3
  8
0
  6
CONTINUOUS
 62
     7
 10
337.2958249042
 20
-930.1441925349
 30
0.0
 11
337.7958184669
 21
-930.6441916855
 31
0.0
  0
LINE
  5
C4
  8
0
  6
CONTINUOUS
 62
     7
 10
344.7958177516
 20
-930.6441916855
 30
0.0
 11
345.2958262155
 21
-930.1441925349
 31
0.0
  0
LINE
  5
C5
  8
0
  6
CONTINUOUS
 62
     7
 10
341.2944323012
 20
-930.1441925349
 30
0.0
 11
345.2958262155
 21
-930.1441925349
 31
0.0
  0
LINE
  5
C6
  8
0
  6
CONTINUOUS
 62
     7
 10
337.2958249042
 20
-930.1441925349
 30
0.0
 11
341.2944323012
 21
-930.1441925349
 31
0.0
  0
LINE
  5
C7
  8
0
  6
CONTINUOUS
 62
     7
 10
341.294596214
 20
-930.6441916855
 30
0.0
 11
344.7958177516
 21
-930.6441916855
 31
0.0
  0
LINE
  5
C8
  8
0
  6
CONTINUOUS
 62
     7
 10
337.7958184669
 20
-930.6441916855
 30
0.0
 11
341.294596214
 21
-930.6441916855
 31
0.0
  0
LINE
  5
C9
  8
0
  6
CONTINUOUS
 62
     7
 10
-139.4541913083
 20
-919.8941922518
 30
0.0
 11
-146.5828472188
 21
-912.7655121269
 31
0.0
  0
LINE
  5
CA
  8
0
  6
CONTINUOUS
 62
     7
 10
-130.2041762879
 20
-919.8941922518
 30
0.0
 11
-139.4541913083
 21
-919.8941922518
 31
0.0
  0
LINE
  5
CB
  8
0
  6
CONTINUOUS
 62
     7
 10
-130.2041762879
 20
-919.8941922518
 30
0.0
 11
-130.2041762879
 21
-929.144192371
 31
0.0
  0
LINE
  5
CC
  8
0
  6
CONTINUOUS
 62
     7
 10
-130.2041762879
 20
-929.144192371
 30
0.0
 11
-146.7041724732
 21
-929.144192371
 31
0.0
  0
ARC
  5
CD
  8
0
  6
CONTINUOUS
 62
     7
 10
-148.7041767648
 20
-910.6441918047
 30
0.0
 40
2.999999999999953
 50
311.8103148958
 51
315.0
  0
ARC
  5
CE
  8
0
  6
CONTINUOUS
 62
     7
 10
436.9403260247
 20
-911.3178346969
 30
0.0
 40
0.684148214381708
 50
79.9466220039
 51
136.3978267356
  0
POLYLINE
  5
CF
  8
0
  6
CONTINUOUS
 62
     7
 66
     1
 10
0.0
 20
0.0
 30
0.0
  0
VERTEX
  5
2B1
  8
0
  6
CONTINUOUS
 62
     7
 10
437.0597547481
 20
-908.6441911859
 30
0.0
  0
VERTEX
  5
2B2
  8
0
  6
CONTINUOUS
 62
     7
 10
436.7212003657
 20
-908.7271448447
 30
0.0
  0
VERTEX
  5
2B3
  8
0
  6
CONTINUOUS
 62
     7
 10
436.4821857402
 20
-908.9560514844
 30
0.0
  0
VERTEX
  5
2B4
  8
0
  6
CONTINUOUS
 62
     7
 10
436.3427108714
 20
-909.2993011004
 30
0.0
  0
VERTEX
  5
2B5
  8
0
  6
CONTINUOUS
 62
     7
 10
436.2985140273
 20
-909.7659602998
 30
0.0
  0
VERTEX
  5
2B6
  8
0
  6
CONTINUOUS
 62
     7
 10
436.3468533942
 20
-910.3674830407
 30
0.0
  0
VERTEX
  5
2B7
  8
0
  6
CONTINUOUS
 62
     7
 10
436.4898151347
 20
-911.0653341053
 30
0.0
  0
VERTEX
  5
2B8
  8
0
  6
CONTINUOUS
 62
     7
 10
436.7274588535
 20
-911.8341450816
 30
0.0
  0
VERTEX
  5
2B9
  8
0
  6
CONTINUOUS
 62
     7
 10
437.0597547481
 20
-912.6441919947
 30
0.0
  0
SEQEND
  5
2B0
  8
0
  6
CONTINUOUS
 62
     7
  0
LINE
  5
D0
  8
0
  6
CONTINUOUS
 62
     7
 10
437.0597547481
 20
-908.6441918047
 30
0.0
 11
437.0597547481
 21
-910.6441912012
 31
0.0
  0
ARC
  5
D1
  8
0
  6
CONTINUOUS
 62
     7
 10
-146.3486795542
 20
-911.3178346969
 30
0.0
 40
0.684148214381708
 50
43.6021732644
 51
100.0533779961
  0
LINE
  5
D2
  8
0
  6
CONTINUOUS
 62
     7
 10
-146.4681082776
 20
-910.6441918997
 30
0.0
 11
-146.4681082776
 21
-908.6441918047
 31
0.0
  0
POLYLINE
  5
D3
  8
0
  6
CONTINUOUS
 62
     7
 66
     1
 10
0.0
 20
0.0
 30
0.0
  0
VERTEX
  5
2BB
  8
0
  6
CONTINUOUS
 62
     7
 10
-146.4681082776
 20
-912.6441919947
 30
0.0
  0
VERTEX
  5
2BC
  8
0
  6
CONTINUOUS
 62
     7
 10
-146.135812383
 20
-911.8341450816
 30
0.0
  0
VERTEX
  5
2BD
  8
0
  6
CONTINUOUS
 62
     7
 10
-145.8981686643
 20
-911.0653341053
 30
0.0
  0
VERTEX
  5
2BE
  8
0
  6
CONTINUOUS
 62
     7
 10
-145.7552069238
 20
-910.3674830407
 30
0.0
  0
VERTEX
  5
2BF
  8
0
  6
CONTINUOUS
 62
     7
 10
-145.7068675568
 20
-909.7659602998
 30
0.0
  0
VERTEX
  5
2C0
  8
0
  6
CONTINUOUS
 62
     7
 10
-145.7510644009
 20
-909.2993011004
 30
0.0
  0
VERTEX
  5
2C1
  8
0
  6
CONTINUOUS
 62
     7
 10
-145.8905392697
 20
-908.9560514844
 30
0.0
  0
VERTEX
  5
2C2
  8
0
  6
CONTINUOUS
 62
     7
 10
-146.1295538953
 20
-908.7271448447
 30
0.0
  0
VERTEX
  5
2C3
  8
0
  6
CONTINUOUS
 62
     7
 10
-146.4681082776
 20
-908.6441911859
 30
0.0
  0
SEQEND
  5
2BA
  8
0
  6
CONTINUOUS
 62
     7
  0
LINE
  5
D4
  8
0
  6
CONTINUOUS
 62
     7
 10
437.0597547481
 20
-908.6441918047
 30
0.0
 11
-146.4681082776
 21
-908.6441918047
 31
0.0
  0
LINE
  5
D5
  8
0
  6
CONTINUOUS
 62
     7
 10
420.7958227584
 20
-929.144192371
 30
0.0
 11
420.7958227584
 21
-919.8941922518
 31
0.0
  0
LINE
  5
D6
  8
0
  6
CONTINUOUS
 62
     7
 10
420.7958227584
 20
-919.8941922518
 30
0.0
 11
430.0458377788
 21
-919.8941922518
 31
0.0
  0
LINE
  5
D7
  8
0
  6
CONTINUOUS
 62
     7
 10
430.0458377788
 20
-919.8941922518
 30
0.0
 11
437.1744936893
 21
-912.7655121269
 31
0.0
  0
LINE
  5
D8
  8
0
  6
CONTINUOUS
 62
     7
 10
437.2958189437
 20
-929.144192371
 30
0.0
 11
420.7958227584
 21
-929.144192371
 31
0.0
  0
ARC
  5
D9
  8
0
  6
CONTINUOUS
 62
     7
 10
439.2958232352
 20
-910.6441918047
 30
0.0
 40
2.999999999999984
 50
225.0
 51
228.1896851042
  0
LINE
  5
DA
  8
0
  6
CONTINUOUS
 62
     7
 10
437.1744936893
 20
-912.7655121269
 30
0.0
 11
430.0458377788
 21
-919.8941922518
 31
0.0
  0
LINE
  5
DB
  8
0
  6
CONTINUOUS
 62
     7
 10
430.0458377788
 20
-919.8941922518
 30
0.0
 11
420.7958227584
 21
-919.8941922518
 31
0.0
  0
LINE
  5
DC
  8
0
  6
CONTINUOUS
 62
     7
 10
420.7958227584
 20
-919.8941922518
 30
0.0
 11
420.7958227584
 21
-929.144192371
 31
0.0
  0
LINE
  5
DD
  8
0
  6
CONTINUOUS
 62
     7
 10
420.7958227584
 20
-929.144192371
 30
0.0
 11
-130.2041762879
 21
-929.144192371
 31
0.0
  0
LINE
  5
DE
  8
0
  6
CONTINUOUS
 62
     7
 10
-130.2041762879
 20
-919.8941922518
 30
0.0
 11
-130.2041762879
 21
-929.144192371
 31
0.0
  0
LINE
  5
DF
  8
0
  6
CONTINUOUS
 62
     7
 10
-139.4541913083
 20
-919.8941922518
 30
0.0
 11
-130.2041762879
 21
-919.8941922518
 31
0.0
  0
LINE
  5
E0
  8
0
  6
CONTINUOUS
 62
     7
 10
-146.5828472188
 20
-912.7655121269
 30
0.0
 11
-139.4541913083
 21
-919.8941922518
 31
0.0
  0
ARC
  5
E1
  8
0
  6
CONTINUOUS
 62
     7
 10
-148.7041767648
 20
-910.6441918047
 30
0.0
 40
2.999999999999975
 50
315.0
 51
318.1896851042
  0
ARC
  5
E2
  8
0
  6
CONTINUOUS
 62
     7
 10
439.2958232352
 20
-910.6441918047
 30
0.0
 40
2.999999999999953
 50
221.8103148958
 51
225.0
  0
LINE
  5
E3
  8
0
  6
CONTINUOUS
 62
     7
 10
-146.7041724732
 20
-929.144192371
 30
0.0
 11
-150.7041805795
 21
-929.144192371
 31
0.0
  0
LINE
  5
E4
  8
0
  6
CONTINUOUS
 62
     7
 10
-150.7041805795
 20
-912.8802599157
 30
0.0
 11
-150.7041805795
 21
-929.144192371
 31
0.0
  0
POLYLINE
  5
E5
  8
0
  6
CONTINUOUS
 62
     7
 66
     1
 10
0.0
 20
0.0
 30
0.0
  0
VERTEX
  5
2C5
  8
0
  6
CONTINUOUS
 62
     7
 10
-150.7041805795
 20
-912.8802599157
 30
0.0
  0
VERTEX
  5
2C6
  8
0
  6
CONTINUOUS
 62
     7
 10
-150.6213003209
 20
-913.212552085
 30
0.0
  0
VERTEX
  5
2C7
  8
0
  6
CONTINUOUS
 62
     7
 10
-150.3793948701
 20
-913.4501883531
 30
0.0
  0
VERTEX
  5
2C8
  8
0
  6
CONTINUOUS
 62
     7
 10
-149.9930375626
 20
-913.5931687201
 30
0.0
  0
VERTEX
  5
2C9
  8
0
  6
CONTINUOUS
 62
     7
 10
-149.4818979314
 20
-913.6414927202
 30
0.0
  0
VERTEX
  5
2CA
  8
0
  6
CONTINUOUS
 62
     7
 10
-148.8977426102
 20
-913.5973037923
 30
0.0
  0
VERTEX
  5
2CB
  8
0
  6
CONTINUOUS
 62
     7
 10
-148.2526117375
 20
-913.4578284579
 30
0.0
  0
VERTEX
  5
2CC
  8
0
  6
CONTINUOUS
 62
     7
 10
-147.5145870259
 20
-913.2188138323
 30
0.0
  0
VERTEX
  5
2CD
  8
0
  6
CONTINUOUS
 62
     7
 10
-146.7041724732
 20
-912.8802599157
 30
0.0
  0
SEQEND
  5
2C4
  8
0
  6
CONTINUOUS
 62
     7
  0
ARC
  5
E6
  8
0
  6
CONTINUOUS
 62
     7
 10
438.6628632379
 20
-912.9978332105
 30
0.0
 40
0.6437868715700705
 50
308.0947967916
 51
10.5228515722
  0
LINE
  5
E7
  8
0
  6
CONTINUOUS
 62
     7
 10
439.2958229968
 20
-912.8802599157
 30
0.0
 11
441.2958270499
 21
-912.8802599157
 31
0.0
  0
POLYLINE
  5
E8
  8
0
  6
CONTINUOUS
 62
     7
 66
     1
 10
0.0
 20
0.0
 30
0.0
  0
VERTEX
  5
2CF
  8
0
  6
CONTINUOUS
 62
     7
 10
437.2958189437
 20
-912.8802599157
 30
0.0
  0
VERTEX
  5
2D0
  8
0
  6
CONTINUOUS
 62
     7
 10
438.1062334964
 20
-913.2188138323
 30
0.0
  0
VERTEX
  5
2D1
  8
0
  6
CONTINUOUS
 62
     7
 10
438.844258208
 20
-913.4578284579
 30
0.0
  0
VERTEX
  5
2D2
  8
0
  6
CONTINUOUS
 62
     7
 10
439.4893890807
 20
-913.5973037923
 30
0.0
  0
VERTEX
  5
2D3
  8
0
  6
CONTINUOUS
 62
     7
 10
440.0735444019
 20
-913.6414927202
 30
0.0
  0
VERTEX
  5
2D4
  8
0
  6
CONTINUOUS
 62
     7
 10
440.5846840331
 20
-913.5931687201
 30
0.0
  0
VERTEX
  5
2D5
  8
0
  6
CONTINUOUS
 62
     7
 10
440.9710413406
 20
-913.4501883531
 30
0.0
  0
VERTEX
  5
2D6
  8
0
  6
CONTINUOUS
 62
     7
 10
441.2129467914
 20
-913.212552085
 30
0.0
  0
VERTEX
  5
2D7
  8
0
  6
CONTINUOUS
 62
     7
 10
441.2958270499
 20
-912.8802599157
 30
0.0
  0
SEQEND
  5
2CE
  8
0
  6
CONTINUOUS
 62
     7
  0
LINE
  5
E9
  8
0
  6
CONTINUOUS
 62
     7
 10
441.2958270499
 20
-929.144192371
 30
0.0
 11
441.2958270499
 21
-912.8802599157
 31
0.0
  0
LINE
  5
EA
  8
0
  6
CONTINUOUS
 62
     7
 10
441.2958270499
 20
-929.144192371
 30
0.0
 11
437.2958189437
 21
-929.144192371
 31
0.0
  0
ARC
  5
EB
  8
0
  6
CONTINUOUS
 62
     7
 10
-148.0712167675
 20
-912.9978332105
 30
0.0
 40
0.643786871570053
 50
169.4771484278
 51
231.9052032084
  0
LINE
  5
EC
  8
0
  6
CONTINUOUS
 62
     7
 10
-150.7041805795
 20
-912.8802599157
 30
0.0
 11
-148.7041765263
 21
-912.8802599157
 31
0.0
  0
LINE
  5
ED
  8
0
  6
CONTINUOUS
 62
     7
 10
-146.4681082776
 20
-910.6441918997
 30
0.0
 11
-146.7041724732
 21
-910.6441918997
 31
0.0
  0
LINE
  5
EE
  8
0
  6
CONTINUOUS
 62
     7
 10
-146.7041724732
 20
-910.6441918997
 30
0.0
 11
-146.7041724732
 21
-908.6441918047
 31
0.0
  0
LINE
  5
EF
  8
0
  6
CONTINUOUS
 62
     7
 10
-146.4681082776
 20
-908.6441918047
 30
0.0
 11
-146.7041724732
 21
-908.6441918047
 31
0.0
  0
LINE
  5
F0
  8
0
  6
CONTINUOUS
 62
     7
 10
437.2958189437
 20
-910.6441918997
 30
0.0
 11
437.2958189437
 21
-908.6441918047
 31
0.0
  0
LINE
  5
F1
  8
0
  6
CONTINUOUS
 62
     7
 10
437.0597547481
 20
-910.6441918997
 30
0.0
 11
437.2958189437
 21
-910.6441918997
 31
0.0
  0
LINE
  5
F2
  8
0
  6
CONTINUOUS
 62
     7
 10
437.0597547481
 20
-908.6441918047
 30
0.0
 11
437.2958189437
 21
-908.6441918047
 31
0.0
  0
LINE
  5
F3
  8
0
  6
CONTINUOUS
 62
     7
 10
-148.7041765263
 20
-912.6441919947
 30
0.0
 11
-150.7041805795
 21
-912.6441919947
 31
0.0
  0
LINE
  5
F4
  8
0
  6
CONTINUOUS
 62
     7
 10
-148.7041765263
 20
-912.6441919947
 30
0.0
 11
-148.7041765263
 21
-912.8802599157
 31
0.0
  0
LINE
  5
F5
  8
0
  6
CONTINUOUS
 62
     7
 10
-150.7041805795
 20
-912.6441919947
 30
0.0
 11
-150.7041805795
 21
-912.8802599157
 31
0.0
  0
LINE
  5
F6
  8
0
  6
CONTINUOUS
 62
     7
 10
439.2958229968
 20
-912.6441919947
 30
0.0
 11
441.2958270499
 21
-912.6441919947
 31
0.0
  0
LINE
  5
F7
  8
0
  6
CONTINUOUS
 62
     7
 10
439.2958229968
 20
-912.6441919947
 30
0.0
 11
439.2958229968
 21
-912.8802599157
 31
0.0
  0
LINE
  5
F8
  8
0
  6
CONTINUOUS
 62
     7
 10
441.2958270499
 20
-912.6441919947
 30
0.0
 11
441.2958270499
 21
-912.8802599157
 31
0.0
  0
ARC
  5
F9
  8
0
  6
CONTINUOUS
 62
     7
 10
-146.7041840789
 20
-912.6441841143
 30
0.0
 40
1.999992447447788
 50
89.9996675204
 51
180.000225758
  0
ARC
  5
FA
  8
0
  6
CONTINUOUS
 62
     7
 10
-146.7041955045
 20
-912.6441766753
 30
0.0
 40
3.999985075026989
 50
89.9996701006
 51
180.0002194355
  0
ARC
  5
FB
  8
0
  6
CONTINUOUS
 62
     7
 10
437.2958305494
 20
-912.6441841143
 30
0.0
 40
1.999992447447788
 50
359.999774242
 51
90.0003324796
  0
ARC
  5
FC
  8
0
  6
CONTINUOUS
 62
     7
 10
437.2958419749
 20
-912.6441766753
 30
0.0
 40
3.999985075026989
 50
359.9997805646
 51
90.0003298994
  0
ARC
  5
FD
  8
0
  6
CONTINUOUS
 62
     7
 10
443.8848835981
 20
-909.3062658084
 30
0.0
 40
7.597640097036786
 50
191.6926317582
 51
206.0616017165
  0
LINE
  5
FE
  8
0
  6
CONTINUOUS
 62
     7
 10
438.1062334964
 20
-913.2188138323
 30
0.0
 11
437.2958189437
 21
-912.8802599156
 31
0.0
  0
ARC
  5
FF
  8
0
  6
HIDDEN
 62
     7
 10
-111.7041767648
 20
-910.1441918047
 30
0.0
 40
7.516648189186476
 50
183.8140748343
 51
356.1859251657
  0
ARC
  5
100
  8
0
  6
HIDDEN
 62
     7
 10
402.2958232352
 20
-910.1441918047
 30
0.0
 40
7.516648189186518
 50
183.8140748343
 51
356.1859251657
  0
LINE
  5
101
  8
0
  6
HIDDEN
 62
     7
 10
341.2940746734
 20
-911.6441918308
 30
0.0
 11
346.295828242
 21
-911.6441918308
 31
0.0
  0
LINE
  5
102
  8
0
  6
HIDDEN
 62
     7
 10
336.2958228776
 20
-911.6441918308
 30
0.0
 11
341.2940746734
 21
-911.6441918308
 31
0.0
  0
POLYLINE
  5
103
  8
0
  6
HIDDEN
 62
     7
 66
     1
 10
0.0
 20
0.0
 30
0.0
  0
VERTEX
  5
2D9
  8
0
  6
HIDDEN
 62
     7
 10
436.4449030349
 20
-910.8460139254
 30
0.0
  0
VERTEX
  5
2DA
  8
0
  6
HIDDEN
 62
     7
 10
436.3427108714
 20
-910.9717461983
 30
0.0
  0
VERTEX
  5
2DB
  8
0
  6
HIDDEN
 62
     7
 10
436.2987524459
 20
-911.203808268
 30
0.0
  0
SEQEND
  5
2D8
  8
0
  6
HIDDEN
 62
     7
  0
POLYLINE
  5
104
  8
0
  6
HIDDEN
 62
     7
 66
     1
 10
0.0
 20
0.0
 30
0.0
  0
VERTEX
  5
2DD
  8
0
  6
HIDDEN
 62
     7
 10
437.0597547481
 20
-912.6441919947
 30
0.0
  0
VERTEX
  5
2DE
  8
0
  6
HIDDEN
 62
     7
 10
437.0597547481
 20
-912.6441919947
 30
0.0
  0
SEQEND
  5
2DC
  8
0
  6
HIDDEN
 62
     7
  0
POLYLINE
  5
105
  8
0
  6
HIDDEN
 62
     7
 66
     1
 10
0.0
 20
0.0
 30
0.0
  0
VERTEX
  5
2E0
  8
0
  6
HIDDEN
 62
     7
 10
-146.4681082776
 20
-912.6441919947
 30
0.0
  0
VERTEX
  5
2E1
  8
0
  6
HIDDEN
 62
     7
 10
-146.4681082776
 20
-912.6441919947
 30
0.0
  0
SEQEND
  5
2DF
  8
0
  6
HIDDEN
 62
     7
  0
POLYLINE
  5
106
  8
0
  6
HIDDEN
 62
     7
 66
     1
 10
0.0
 20
0.0
 30
0.0
  0
VERTEX
  5
2E3
  8
0
  6
HIDDEN
 62
     7
 10
-145.7071059754
 20
-911.203808268
 30
0.0
  0
VERTEX
  5
2E4
  8
0
  6
HIDDEN
 62
     7
 10
-145.7510644009
 20
-910.9717461983
 30
0.0
  0
VERTEX
  5
2E5
  8
0
  6
HIDDEN
 62
     7
 10
-145.8532565644
 20
-910.8460139254
 30
0.0
  0
SEQEND
  5
2E2
  8
0
  6
HIDDEN
 62
     7
  0
ARC
  5
107
  8
0
  6
HIDDEN
 62
     7
 10
438.7383148457
 20
-913.2055699172
 30
0.0
 40
0.4391693899041396
 50
262.7756614963
 51
317.1060491413
  0
POLYLINE
  5
108
  8
0
  6
HIDDEN
 62
     7
 66
     1
 10
0.0
 20
0.0
 30
0.0
  0
VERTEX
  5
2E7
  8
0
  6
HIDDEN
 62
     7
 10
437.2958189437
 20
-912.8802599157
 30
0.0
  0
VERTEX
  5
2E8
  8
0
  6
HIDDEN
 62
     7
 10
437.2958189437
 20
-912.8802599157
 30
0.0
  0
SEQEND
  5
2E6
  8
0
  6
HIDDEN
 62
     7
  0
ARC
  5
109
  8
0
  6
HIDDEN
 62
     7
 10
-148.1466683752
 20
-913.2055699172
 30
0.0
 40
0.4391693899041187
 50
222.8939508587
 51
277.2243385037
  0
POLYLINE
  5
10A
  8
0
  6
HIDDEN
 62
     7
 66
     1
 10
0.0
 20
0.0
 30
0.0
  0
VERTEX
  5
2EA
  8
0
  6
HIDDEN
 62
     7
 10
-146.7041724732
 20
-912.8802599157
 30
0.0
  0
VERTEX
  5
2EB
  8
0
  6
HIDDEN
 62
     7
 10
-146.7041724732
 20
-912.8802599157
 30
0.0
  0
SEQEND
  5
2E9
  8
0
  6
HIDDEN
 62
     7
  0
LINE
  5
10B
  8
0
  6
HIDDEN
 62
     7
 10
439.2958229968
 20
-929.144192371
 30
0.0
 11
439.2958229968
 21
-912.8802599157
 31
0.0
  0
LINE
  5
10C
  8
0
  6
HIDDEN
 62
     7
 10
437.0597547481
 20
-910.6441918997
 30
0.0
 11
-146.4681082776
 21
-910.6441918997
 31
0.0
  0
LINE
  5
10D
  8
0
  6
HIDDEN
 62
     7
 10
-148.7041765263
 20
-912.8802599157
 30
0.0
 11
-148.7041765263
 21
-929.144192371
 31
0.0
  0
LINE
  5
10E
  8
0
  6
HIDDEN
 62
     7
 10
415.7789892146
 20
-913.1477255145
 30
0.0
 11
424.8126691768
 21
-913.1477255145
 31
0.0
  0
LINE
  5
10F
  8
0
  6
HIDDEN
 62
     7
 10
-125.1873427441
 20
-913.1477255145
 30
0.0
 11
-134.2210227063
 21
-913.1477255145
 31
0.0
  0
LINE
  5
110
  8
0
  6
HIDDEN
 62
     7
 10
417.2958380172
 20
-911.8441917239
 30
0.0
 11
423.2958203742
 21
-911.8441917239
 31
0.0
  0
LINE
  5
111
  8
0
  6
HIDDEN
 62
     7
 10
-126.7041915467
 20
-911.8441917239
 30
0.0
 11
-132.7041739037
 21
-911.8441917239
 31
0.0
  0
POLYLINE
  5
112
  8
0
  6
HIDDEN
 62
     7
 66
     1
 10
0.0
 20
0.0
 30
0.0
  0
VERTEX
  5
2ED
  8
0
  6
HIDDEN
 62
     7
 10
-146.7041724732
 20
-912.8802599156
 30
0.0
  0
VERTEX
  5
2EE
  8
0
  6
HIDDEN
 62
     7
 10
-146.7041724732
 20
-912.8802599156
 30
0.0
  0
SEQEND
  5
2EC
  8
0
  6
HIDDEN
 62
     7
  0
ARC
  5
113
  8
0
  6
HIDDEN
 62
     7
 10
439.7502590214
 20
-909.8689250086
 30
0.0
 40
3.446749330786596
 50
173.4479783235
 51
196.4680888374
  0
LINE
  5
114
  8
0
  6
HIDDEN
 62
     7
 10
436.9643277118
 20
-908.6675720031
 30
0.0
 11
437.0597547481
 21
-908.6441911859
 31
0.0
  0
POLYLINE
  5
115
  8
0
  6
HIDDEN
 62
     7
 66
     1
 10
0.0
 20
0.0
 30
0.0
  0
VERTEX
  5
2F0
  8
0
  6
HIDDEN
 62
     7
 10
-146.4681082776
 20
-912.6441919947
 30
0.0
  0
VERTEX
  5
2F1
  8
0
  6
HIDDEN
 62
     7
 10
-146.4681082776
 20
-912.6441919947
 30
0.0
  0
SEQEND
  5
2EF
  8
0
  6
HIDDEN
 62
     7
  0
LINE
  5
116
  8
0
  6
HIDDEN
 62
     7
 10
440.0670772979
 20
-913.6410033101
 30
0.0
 11
439.6468943545
 21
-913.6092186677
 31
0.0
  0
POLYLINE
  5
117
  8
0
  6
HIDDEN
 62
     7
 66
     1
 10
0.0
 20
0.0
 30
0.0
  0
VERTEX
  5
2F3
  8
0
  6
HIDDEN
 62
     7
 10
437.0597547481
 20
-912.6441919947
 30
0.0
  0
VERTEX
  5
2F4
  8
0
  6
HIDDEN
 62
     7
 10
437.0597547481
 20
-912.6441919947
 30
0.0
  0
SEQEND
  5
2F2
  8
0
  6
HIDDEN
 62
     7
  0
POLYLINE
  5
118
  8
0
  6
HIDDEN
 62
     7
 66
     1
 10
0.0
 20
0.0
 30
0.0
  0
VERTEX
  5
2F6
  8
0
  6
HIDDEN
 62
     7
 10
437.2958189437
 20
-912.8802599156
 30
0.0
  0
VERTEX
  5
2F7
  8
0
  6
HIDDEN
 62
     7
 10
437.2958189437
 20
-912.8802599156
 30
0.0
  0
SEQEND
  5
2F5
  8
0
  6
HIDDEN
 62
     7
  0
LINE
  5
119
  8
0
  6
HIDDEN
 62
     7
 10
-111.7041760495
 20
-917.6608397397
 30
0.0
 11
-99.2041730693
 21
-917.6608397397
 31
0.0
  0
LINE
  5
11A
  8
0
  6
HIDDEN
 62
     7
 10
-99.2041730693
 20
-917.6608397397
 30
0.0
 11
389.7958195398
 21
-917.6608397397
 31
0.0
  0
LINE
  5
11B
  8
0
  6
HIDDEN
 62
     7
 10
389.7958195398
 20
-917.6608397397
 30
0.0
 11
402.29582252
 21
-917.6608397397
 31
0.0
  0
LINE
  5
11C
  8
0
  6
HIDDEN
 62
     7
 10
336.2958228776
 20
-910.6441918997
 30
0.0
 11
336.2958228776
 21
-911.6441918308
 31
0.0
  0
LINE
  5
11D
  8
0
  6
HIDDEN
 62
     7
 10
346.295828242
 20
-911.6441918308
 30
0.0
 11
346.295828242
 21
-910.6441918997
 31
0.0
  0
LINE
  5
11E
  8
0
  6
HIDDEN
 62
     7
 10
337.2958249042
 20
-911.6441918308
 30
0.0
 11
337.2958249042
 21
-929.144192371
 31
0.0
  0
LINE
  5
11F
  8
0
  6
HIDDEN
 62
     7
 10
345.2958262155
 20
-929.144192371
 30
0.0
 11
345.2958262155
 21
-911.6441918308
 31
0.0
  0
LINE
  5
120
  8
0
  6
HIDDEN
 62
     7
 10
436.2985140273
 20
-909.760220326
 30
0.0
 11
436.2985140273
 21
-911.2022061603
 31
0.0
  0
LINE
  5
121
  8
0
  6
HIDDEN
 62
     7
 10
-145.7068675568
 20
-911.2022061603
 30
0.0
 11
-145.7068675568
 21
-909.760220326
 31
0.0
  0
LINE
  5
122
  8
0
  6
HIDDEN
 62
     7
 10
438.6817163417
 20
-913.6414978424
 30
0.0
 11
440.0675839374
 21
-913.6414978424
 31
0.0
  0
LINE
  5
123
  8
0
  6
HIDDEN
 62
     7
 10
-149.4759374669
 20
-913.6414978424
 30
0.0
 11
-148.0900698712
 21
-913.6414978424
 31
0.0
  0
ARC
  5
124
  8
0
  6
HIDDEN
 62
     7
 10
427.1799398597
 20
-911.1141918048
 30
0.0
 40
2.470000000000027
 50
90.0
 51
139.3250604347
  0
ARC
  5
125
  8
0
  6
HIDDEN
 62
     7
 10
413.4117066108
 20
-911.1141918048
 30
0.0
 40
2.470000000000027
 50
40.6749395653
 51
90.0
  0
ARC
  5
126
  8
0
  6
HIDDEN
 62
     7
 10
-122.8200601403
 20
-911.1141918048
 30
0.0
 40
2.470000000000027
 50
90.0
 51
139.3250604347
  0
ARC
  5
127
  8
0
  6
HIDDEN
 62
     7
 10
-136.5882933892
 20
-911.1141918048
 30
0.0
 40
2.470000000000027
 50
40.6749395653
 51
90.0
  0
ARC
  5
128
  8
0
  6
HIDDEN
 62
     7
 10
427.1799398597
 20
-911.1141918048
 30
0.0
 40
0.470000000028449
 50
90.0
 51
139.3250604347
  0
ARC
  5
129
  8
0
  6
HIDDEN
 62
     7
 10
413.4117066108
 20
-911.1141918048
 30
0.0
 40
0.470000000028449
 50
40.6749395653
 51
90.0
  0
ARC
  5
12A
  8
0
  6
HIDDEN
 62
     7
 10
-122.8200601403
 20
-911.1141918048
 30
0.0
 40
0.470000000028449
 50
90.0
 51
139.3250604347
  0
ARC
  5
12B
  8
0
  6
HIDDEN
 62
     7
 10
-136.5882933892
 20
-911.1141918048
 30
0.0
 40
0.470000000028449
 50
40.6749395653
 51
90.0
  0
LINE
  5
12C
  8
0
  6
HIDDEN
 62
     7
 10
413.7681669185
 20
-910.8078613648
 30
0.0
 11
415.7789892146
 21
-913.1477255145
 31
0.0
  0
LINE
  5
12D
  8
0
  6
HIDDEN
 62
     7
 10
424.8126691768
 20
-913.1477255145
 30
0.0
 11
426.8234914729
 21
-910.8078613648
 31
0.0
  0
LINE
  5
12E
  8
0
  6
HIDDEN
 62
     7
 10
-136.2318450024
 20
-910.8078613648
 30
0.0
 11
-134.2210227063
 21
-913.1477255145
 31
0.0
  0
LINE
  5
12F
  8
0
  6
HIDDEN
 62
     7
 10
-125.1873427441
 20
-913.1477255145
 30
0.0
 11
-123.176520448
 21
-910.8078613648
 31
0.0
  0
LINE
  5
130
  8
0
  6
HIDDEN
 62
     7
 10
415.285015721
 20
-909.5043279235
 30
0.0
 11
417.2958380172
 21
-911.8441917239
 31
0.0
  0
LINE
  5
131
  8
0
  6
HIDDEN
 62
     7
 10
423.2958203742
 20
-911.8441917239
 30
0.0
 11
425.3066426704
 21
-909.5043279235
 31
0.0
  0
LINE
  5
132
  8
0
  6
HIDDEN
 62
     7
 10
-134.7149961999
 20
-909.5043279235
 30
0.0
 11
-132.7041739037
 21
-911.8441917239
 31
0.0
  0
LINE
  5
133
  8
0
  6
HIDDEN
 62
     7
 10
-126.7041915467
 20
-911.8441917239
 30
0.0
 11
-124.6933692506
 21
-909.5043279235
 31
0.0
  0
LINE
  5
134
  8
0
  6
HIDDEN
 62
     7
 10
-125.1873427441
 20
-913.1477255145
 30
0.0
 11
-126.7041915467
 21
-911.8441917239
 31
0.0
  0
LINE
  5
135
  8
0
  6
HIDDEN
 62
     7
 10
-132.7041739037
 20
-911.8441917239
 30
0.0
 11
-134.2210227063
 21
-913.1477255145
 31
0.0
  0
LINE
  5
136
  8
0
  6
HIDDEN
 62
     7
 10
424.8126691768
 20
-913.1477255145
 30
0.0
 11
423.2958203742
 21
-911.8441917239
 31
0.0
  0
LINE
  5
137
  8
0
  6
HIDDEN
 62
     7
 10
417.2958380172
 20
-911.8441917239
 30
0.0
 11
415.7789892146
 21
-913.1477255145
 31
0.0
  0
LINE
  5
138
  8
0
  6
CONTINUOUS
 62
     7
 10
600.7763065412
 20
-697.8925550033
 30
0.0
 11
601.7763067051
 21
-697.8925550033
 31
0.0
  0
LINE
  5
139
  8
0
  6
CONTINUOUS
 62
     7
 10
601.7763067051
 20
-689.8925387909
 30
0.0
 11
600.7763065412
 21
-689.8925387909
 31
0.0
  0
LINE
  5
13A
  8
0
  6
CONTINUOUS
 62
     7
 10
601.7763067051
 20
-697.8925550033
 30
0.0
 11
602.2763058557
 21
-697.3925316383
 31
0.0
  0
LINE
  5
13B
  8
0
  6
CONTINUOUS
 62
     7
 10
602.2763058557
 20
-690.3925621559
 30
0.0
 11
601.7763067051
 21
-689.8925387909
 31
0.0
  0
LINE
  5
13C
  8
0
  6
CONTINUOUS
 62
     7
 10
601.7763067051
 20
-697.8925550033
 30
0.0
 11
601.7763067051
 21
-689.8925387909
 31
0.0
  0
LINE
  5
13D
  8
0
  6
CONTINUOUS
 62
     7
 10
602.2763058557
 20
-697.3925316383
 30
0.0
 11
602.2763058557
 21
-690.3925621559
 31
0.0
  0
POLYLINE
  5
13E
  8
0
  6
CONTINUOUS
 62
     7
 66
     1
 10
0.0
 20
0.0
 30
0.0
  0
VERTEX
  5
2F9
  8
0
  6
CONTINUOUS
 62
     7
 10
580.2763057705
 20
977.871350045
 30
0.0
  0
VERTEX
  5
2FA
  8
0
  6
CONTINUOUS
 62
     7
 10
580.3591863644
 20
977.5390541504
 30
0.0
  0
VERTEX
  5
2FB
  8
0
  6
CONTINUOUS
 62
     7
 10
580.6010902291
 20
977.3014700363
 30
0.0
  0
VERTEX
  5
2FC
  8
0
  6
CONTINUOUS
 62
     7
 10
580.9874460231
 20
977.1584784935
 30
0.0
  0
VERTEX
  5
2FD
  8
0
  6
CONTINUOUS
 62
     7
 10
581.4985754681
 20
977.1101391266
 30
0.0
  0
VERTEX
  5
2FE
  8
0
  6
CONTINUOUS
 62
     7
 10
582.0827449919
 20
977.1543061684
 30
0.0
  0
VERTEX
  5
2FF
  8
0
  6
CONTINUOUS
 62
     7
 10
582.7278792406
 20
977.2937810372
 30
0.0
  0
VERTEX
  5
300
  8
0
  6
CONTINUOUS
 62
     7
 10
583.4659060477
 20
977.5327956627
 30
0.0
  0
VERTEX
  5
301
  8
0
  6
CONTINUOUS
 62
     7
 10
584.2763061649
 20
977.871350045
 30
0.0
  0
SEQEND
  5
2F8
  8
0
  6
CONTINUOUS
 62
     7
  0
POLYLINE
  5
13F
  8
0
  6
CONTINUOUS
 62
     7
 66
     1
 10
0.0
 20
0.0
 30
0.0
  0
VERTEX
  5
303
  8
0
  6
CONTINUOUS
 62
     7
 10
584.2763061649
 20
-789.6564686348
 30
0.0
  0
VERTEX
  5
304
  8
0
  6
CONTINUOUS
 62
     7
 10
583.4659060477
 20
-789.3179142524
 30
0.0
  0
VERTEX
  5
305
  8
0
  6
CONTINUOUS
 62
     7
 10
582.7278792406
 20
-789.0788996269
 30
0.0
  0
VERTEX
  5
306
  8
0
  6
CONTINUOUS
 62
     7
 10
582.0827449919
 20
-788.9394247581
 30
0.0
  0
VERTEX
  5
307
  8
0
  6
CONTINUOUS
 62
     7
 10
581.4985754681
 20
-788.8952577163
 30
0.0
  0
VERTEX
  5
308
  8
0
  6
CONTINUOUS
 62
     7
 10
580.9874460231
 20
-788.9435970832
 30
0.0
  0
VERTEX
  5
309
  8
0
  6
CONTINUOUS
 62
     7
 10
580.6010902291
 20
-789.0865886261
 30
0.0
  0
VERTEX
  5
30A
  8
0
  6
CONTINUOUS
 62
     7
 10
580.3591863644
 20
-789.3241727401
 30
0.0
  0
VERTEX
  5
30B
  8
0
  6
CONTINUOUS
 62
     7
 10
580.2763057705
 20
-789.6564686348
 30
0.0
  0
SEQEND
  5
302
  8
0
  6
CONTINUOUS
 62
     7
  0
LINE
  5
140
  8
0
  6
CONTINUOUS
 62
     7
 10
580.2763059749
 20
-789.6564686348
 30
0.0
 11
580.2763059749
 21
977.871350045
 31
0.0
  0
ARC
  5
141
  8
0
  6
CONTINUOUS
 62
     7
 10
584.631877742
 20
979.433968957
 30
0.0
 40
0.6839701258101251
 50
43.5940826974
 51
100.0623979279
  0
LINE
  5
142
  8
0
  6
CONTINUOUS
 62
     7
 10
584.5123740858
 20
982.1074521492
 30
0.0
 11
584.5123740858
 21
980.1074182938
 31
0.0
  0
POLYLINE
  5
143
  8
0
  6
CONTINUOUS
 62
     7
 66
     1
 10
0.0
 20
0.0
 30
0.0
  0
VERTEX
  5
30D
  8
0
  6
CONTINUOUS
 62
     7
 10
584.5123740858
 20
978.107444043
 30
0.0
  0
VERTEX
  5
30E
  8
0
  6
CONTINUOUS
 62
     7
 10
584.8446662552
 20
978.9174711655
 30
0.0
  0
VERTEX
  5
30F
  8
0
  6
CONTINUOUS
 62
     7
 10
585.0823025233
 20
979.6863114785
 30
0.0
  0
VERTEX
  5
310
  8
0
  6
CONTINUOUS
 62
     7
 10
585.2252828902
 20
980.3841626595
 30
0.0
  0
VERTEX
  5
311
  8
0
  6
CONTINUOUS
 62
     7
 10
585.2736068903
 20
980.9856927346
 30
0.0
  0
VERTEX
  5
312
  8
0
  6
CONTINUOUS
 62
     7
 10
585.2294179625
 20
981.4523374985
 30
0.0
  0
VERTEX
  5
313
  8
0
  6
CONTINUOUS
 62
     7
 10
585.089942628
 20
981.7956006478
 30
0.0
  0
VERTEX
  5
314
  8
0
  6
CONTINUOUS
 62
     7
 10
584.8509280025
 20
982.0244824837
 30
0.0
  0
VERTEX
  5
315
  8
0
  6
CONTINUOUS
 62
     7
 10
584.5123740858
 20
982.1074521492
 30
0.0
  0
SEQEND
  5
30C
  8
0
  6
CONTINUOUS
 62
     7
  0
LINE
  5
144
  8
0
  6
CONTINUOUS
 62
     7
 10
600.7763065412
 20
978.107444043
 30
0.0
 11
600.7763065412
 21
-789.8925626327
 31
0.0
  0
ARC
  5
145
  8
0
  6
CONTINUOUS
 62
     7
 10
582.2763059749
 20
-791.8925592949
 30
0.0
 40
3.00000000000002
 50
41.8103148958
 51
48.1896851042
  0
ARC
  5
146
  8
0
  6
CONTINUOUS
 62
     7
 10
582.2763059749
 20
980.1074407051
 30
0.0
 40
3.000000000000105
 50
311.8103148958
 51
318.1896851042
  0
LINE
  5
147
  8
0
  6
CONTINUOUS
 62
     7
 10
600.7763065412
 20
982.1074521492
 30
0.0
 11
600.7763065412
 21
978.107444043
 31
0.0
  0
LINE
  5
148
  8
0
  6
CONTINUOUS
 62
     7
 10
584.5123740858
 20
982.1074521492
 30
0.0
 11
600.7763065412
 21
982.1074521492
 31
0.0
  0
LINE
  5
149
  8
0
  6
CONTINUOUS
 62
     7
 10
582.2763060699
 20
977.871350045
 30
0.0
 11
580.2763059749
 21
977.871350045
 31
0.0
  0
ARC
  5
14A
  8
0
  6
CONTINUOUS
 62
     7
 10
582.9092786268
 20
977.7538133425
 30
0.0
 40
0.6437930016126197
 50
169.4805620577
 51
231.902867111
  0
ARC
  5
14B
  8
0
  6
CONTINUOUS
 62
     7
 10
582.9092786268
 20
-789.5389319322
 30
0.0
 40
0.6437930016126197
 50
128.097132889
 51
190.5194379423
  0
LINE
  5
14C
  8
0
  6
CONTINUOUS
 62
     7
 10
580.2763059749
 20
-789.6564686348
 30
0.0
 11
582.2763058371
 21
-789.6564686348
 31
0.0
  0
LINE
  5
14D
  8
0
  6
CONTINUOUS
 62
     7
 10
600.7763065412
 20
-789.8925626327
 30
0.0
 11
600.7763065412
 21
-793.892570739
 31
0.0
  0
LINE
  5
14E
  8
0
  6
CONTINUOUS
 62
     7
 10
584.5123740858
 20
-793.892570739
 30
0.0
 11
600.7763065412
 21
-793.892570739
 31
0.0
  0
POLYLINE
  5
14F
  8
0
  6
CONTINUOUS
 62
     7
 66
     1
 10
0.0
 20
0.0
 30
0.0
  0
VERTEX
  5
317
  8
0
  6
CONTINUOUS
 62
     7
 10
584.5123740858
 20
-793.892570739
 30
0.0
  0
VERTEX
  5
318
  8
0
  6
CONTINUOUS
 62
     7
 10
584.8509280025
 20
-793.8096010734
 30
0.0
  0
VERTEX
  5
319
  8
0
  6
CONTINUOUS
 62
     7
 10
585.089942628
 20
-793.5807192375
 30
0.0
  0
VERTEX
  5
31A
  8
0
  6
CONTINUOUS
 62
     7
 10
585.2294179625
 20
-793.2374560882
 30
0.0
  0
VERTEX
  5
31B
  8
0
  6
CONTINUOUS
 62
     7
 10
585.2736068903
 20
-792.7708113243
 30
0.0
  0
VERTEX
  5
31C
  8
0
  6
CONTINUOUS
 62
     7
 10
585.2252828902
 20
-792.1692812492
 30
0.0
  0
VERTEX
  5
31D
  8
0
  6
CONTINUOUS
 62
     7
 10
585.0823025233
 20
-791.4714300682
 30
0.0
  0
VERTEX
  5
31E
  8
0
  6
CONTINUOUS
 62
     7
 10
584.8446662552
 20
-790.7025897552
 30
0.0
  0
VERTEX
  5
31F
  8
0
  6
CONTINUOUS
 62
     7
 10
584.5123740858
 20
-789.8925626327
 30
0.0
  0
SEQEND
  5
316
  8
0
  6
CONTINUOUS
 62
     7
  0
ARC
  5
150
  8
0
  6
CONTINUOUS
 62
     7
 10
584.631877742
 20
-791.2190875468
 30
0.0
 40
0.6839701258101251
 50
259.9376020721
 51
316.4059173026
  0
LINE
  5
151
  8
0
  6
CONTINUOUS
 62
     7
 10
584.5123740858
 20
-793.892570739
 30
0.0
 11
584.5123740858
 21
-791.8925368835
 31
0.0
  0
LINE
  5
152
  8
0
  6
CONTINUOUS
 62
     7
 10
584.3976262971
 20
980.1074182938
 30
0.0
 11
584.3976262971
 21
982.1074521492
 31
0.0
  0
LINE
  5
153
  8
0
  6
CONTINUOUS
 62
     7
 10
584.5123740858
 20
982.1074521492
 30
0.0
 11
584.3976262971
 21
982.1074521492
 31
0.0
  0
LINE
  5
154
  8
0
  6
CONTINUOUS
 62
     7
 10
584.5123740858
 20
980.1074182938
 30
0.0
 11
584.3976262971
 21
980.1074182938
 31
0.0
  0
LINE
  5
155
  8
0
  6
CONTINUOUS
 62
     7
 10
580.2763059749
 20
978.107444043
 30
0.0
 11
580.2763059749
 21
977.871350045
 31
0.0
  0
LINE
  5
156
  8
0
  6
CONTINUOUS
 62
     7
 10
582.2763060699
 20
978.107444043
 30
0.0
 11
580.2763059749
 21
978.107444043
 31
0.0
  0
LINE
  5
157
  8
0
  6
CONTINUOUS
 62
     7
 10
582.2763060699
 20
978.107444043
 30
0.0
 11
582.2763060699
 21
977.871350045
 31
0.0
  0
LINE
  5
158
  8
0
  6
CONTINUOUS
 62
     7
 10
584.3976262971
 20
-793.892570739
 30
0.0
 11
584.3976262971
 21
-791.8925368835
 31
0.0
  0
LINE
  5
159
  8
0
  6
CONTINUOUS
 62
     7
 10
584.5123740858
 20
-793.892570739
 30
0.0
 11
584.3976262971
 21
-793.892570739
 31
0.0
  0
LINE
  5
15A
  8
0
  6
CONTINUOUS
 62
     7
 10
584.5123740858
 20
-791.8925368835
 30
0.0
 11
584.3976262971
 21
-791.8925368835
 31
0.0
  0
LINE
  5
15B
  8
0
  6
CONTINUOUS
 62
     7
 10
582.2763060699
 20
-789.8925626327
 30
0.0
 11
580.2763059749
 21
-789.8925626327
 31
0.0
  0
LINE
  5
15C
  8
0
  6
CONTINUOUS
 62
     7
 10
580.2763059749
 20
-789.8925626327
 30
0.0
 11
580.2763059749
 21
-789.6564686348
 31
0.0
  0
LINE
  5
15D
  8
0
  6
CONTINUOUS
 62
     7
 10
582.2763060699
 20
-789.8925626327
 30
0.0
 11
582.2763060699
 21
-789.6564686348
 31
0.0
  0
LINE
  5
15E
  8
0
  6
CONTINUOUS
 62
     7
 10
584.3976262971
 20
982.1074521492
 30
0.0
 11
584.2763061649
 21
982.1074521492
 31
0.0
  0
LINE
  5
15F
  8
0
  6
CONTINUOUS
 62
     7
 10
584.3976262971
 20
980.1074182938
 30
0.0
 11
584.3976262971
 21
982.1074521492
 31
0.0
  0
LINE
  5
160
  8
0
  6
CONTINUOUS
 62
     7
 10
584.3976262971
 20
980.1074182938
 30
0.0
 11
584.2763061649
 21
980.1074182938
 31
0.0
  0
LINE
  5
161
  8
0
  6
CONTINUOUS
 62
     7
 10
584.2763061649
 20
980.1074182938
 30
0.0
 11
584.2763061649
 21
982.1074521492
 31
0.0
  0
LINE
  5
162
  8
0
  6
CONTINUOUS
 62
     7
 10
584.3976262971
 20
-793.892570739
 30
0.0
 11
584.3976262971
 21
-791.8925368835
 31
0.0
  0
LINE
  5
163
  8
0
  6
CONTINUOUS
 62
     7
 10
584.3976262971
 20
-793.892570739
 30
0.0
 11
584.2763061649
 21
-793.892570739
 31
0.0
  0
LINE
  5
164
  8
0
  6
CONTINUOUS
 62
     7
 10
584.2763061649
 20
-791.8925368835
 30
0.0
 11
584.2763061649
 21
-793.892570739
 31
0.0
  0
LINE
  5
165
  8
0
  6
CONTINUOUS
 62
     7
 10
584.3976262971
 20
-791.8925368835
 30
0.0
 11
584.2763061649
 21
-791.8925368835
 31
0.0
  0
ARC
  5
166
  8
0
  6
CONTINUOUS
 62
     7
 10
584.2763080471
 20
-789.8925680479
 30
0.0
 40
4.000002691011889
 50
179.9999224327
 51
269.9999730391
  0
ARC
  5
167
  8
0
  6
CONTINUOUS
 62
     7
 10
584.276265328
 20
-789.8925769273
 30
0.0
 40
1.999959956640314
 50
179.9995904825
 51
270.0011699144
  0
ARC
  5
168
  8
0
  6
CONTINUOUS
 62
     7
 10
584.276265328
 20
978.1074583376
 30
0.0
 40
1.999959956640208
 50
89.9988300856
 51
180.0004095175
  0
ARC
  5
169
  8
0
  6
CONTINUOUS
 62
     7
 10
584.2763080471
 20
978.1074494582
 30
0.0
 40
4.000002691011889
 50
90.0000269609
 51
180.0000775673
  0
ARC
  5
16A
  8
0
  6
HIDDEN
 62
     7
 10
581.7763059749
 20
-760.8925592949
 30
0.0
 40
7.516648189186447
 50
273.8140748343
 51
86.1859251657
  0
ARC
  5
16B
  8
0
  6
HIDDEN
 62
     7
 10
581.7763059749
 20
949.1074407051
 30
0.0
 40
7.516648189186447
 50
273.8140748343
 51
86.1859251657
  0
LINE
  5
16C
  8
0
  6
HIDDEN
 62
     7
 10
583.276306001
 20
-698.8925421287
 30
0.0
 11
583.276306001
 21
-688.8925516655
 31
0.0
  0
POLYLINE
  5
16D
  8
0
  6
HIDDEN
 62
     7
 66
     1
 10
0.0
 20
0.0
 30
0.0
  0
VERTEX
  5
321
  8
0
  6
HIDDEN
 62
     7
 10
585.2733670748
 20
979.5478498886
 30
0.0
  0
VERTEX
  5
322
  8
0
  6
HIDDEN
 62
     7
 10
585.2294179625
 20
979.7798907708
 30
0.0
  0
VERTEX
  5
323
  8
0
  6
HIDDEN
 62
     7
 10
585.1272383719
 20
979.9055969666
 30
0.0
  0
SEQEND
  5
320
  8
0
  6
HIDDEN
 62
     7
  0
POLYLINE
  5
16E
  8
0
  6
HIDDEN
 62
     7
 66
     1
 10
0.0
 20
0.0
 30
0.0
  0
VERTEX
  5
325
  8
0
  6
HIDDEN
 62
     7
 10
584.5123740858
 20
978.107444043
 30
0.0
  0
VERTEX
  5
326
  8
0
  6
HIDDEN
 62
     7
 10
584.5123740858
 20
978.107444043
 30
0.0
  0
SEQEND
  5
324
  8
0
  6
HIDDEN
 62
     7
  0
ARC
  5
16F
  8
0
  6
HIDDEN
 62
     7
 10
582.8336495081
 20
977.5455798005
 30
0.0
 40
0.4387114222344304
 50
222.8589327393
 51
277.2517042976
  0
POLYLINE
  5
170
  8
0
  6
HIDDEN
 62
     7
 66
     1
 10
0.0
 20
0.0
 30
0.0
  0
VERTEX
  5
328
  8
0
  6
HIDDEN
 62
     7
 10
584.2763061649
 20
977.871350045
 30
0.0
  0
VERTEX
  5
329
  8
0
  6
HIDDEN
 62
     7
 10
584.2763061649
 20
977.871350045
 30
0.0
  0
SEQEND
  5
327
  8
0
  6
HIDDEN
 62
     7
  0
ARC
  5
171
  8
0
  6
HIDDEN
 62
     7
 10
582.8336495081
 20
-789.3306983902
 30
0.0
 40
0.4387114222344304
 50
82.7482957024
 51
137.1410672607
  0
POLYLINE
  5
172
  8
0
  6
HIDDEN
 62
     7
 66
     1
 10
0.0
 20
0.0
 30
0.0
  0
VERTEX
  5
32B
  8
0
  6
HIDDEN
 62
     7
 10
584.2763061649
 20
-789.6564686348
 30
0.0
  0
VERTEX
  5
32C
  8
0
  6
HIDDEN
 62
     7
 10
584.2763061649
 20
-789.6564686348
 30
0.0
  0
SEQEND
  5
32A
  8
0
  6
HIDDEN
 62
     7
  0
POLYLINE
  5
173
  8
0
  6
HIDDEN
 62
     7
 66
     1
 10
0.0
 20
0.0
 30
0.0
  0
VERTEX
  5
32E
  8
0
  6
HIDDEN
 62
     7
 10
585.1272383719
 20
-791.6907155563
 30
0.0
  0
VERTEX
  5
32F
  8
0
  6
HIDDEN
 62
     7
 10
585.2294179625
 20
-791.5650093605
 30
0.0
  0
VERTEX
  5
330
  8
0
  6
HIDDEN
 62
     7
 10
585.2733670748
 20
-791.3329684784
 30
0.0
  0
SEQEND
  5
32D
  8
0
  6
HIDDEN
 62
     7
  0
POLYLINE
  5
174
  8
0
  6
HIDDEN
 62
     7
 66
     1
 10
0.0
 20
0.0
 30
0.0
  0
VERTEX
  5
332
  8
0
  6
HIDDEN
 62
     7
 10
584.5123740858
 20
-789.8925626327
 30
0.0
  0
VERTEX
  5
333
  8
0
  6
HIDDEN
 62
     7
 10
584.5123740858
 20
-789.8925626327
 30
0.0
  0
SEQEND
  5
331
  8
0
  6
HIDDEN
 62
     7
  0
LINE
  5
175
  8
0
  6
HIDDEN
 62
     7
 10
584.5123740858
 20
-791.8925368835
 30
0.0
 11
600.7763065412
 21
-791.8925368835
 31
0.0
  0
LINE
  5
176
  8
0
  6
HIDDEN
 62
     7
 10
582.2763060699
 20
-789.6564686348
 30
0.0
 11
582.2763060699
 21
977.871350045
 31
0.0
  0
LINE
  5
177
  8
0
  6
HIDDEN
 62
     7
 10
584.5123740858
 20
980.1074182938
 30
0.0
 11
600.7763065412
 21
980.1074182938
 31
0.0
  0
LINE
  5
178
  8
0
  6
HIDDEN
 62
     7
 10
591.526306422
 20
-793.892570739
 30
0.0
 11
591.526306422
 21
-791.8925368835
 31
0.0
  0
LINE
  5
179
  8
0
  6
HIDDEN
 62
     7
 10
591.526306422
 20
982.1074521492
 30
0.0
 11
591.526306422
 21
980.1074182938
 31
0.0
  0
LINE
  5
17A
  8
0
  6
HIDDEN
 62
     7
 10
591.526306422
 20
982.1074521492
 30
0.0
 11
591.526306422
 21
980.1074182938
 31
0.0
  0
LINE
  5
17B
  8
0
  6
HIDDEN
 62
     7
 10
591.526306422
 20
-793.892570739
 30
0.0
 11
591.526306422
 21
-791.8925368835
 31
0.0
  0
LINE
  5
17C
  8
0
  6
HIDDEN
 62
     7
 10
584.7798396847
 20
886.1074364136
 30
0.0
 11
584.7798396847
 21
881.5905964325
 31
0.0
  0
LINE
  5
17D
  8
0
  6
HIDDEN
 62
     7
 10
584.7798396847
 20
890.6242763947
 30
0.0
 11
584.7798396847
 21
886.1074364136
 31
0.0
  0
LINE
  5
17E
  8
0
  6
HIDDEN
 62
     7
 10
584.7798396847
 20
-713.8925874283
 30
0.0
 11
584.7798396847
 21
-718.4094274093
 31
0.0
  0
LINE
  5
17F
  8
0
  6
HIDDEN
 62
     7
 10
584.7798396847
 20
-709.3757474472
 30
0.0
 11
584.7798396847
 21
-713.8925874283
 31
0.0
  0
LINE
  5
180
  8
0
  6
HIDDEN
 62
     7
 10
584.7798396847
 20
86.1074403252
 30
0.0
 11
584.7798396847
 21
81.5906012754
 31
0.0
  0
LINE
  5
181
  8
0
  6
HIDDEN
 62
     7
 10
584.7798396847
 20
90.6242796077
 30
0.0
 11
584.7798396847
 21
86.1074403252
 31
0.0
  0
LINE
  5
182
  8
0
  6
HIDDEN
 62
     7
 10
583.4763058941
 20
89.1074408169
 30
0.0
 11
583.4763058941
 21
83.1074407647
 31
0.0
  0
LINE
  5
183
  8
0
  6
HIDDEN
 62
     7
 10
583.4763058941
 20
-710.8925664474
 30
0.0
 11
583.4763058941
 21
-716.8925488044
 31
0.0
  0
LINE
  5
184
  8
0
  6
HIDDEN
 62
     7
 10
583.4763058941
 20
889.1074573944
 30
0.0
 11
583.4763058941
 21
883.1074154328
 31
0.0
  0
POLYLINE
  5
185
  8
0
  6
HIDDEN
 62
     7
 66
     1
 10
0.0
 20
0.0
 30
0.0
  0
VERTEX
  5
335
  8
0
  6
HIDDEN
 62
     7
 10
584.5123740858
 20
978.107444043
 30
0.0
  0
VERTEX
  5
336
  8
0
  6
HIDDEN
 62
     7
 10
584.5123740858
 20
978.107444043
 30
0.0
  0
SEQEND
  5
334
  8
0
  6
HIDDEN
 62
     7
  0
POLYLINE
  5
186
  8
0
  6
HIDDEN
 62
     7
 66
     1
 10
0.0
 20
0.0
 30
0.0
  0
VERTEX
  5
338
  8
0
  6
HIDDEN
 62
     7
 10
584.2763061649
 20
977.871350045
 30
0.0
  0
VERTEX
  5
339
  8
0
  6
HIDDEN
 62
     7
 10
584.2763061649
 20
977.871350045
 30
0.0
  0
SEQEND
  5
337
  8
0
  6
HIDDEN
 62
     7
  0
POLYLINE
  5
187
  8
0
  6
HIDDEN
 62
     7
 66
     1
 10
0.0
 20
0.0
 30
0.0
  0
VERTEX
  5
33B
  8
0
  6
HIDDEN
 62
     7
 10
584.5123740858
 20
-789.8925626327
 30
0.0
  0
VERTEX
  5
33C
  8
0
  6
HIDDEN
 62
     7
 10
584.5123740858
 20
-789.8925626327
 30
0.0
  0
SEQEND
  5
33A
  8
0
  6
HIDDEN
 62
     7
  0
POLYLINE
  5
188
  8
0
  6
HIDDEN
 62
     7
 66
     1
 10
0.0
 20
0.0
 30
0.0
  0
VERTEX
  5
33E
  8
0
  6
HIDDEN
 62
     7
 10
584.2763061649
 20
-789.6564686348
 30
0.0
  0
VERTEX
  5
33F
  8
0
  6
HIDDEN
 62
     7
 10
584.2763061649
 20
-789.6564686348
 30
0.0
  0
SEQEND
  5
33D
  8
0
  6
HIDDEN
 62
     7
  0
LINE
  5
189
  8
0
  6
HIDDEN
 62
     7
 10
589.2929539098
 20
-748.3925306846
 30
0.0
 11
589.2929539098
 21
936.6074120949
 31
0.0
  0
LINE
  5
18A
  8
0
  6
HIDDEN
 62
     7
 10
589.2929539098
 20
-760.8925783683
 30
0.0
 11
589.2929539098
 21
-748.3925306846
 31
0.0
  0
LINE
  5
18B
  8
0
  6
HIDDEN
 62
     7
 10
589.2929539098
 20
936.6074120949
 30
0.0
 11
589.2929539098
 21
949.1074597786
 31
0.0
  0
LINE
  5
18C
  8
0
  6
HIDDEN
 62
     7
 10
582.2763060699
 20
-698.8925421287
 30
0.0
 11
583.276306001
 21
-698.8925421287
 31
0.0
  0
LINE
  5
18D
  8
0
  6
HIDDEN
 62
     7
 10
583.276306001
 20
-688.8925516655
 30
0.0
 11
582.2763060699
 21
-688.8925516655
 31
0.0
  0
LINE
  5
18E
  8
0
  6
HIDDEN
 62
     7
 10
583.276306001
 20
-697.8925550033
 30
0.0
 11
600.7763065412
 21
-697.8925550033
 31
0.0
  0
LINE
  5
18F
  8
0
  6
HIDDEN
 62
     7
 10
600.7763065412
 20
-689.8925387909
 30
0.0
 11
583.276306001
 21
-689.8925387909
 31
0.0
  0
LINE
  5
190
  8
0
  6
HIDDEN
 62
     7
 10
585.2736120126
 20
979.5493996094
 30
0.0
 11
585.2736120126
 21
980.9914147805
 31
0.0
  0
LINE
  5
191
  8
0
  6
HIDDEN
 62
     7
 10
581.5045355833
 20
977.1101391266
 30
0.0
 11
582.8904204084
 21
977.1101391266
 31
0.0
  0
LINE
  5
192
  8
0
  6
HIDDEN
 62
     7
 10
582.8904204084
 20
-788.8952577163
 30
0.0
 11
581.5045355833
 21
-788.8952577163
 31
0.0
  0
LINE
  5
193
  8
0
  6
HIDDEN
 62
     7
 10
585.2736120126
 20
-792.7765333702
 30
0.0
 11
585.2736120126
 21
-791.3345181991
 31
0.0
  0
ARC
  5
194
  8
0
  6
HIDDEN
 62
     7
 10
582.746305975
 20
892.9915573296
 30
0.0
 40
0.470000000028449
 50
180.0
 51
229.3250604347
  0
ARC
  5
195
  8
0
  6
HIDDEN
 62
     7
 10
582.746305975
 20
879.2233240807
 30
0.0
 40
0.470000000028449
 50
130.6749395653
 51
180.0
  0
ARC
  5
196
  8
0
  6
HIDDEN
 62
     7
 10
582.746305975
 20
-707.0084426704
 30
0.0
 40
0.470000000028449
 50
180.0
 51
229.3250604347
  0
ARC
  5
197
  8
0
  6
HIDDEN
 62
     7
 10
582.746305975
 20
-720.7766759193
 30
0.0
 40
0.470000000028449
 50
130.6749395653
 51
180.0
  0
ARC
  5
198
  8
0
  6
HIDDEN
 62
     7
 10
582.746305975
 20
-707.0084426704
 30
0.0
 40
2.470000000000042
 50
180.0
 51
229.3250604347
  0
ARC
  5
199
  8
0
  6
HIDDEN
 62
     7
 10
582.746305975
 20
-720.7766759193
 30
0.0
 40
2.470000000000042
 50
130.6749395653
 51
180.0
  0
ARC
  5
19A
  8
0
  6
HIDDEN
 62
     7
 10
582.746305975
 20
892.9915573296
 30
0.0
 40
2.470000000000128
 50
180.0
 51
229.3250604347
  0
ARC
  5
19B
  8
0
  6
HIDDEN
 62
     7
 10
582.746305975
 20
879.2233240807
 30
0.0
 40
2.470000000000042
 50
130.6749395653
 51
180.0
  0
ARC
  5
19C
  8
0
  6
HIDDEN
 62
     7
 10
582.746305975
 20
92.9915573296
 30
0.0
 40
0.470000000028449
 50
180.0
 51
229.3250604347
  0
ARC
  5
19D
  8
0
  6
HIDDEN
 62
     7
 10
582.746305975
 20
79.2233240807
 30
0.0
 40
0.470000000028449
 50
130.6749395653
 51
180.0
  0
ARC
  5
19E
  8
0
  6
HIDDEN
 62
     7
 10
582.746305975
 20
92.9915573296
 30
0.0
 40
2.470000000000042
 50
180.0
 51
229.3250604347
  0
ARC
  5
19F
  8
0
  6
HIDDEN
 62
     7
 10
582.746305975
 20
79.2233240807
 30
0.0
 40
2.470000000000053
 50
130.6749395653
 51
180.0
  0
LINE
  5
1A0
  8
0
  6
HIDDEN
 62
     7
 10
582.439975535
 20
879.5797741364
 30
0.0
 11
584.7798396847
 21
881.5905964325
 31
0.0
  0
LINE
  5
1A1
  8
0
  6
HIDDEN
 62
     7
 10
584.7798396847
 20
890.6242763947
 30
0.0
 11
582.439975535
 21
892.6350986908
 31
0.0
  0
LINE
  5
1A2
  8
0
  6
HIDDEN
 62
     7
 10
582.439975535
 20
-720.4201901008
 30
0.0
 11
584.7798396847
 21
-718.4094274093
 31
0.0
  0
LINE
  5
1A3
  8
0
  6
HIDDEN
 62
     7
 10
584.7798396847
 20
-709.3757474472
 30
0.0
 11
582.439975535
 21
-707.364925151
 31
0.0
  0
LINE
  5
1A4
  8
0
  6
HIDDEN
 62
     7
 10
582.439975535
 20
79.5797808419
 30
0.0
 11
584.7798396847
 21
81.5906012754
 31
0.0
  0
LINE
  5
1A5
  8
0
  6
HIDDEN
 62
     7
 10
584.7798396847
 20
90.6242796077
 30
0.0
 11
582.439975535
 21
92.6351001577
 31
0.0
  0
LINE
  5
1A6
  8
0
  6
HIDDEN
 62
     7
 10
581.1364420936
 20
81.0966203312
 30
0.0
 11
583.4763058941
 21
83.1074407647
 31
0.0
  0
LINE
  5
1A7
  8
0
  6
HIDDEN
 62
     7
 10
583.4763058941
 20
89.1074408169
 30
0.0
 11
581.1364420936
 21
91.1182612504
 31
0.0
  0
LINE
  5
1A8
  8
0
  6
HIDDEN
 62
     7
 10
581.1364420936
 20
-718.9033711006
 30
0.0
 11
583.4763058941
 21
-716.8925488044
 31
0.0
  0
LINE
  5
1A9
  8
0
  6
HIDDEN
 62
     7
 10
583.4763058941
 20
-710.8925664474
 30
0.0
 11
581.1364420936
 21
-708.8817441513
 31
0.0
  0
LINE
  5
1AA
  8
0
  6
HIDDEN
 62
     7
 10
581.1364420936
 20
881.0965931366
 30
0.0
 11
583.4763058941
 21
883.1074154328
 31
0.0
  0
LINE
  5
1AB
  8
0
  6
HIDDEN
 62
     7
 10
583.4763058941
 20
889.1074573944
 30
0.0
 11
581.1364420936
 21
891.1182796906
 31
0.0
  0
LINE
  5
1AC
  8
0
  6
HIDDEN
 62
     7
 10
584.7798396847
 20
890.6242763947
 30
0.0
 11
583.4763058941
 21
889.1074573944
 31
0.0
  0
LINE
  5
1AD
  8
0
  6
HIDDEN
 62
     7
 10
583.4763058941
 20
883.1074154328
 30
0.0
 11
584.7798396847
 21
881.5905964325
 31
0.0
  0
LINE
  5
1AE
  8
0
  6
HIDDEN
 62
     7
 10
584.7798396847
 20
-709.3757474472
 30
0.0
 11
583.4763058941
 21
-710.8925664474
 31
0.0
  0
LINE
  5
1AF
  8
0
  6
HIDDEN
 62
     7
 10
583.4763058941
 20
-716.8925488044
 30
0.0
 11
584.7798396847
 21
-718.4094274093
 31
0.0
  0
LINE
  5
1B0
  8
0
  6
HIDDEN
 62
     7
 10
584.7798396847
 20
90.6242796077
 30
0.0
 11
583.4763058941
 21
89.1074408169
 31
0.0
  0
LINE
  5
1B1
  8
0
  6
HIDDEN
 62
     7
 10
583.4763058941
 20
83.1074407647
 30
0.0
 11
584.7798396847
 21
81.5906012754
 31
0.0
  0
ARC
  5
1B2
  8
0
  6
CONTINUOUS
 62
     7
 10
1329.4606869126
 20
980.1074407051
 30
0.0
 40
2.999999999999962
 50
221.8103148958
 51
228.1896851042
  0
ARC
  5
1B3
  8
0
  6
CONTINUOUS
 62
     7
 10
1329.4606869126
 20
-791.8925592949
 30
0.0
 40
2.999999999999927
 50
131.8103148958
 51
138.1896851042
  0
ARC
  5
1B4
  8
0
  6
CONTINUOUS
 62
     7
 10
741.4606869126
 20
-791.8925592949
 30
0.0
 40
2.999999999999962
 50
41.8103148958
 51
48.1896851042
  0
ARC
  5
1B5
  8
0
  6
CONTINUOUS
 62
     7
 10
741.4606869126
 20
980.1074407051
 30
0.0
 40
3.000000000000029
 50
311.8103148958
 51
318.1896851042
  0
ARC
  5
1B6
  8
0
  6
CONTINUOUS
 62
     7
 10
743.8143427717
 20
979.474420575
 30
0.0
 40
0.6438267639986657
 50
38.0996763381
 51
100.52346632
  0
LINE
  5
1B7
  8
0
  6
CONTINUOUS
 62
     7
 10
743.6967553998
 20
982.1074521492
 30
0.0
 11
743.6967553998
 21
980.1074182938
 31
0.0
  0
POLYLINE
  5
1B8
  8
0
  6
CONTINUOUS
 62
     7
 66
     1
 10
0.0
 20
0.0
 30
0.0
  0
VERTEX
  5
341
  8
0
  6
CONTINUOUS
 62
     7
 10
743.6967553998
 20
978.107444043
 30
0.0
  0
VERTEX
  5
342
  8
0
  6
CONTINUOUS
 62
     7
 10
744.0353097821
 20
978.9178287934
 30
0.0
  0
VERTEX
  5
343
  8
0
  6
CONTINUOUS
 62
     7
 10
744.2743244076
 20
979.655853505
 30
0.0
  0
VERTEX
  5
344
  8
0
  6
CONTINUOUS
 62
     7
 10
744.4137992764
 20
980.30101418
 30
0.0
  0
VERTEX
  5
345
  8
0
  6
CONTINUOUS
 62
     7
 10
744.4579961205
 20
980.8851993035
 30
0.0
  0
VERTEX
  5
346
  8
0
  6
CONTINUOUS
 62
     7
 10
744.4096567536
 20
981.3963091324
 30
0.0
  0
VERTEX
  5
347
  8
0
  6
CONTINUOUS
 62
     7
 10
744.2666950131
 20
981.7826664399
 30
0.0
  0
VERTEX
  5
348
  8
0
  6
CONTINUOUS
 62
     7
 10
744.0290512944
 20
982.0245420884
 30
0.0
  0
VERTEX
  5
349
  8
0
  6
CONTINUOUS
 62
     7
 10
743.6967553998
 20
982.1074521492
 30
0.0
  0
SEQEND
  5
340
  8
0
  6
CONTINUOUS
 62
     7
  0
POLYLINE
  5
1B9
  8
0
  6
CONTINUOUS
 62
     7
 66
     1
 10
0.0
 20
0.0
 30
0.0
  0
VERTEX
  5
34B
  8
0
  6
CONTINUOUS
 62
     7
 10
1327.2246184254
 20
982.1074521492
 30
0.0
  0
VERTEX
  5
34C
  8
0
  6
CONTINUOUS
 62
     7
 10
1326.8923225308
 20
982.0245420884
 30
0.0
  0
VERTEX
  5
34D
  8
0
  6
CONTINUOUS
 62
     7
 10
1326.6546788121
 20
981.7826664399
 30
0.0
  0
VERTEX
  5
34E
  8
0
  6
CONTINUOUS
 62
     7
 10
1326.5117170716
 20
981.3963091324
 30
0.0
  0
VERTEX
  5
34F
  8
0
  6
CONTINUOUS
 62
     7
 10
1326.4633777047
 20
980.8851993035
 30
0.0
  0
VERTEX
  5
350
  8
0
  6
CONTINUOUS
 62
     7
 10
1326.5075745488
 20
980.30101418
 30
0.0
  0
VERTEX
  5
351
  8
0
  6
CONTINUOUS
 62
     7
 10
1326.6470494175
 20
979.655853505
 30
0.0
  0
VERTEX
  5
352
  8
0
  6
CONTINUOUS
 62
     7
 10
1326.8860640431
 20
978.9178287934
 30
0.0
  0
VERTEX
  5
353
  8
0
  6
CONTINUOUS
 62
     7
 10
1327.2246184254
 20
978.107444043
 30
0.0
  0
SEQEND
  5
34A
  8
0
  6
CONTINUOUS
 62
     7
  0
LINE
  5
1BA
  8
0
  6
CONTINUOUS
 62
     7
 10
743.6967553998
 20
982.1074521492
 30
0.0
 11
1327.2246184254
 21
982.1074521492
 31
0.0
  0
ARC
  5
1BB
  8
0
  6
CONTINUOUS
 62
     7
 10
742.1341102449
 20
-789.5369905042
 30
0.0
 40
0.6839398270364307
 50
133.5934638047
 51
190.060676572
  0
LINE
  5
1BC
  8
0
  6
CONTINUOUS
 62
     7
 10
739.4606830979
 20
-789.6564686348
 30
0.0
 11
741.460687151
 21
-789.6564686348
 31
0.0
  0
POLYLINE
  5
1BD
  8
0
  6
CONTINUOUS
 62
     7
 66
     1
 10
0.0
 20
0.0
 30
0.0
  0
VERTEX
  5
355
  8
0
  6
CONTINUOUS
 62
     7
 10
743.4606912041
 20
-789.6564686348
 30
0.0
  0
VERTEX
  5
356
  8
0
  6
CONTINUOUS
 62
     7
 10
742.6506342793
 20
-789.3241727401
 30
0.0
  0
VERTEX
  5
357
  8
0
  6
CONTINUOUS
 62
     7
 10
741.8818237687
 20
-789.0865886261
 30
0.0
  0
VERTEX
  5
358
  8
0
  6
CONTINUOUS
 62
     7
 10
741.1839725876
 20
-788.9435970832
 30
0.0
  0
VERTEX
  5
359
  8
0
  6
CONTINUOUS
 62
     7
 10
740.5824425126
 20
-788.8952577163
 30
0.0
  0
VERTEX
  5
35A
  8
0
  6
CONTINUOUS
 62
     7
 10
740.1157977486
 20
-788.9394247581
 30
0.0
  0
VERTEX
  5
35B
  8
0
  6
CONTINUOUS
 62
     7
 10
739.7725345994
 20
-789.0788996269
 30
0.0
  0
VERTEX
  5
35C
  8
0
  6
CONTINUOUS
 62
     7
 10
739.5436527634
 20
-789.3179142524
 30
0.0
  0
VERTEX
  5
35D
  8
0
  6
CONTINUOUS
 62
     7
 10
739.4606830979
 20
-789.6564686348
 30
0.0
  0
SEQEND
  5
354
  8
0
  6
CONTINUOUS
 62
     7
  0
POLYLINE
  5
1BE
  8
0
  6
CONTINUOUS
 62
     7
 66
     1
 10
0.0
 20
0.0
 30
0.0
  0
VERTEX
  5
35F
  8
0
  6
CONTINUOUS
 62
     7
 10
739.4606830979
 20
977.871350045
 30
0.0
  0
VERTEX
  5
360
  8
0
  6
CONTINUOUS
 62
     7
 10
739.5436527634
 20
977.5327956627
 30
0.0
  0
VERTEX
  5
361
  8
0
  6
CONTINUOUS
 62
     7
 10
739.7725345994
 20
977.2937810372
 30
0.0
  0
VERTEX
  5
362
  8
0
  6
CONTINUOUS
 62
     7
 10
740.1157977486
 20
977.1543061684
 30
0.0
  0
VERTEX
  5
363
  8
0
  6
CONTINUOUS
 62
     7
 10
740.5824425126
 20
977.1101391266
 30
0.0
  0
VERTEX
  5
364
  8
0
  6
CONTINUOUS
 62
     7
 10
741.1839725876
 20
977.1584784935
 30
0.0
  0
VERTEX
  5
365
  8
0
  6
CONTINUOUS
 62
     7
 10
741.8818237687
 20
977.3014700363
 30
0.0
  0
VERTEX
  5
366
  8
0
  6
CONTINUOUS
 62
     7
 10
742.6506342793
 20
977.5390541504
 30
0.0
  0
VERTEX
  5
367
  8
0
  6
CONTINUOUS
 62
     7
 10
743.4606912041
 20
977.871350045
 30
0.0
  0
SEQEND
  5
35E
  8
0
  6
CONTINUOUS
 62
     7
  0
LINE
  5
1BF
  8
0
  6
CONTINUOUS
 62
     7
 10
739.4606830979
 20
-789.6564686348
 30
0.0
 11
739.4606830979
 21
977.871350045
 31
0.0
  0
LINE
  5
1C0
  8
0
  6
CONTINUOUS
 62
     7
 10
741.460687151
 20
977.871350045
 30
0.0
 11
739.4606830979
 21
977.871350045
 31
0.0
  0
ARC
  5
1C1
  8
0
  6
CONTINUOUS
 62
     7
 10
742.1341102449
 20
977.7518719145
 30
0.0
 40
0.6839398270364307
 50
169.939323428
 51
226.4065361953
  0
ARC
  5
1C2
  8
0
  6
CONTINUOUS
 62
     7
 10
743.8143427717
 20
-791.2595391647
 30
0.0
 40
0.6438267639986657
 50
259.47653368
 51
321.9003236619
  0
POLYLINE
  5
1C3
  8
0
  6
CONTINUOUS
 62
     7
 66
     1
 10
0.0
 20
0.0
 30
0.0
  0
VERTEX
  5
369
  8
0
  6
CONTINUOUS
 62
     7
 10
743.6967553998
 20
-793.892570739
 30
0.0
  0
VERTEX
  5
36A
  8
0
  6
CONTINUOUS
 62
     7
 10
744.0290512944
 20
-793.8096606781
 30
0.0
  0
VERTEX
  5
36B
  8
0
  6
CONTINUOUS
 62
     7
 10
744.2666950131
 20
-793.5677850296
 30
0.0
  0
VERTEX
  5
36C
  8
0
  6
CONTINUOUS
 62
     7
 10
744.4096567536
 20
-793.1814277221
 30
0.0
  0
VERTEX
  5
36D
  8
0
  6
CONTINUOUS
 62
     7
 10
744.4579961205
 20
-792.6703178932
 30
0.0
  0
VERTEX
  5
36E
  8
0
  6
CONTINUOUS
 62
     7
 10
744.4137992764
 20
-792.0861327697
 30
0.0
  0
VERTEX
  5
36F
  8
0
  6
CONTINUOUS
 62
     7
 10
744.2743244076
 20
-791.4409720947
 30
0.0
  0
VERTEX
  5
370
  8
0
  6
CONTINUOUS
 62
     7
 10
744.0353097821
 20
-790.7029473831
 30
0.0
  0
VERTEX
  5
371
  8
0
  6
CONTINUOUS
 62
     7
 10
743.6967553998
 20
-789.8925626327
 30
0.0
  0
SEQEND
  5
368
  8
0
  6
CONTINUOUS
 62
     7
  0
LINE
  5
1C4
  8
0
  6
CONTINUOUS
 62
     7
 10
743.6967553998
 20
-793.892570739
 30
0.0
 11
743.6967553998
 21
-791.8925368835
 31
0.0
  0
POLYLINE
  5
1C5
  8
0
  6
CONTINUOUS
 62
     7
 66
     1
 10
0.0
 20
0.0
 30
0.0
  0
VERTEX
  5
373
  8
0
  6
CONTINUOUS
 62
     7
 10
1327.2246184254
 20
-789.8925626327
 30
0.0
  0
VERTEX
  5
374
  8
0
  6
CONTINUOUS
 62
     7
 10
1326.8860640431
 20
-790.7029473831
 30
0.0
  0
VERTEX
  5
375
  8
0
  6
CONTINUOUS
 62
     7
 10
1326.6470494175
 20
-791.4409720947
 30
0.0
  0
VERTEX
  5
376
  8
0
  6
CONTINUOUS
 62
     7
 10
1326.5075745488
 20
-792.0861327697
 30
0.0
  0
VERTEX
  5
377
  8
0
  6
CONTINUOUS
 62
     7
 10
1326.4633777047
 20
-792.6703178932
 30
0.0
  0
VERTEX
  5
378
  8
0
  6
CONTINUOUS
 62
     7
 10
1326.5117170716
 20
-793.1814277221
 30
0.0
  0
VERTEX
  5
379
  8
0
  6
CONTINUOUS
 62
     7
 10
1326.6546788121
 20
-793.5677850296
 30
0.0
  0
VERTEX
  5
37A
  8
0
  6
CONTINUOUS
 62
     7
 10
1326.8923225308
 20
-793.8096606781
 30
0.0
  0
VERTEX
  5
37B
  8
0
  6
CONTINUOUS
 62
     7
 10
1327.2246184254
 20
-793.892570739
 30
0.0
  0
SEQEND
  5
372
  8
0
  6
CONTINUOUS
 62
     7
  0
LINE
  5
1C6
  8
0
  6
CONTINUOUS
 62
     7
 10
743.6967553998
 20
-793.892570739
 30
0.0
 11
1327.2246184254
 21
-793.892570739
 31
0.0
  0
LINE
  5
1C7
  8
0
  6
CONTINUOUS
 62
     7
 10
1327.2246184254
 20
980.1074182938
 30
0.0
 11
1327.2246184254
 21
982.1074521492
 31
0.0
  0
ARC
  5
1C8
  8
0
  6
CONTINUOUS
 62
     7
 10
1327.1070310535
 20
979.474420575
 30
0.0
 40
0.6438267639985221
 50
79.47653368
 51
141.9003236619
  0
ARC
  5
1C9
  8
0
  6
CONTINUOUS
 62
     7
 10
1327.1070310535
 20
-791.2595391647
 30
0.0
 40
0.6438267639985221
 50
218.0996763381
 51
280.52346632
  0
LINE
  5
1CA
  8
0
  6
CONTINUOUS
 62
     7
 10
1327.2246184254
 20
-791.8925368835
 30
0.0
 11
1327.2246184254
 21
-793.892570739
 31
0.0
  0
ARC
  5
1CB
  8
0
  6
CONTINUOUS
 62
     7
 10
1328.7872635803
 20
977.7518719145
 30
0.0
 40
0.6839398270360151
 50
313.5934638047
 51
10.060676572
  0
LINE
  5
1CC
  8
0
  6
CONTINUOUS
 62
     7
 10
1329.4606866742
 20
977.871350045
 30
0.0
 11
1331.4606907273
 21
977.871350045
 31
0.0
  0
POLYLINE
  5
1CD
  8
0
  6
CONTINUOUS
 62
     7
 66
     1
 10
0.0
 20
0.0
 30
0.0
  0
VERTEX
  5
37D
  8
0
  6
CONTINUOUS
 62
     7
 10
1327.4606826211
 20
977.871350045
 30
0.0
  0
VERTEX
  5
37E
  8
0
  6
CONTINUOUS
 62
     7
 10
1328.2707395459
 20
977.5390541504
 30
0.0
  0
VERTEX
  5
37F
  8
0
  6
CONTINUOUS
 62
     7
 10
1329.0395500565
 20
977.3014700363
 30
0.0
  0
VERTEX
  5
380
  8
0
  6
CONTINUOUS
 62
     7
 10
1329.7374012375
 20
977.1584784935
 30
0.0
  0
VERTEX
  5
381
  8
0
  6
CONTINUOUS
 62
     7
 10
1330.3389313126
 20
977.1101391266
 30
0.0
  0
VERTEX
  5
382
  8
0
  6
CONTINUOUS
 62
     7
 10
1330.8055760766
 20
977.1543061684
 30
0.0
  0
VERTEX
  5
383
  8
0
  6
CONTINUOUS
 62
     7
 10
1331.1488392258
 20
977.2937810372
 30
0.0
  0
VERTEX
  5
384
  8
0
  6
CONTINUOUS
 62
     7
 10
1331.3777210618
 20
977.5327956627
 30
0.0
  0
VERTEX
  5
385
  8
0
  6
CONTINUOUS
 62
     7
 10
1331.4606907273
 20
977.871350045
 30
0.0
  0
SEQEND
  5
37C
  8
0
  6
CONTINUOUS
 62
     7
  0
ARC
  5
1CE
  8
0
  6
CONTINUOUS
 62
     7
 10
1328.7872635803
 20
-789.5369905042
 30
0.0
 40
0.6839398270360151
 50
349.939323428
 51
46.4065361953
  0
POLYLINE
  5
1CF
  8
0
  6
CONTINUOUS
 62
     7
 66
     1
 10
0.0
 20
0.0
 30
0.0
  0
VERTEX
  5
387
  8
0
  6
CONTINUOUS
 62
     7
 10
1331.4606907273
 20
-789.6564686348
 30
0.0
  0
VERTEX
  5
388
  8
0
  6
CONTINUOUS
 62
     7
 10
1331.3777210618
 20
-789.3179142524
 30
0.0
  0
VERTEX
  5
389
  8
0
  6
CONTINUOUS
 62
     7
 10
1331.1488392258
 20
-789.0788996269
 30
0.0
  0
VERTEX
  5
38A
  8
0
  6
CONTINUOUS
 62
     7
 10
1330.8055760766
 20
-788.9394247581
 30
0.0
  0
VERTEX
  5
38B
  8
0
  6
CONTINUOUS
 62
     7
 10
1330.3389313126
 20
-788.8952577163
 30
0.0
  0
VERTEX
  5
38C
  8
0
  6
CONTINUOUS
 62
     7
 10
1329.7374012375
 20
-788.9435970832
 30
0.0
  0
VERTEX
  5
38D
  8
0
  6
CONTINUOUS
 62
     7
 10
1329.0395500565
 20
-789.0865886261
 30
0.0
  0
VERTEX
  5
38E
  8
0
  6
CONTINUOUS
 62
     7
 10
1328.2707395459
 20
-789.3241727401
 30
0.0
  0
VERTEX
  5
38F
  8
0
  6
CONTINUOUS
 62
     7
 10
1327.4606826211
 20
-789.6564686348
 30
0.0
  0
SEQEND
  5
386
  8
0
  6
CONTINUOUS
 62
     7
  0
LINE
  5
1D0
  8
0
  6
CONTINUOUS
 62
     7
 10
1331.4606907273
 20
-789.6564686348
 30
0.0
 11
1329.4606866742
 21
-789.6564686348
 31
0.0
  0
LINE
  5
1D1
  8
0
  6
CONTINUOUS
 62
     7
 10
1331.4606907273
 20
-789.6564686348
 30
0.0
 11
1331.4606907273
 21
977.871350045
 31
0.0
  0
CIRCLE
  5
1D2
  8
0
  6
CONTINUOUS
 62
     7
 10
760.4606869126
 20
886.1074407051
 30
0.0
 40
2.999999999999886
  0
CIRCLE
  5
1D3
  8
0
  6
CONTINUOUS
 62
     7
 10
760.4606869126
 20
-713.8925592949
 30
0.0
 40
2.999999999999886
  0
CIRCLE
  5
1D4
  8
0
  6
CONTINUOUS
 62
     7
 10
760.4606869126
 20
86.1074407051
 30
0.0
 40
2.999999999999886
  0
CIRCLE
  5
1D5
  8
0
  6
CONTINUOUS
 62
     7
 10
1310.4606869126
 20
886.1074407051
 30
0.0
 40
3.0
  0
CIRCLE
  5
1D6
  8
0
  6
CONTINUOUS
 62
     7
 10
1310.4606869126
 20
-713.8925592949
 30
0.0
 40
3.0
  0
CIRCLE
  5
1D7
  8
0
  6
CONTINUOUS
 62
     7
 10
1310.4606869126
 20
86.1074407051
 30
0.0
 40
3.0
  0
LINE
  5
1D8
  8
0
  6
CONTINUOUS
 62
     7
 10
741.460687151
 20
-789.6564686348
 30
0.0
 11
741.460687151
 21
-789.8925626327
 31
0.0
  0
LINE
  5
1D9
  8
0
  6
CONTINUOUS
 62
     7
 10
741.460687151
 20
-789.8925626327
 30
0.0
 11
739.4606830979
 21
-789.8925626327
 31
0.0
  0
LINE
  5
1DA
  8
0
  6
CONTINUOUS
 62
     7
 10
739.4606830979
 20
-789.6564686348
 30
0.0
 11
739.4606830979
 21
-789.8925626327
 31
0.0
  0
LINE
  5
1DB
  8
0
  6
CONTINUOUS
 62
     7
 10
739.4606830979
 20
977.871350045
 30
0.0
 11
739.4606830979
 21
978.107444043
 31
0.0
  0
LINE
  5
1DC
  8
0
  6
CONTINUOUS
 62
     7
 10
741.460687151
 20
978.107444043
 30
0.0
 11
739.4606830979
 21
978.107444043
 31
0.0
  0
LINE
  5
1DD
  8
0
  6
CONTINUOUS
 62
     7
 10
741.460687151
 20
977.871350045
 30
0.0
 11
741.460687151
 21
978.107444043
 31
0.0
  0
LINE
  5
1DE
  8
0
  6
CONTINUOUS
 62
     7
 10
743.5820164586
 20
980.1074182938
 30
0.0
 11
743.6967553998
 21
980.1074182938
 31
0.0
  0
LINE
  5
1DF
  8
0
  6
CONTINUOUS
 62
     7
 10
743.5820164586
 20
982.1074521492
 30
0.0
 11
743.5820164586
 21
980.1074182938
 31
0.0
  0
LINE
  5
1E0
  8
0
  6
CONTINUOUS
 62
     7
 10
743.5820164586
 20
982.1074521492
 30
0.0
 11
743.6967553998
 21
982.1074521492
 31
0.0
  0
LINE
  5
1E1
  8
0
  6
CONTINUOUS
 62
     7
 10
743.5820164586
 20
-791.8925368835
 30
0.0
 11
743.5820164586
 21
-793.892570739
 31
0.0
  0
LINE
  5
1E2
  8
0
  6
CONTINUOUS
 62
     7
 10
743.5820164586
 20
-793.892570739
 30
0.0
 11
743.6967553998
 21
-793.892570739
 31
0.0
  0
LINE
  5
1E3
  8
0
  6
CONTINUOUS
 62
     7
 10
743.5820164586
 20
-791.8925368835
 30
0.0
 11
743.6967553998
 21
-791.8925368835
 31
0.0
  0
LINE
  5
1E4
  8
0
  6
CONTINUOUS
 62
     7
 10
1331.4606907273
 20
978.107444043
 30
0.0
 11
1329.4606866742
 21
978.107444043
 31
0.0
  0
LINE
  5
1E5
  8
0
  6
CONTINUOUS
 62
     7
 10
1331.4606907273
 20
977.871350045
 30
0.0
 11
1331.4606907273
 21
978.107444043
 31
0.0
  0
LINE
  5
1E6
  8
0
  6
CONTINUOUS
 62
     7
 10
1329.4606866742
 20
977.871350045
 30
0.0
 11
1329.4606866742
 21
978.107444043
 31
0.0
  0
LINE
  5
1E7
  8
0
  6
CONTINUOUS
 62
     7
 10
1327.3393573666
 20
-793.892570739
 30
0.0
 11
1327.3393573666
 21
-791.8925368835
 31
0.0
  0
LINE
  5
1E8
  8
0
  6
CONTINUOUS
 62
     7
 10
1327.3393573666
 20
-793.892570739
 30
0.0
 11
1327.2246184254
 21
-793.892570739
 31
0.0
  0
LINE
  5
1E9
  8
0
  6
CONTINUOUS
 62
     7
 10
1327.3393573666
 20
-791.8925368835
 30
0.0
 11
1327.2246184254
 21
-791.8925368835
 31
0.0
  0
LINE
  5
1EA
  8
0
  6
CONTINUOUS
 62
     7
 10
1327.3393573666
 20
980.1074182938
 30
0.0
 11
1327.3393573666
 21
982.1074521492
 31
0.0
  0
LINE
  5
1EB
  8
0
  6
CONTINUOUS
 62
     7
 10
1327.3393573666
 20
980.1074182938
 30
0.0
 11
1327.2246184254
 21
980.1074182938
 31
0.0
  0
LINE
  5
1EC
  8
0
  6
CONTINUOUS
 62
     7
 10
1327.3393573666
 20
982.1074521492
 30
0.0
 11
1327.2246184254
 21
982.1074521492
 31
0.0
  0
LINE
  5
1ED
  8
0
  6
CONTINUOUS
 62
     7
 10
1331.4606907273
 20
-789.8925626327
 30
0.0
 11
1329.4606866742
 21
-789.8925626327
 31
0.0
  0
LINE
  5
1EE
  8
0
  6
CONTINUOUS
 62
     7
 10
1329.4606866742
 20
-789.6564686348
 30
0.0
 11
1329.4606866742
 21
-789.8925626327
 31
0.0
  0
LINE
  5
1EF
  8
0
  6
CONTINUOUS
 62
     7
 10
1331.4606907273
 20
-789.6564686348
 30
0.0
 11
1331.4606907273
 21
-789.8925626327
 31
0.0
  0
LINE
  5
1F0
  8
0
  6
CONTINUOUS
 62
     7
 10
743.5820164586
 20
-791.8925368835
 30
0.0
 11
743.5820164586
 21
-793.892570739
 31
0.0
  0
LINE
  5
1F1
  8
0
  6
CONTINUOUS
 62
     7
 10
743.4606912041
 20
-793.892570739
 30
0.0
 11
743.5820164586
 21
-793.892570739
 31
0.0
  0
LINE
  5
1F2
  8
0
  6
CONTINUOUS
 62
     7
 10
743.4606912041
 20
-791.8925368835
 30
0.0
 11
743.4606912041
 21
-793.892570739
 31
0.0
  0
LINE
  5
1F3
  8
0
  6
CONTINUOUS
 62
     7
 10
743.4606912041
 20
-791.8925368835
 30
0.0
 11
743.5820164586
 21
-791.8925368835
 31
0.0
  0
LINE
  5
1F4
  8
0
  6
CONTINUOUS
 62
     7
 10
743.4606912041
 20
982.1074521492
 30
0.0
 11
743.5820164586
 21
982.1074521492
 31
0.0
  0
LINE
  5
1F5
  8
0
  6
CONTINUOUS
 62
     7
 10
743.5820164586
 20
982.1074521492
 30
0.0
 11
743.5820164586
 21
980.1074182938
 31
0.0
  0
LINE
  5
1F6
  8
0
  6
CONTINUOUS
 62
     7
 10
743.4606912041
 20
980.1074182938
 30
0.0
 11
743.5820164586
 21
980.1074182938
 31
0.0
  0
LINE
  5
1F7
  8
0
  6
CONTINUOUS
 62
     7
 10
743.4606912041
 20
980.1074182938
 30
0.0
 11
743.4606912041
 21
982.1074521492
 31
0.0
  0
LINE
  5
1F8
  8
0
  6
CONTINUOUS
 62
     7
 10
1327.3393573666
 20
980.1074182938
 30
0.0
 11
1327.3393573666
 21
982.1074521492
 31
0.0
  0
LINE
  5
1F9
  8
0
  6
CONTINUOUS
 62
     7
 10
1327.4606826211
 20
982.1074521492
 30
0.0
 11
1327.4606826211
 21
980.1074182938
 31
0.0
  0
LINE
  5
1FA
  8
0
  6
CONTINUOUS
 62
     7
 10
1327.4606826211
 20
980.1074182938
 30
0.0
 11
1327.3393573666
 21
980.1074182938
 31
0.0
  0
LINE
  5
1FB
  8
0
  6
CONTINUOUS
 62
     7
 10
1327.4606826211
 20
982.1074521492
 30
0.0
 11
1327.3393573666
 21
982.1074521492
 31
0.0
  0
LINE
  5
1FC
  8
0
  6
CONTINUOUS
 62
     7
 10
1327.3393573666
 20
-793.892570739
 30
0.0
 11
1327.3393573666
 21
-791.8925368835
 31
0.0
  0
LINE
  5
1FD
  8
0
  6
CONTINUOUS
 62
     7
 10
1327.4606826211
 20
-793.892570739
 30
0.0
 11
1327.4606826211
 21
-791.8925368835
 31
0.0
  0
LINE
  5
1FE
  8
0
  6
CONTINUOUS
 62
     7
 10
1327.4606826211
 20
-791.8925368835
 30
0.0
 11
1327.3393573666
 21
-791.8925368835
 31
0.0
  0
LINE
  5
1FF
  8
0
  6
CONTINUOUS
 62
     7
 10
1327.4606826211
 20
-793.892570739
 30
0.0
 11
1327.3393573666
 21
-793.892570739
 31
0.0
  0
ARC
  5
200
  8
0
  6
CONTINUOUS
 62
     7
 10
743.4606808422
 20
-789.8925431923
 30
0.0
 40
1.999993691256021
 50
180.0005569292
 51
270.0002968491
  0
ARC
  5
201
  8
0
  6
CONTINUOUS
 62
     7
 10
743.4606747041
 20
-789.8925791327
 30
0.0
 40
3.999991606251154
 50
179.9997636542
 51
270.0002363458
  0
ARC
  5
202
  8
0
  6
CONTINUOUS
 62
     7
 10
743.4606808422
 20
978.1074246026
 30
0.0
 40
1.999993691256132
 50
89.9997031509
 51
179.9994430708
  0
ARC
  5
203
  8
0
  6
CONTINUOUS
 62
     7
 10
743.4606747041
 20
978.107460543
 30
0.0
 40
3.99999160625104
 50
89.9997636542
 51
180.0002363458
  0
ARC
  5
204
  8
0
  6
CONTINUOUS
 62
     7
 10
1327.460692983
 20
978.1074246026
 30
0.0
 40
1.999993691256021
 50
0.0005569292
 51
90.0002968491
  0
ARC
  5
205
  8
0
  6
CONTINUOUS
 62
     7
 10
1327.4606991211
 20
978.107460543
 30
0.0
 40
3.999991606251154
 50
359.9997636542
 51
90.0002363458
  0
ARC
  5
206
  8
0
  6
CONTINUOUS
 62
     7
 10
1327.460692983
 20
-789.8925431923
 30
0.0
 40
1.999993691256021
 50
269.9997031509
 51
359.9994430708
  0
ARC
  5
207
  8
0
  6
CONTINUOUS
 62
     7
 10
1327.4606991211
 20
-789.8925791327
 30
0.0
 40
3.99999160625104
 50
269.9997636542
 51
0.0002363458
  0
ENDSEC
  0
EOF
