  0
SECTION
  2
HEADER
  9
$ACADVER
  1
AC1009
  9
$DWGCODEPAGE
  3
ansi_1252
  9
$INSBASE
 10
0.0
 20
0.0
 30
0.0
  9
$EXTMIN
 10
0.0
 20
0.0
 30
0.0
  9
$EXTMAX
 10
297.0
 20
210.0
 30
0.0
  9
$LIMMIN
 10
0.0
 20
0.0
  9
$LIMMAX
 10
0.0
 20
0.0
  9
$ORTHOMODE
 70
     0
  9
$REGENMODE
 70
     1
  9
$FILLMODE
 70
     1
  9
$QTEXTMODE
 70
     0
  9
$MIRRTEXT
 70
     1
  9
$DRAGMODE
 70
     2
  9
$LTSCALE
 40
1.0
  9
$OSMODE
 70
    37
  9
$ATTMODE
 70
     1
  9
$TEXTSIZE
 40
3.5277777778
  9
$TRACEWID
 40
1.0
  9
$TEXTSTYLE
  7
STANDARD
  9
$CLAYER
  8
0
  9
$CELTYPE
  6
BYLAYER
  9
$CECOLOR
 62
   256
  9
$DIMSCALE
 40
1.0
  9
$DIMASZ
 40
1.8
  9
$DIMEXO
 40
0.7
  9
$DIMDLI
 40
3.75
  9
$DIMRND
 40
0.0
  9
$DIMDLE
 40
0.0
  9
$DIMEXE
 40
0.5
  9
$DIMTP
 40
0.0
  9
$DIMTM
 40
0.0
  9
$DIMTXT
 40
2.4694444444
  9
$DIMCEN
 40
2.5
  9
$DIMTSZ
 40
0.0
  9
$DIMTOL
 70
     0
  9
$DIMLIM
 70
     0
  9
$DIMTIH
 70
     1
  9
$DIMTOH
 70
     1
  9
$DIMSE1
 70
     0
  9
$DIMSE2
 70
     0
  9
$DIMTAD
 70
     1
  9
$DIMZIN
 70
     0
  9
$DIMBLK
  1

  9
$DIMASO
 70
     1
  9
$DIMSHO
 70
     1
  9
$DIMPOST
  1

  9
$DIMAPOST
  1

  9
$DIMALT
 70
     0
  9
$DIMALTD
 70
     3
  9
$DIMALTF
 40
0.0393700787
  9
$DIMLFAC
 40
1.0
  9
$DIMTOFL
 70
     1
  9
$DIMTVP
 40
0.0
  9
$DIMTIX
 70
     0
  9
$DIMSOXD
 70
     0
  9
$DIMSAH
 70
     0
  9
$DIMBLK1
  1

  9
$DIMBLK2
  1

  9
$DIMSTYLE
  2
ISO-25
  9
$DIMCLRD
 70
     0
  9
$DIMCLRE
 70
     0
  9
$DIMCLRT
 70
     0
  9
$DIMTFAC
 40
1.0
  9
$DIMGAP
 40
2.0
  9
$LUNITS
 70
     2
  9
$LUPREC
 70
     2
  9
$SKETCHINC
 40
1.0
  9
$FILLETRAD
 40
10.0
  9
$AUNITS
 70
     0
  9
$AUPREC
 70
     0
  9
$MENU
  1
.
  9
$ELEVATION
 40
0.0
  9
$PELEVATION
 40
0.0
  9
$THICKNESS
 40
0.0
  9
$LIMCHECK
 70
     0
  9
$CHAMFERA
 40
10.0
  9
$CHAMFERB
 40
10.0
  9
$SKPOLY
 70
     0
  9
$TDCREATE
 40
2455110.330297118
  9
$TDUPDATE
 40
2455110.33029713
  9
$TDINDWG
 40
0.0000000116
  9
$TDUSRTIMER
 40
0.0000000116
  9
$USRTIMER
 70
     1
  9
$ANGBASE
 50
0.0
  9
$ANGDIR
 70
     0
  9
$PDMODE
 70
     0
  9
$PDSIZE
 40
-1.0
  9
$PLINEWID
 40
0.0
  9
$COORDS
 70
     1
  9
$SPLFRAME
 70
     0
  9
$SPLINETYPE
 70
     6
  9
$SPLINESEGS
 70
     8
  9
$ATTDIA
 70
     0
  9
$ATTREQ
 70
     1
  9
$HANDLING
 70
     1
  9
$HANDSEED
  5
394
  9
$SURFTAB1
 70
     6
  9
$SURFTAB2
 70
     6
  9
$SURFTYPE
 70
     6
  9
$SURFU
 70
     6
  9
$SURFV
 70
     6
  9
$UCSNAME
  2

  9
$UCSORG
 10
0.0
 20
0.0
 30
0.0
  9
$UCSXDIR
 10
1.0
 20
0.0
 30
0.0
  9
$UCSYDIR
 10
0.0
 20
1.0
 30
0.0
  9
$PUCSNAME
  2

  9
$PUCSORG
 10
0.0
 20
0.0
 30
0.0
  9
$PUCSXDIR
 10
1.0
 20
0.0
 30
0.0
  9
$PUCSYDIR
 10
0.0
 20
1.0
 30
0.0
  9
$USERI1
 70
     0
  9
$USERI2
 70
     0
  9
$USERI3
 70
     0
  9
$USERI4
 70
     0
  9
$USERI5
 70
     0
  9
$USERR1
 40
0.0
  9
$USERR2
 40
0.0
  9
$USERR3
 40
0.0
  9
$USERR4
 40
0.0
  9
$USERR5
 40
0.0
  9
$WORLDVIEW
 70
     1
  9
$SHADEDGE
 70
     3
  9
$SHADEDIF
 70
    70
  9
$TILEMODE
 70
     1
  9
$MAXACTVP
 70
    64
  9
$PLIMCHECK
 70
     0
  9
$PEXTMIN
 10
1.0000000000E+20
 20
1.0000000000E+20
 30
1.0000000000E+20
  9
$PEXTMAX
 10
-1.0000000000E+20
 20
-1.0000000000E+20
 30
-1.0000000000E+20
  9
$PLIMMIN
 10
0.0
 20
0.0
  9
$PLIMMAX
 10
420.0
 20
297.0
  9
$UNITMODE
 70
     0
  9
$VISRETAIN
 70
     1
  9
$PLINEGEN
 70
     0
  9
$PSLTSCALE
 70
     1
  0
ENDSEC
  0
SECTION
  2
TABLES
  0
TABLE
  2
VPORT
 70
     1
  0
VPORT
  2
*ACTIVE
 70
     0
 10
0.0
 20
0.0
 11
1.0
 21
1.0
 12
148.5
 22
105.0
 13
0.0
 23
0.0
 14
10.0
 24
10.0
 15
10.0
 25
10.0
 16
0.0
 26
0.0
 36
1.0
 17
0.0
 27
0.0
 37
0.0
 40
210.0
 41
1.4142857143
 42
50.0
 43
0.0
 44
0.0
 50
0.0
 51
0.0
 71
     0
 72
  2000
 73
     1
 74
     3
 75
     0
 76
     0
 77
     0
 78
     0
  0
ENDTAB
  0
TABLE
  2
LTYPE
 70
     6
  0
LTYPE
  2
CONTINUOUS
 70
     0
  3
Solid line
 72
    65
 73
     0
 40
0.0
  0
LTYPE
  2
HIDDEN
 70
     0
  3
Hidden __ __ __ __ __ __ __ __ __ __ __ __ __ __
 72
    65
 73
     2
 40
1.905
 49
1.27
 49
-0.635
  0
LTYPE
  2
PHANTOM
 70
     0
  3
Phantom ______  __  __  ______  __  __  ______
 72
    65
 73
     6
 40
12.7
 49
6.35
 49
-1.27
 49
1.27
 49
-1.27
 49
1.27
 49
-1.27
  0
LTYPE
  2
CENTER
 70
     0
  3
Center ____ _ ____ _ ____ _ ____ _ ____ _ ____
 72
    65
 73
     4
 40
10.16
 49
6.35
 49
-1.27
 49
1.27
 49
-1.27
  0
LTYPE
  2
CENTERX2
 70
     0
  3
Center (2x) ________  __  ________  __  _____
 72
    65
 73
     4
 40
20.32
 49
12.7
 49
-2.54
 49
2.54
 49
-2.54
  0
LTYPE
  2
DOT2
 70
     0
  3
Dot (.5x) ........................................
 72
    65
 73
     2
 40
0.635
 49
0.0
 49
-0.635
  0
ENDTAB
  0
TABLE
  2
LAYER
 70
     5
  0
LAYER
  2
0
 70
     0
 62
     7
  6
CONTINUOUS
  0
LAYER
  2
SLD-0
 70
     0
 62
     7
  6
CONTINUOUS
  0
LAYER
  2
AM_BOR
 70
     0
 62
     7
  6
CONTINUOUS
  0
LAYER
  2
BIEGLINIE__ZU_
 70
     0
 62
     8
  6
CONTINUOUS
  0
LAYER
  2
BIEGELINIE__WEG_
 70
     0
 62
     8
  6
HIDDEN
  0
ENDTAB
  0
TABLE
  2
STYLE
 70
     1
  0
STYLE
  2
STANDARD
 70
     0
 40
0.0
 41
1.0
 50
0.0
 71
     0
 42
2.5
  3
txt
  4

  0
ENDTAB
  0
TABLE
  2
VIEW
 70
     0
  0
ENDTAB
  0
TABLE
  2
UCS
 70
     0
  0
ENDTAB
  0
TABLE
  2
APPID
 70
     1
  0
APPID
  2
ACAD
 70
     0
  0
ENDTAB
  0
TABLE
  2
DIMSTYLE
 70
     1
  0
DIMSTYLE
  2
ISO-25
 70
     0
  3

  4

  5

  6

  7

 40
1.0
 41
2.5
 42
0.625
 43
3.75
 44
1.25
 45
0.0
 46
0.0
 47
0.0
 48
0.0
140
2.5
141
2.5
142
0.0
143
0.0393700787
144
1.0
145
0.0
146
1.0
147
0.625
 71
     0
 72
     0
 73
     0
 74
     0
 75
     0
 76
     0
 77
     1
 78
     8
170
     0
171
     3
172
     1
173
     0
174
     0
175
     0
176
     0
177
     0
178
     0
  0
ENDTAB
  0
ENDSEC
  0
SECTION
  2
BLOCKS
  0
BLOCK
  8
0
  2
$MODEL_SPACE
 70
     0
 10
0.0
 20
0.0
 30
0.0
  3
$MODEL_SPACE
  1

  0
ENDBLK
  5
21
  8
0
  0
BLOCK
 67
     1
  8
0
  2
$PAPER_SPACE
 70
     0
 10
0.0
 20
0.0
 30
0.0
  3
$PAPER_SPACE
  1

  0
ENDBLK
  5
1D
 67
     1
  8
0
  0
ENDSEC
  0
SECTION
  2
ENTITIES
  0
TEXT
  5
33
  8
SLD-0
 10
663.075535991
 20
-920.8881141965
 30
0.0
 40
19.05
  1
RS/GA  BxH 800 x 1800
 41
0.6166666667
 11
663.075535991
 21
-926.3309713393
 31
0.0
 73
     1
  0
ARC
  5
34
  8
0
  6
CONTINUOUS
 62
     7
 10
489.7958232352
 20
936.6074407051
 30
0.0
 40
20.00000000000006
 50
360.0
 51
90.0
  0
ARC
  5
35
  8
0
  6
CONTINUOUS
 62
     7
 10
489.7958232352
 20
936.6074407051
 30
0.0
 40
5.000000000000114
 50
360.0
 51
90.0
  0
LINE
  5
36
  8
0
  6
CONTINUOUS
 62
     7
 10
-199.2041767648
 20
956.6074407051
 30
0.0
 11
489.7958232352
 21
956.6074407051
 31
0.0
  0
LINE
  5
37
  8
0
  6
CONTINUOUS
 62
     7
 10
-199.2041767648
 20
941.6074407051
 30
0.0
 11
489.7958232352
 21
941.6074407051
 31
0.0
  0
LINE
  5
38
  8
0
  6
CONTINUOUS
 62
     7
 10
489.7958232352
 20
-768.3925592949
 30
0.0
 11
-199.2041767648
 21
-768.3925592949
 31
0.0
  0
LINE
  5
39
  8
0
  6
CONTINUOUS
 62
     7
 10
489.7958232352
 20
-753.3925592949
 30
0.0
 11
-199.2041767648
 21
-753.3925592949
 31
0.0
  0
ARC
  5
3A
  8
0
  6
CONTINUOUS
 62
     7
 10
-199.2041767648
 20
-748.3925592949
 30
0.0
 40
19.99999999999977
 50
180.0
 51
270.0
  0
ARC
  5
3B
  8
0
  6
CONTINUOUS
 62
     7
 10
-199.2041767648
 20
-748.3925592949
 30
0.0
 40
4.999999999999886
 50
180.0
 51
270.0
  0
LINE
  5
3C
  8
0
  6
CONTINUOUS
 62
     7
 10
509.7958232352
 20
936.6074407051
 30
0.0
 11
509.7958232352
 21
-748.3925592949
 31
0.0
  0
LINE
  5
3D
  8
0
  6
CONTINUOUS
 62
     7
 10
494.7958232352
 20
936.6074407051
 30
0.0
 11
494.7958232352
 21
-748.3925592949
 31
0.0
  0
LINE
  5
3E
  8
0
  6
CONTINUOUS
 62
     7
 10
-204.2041767648
 20
936.6074407051
 30
0.0
 11
-204.2041767648
 21
-748.3925592949
 31
0.0
  0
LINE
  5
3F
  8
0
  6
CONTINUOUS
 62
     7
 10
-219.2041767648
 20
936.6074407051
 30
0.0
 11
-219.2041767648
 21
-748.3925592949
 31
0.0
  0
ARC
  5
40
  8
0
  6
CONTINUOUS
 62
     7
 10
-199.2041767648
 20
936.6074407051
 30
0.0
 40
20.00000000000023
 50
90.0
 51
180.0
  0
ARC
  5
41
  8
0
  6
CONTINUOUS
 62
     7
 10
-199.2041767648
 20
936.6074407051
 30
0.0
 40
5.000000000000227
 50
90.0
 51
180.0
  0
ARC
  5
42
  8
0
  6
CONTINUOUS
 62
     7
 10
489.7958232352
 20
-748.3925592949
 30
0.0
 40
19.99999999999983
 50
270.0
 51
360.0
  0
ARC
  5
43
  8
0
  6
CONTINUOUS
 62
     7
 10
489.7958232352
 20
-748.3925592949
 30
0.0
 40
4.999999999999943
 50
270.0
 51
360.0
  0
ARC
  5
44
  8
0
  6
CONTINUOUS
 62
     7
 10
-246.704176146
 20
-789.8925592949
 30
0.0
 40
2.000000618793848
 50
180.0
 51
269.9999822729
  0
ARC
  5
45
  8
0
  6
CONTINUOUS
 62
     7
 10
-246.7041767648
 20
-789.8925592949
 30
0.0
 40
4.0
 50
180.0
 51
270.0
  0
LINE
  5
46
  8
0
  6
CONTINUOUS
 62
     7
 10
-248.7041773836
 20
978.1074407051
 30
0.0
 11
-248.7041767648
 21
-789.8925592949
 31
0.0
  0
LINE
  5
47
  8
0
  6
CONTINUOUS
 62
     7
 10
-250.7041767648
 20
978.1074407051
 30
0.0
 11
-250.7041767648
 21
-789.8925592949
 31
0.0
  0
LINE
  5
48
  8
0
  6
CONTINUOUS
 62
     7
 10
-230.2041767648
 20
-793.8925592949
 30
0.0
 11
-230.2041767648
 21
-791.8925592948
 31
0.0
  0
LINE
  5
49
  8
0
  6
CONTINUOUS
 62
     7
 10
-230.2041767648
 20
-791.8925592948
 30
0.0
 11
520.7958232352
 21
-791.8925592949
 31
0.0
  0
LINE
  5
4A
  8
0
  6
CONTINUOUS
 62
     7
 10
520.7958232352
 20
-793.8925592949
 30
0.0
 11
520.7958232352
 21
-791.8925592949
 31
0.0
  0
LINE
  5
4B
  8
0
  6
CONTINUOUS
 62
     7
 10
-230.2041767648
 20
-793.8925592949
 30
0.0
 11
520.7958232352
 21
-793.8925592949
 31
0.0
  0
LINE
  5
4C
  8
0
  6
CONTINUOUS
 62
     7
 10
520.7958232352
 20
982.1074407051
 30
0.0
 11
520.7958232352
 21
980.1074407051
 31
0.0
  0
LINE
  5
4D
  8
0
  6
CONTINUOUS
 62
     7
 10
520.7958232352
 20
980.1074407051
 30
0.0
 11
-230.2041767648
 21
980.1074407051
 31
0.0
  0
LINE
  5
4E
  8
0
  6
CONTINUOUS
 62
     7
 10
-230.2041767648
 20
982.1074407051
 30
0.0
 11
-230.2041767648
 21
980.1074407051
 31
0.0
  0
LINE
  5
4F
  8
0
  6
CONTINUOUS
 62
     7
 10
520.7958232352
 20
982.1074407051
 30
0.0
 11
-230.2041767648
 21
982.1074407051
 31
0.0
  0
LINE
  5
50
  8
0
  6
CONTINUOUS
 62
     7
 10
-230.2041767648
 20
-791.8925592949
 30
0.0
 11
-230.2041767648
 21
-793.8925592949
 31
0.0
  0
LINE
  5
51
  8
0
  6
CONTINUOUS
 62
     7
 10
-246.7041767648
 20
-791.8925592949
 30
0.0
 11
-230.2041767648
 21
-791.8925592949
 31
0.0
  0
LINE
  5
52
  8
0
  6
CONTINUOUS
 62
     7
 10
-246.7041767648
 20
-793.8925592949
 30
0.0
 11
-230.2041767648
 21
-793.8925592949
 31
0.0
  0
LINE
  5
53
  8
0
  6
CONTINUOUS
 62
     7
 10
-230.2041767648
 20
980.1074407051
 30
0.0
 11
-230.2041767648
 21
982.1074407051
 31
0.0
  0
LINE
  5
54
  8
0
  6
CONTINUOUS
 62
     7
 10
-230.2041767648
 20
982.1074407051
 30
0.0
 11
-246.7041767648
 21
982.1074407051
 31
0.0
  0
LINE
  5
55
  8
0
  6
CONTINUOUS
 62
     7
 10
-230.2041767648
 20
980.1074407051
 30
0.0
 11
-246.7041767648
 21
980.1074413239
 31
0.0
  0
ARC
  5
56
  8
0
  6
CONTINUOUS
 62
     7
 10
-246.7041767648
 20
978.1074407051
 30
0.0
 40
4.0
 50
90.0
 51
180.0
  0
ARC
  5
57
  8
0
  6
CONTINUOUS
 62
     7
 10
-246.704176146
 20
978.1074407051
 30
0.0
 40
2.000001237587696
 50
90.0000177271
 51
180.0
  0
ARC
  5
58
  8
0
  6
CONTINUOUS
 62
     7
 10
537.2958226164
 20
978.1074407051
 30
0.0
 40
2.000001237587867
 50
0.0
 51
89.9999822729
  0
ARC
  5
59
  8
0
  6
CONTINUOUS
 62
     7
 10
537.2958232352
 20
978.1074407051
 30
0.0
 40
4.000000618793933
 50
0.0
 51
90.0
  0
LINE
  5
5A
  8
0
  6
CONTINUOUS
 62
     7
 10
539.2958235446
 20
-789.8925592949
 30
0.0
 11
539.295823854
 21
978.1074407051
 31
0.0
  0
LINE
  5
5B
  8
0
  6
CONTINUOUS
 62
     7
 10
541.2958232352
 20
-789.8925592949
 30
0.0
 11
541.295823854
 21
978.1074407051
 31
0.0
  0
LINE
  5
5C
  8
0
  6
CONTINUOUS
 62
     7
 10
520.7958232352
 20
980.1074407051
 30
0.0
 11
520.7958232352
 21
982.1074407051
 31
0.0
  0
LINE
  5
5D
  8
0
  6
CONTINUOUS
 62
     7
 10
537.2958232352
 20
980.1074407051
 30
0.0
 11
520.7958232352
 21
980.1074407051
 31
0.0
  0
LINE
  5
5E
  8
0
  6
CONTINUOUS
 62
     7
 10
537.2958232352
 20
982.1074407051
 30
0.0
 11
520.7958232352
 21
982.1074407051
 31
0.0
  0
LINE
  5
5F
  8
0
  6
CONTINUOUS
 62
     7
 10
520.7958232352
 20
-791.8925592949
 30
0.0
 11
520.7958232352
 21
-793.8925592949
 31
0.0
  0
LINE
  5
60
  8
0
  6
CONTINUOUS
 62
     7
 10
520.7958232352
 20
-793.8925592949
 30
0.0
 11
537.2958232352
 21
-793.8925592949
 31
0.0
  0
LINE
  5
61
  8
0
  6
CONTINUOUS
 62
     7
 10
520.7958232352
 20
-791.8925592949
 30
0.0
 11
537.2958232352
 21
-791.8925599137
 31
0.0
  0
ARC
  5
62
  8
0
  6
CONTINUOUS
 62
     7
 10
537.2958226164
 20
-789.8925592949
 30
0.0
 40
2.000000928190843
 50
270.0000177271
 51
0.0
  0
ARC
  5
63
  8
0
  6
CONTINUOUS
 62
     7
 10
537.2958232352
 20
-789.8925592949
 30
0.0
 40
4.0
 50
270.0
 51
0.0
  0
CIRCLE
  5
64
  8
0
  6
CONTINUOUS
 62
     7
 10
-229.7041767648
 20
-713.8925592949
 30
0.0
 40
4.516838966197469
  0
CIRCLE
  5
65
  8
0
  6
CONTINUOUS
 62
     7
 10
-229.7041767648
 20
-713.8925592949
 30
0.0
 40
3.000000000000028
  0
CIRCLE
  5
66
  8
0
  6
CONTINUOUS
 62
     7
 10
-229.7041767648
 20
886.1074407051
 30
0.0
 40
4.516838966197469
  0
CIRCLE
  5
67
  8
0
  6
CONTINUOUS
 62
     7
 10
-229.7041767648
 20
86.1074407051
 30
0.0
 40
4.516838966197469
  0
CIRCLE
  5
68
  8
0
  6
CONTINUOUS
 62
     7
 10
-229.7041767648
 20
86.1074407051
 30
0.0
 40
3.000000000000028
  0
CIRCLE
  5
69
  8
0
  6
CONTINUOUS
 62
     7
 10
-229.7041767648
 20
886.1074407051
 30
0.0
 40
3.000000000000028
  0
CIRCLE
  5
6A
  8
0
  6
CONTINUOUS
 62
     7
 10
520.2958232352
 20
86.1074407051
 30
0.0
 40
4.516838966197497
  0
CIRCLE
  5
6B
  8
0
  6
CONTINUOUS
 62
     7
 10
520.2958232352
 20
-713.8925592949
 30
0.0
 40
4.516838966197497
  0
CIRCLE
  5
6C
  8
0
  6
CONTINUOUS
 62
     7
 10
520.2958232352
 20
-713.8925592949
 30
0.0
 40
3.0
  0
CIRCLE
  5
6D
  8
0
  6
CONTINUOUS
 62
     7
 10
520.2958232352
 20
86.1074407051
 30
0.0
 40
3.0
  0
CIRCLE
  5
6E
  8
0
  6
CONTINUOUS
 62
     7
 10
520.2958232352
 20
886.1074407051
 30
0.0
 40
4.516838966197497
  0
CIRCLE
  5
6F
  8
0
  6
CONTINUOUS
 62
     7
 10
520.2958232352
 20
886.1074407051
 30
0.0
 40
3.0
  0
POLYLINE
  5
70
  8
0
  6
CONTINUOUS
 62
     7
 66
     1
 10
0.0
 20
0.0
 30
0.0
  0
VERTEX
  5
207
  8
0
  6
CONTINUOUS
 62
     7
 10
537.0597552577
 20
-791.8925599137
 30
0.0
  0
VERTEX
  5
208
  8
0
  6
CONTINUOUS
 62
     7
 10
536.7274628085
 20
-791.8511196073
 30
0.0
  0
VERTEX
  5
209
  8
0
  6
CONTINUOUS
 62
     7
 10
536.4898264878
 20
-791.7301676424
 30
0.0
  0
VERTEX
  5
20A
  8
0
  6
CONTINUOUS
 62
     7
 10
536.3468462956
 20
-791.5369897115
 30
0.0
  0
VERTEX
  5
20B
  8
0
  6
CONTINUOUS
 62
     7
 10
536.298522232
 20
-791.2814249198
 30
0.0
  0
VERTEX
  5
20C
  8
0
  6
CONTINUOUS
 62
     7
 10
536.3427110902
 20
-790.9893400916
 30
0.0
  0
VERTEX
  5
20D
  8
0
  6
CONTINUOUS
 62
     7
 10
536.4821864749
 20
-790.6667728693
 30
0.0
  0
VERTEX
  5
20E
  8
0
  6
CONTINUOUS
 62
     7
 10
536.7212011974
 20
-790.2977593265
 30
0.0
  0
VERTEX
  5
20F
  8
0
  6
CONTINUOUS
 62
     7
 10
537.0597552577
 20
-789.8925592949
 30
0.0
  0
SEQEND
  5
206
  8
0
  6
CONTINUOUS
 62
     7
  0
ARC
  5
71
  8
0
  6
CONTINUOUS
 62
     7
 10
543.9832813364
 20
-793.3348065615
 30
0.0
 40
7.732029462338384
 50
153.5642969803
 51
167.4659633843
  0
ARC
  5
72
  8
0
  6
CONTINUOUS
 62
     7
 10
-253.391634873
 20
-793.3348065638
 30
0.0
 40
7.732029469735039
 50
12.5340366212
 51
26.4357030118
  0
POLYLINE
  5
73
  8
0
  6
CONTINUOUS
 62
     7
 66
     1
 10
0.0
 20
0.0
 30
0.0
  0
VERTEX
  5
211
  8
0
  6
CONTINUOUS
 62
     7
 10
539.2958235096
 20
977.8713727276
 30
0.0
  0
VERTEX
  5
212
  8
0
  6
CONTINUOUS
 62
     7
 10
539.2543466829
 20
977.5328186708
 30
0.0
  0
VERTEX
  5
213
  8
0
  6
CONTINUOUS
 62
     7
 10
539.1398933699
 20
977.2938039493
 30
0.0
  0
VERTEX
  5
214
  8
0
  6
CONTINUOUS
 62
     7
 10
538.9682685753
 20
977.1543285634
 30
0.0
  0
VERTEX
  5
215
  8
0
  6
CONTINUOUS
 62
     7
 10
538.7349389533
 20
977.1101397018
 30
0.0
  0
VERTEX
  5
216
  8
0
  6
CONTINUOUS
 62
     7
 10
538.4341775904
 20
977.1584637631
 30
0.0
  0
VERTEX
  5
217
  8
0
  6
CONTINUOUS
 62
     7
 10
538.0852520297
 20
977.3014439545
 30
0.0
  0
VERTEX
  5
218
  8
0
  6
CONTINUOUS
 62
     7
 10
537.7008465934
 20
977.539080276
 30
0.0
  0
VERTEX
  5
219
  8
0
  6
CONTINUOUS
 62
     7
 10
537.2958232352
 20
977.8713727276
 30
0.0
  0
SEQEND
  5
210
  8
0
  6
CONTINUOUS
 62
     7
  0
ARC
  5
74
  8
0
  6
CONTINUOUS
 62
     7
 10
540.6348478022
 20
984.6995581253
 30
0.0
 40
7.600868429537615
 50
243.9410830032
 51
258.3039463523
  0
POLYLINE
  5
75
  8
0
  6
CONTINUOUS
 62
     7
 66
     1
 10
0.0
 20
0.0
 30
0.0
  0
VERTEX
  5
21B
  8
0
  6
CONTINUOUS
 62
     7
 10
-248.7041770392
 20
-789.6564913174
 30
0.0
  0
VERTEX
  5
21C
  8
0
  6
CONTINUOUS
 62
     7
 10
-248.6627002126
 20
-789.3179372609
 30
0.0
  0
VERTEX
  5
21D
  8
0
  6
CONTINUOUS
 62
     7
 10
-248.5482468999
 20
-789.0789225396
 30
0.0
  0
VERTEX
  5
21E
  8
0
  6
CONTINUOUS
 62
     7
 10
-248.3766221051
 20
-788.9394471533
 30
0.0
  0
VERTEX
  5
21F
  8
0
  6
CONTINUOUS
 62
     7
 10
-248.143292483
 20
-788.8952582913
 30
0.0
  0
VERTEX
  5
220
  8
0
  6
CONTINUOUS
 62
     7
 10
-247.8425311203
 20
-788.9435823524
 30
0.0
  0
VERTEX
  5
221
  8
0
  6
CONTINUOUS
 62
     7
 10
-247.4936055597
 20
-789.0865625438
 30
0.0
  0
VERTEX
  5
222
  8
0
  6
CONTINUOUS
 62
     7
 10
-247.1092001232
 20
-789.3241988654
 30
0.0
  0
VERTEX
  5
223
  8
0
  6
CONTINUOUS
 62
     7
 10
-246.7041767648
 20
-789.6564913174
 30
0.0
  0
SEQEND
  5
21A
  8
0
  6
CONTINUOUS
 62
     7
  0
ARC
  5
76
  8
0
  6
CONTINUOUS
 62
     7
 10
-250.0432013324
 20
-796.484676713
 30
0.0
 40
7.60086842807956
 50
63.9410829924
 51
78.3039463418
  0
ARC
  5
77
  8
0
  6
CONTINUOUS
 62
     7
 10
540.6348478001
 20
-796.4846767055
 30
0.0
 40
7.600868420060881
 50
101.6960536484
 51
116.0589170137
  0
ARC
  5
78
  8
0
  6
CONTINUOUS
 62
     7
 10
-250.0432013296
 20
984.6995581158
 30
0.0
 40
7.600868420139229
 50
281.6960536486
 51
296.0589170136
  0
POLYLINE
  5
79
  8
0
  6
CONTINUOUS
 62
     7
 66
     1
 10
0.0
 20
0.0
 30
0.0
  0
VERTEX
  5
225
  8
0
  6
CONTINUOUS
 62
     7
 10
-246.7041767648
 20
977.8713727276
 30
0.0
  0
VERTEX
  5
226
  8
0
  6
CONTINUOUS
 62
     7
 10
-247.1092001229
 20
977.5390802758
 30
0.0
  0
VERTEX
  5
227
  8
0
  6
CONTINUOUS
 62
     7
 10
-247.4936055593
 20
977.3014439543
 30
0.0
  0
VERTEX
  5
228
  8
0
  6
CONTINUOUS
 62
     7
 10
-247.8425311199
 20
977.1584637629
 30
0.0
  0
VERTEX
  5
229
  8
0
  6
CONTINUOUS
 62
     7
 10
-248.1432924828
 20
977.1101397017
 30
0.0
  0
VERTEX
  5
22A
  8
0
  6
CONTINUOUS
 62
     7
 10
-248.3766221049
 20
977.1543285635
 30
0.0
  0
VERTEX
  5
22B
  8
0
  6
CONTINUOUS
 62
     7
 10
-248.5482468996
 20
977.2938039496
 30
0.0
  0
VERTEX
  5
22C
  8
0
  6
CONTINUOUS
 62
     7
 10
-248.6627002124
 20
977.532818671
 30
0.0
  0
VERTEX
  5
22D
  8
0
  6
CONTINUOUS
 62
     7
 10
-248.7041770392
 20
977.8713727276
 30
0.0
  0
SEQEND
  5
224
  8
0
  6
CONTINUOUS
 62
     7
  0
POLYLINE
  5
7A
  8
0
  6
CONTINUOUS
 62
     7
 66
     1
 10
0.0
 20
0.0
 30
0.0
  0
VERTEX
  5
22F
  8
0
  6
CONTINUOUS
 62
     7
 10
537.2958232352
 20
-789.6564913174
 30
0.0
  0
VERTEX
  5
230
  8
0
  6
CONTINUOUS
 62
     7
 10
537.7008465934
 20
-789.3241988656
 30
0.0
  0
VERTEX
  5
231
  8
0
  6
CONTINUOUS
 62
     7
 10
538.0852520297
 20
-789.086562544
 30
0.0
  0
VERTEX
  5
232
  8
0
  6
CONTINUOUS
 62
     7
 10
538.4341775904
 20
-788.9435823526
 30
0.0
  0
VERTEX
  5
233
  8
0
  6
CONTINUOUS
 62
     7
 10
538.7349389533
 20
-788.8952582914
 30
0.0
  0
VERTEX
  5
234
  8
0
  6
CONTINUOUS
 62
     7
 10
538.9682685754
 20
-788.9394471532
 30
0.0
  0
VERTEX
  5
235
  8
0
  6
CONTINUOUS
 62
     7
 10
539.1398933702
 20
-789.0789225393
 30
0.0
  0
VERTEX
  5
236
  8
0
  6
CONTINUOUS
 62
     7
 10
539.254346683
 20
-789.3179372607
 30
0.0
  0
VERTEX
  5
237
  8
0
  6
CONTINUOUS
 62
     7
 10
539.2958235096
 20
-789.6564913174
 30
0.0
  0
SEQEND
  5
22E
  8
0
  6
CONTINUOUS
 62
     7
  0
POLYLINE
  5
7B
  8
0
  6
CONTINUOUS
 62
     7
 66
     1
 10
0.0
 20
0.0
 30
0.0
  0
VERTEX
  5
239
  8
0
  6
CONTINUOUS
 62
     7
 10
-246.4681087873
 20
980.1074413239
 30
0.0
  0
VERTEX
  5
23A
  8
0
  6
CONTINUOUS
 62
     7
 10
-246.1358163382
 20
980.0660010176
 30
0.0
  0
VERTEX
  5
23B
  8
0
  6
CONTINUOUS
 62
     7
 10
-245.8981800176
 20
979.9450490527
 30
0.0
  0
VERTEX
  5
23C
  8
0
  6
CONTINUOUS
 62
     7
 10
-245.7551998254
 20
979.7518711219
 30
0.0
  0
VERTEX
  5
23D
  8
0
  6
CONTINUOUS
 62
     7
 10
-245.7068757616
 20
979.4963063302
 30
0.0
  0
VERTEX
  5
23E
  8
0
  6
CONTINUOUS
 62
     7
 10
-245.7510646197
 20
979.204221502
 30
0.0
  0
VERTEX
  5
23F
  8
0
  6
CONTINUOUS
 62
     7
 10
-245.8905400042
 20
978.8816542798
 30
0.0
  0
VERTEX
  5
240
  8
0
  6
CONTINUOUS
 62
     7
 10
-246.1295547267
 20
978.512640737
 30
0.0
  0
VERTEX
  5
241
  8
0
  6
CONTINUOUS
 62
     7
 10
-246.4681087873
 20
978.1074407051
 30
0.0
  0
SEQEND
  5
238
  8
0
  6
CONTINUOUS
 62
     7
  0
ARC
  5
7C
  8
0
  6
CONTINUOUS
 62
     7
 10
-253.3916348635
 20
981.5496879713
 30
0.0
 40
7.732029460021067
 50
333.5642969752
 51
347.4659633817
  0
POLYLINE
  5
7D
  8
0
  6
CONTINUOUS
 62
     7
 66
     1
 10
0.0
 20
0.0
 30
0.0
  0
VERTEX
  5
243
  8
0
  6
CONTINUOUS
 62
     7
 10
537.0597552577
 20
978.1074407051
 30
0.0
  0
VERTEX
  5
244
  8
0
  6
CONTINUOUS
 62
     7
 10
536.7212011973
 20
978.5126407368
 30
0.0
  0
VERTEX
  5
245
  8
0
  6
CONTINUOUS
 62
     7
 10
536.4821864748
 20
978.8816542796
 30
0.0
  0
VERTEX
  5
246
  8
0
  6
CONTINUOUS
 62
     7
 10
536.3427110902
 20
979.2042215019
 30
0.0
  0
VERTEX
  5
247
  8
0
  6
CONTINUOUS
 62
     7
 10
536.298522232
 20
979.4963063301
 30
0.0
  0
VERTEX
  5
248
  8
0
  6
CONTINUOUS
 62
     7
 10
536.3468462957
 20
979.7518711218
 30
0.0
  0
VERTEX
  5
249
  8
0
  6
CONTINUOUS
 62
     7
 10
536.4898264879
 20
979.9450490527
 30
0.0
  0
VERTEX
  5
24A
  8
0
  6
CONTINUOUS
 62
     7
 10
536.7274628086
 20
980.0660010176
 30
0.0
  0
VERTEX
  5
24B
  8
0
  6
CONTINUOUS
 62
     7
 10
537.0597552577
 20
980.1074413239
 30
0.0
  0
SEQEND
  5
242
  8
0
  6
CONTINUOUS
 62
     7
  0
ARC
  5
7E
  8
0
  6
CONTINUOUS
 62
     7
 10
543.9832813315
 20
981.5496879703
 30
0.0
 40
7.73202945730428
 50
192.5340366137
 51
206.435703026
  0
POLYLINE
  5
7F
  8
0
  6
CONTINUOUS
 62
     7
 66
     1
 10
0.0
 20
0.0
 30
0.0
  0
VERTEX
  5
24D
  8
0
  6
CONTINUOUS
 62
     7
 10
-246.4681087873
 20
-789.8925592949
 30
0.0
  0
VERTEX
  5
24E
  8
0
  6
CONTINUOUS
 62
     7
 10
-246.1295547269
 20
-790.2977593266
 30
0.0
  0
VERTEX
  5
24F
  8
0
  6
CONTINUOUS
 62
     7
 10
-245.8905400044
 20
-790.6667728695
 30
0.0
  0
VERTEX
  5
250
  8
0
  6
CONTINUOUS
 62
     7
 10
-245.7510646197
 20
-790.9893400917
 30
0.0
  0
VERTEX
  5
251
  8
0
  6
CONTINUOUS
 62
     7
 10
-245.7068757615
 20
-791.2814249198
 30
0.0
  0
VERTEX
  5
252
  8
0
  6
CONTINUOUS
 62
     7
 10
-245.7551998251
 20
-791.5369897114
 30
0.0
  0
VERTEX
  5
253
  8
0
  6
CONTINUOUS
 62
     7
 10
-245.8981800173
 20
-791.7301676423
 30
0.0
  0
VERTEX
  5
254
  8
0
  6
CONTINUOUS
 62
     7
 10
-246.135816338
 20
-791.8511196072
 30
0.0
  0
VERTEX
  5
255
  8
0
  6
CONTINUOUS
 62
     7
 10
-246.4681087873
 20
-791.8925599137
 30
0.0
  0
SEQEND
  5
24C
  8
0
  6
CONTINUOUS
 62
     7
  0
ARC
  5
80
  8
0
  6
CONTINUOUS
 62
     7
 10
-248.7041767648
 20
-791.8925592949
 30
0.0
 40
2.999999999999999
 50
41.8103148958
 51
48.1896851042
  0
ARC
  5
81
  8
0
  6
CONTINUOUS
 62
     7
 10
-248.7041767648
 20
980.1074407051
 30
0.0
 40
3.000000000000067
 50
311.8103148958
 51
318.1896851042
  0
ARC
  5
82
  8
0
  6
CONTINUOUS
 62
     7
 10
539.2958232352
 20
980.1074407051
 30
0.0
 40
3.000000000000029
 50
221.8103148958
 51
228.1896851042
  0
ARC
  5
83
  8
0
  6
CONTINUOUS
 62
     7
 10
539.2958232352
 20
-791.8925592949
 30
0.0
 40
2.999999999999962
 50
131.8103148958
 51
138.1896851042
  0
CIRCLE
  5
84
  8
0
  6
CONTINUOUS
 62
     7
 10
441.2958232352
 20
-693.8925592949
 30
0.0
 40
3.500000000000051
  0
CIRCLE
  5
85
  8
0
  6
CONTINUOUS
 62
     7
 10
441.2958232352
 20
-693.8925592949
 30
0.0
 40
4.000000000000042
  0
CIRCLE
  5
86
  8
0
  6
CONTINUOUS
 62
     7
 10
441.2958232352
 20
-693.8925592949
 30
0.0
 40
5.000000000000024
  0
LINE
  5
87
  8
0
  6
HIDDEN
 62
     7
 10
-239.4541767648
 20
-793.8925592949
 30
0.0
 11
-239.4541767648
 21
-791.8925592948
 31
0.0
  0
LINE
  5
88
  8
0
  6
HIDDEN
 62
     7
 10
-239.4541767648
 20
-793.8925592949
 30
0.0
 11
-239.4541767648
 21
-791.8925592948
 31
0.0
  0
LINE
  5
89
  8
0
  6
HIDDEN
 62
     7
 10
-246.5828564212
 20
-793.8925592949
 30
0.0
 11
-246.5828564212
 21
-791.8925592949
 31
0.0
  0
LINE
  5
8A
  8
0
  6
HIDDEN
 62
     7
 10
530.0458232352
 20
-793.8925592949
 30
0.0
 11
530.0458232352
 21
-791.8925592948
 31
0.0
  0
LINE
  5
8B
  8
0
  6
HIDDEN
 62
     7
 10
530.0458232352
 20
982.1074407051
 30
0.0
 11
530.0458232352
 21
980.1074407051
 31
0.0
  0
LINE
  5
8C
  8
0
  6
HIDDEN
 62
     7
 10
537.1745028917
 20
982.1074407051
 30
0.0
 11
537.1745028917
 21
980.1074407051
 31
0.0
  0
LINE
  5
8D
  8
0
  6
HIDDEN
 62
     7
 10
-239.4541767648
 20
982.1074407051
 30
0.0
 11
-239.4541767648
 21
980.1074407051
 31
0.0
  0
LINE
  5
8E
  8
0
  6
HIDDEN
 62
     7
 10
537.1745028917
 20
-791.8925592948
 30
0.0
 11
537.1745028917
 21
-793.8925592949
 31
0.0
  0
LINE
  5
8F
  8
0
  6
HIDDEN
 62
     7
 10
-246.5828564212
 20
980.1074407051
 30
0.0
 11
-246.5828564212
 21
982.1074407051
 31
0.0
  0
LINE
  5
90
  8
0
  6
HIDDEN
 62
     7
 10
-239.4541767648
 20
982.1074407051
 30
0.0
 11
-239.4541767648
 21
980.1074407051
 31
0.0
  0
LINE
  5
91
  8
0
  6
HIDDEN
 62
     7
 10
530.0458232352
 20
982.1074407051
 30
0.0
 11
530.0458232352
 21
980.1074407051
 31
0.0
  0
LINE
  5
92
  8
0
  6
HIDDEN
 62
     7
 10
530.0458232352
 20
-793.8925592949
 30
0.0
 11
530.0458232352
 21
-791.8925592948
 31
0.0
  0
LINE
  5
93
  8
0
  6
HIDDEN
 62
     7
 10
-246.7041767648
 20
-793.8925592949
 30
0.0
 11
-246.7041767648
 21
-791.8925599137
 31
0.0
  0
LINE
  5
94
  8
0
  6
HIDDEN
 62
     7
 10
-246.5828564212
 20
-793.8925592949
 30
0.0
 11
-246.5828564212
 21
-791.8925592949
 31
0.0
  0
LINE
  5
95
  8
0
  6
HIDDEN
 62
     7
 10
-250.7041767648
 20
-789.8925592949
 30
0.0
 11
-248.7041773836
 21
-789.8925592949
 31
0.0
  0
LINE
  5
96
  8
0
  6
HIDDEN
 62
     7
 10
-246.7041767648
 20
982.1074407051
 30
0.0
 11
-246.7041767648
 21
980.1074407051
 31
0.0
  0
LINE
  5
97
  8
0
  6
HIDDEN
 62
     7
 10
-246.5828564212
 20
980.1074407051
 30
0.0
 11
-246.5828564212
 21
982.1074407051
 31
0.0
  0
LINE
  5
98
  8
0
  6
HIDDEN
 62
     7
 10
537.2958232352
 20
980.1074413239
 30
0.0
 11
537.2958232352
 21
982.1074407051
 31
0.0
  0
LINE
  5
99
  8
0
  6
HIDDEN
 62
     7
 10
537.1745028917
 20
982.1074407051
 30
0.0
 11
537.1745028917
 21
980.1074407051
 31
0.0
  0
LINE
  5
9A
  8
0
  6
HIDDEN
 62
     7
 10
539.2958232352
 20
978.1074407051
 30
0.0
 11
541.2958232352
 21
978.1074407051
 31
0.0
  0
LINE
  5
9B
  8
0
  6
HIDDEN
 62
     7
 10
-250.7041767648
 20
978.1074407051
 30
0.0
 11
-248.7041767648
 21
978.1074407051
 31
0.0
  0
LINE
  5
9C
  8
0
  6
HIDDEN
 62
     7
 10
539.295823854
 20
-789.8925592949
 30
0.0
 11
541.2958232352
 21
-789.8925592949
 31
0.0
  0
LINE
  5
9D
  8
0
  6
HIDDEN
 62
     7
 10
537.2958232352
 20
-791.8925592949
 30
0.0
 11
537.2958232352
 21
-793.8925592949
 31
0.0
  0
LINE
  5
9E
  8
0
  6
HIDDEN
 62
     7
 10
537.1745028917
 20
-791.8925592949
 30
0.0
 11
537.1745028917
 21
-793.8925592949
 31
0.0
  0
POLYLINE
  5
9F
  8
0
  6
HIDDEN
 62
     7
 66
     1
 10
0.0
 20
0.0
 30
0.0
  0
VERTEX
  5
257
  8
0
  6
HIDDEN
 62
     7
 10
537.0597552577
 20
-789.8925592949
 30
0.0
  0
VERTEX
  5
258
  8
0
  6
HIDDEN
 62
     7
 10
537.0597552577
 20
-789.8925592949
 30
0.0
  0
SEQEND
  5
256
  8
0
  6
HIDDEN
 62
     7
  0
POLYLINE
  5
A0
  8
0
  6
HIDDEN
 62
     7
 66
     1
 10
0.0
 20
0.0
 30
0.0
  0
VERTEX
  5
25A
  8
0
  6
HIDDEN
 62
     7
 10
537.0597552577
 20
-793.8925599137
 30
0.0
  0
VERTEX
  5
25B
  8
0
  6
HIDDEN
 62
     7
 10
536.7274628085
 20
-793.8096793137
 30
0.0
  0
VERTEX
  5
25C
  8
0
  6
HIDDEN
 62
     7
 10
536.4898264878
 20
-793.5677754213
 30
0.0
  0
VERTEX
  5
25D
  8
0
  6
HIDDEN
 62
     7
 10
536.3468462956
 20
-793.1814196193
 30
0.0
  0
VERTEX
  5
25E
  8
0
  6
HIDDEN
 62
     7
 10
536.298522232
 20
-792.6702901151
 30
0.0
  0
VERTEX
  5
25F
  8
0
  6
HIDDEN
 62
     7
 10
536.3427110902
 20
-792.0861205491
 30
0.0
  0
VERTEX
  5
260
  8
0
  6
HIDDEN
 62
     7
 10
536.435527332
 20
-791.656805043
 30
0.0
  0
SEQEND
  5
259
  8
0
  6
HIDDEN
 62
     7
  0
LINE
  5
A1
  8
0
  6
HIDDEN
 62
     7
 10
537.0597552577
 20
-793.8925592949
 30
0.0
 11
537.0597552577
 21
-791.8925599137
 31
0.0
  0
POLYLINE
  5
A2
  8
0
  6
HIDDEN
 62
     7
 66
     1
 10
0.0
 20
0.0
 30
0.0
  0
VERTEX
  5
262
  8
0
  6
HIDDEN
 62
     7
 10
-245.8438808616
 20
-791.656805043
 30
0.0
  0
VERTEX
  5
263
  8
0
  6
HIDDEN
 62
     7
 10
-245.7510646197
 20
-792.0861205492
 30
0.0
  0
VERTEX
  5
264
  8
0
  6
HIDDEN
 62
     7
 10
-245.7068757615
 20
-792.670290115
 30
0.0
  0
VERTEX
  5
265
  8
0
  6
HIDDEN
 62
     7
 10
-245.7551998251
 20
-793.1814196192
 30
0.0
  0
VERTEX
  5
266
  8
0
  6
HIDDEN
 62
     7
 10
-245.8981800173
 20
-793.5677754212
 30
0.0
  0
VERTEX
  5
267
  8
0
  6
HIDDEN
 62
     7
 10
-246.135816338
 20
-793.8096793137
 30
0.0
  0
VERTEX
  5
268
  8
0
  6
HIDDEN
 62
     7
 10
-246.4681087873
 20
-793.8925599137
 30
0.0
  0
SEQEND
  5
261
  8
0
  6
HIDDEN
 62
     7
  0
POLYLINE
  5
A3
  8
0
  6
HIDDEN
 62
     7
 66
     1
 10
0.0
 20
0.0
 30
0.0
  0
VERTEX
  5
26A
  8
0
  6
HIDDEN
 62
     7
 10
537.2958232352
 20
977.8713727276
 30
0.0
  0
VERTEX
  5
26B
  8
0
  6
HIDDEN
 62
     7
 10
537.2958232352
 20
977.8713727276
 30
0.0
  0
SEQEND
  5
269
  8
0
  6
HIDDEN
 62
     7
  0
POLYLINE
  5
A4
  8
0
  6
HIDDEN
 62
     7
 66
     1
 10
0.0
 20
0.0
 30
0.0
  0
VERTEX
  5
26D
  8
0
  6
HIDDEN
 62
     7
 10
541.2958235096
 20
977.8713727276
 30
0.0
  0
VERTEX
  5
26E
  8
0
  6
HIDDEN
 62
     7
 10
541.2128698618
 20
977.5328186708
 30
0.0
  0
VERTEX
  5
26F
  8
0
  6
HIDDEN
 62
     7
 10
540.9839632517
 20
977.2938039493
 30
0.0
  0
VERTEX
  5
270
  8
0
  6
HIDDEN
 62
     7
 10
540.6407136859
 20
977.1543285634
 30
0.0
  0
VERTEX
  5
271
  8
0
  6
HIDDEN
 62
     7
 10
540.1740544739
 20
977.1101397018
 30
0.0
  0
VERTEX
  5
272
  8
0
  6
HIDDEN
 62
     7
 10
539.5725317894
 20
977.1584637631
 30
0.0
  0
VERTEX
  5
273
  8
0
  6
HIDDEN
 62
     7
 10
539.0940009012
 20
977.2565082322
 30
0.0
  0
SEQEND
  5
26C
  8
0
  6
HIDDEN
 62
     7
  0
LINE
  5
A5
  8
0
  6
HIDDEN
 62
     7
 10
539.2958235096
 20
977.8713727276
 30
0.0
 11
541.2958232352
 21
977.8713727276
 31
0.0
  0
POLYLINE
  5
A6
  8
0
  6
HIDDEN
 62
     7
 66
     1
 10
0.0
 20
0.0
 30
0.0
  0
VERTEX
  5
275
  8
0
  6
HIDDEN
 62
     7
 10
-246.7041767648
 20
-789.6564913174
 30
0.0
  0
VERTEX
  5
276
  8
0
  6
HIDDEN
 62
     7
 10
-246.7041767648
 20
-789.6564913174
 30
0.0
  0
SEQEND
  5
274
  8
0
  6
HIDDEN
 62
     7
  0
POLYLINE
  5
A7
  8
0
  6
HIDDEN
 62
     7
 66
     1
 10
0.0
 20
0.0
 30
0.0
  0
VERTEX
  5
278
  8
0
  6
HIDDEN
 62
     7
 10
-250.7041770392
 20
-789.6564913174
 30
0.0
  0
VERTEX
  5
279
  8
0
  6
HIDDEN
 62
     7
 10
-250.6212233917
 20
-789.3179372609
 30
0.0
  0
VERTEX
  5
27A
  8
0
  6
HIDDEN
 62
     7
 10
-250.3923167821
 20
-789.0789225396
 30
0.0
  0
VERTEX
  5
27B
  8
0
  6
HIDDEN
 62
     7
 10
-250.049067216
 20
-788.9394471533
 30
0.0
  0
VERTEX
  5
27C
  8
0
  6
HIDDEN
 62
     7
 10
-249.5824080037
 20
-788.8952582913
 30
0.0
  0
VERTEX
  5
27D
  8
0
  6
HIDDEN
 62
     7
 10
-248.9808853196
 20
-788.9435823524
 30
0.0
  0
VERTEX
  5
27E
  8
0
  6
HIDDEN
 62
     7
 10
-248.5023544303
 20
-789.0416268217
 30
0.0
  0
SEQEND
  5
277
  8
0
  6
HIDDEN
 62
     7
  0
LINE
  5
A8
  8
0
  6
HIDDEN
 62
     7
 10
-250.7041767648
 20
-789.6564913174
 30
0.0
 11
-248.7041770392
 21
-789.6564913174
 31
0.0
  0
POLYLINE
  5
A9
  8
0
  6
HIDDEN
 62
     7
 66
     1
 10
0.0
 20
0.0
 30
0.0
  0
VERTEX
  5
280
  8
0
  6
HIDDEN
 62
     7
 10
539.0940009008
 20
-789.0416268217
 30
0.0
  0
VERTEX
  5
281
  8
0
  6
HIDDEN
 62
     7
 10
539.5725317894
 20
-788.9435823526
 30
0.0
  0
VERTEX
  5
282
  8
0
  6
HIDDEN
 62
     7
 10
540.1740544739
 20
-788.8952582914
 30
0.0
  0
VERTEX
  5
283
  8
0
  6
HIDDEN
 62
     7
 10
540.6407136862
 20
-788.9394471532
 30
0.0
  0
VERTEX
  5
284
  8
0
  6
HIDDEN
 62
     7
 10
540.9839632521
 20
-789.0789225393
 30
0.0
  0
VERTEX
  5
285
  8
0
  6
HIDDEN
 62
     7
 10
541.212869862
 20
-789.3179372607
 30
0.0
  0
VERTEX
  5
286
  8
0
  6
HIDDEN
 62
     7
 10
541.2958235096
 20
-789.6564913174
 30
0.0
  0
SEQEND
  5
27F
  8
0
  6
HIDDEN
 62
     7
  0
POLYLINE
  5
AA
  8
0
  6
HIDDEN
 62
     7
 66
     1
 10
0.0
 20
0.0
 30
0.0
  0
VERTEX
  5
288
  8
0
  6
HIDDEN
 62
     7
 10
-248.5023544303
 20
977.256508232
 30
0.0
  0
VERTEX
  5
289
  8
0
  6
HIDDEN
 62
     7
 10
-248.9808853189
 20
977.1584637629
 30
0.0
  0
VERTEX
  5
28A
  8
0
  6
HIDDEN
 62
     7
 10
-249.5824080034
 20
977.1101397017
 30
0.0
  0
VERTEX
  5
28B
  8
0
  6
HIDDEN
 62
     7
 10
-250.0490672156
 20
977.1543285635
 30
0.0
  0
VERTEX
  5
28C
  8
0
  6
HIDDEN
 62
     7
 10
-250.3923167815
 20
977.2938039496
 30
0.0
  0
VERTEX
  5
28D
  8
0
  6
HIDDEN
 62
     7
 10
-250.6212233914
 20
977.532818671
 30
0.0
  0
VERTEX
  5
28E
  8
0
  6
HIDDEN
 62
     7
 10
-250.7041770392
 20
977.8713727276
 30
0.0
  0
SEQEND
  5
287
  8
0
  6
HIDDEN
 62
     7
  0
POLYLINE
  5
AB
  8
0
  6
HIDDEN
 62
     7
 66
     1
 10
0.0
 20
0.0
 30
0.0
  0
VERTEX
  5
290
  8
0
  6
HIDDEN
 62
     7
 10
-246.7041767648
 20
977.8713727276
 30
0.0
  0
VERTEX
  5
291
  8
0
  6
HIDDEN
 62
     7
 10
-246.7041767648
 20
977.8713727276
 30
0.0
  0
SEQEND
  5
28F
  8
0
  6
HIDDEN
 62
     7
  0
LINE
  5
AC
  8
0
  6
HIDDEN
 62
     7
 10
-248.7041767648
 20
977.8713727276
 30
0.0
 11
-250.7041767648
 21
977.8713727276
 31
0.0
  0
POLYLINE
  5
AD
  8
0
  6
HIDDEN
 62
     7
 66
     1
 10
0.0
 20
0.0
 30
0.0
  0
VERTEX
  5
293
  8
0
  6
HIDDEN
 62
     7
 10
537.2958232352
 20
-789.6564913174
 30
0.0
  0
VERTEX
  5
294
  8
0
  6
HIDDEN
 62
     7
 10
537.2958232352
 20
-789.6564913174
 30
0.0
  0
SEQEND
  5
292
  8
0
  6
HIDDEN
 62
     7
  0
LINE
  5
AE
  8
0
  6
HIDDEN
 62
     7
 10
541.2958232352
 20
-789.6564913174
 30
0.0
 11
539.2958232352
 21
-789.6564913174
 31
0.0
  0
POLYLINE
  5
AF
  8
0
  6
HIDDEN
 62
     7
 66
     1
 10
0.0
 20
0.0
 30
0.0
  0
VERTEX
  5
296
  8
0
  6
HIDDEN
 62
     7
 10
-246.4681087873
 20
978.1074407051
 30
0.0
  0
VERTEX
  5
297
  8
0
  6
HIDDEN
 62
     7
 10
-246.4681087873
 20
978.1074407051
 30
0.0
  0
SEQEND
  5
295
  8
0
  6
HIDDEN
 62
     7
  0
POLYLINE
  5
B0
  8
0
  6
HIDDEN
 62
     7
 66
     1
 10
0.0
 20
0.0
 30
0.0
  0
VERTEX
  5
299
  8
0
  6
HIDDEN
 62
     7
 10
-246.4681087873
 20
982.1074413239
 30
0.0
  0
VERTEX
  5
29A
  8
0
  6
HIDDEN
 62
     7
 10
-246.1358163382
 20
982.0245607241
 30
0.0
  0
VERTEX
  5
29B
  8
0
  6
HIDDEN
 62
     7
 10
-245.8981800176
 20
981.7826568318
 30
0.0
  0
VERTEX
  5
29C
  8
0
  6
HIDDEN
 62
     7
 10
-245.7551998254
 20
981.3963010299
 30
0.0
  0
VERTEX
  5
29D
  8
0
  6
HIDDEN
 62
     7
 10
-245.7068757616
 20
980.8851715255
 30
0.0
  0
VERTEX
  5
29E
  8
0
  6
HIDDEN
 62
     7
 10
-245.7510646197
 20
980.3010019595
 30
0.0
  0
VERTEX
  5
29F
  8
0
  6
HIDDEN
 62
     7
 10
-245.8438808615
 20
979.871686453
 30
0.0
  0
SEQEND
  5
298
  8
0
  6
HIDDEN
 62
     7
  0
LINE
  5
B1
  8
0
  6
HIDDEN
 62
     7
 10
-246.4681087873
 20
980.1074413239
 30
0.0
 11
-246.4681087873
 21
982.1074407051
 31
0.0
  0
POLYLINE
  5
B2
  8
0
  6
HIDDEN
 62
     7
 66
     1
 10
0.0
 20
0.0
 30
0.0
  0
VERTEX
  5
2A1
  8
0
  6
HIDDEN
 62
     7
 10
536.435527332
 20
979.8716864531
 30
0.0
  0
VERTEX
  5
2A2
  8
0
  6
HIDDEN
 62
     7
 10
536.3427110902
 20
980.3010019594
 30
0.0
  0
VERTEX
  5
2A3
  8
0
  6
HIDDEN
 62
     7
 10
536.298522232
 20
980.8851715254
 30
0.0
  0
VERTEX
  5
2A4
  8
0
  6
HIDDEN
 62
     7
 10
536.3468462957
 20
981.3963010297
 30
0.0
  0
VERTEX
  5
2A5
  8
0
  6
HIDDEN
 62
     7
 10
536.4898264879
 20
981.7826568317
 30
0.0
  0
VERTEX
  5
2A6
  8
0
  6
HIDDEN
 62
     7
 10
536.7274628086
 20
982.024560724
 30
0.0
  0
VERTEX
  5
2A7
  8
0
  6
HIDDEN
 62
     7
 10
537.0597552577
 20
982.1074413239
 30
0.0
  0
SEQEND
  5
2A0
  8
0
  6
HIDDEN
 62
     7
  0
POLYLINE
  5
B3
  8
0
  6
HIDDEN
 62
     7
 66
     1
 10
0.0
 20
0.0
 30
0.0
  0
VERTEX
  5
2A9
  8
0
  6
HIDDEN
 62
     7
 10
537.0597552577
 20
978.1074407051
 30
0.0
  0
VERTEX
  5
2AA
  8
0
  6
HIDDEN
 62
     7
 10
537.0597552577
 20
978.1074407051
 30
0.0
  0
SEQEND
  5
2A8
  8
0
  6
HIDDEN
 62
     7
  0
LINE
  5
B4
  8
0
  6
HIDDEN
 62
     7
 10
537.0597552577
 20
982.1074407051
 30
0.0
 11
537.0597552577
 21
980.1074407051
 31
0.0
  0
POLYLINE
  5
B5
  8
0
  6
HIDDEN
 62
     7
 66
     1
 10
0.0
 20
0.0
 30
0.0
  0
VERTEX
  5
2AC
  8
0
  6
HIDDEN
 62
     7
 10
-246.4681087873
 20
-789.8925592949
 30
0.0
  0
VERTEX
  5
2AD
  8
0
  6
HIDDEN
 62
     7
 10
-246.4681087873
 20
-789.8925592949
 30
0.0
  0
SEQEND
  5
2AB
  8
0
  6
HIDDEN
 62
     7
  0
LINE
  5
B6
  8
0
  6
HIDDEN
 62
     7
 10
-246.4681087873
 20
-791.8925592949
 30
0.0
 11
-246.4681087873
 21
-793.8925592949
 31
0.0
  0
LINE
  5
B7
  8
0
  6
HIDDEN
 62
     7
 10
536.2985169919
 20
-791.2784450429
 30
0.0
 11
536.2985169919
 21
-792.6643299787
 31
0.0
  0
LINE
  5
B8
  8
0
  6
HIDDEN
 62
     7
 10
536.2985169919
 20
-792.6643296707
 30
0.0
 11
536.2985169919
 21
-791.2784447206
 31
0.0
  0
LINE
  5
B9
  8
0
  6
HIDDEN
 62
     7
 10
538.7378085148
 20
977.1101344617
 30
0.0
 11
540.1797944334
 21
977.1101344617
 31
0.0
  0
LINE
  5
BA
  8
0
  6
HIDDEN
 62
     7
 10
-248.1461620436
 20
-788.8952530512
 30
0.0
 11
-249.5881479614
 21
-788.8952530512
 31
0.0
  0
LINE
  5
BB
  8
0
  6
HIDDEN
 62
     7
 10
-249.5881479619
 20
977.1101344616
 30
0.0
 11
-248.1461620438
 21
977.1101344616
 31
0.0
  0
LINE
  5
BC
  8
0
  6
HIDDEN
 62
     7
 10
540.1797944324
 20
-788.8952530513
 30
0.0
 11
538.7378085143
 21
-788.8952530513
 31
0.0
  0
LINE
  5
BD
  8
0
  6
HIDDEN
 62
     7
 10
-245.7068705215
 20
979.4933264528
 30
0.0
 11
-245.7068705215
 21
980.8792113882
 31
0.0
  0
LINE
  5
BE
  8
0
  6
HIDDEN
 62
     7
 10
-245.7068705215
 20
980.8792110802
 30
0.0
 11
-245.7068705215
 21
979.4933261305
 31
0.0
  0
LINE
  5
BF
  8
0
  6
HIDDEN
 62
     7
 10
536.2985169919
 20
980.8792113887
 30
0.0
 11
536.2985169919
 21
979.493326453
 31
0.0
  0
LINE
  5
C0
  8
0
  6
HIDDEN
 62
     7
 10
-245.7068705214
 20
-792.6643299787
 30
0.0
 11
-245.7068705214
 21
-791.2784450429
 31
0.0
  0
LINE
  5
C1
  8
0
  6
CONTINUOUS
 62
     7
 10
437.2958232352
 20
-929.1441918047
 30
0.0
 11
437.2958232352
 21
-930.1441918047
 31
0.0
  0
LINE
  5
C2
  8
0
  6
CONTINUOUS
 62
     7
 10
445.2958232352
 20
-930.1441918047
 30
0.0
 11
445.2958232352
 21
-929.1441918047
 31
0.0
  0
LINE
  5
C3
  8
0
  6
CONTINUOUS
 62
     7
 10
437.2958232352
 20
-930.1441918047
 30
0.0
 11
437.7958232352
 21
-930.6441918047
 31
0.0
  0
LINE
  5
C4
  8
0
  6
CONTINUOUS
 62
     7
 10
444.7958232352
 20
-930.6441918047
 30
0.0
 11
445.2958232352
 21
-930.1441918047
 31
0.0
  0
LINE
  5
C5
  8
0
  6
CONTINUOUS
 62
     7
 10
520.7958232352
 20
-929.1441918047
 30
0.0
 11
520.7958232352
 21
-919.8941918047
 31
0.0
  0
LINE
  5
C6
  8
0
  6
CONTINUOUS
 62
     7
 10
520.7958232352
 20
-919.8941918047
 30
0.0
 11
530.0458232352
 21
-919.8941918047
 31
0.0
  0
LINE
  5
C7
  8
0
  6
CONTINUOUS
 62
     7
 10
530.0458232352
 20
-919.8941918047
 30
0.0
 11
537.1745028917
 21
-912.7655121483
 31
0.0
  0
ARC
  5
C8
  8
0
  6
CONTINUOUS
 62
     7
 10
539.2958232352
 20
-910.6441918047
 30
0.0
 40
3.000000000000105
 50
225.0
 51
228.1896851042
  0
LINE
  5
C9
  8
0
  6
CONTINUOUS
 62
     7
 10
537.2958232352
 20
-929.1441918047
 30
0.0
 11
520.7958232352
 21
-929.1441918047
 31
0.0
  0
LINE
  5
CA
  8
0
  6
CONTINUOUS
 62
     7
 10
-239.4541767648
 20
-919.8941918047
 30
0.0
 11
-246.5828564212
 21
-912.7655121483
 31
0.0
  0
LINE
  5
CB
  8
0
  6
CONTINUOUS
 62
     7
 10
-230.2041767648
 20
-919.8941918047
 30
0.0
 11
-239.4541767648
 21
-919.8941918047
 31
0.0
  0
LINE
  5
CC
  8
0
  6
CONTINUOUS
 62
     7
 10
-230.2041767648
 20
-919.8941918047
 30
0.0
 11
-230.2041767648
 21
-929.1441918047
 31
0.0
  0
LINE
  5
CD
  8
0
  6
CONTINUOUS
 62
     7
 10
-230.2041767648
 20
-929.1441918047
 30
0.0
 11
-246.7041767648
 21
-929.1441918047
 31
0.0
  0
ARC
  5
CE
  8
0
  6
CONTINUOUS
 62
     7
 10
-248.7041767648
 20
-910.6441918047
 30
0.0
 40
2.999999999999991
 50
311.8103148958
 51
315.0
  0
ARC
  5
CF
  8
0
  6
CONTINUOUS
 62
     7
 10
538.6627580052
 20
-912.9978003003
 30
0.0
 40
0.6438851934815026
 50
308.101211554
 51
10.5182599335
  0
LINE
  5
D0
  8
0
  6
CONTINUOUS
 62
     7
 10
539.2958232352
 20
-912.8802597822
 30
0.0
 11
541.2958232352
 21
-912.8802597822
 31
0.0
  0
POLYLINE
  5
D1
  8
0
  6
CONTINUOUS
 62
     7
 66
     1
 10
0.0
 20
0.0
 30
0.0
  0
VERTEX
  5
2AF
  8
0
  6
CONTINUOUS
 62
     7
 10
537.2958232352
 20
-912.8802597822
 30
0.0
  0
VERTEX
  5
2B0
  8
0
  6
CONTINUOUS
 62
     7
 10
538.1062231733
 20
-913.2188138426
 30
0.0
  0
VERTEX
  5
2B1
  8
0
  6
CONTINUOUS
 62
     7
 10
538.8442501447
 20
-913.4578285652
 30
0.0
  0
VERTEX
  5
2B2
  8
0
  6
CONTINUOUS
 62
     7
 10
539.4893844895
 20
-913.5973039498
 30
0.0
  0
VERTEX
  5
2B3
  8
0
  6
CONTINUOUS
 62
     7
 10
540.0735540555
 20
-913.641492808
 30
0.0
  0
VERTEX
  5
2B4
  8
0
  6
CONTINUOUS
 62
     7
 10
540.5846835598
 20
-913.5931687443
 30
0.0
  0
VERTEX
  5
2B5
  8
0
  6
CONTINUOUS
 62
     7
 10
540.9710393618
 20
-913.4501885521
 30
0.0
  0
VERTEX
  5
2B6
  8
0
  6
CONTINUOUS
 62
     7
 10
541.2129432541
 20
-913.2125522314
 30
0.0
  0
VERTEX
  5
2B7
  8
0
  6
CONTINUOUS
 62
     7
 10
541.295823854
 20
-912.8802597822
 30
0.0
  0
SEQEND
  5
2AE
  8
0
  6
CONTINUOUS
 62
     7
  0
ARC
  5
D2
  8
0
  6
CONTINUOUS
 62
     7
 10
-246.348705598
 20
-911.317944031
 30
0.0
 40
0.6842514288336956
 50
43.6065930081
 51
100.0496743376
  0
LINE
  5
D3
  8
0
  6
CONTINUOUS
 62
     7
 10
-246.4681087873
 20
-910.6441918047
 30
0.0
 11
-246.4681087873
 21
-908.6441918047
 31
0.0
  0
POLYLINE
  5
D4
  8
0
  6
CONTINUOUS
 62
     7
 66
     1
 10
0.0
 20
0.0
 30
0.0
  0
VERTEX
  5
2B9
  8
0
  6
CONTINUOUS
 62
     7
 10
-246.4681087873
 20
-912.6441918047
 30
0.0
  0
VERTEX
  5
2BA
  8
0
  6
CONTINUOUS
 62
     7
 10
-246.1358163382
 20
-911.8341450729
 30
0.0
  0
VERTEX
  5
2BB
  8
0
  6
CONTINUOUS
 62
     7
 10
-245.8981800176
 20
-911.0653341884
 30
0.0
  0
VERTEX
  5
2BC
  8
0
  6
CONTINUOUS
 62
     7
 10
-245.7551998254
 20
-910.3674830586
 30
0.0
  0
VERTEX
  5
2BD
  8
0
  6
CONTINUOUS
 62
     7
 10
-245.7068757616
 20
-909.7659603269
 30
0.0
  0
VERTEX
  5
2BE
  8
0
  6
CONTINUOUS
 62
     7
 10
-245.7510646197
 20
-909.299301078
 30
0.0
  0
VERTEX
  5
2BF
  8
0
  6
CONTINUOUS
 62
     7
 10
-245.8905400042
 20
-908.95605148
 30
0.0
  0
VERTEX
  5
2C0
  8
0
  6
CONTINUOUS
 62
     7
 10
-246.1295547267
 20
-908.7271448443
 30
0.0
  0
VERTEX
  5
2C1
  8
0
  6
CONTINUOUS
 62
     7
 10
-246.4681087873
 20
-908.6441911859
 30
0.0
  0
SEQEND
  5
2B8
  8
0
  6
CONTINUOUS
 62
     7
  0
LINE
  5
D5
  8
0
  6
CONTINUOUS
 62
     7
 10
537.1745028917
 20
-912.7655121483
 30
0.0
 11
530.0458232352
 21
-919.8941918047
 31
0.0
  0
LINE
  5
D6
  8
0
  6
CONTINUOUS
 62
     7
 10
530.0458232352
 20
-919.8941918047
 30
0.0
 11
520.7958232352
 21
-919.8941918047
 31
0.0
  0
LINE
  5
D7
  8
0
  6
CONTINUOUS
 62
     7
 10
520.7958232352
 20
-919.8941918047
 30
0.0
 11
520.7958232352
 21
-929.1441918047
 31
0.0
  0
LINE
  5
D8
  8
0
  6
CONTINUOUS
 62
     7
 10
520.7958232352
 20
-929.1441918047
 30
0.0
 11
-230.2041767648
 21
-929.1441918047
 31
0.0
  0
LINE
  5
D9
  8
0
  6
CONTINUOUS
 62
     7
 10
-230.2041767648
 20
-919.8941918047
 30
0.0
 11
-230.2041767648
 21
-929.1441918047
 31
0.0
  0
LINE
  5
DA
  8
0
  6
CONTINUOUS
 62
     7
 10
-239.4541767648
 20
-919.8941918047
 30
0.0
 11
-230.2041767648
 21
-919.8941918047
 31
0.0
  0
LINE
  5
DB
  8
0
  6
CONTINUOUS
 62
     7
 10
-246.5828564212
 20
-912.7655121483
 30
0.0
 11
-239.4541767648
 21
-919.8941918047
 31
0.0
  0
ARC
  5
DC
  8
0
  6
CONTINUOUS
 62
     7
 10
539.2958232352
 20
-910.6441918047
 30
0.0
 40
2.999999999999944
 50
221.8103148958
 51
225.0
  0
ARC
  5
DD
  8
0
  6
CONTINUOUS
 62
     7
 10
-248.7041767648
 20
-910.6441918047
 30
0.0
 40
2.999999999999975
 50
315.0
 51
318.1896851042
  0
ARC
  5
DE
  8
0
  6
CONTINUOUS
 62
     7
 10
536.9403520685
 20
-911.3179440309
 30
0.0
 40
0.6842514287248476
 50
79.9503256628
 51
136.3934070111
  0
POLYLINE
  5
DF
  8
0
  6
CONTINUOUS
 62
     7
 66
     1
 10
0.0
 20
0.0
 30
0.0
  0
VERTEX
  5
2C3
  8
0
  6
CONTINUOUS
 62
     7
 10
537.0597552577
 20
-908.6441911859
 30
0.0
  0
VERTEX
  5
2C4
  8
0
  6
CONTINUOUS
 62
     7
 10
536.7212011973
 20
-908.7271448442
 30
0.0
  0
VERTEX
  5
2C5
  8
0
  6
CONTINUOUS
 62
     7
 10
536.4821864748
 20
-908.9560514798
 30
0.0
  0
VERTEX
  5
2C6
  8
0
  6
CONTINUOUS
 62
     7
 10
536.3427110902
 20
-909.2993010779
 30
0.0
  0
VERTEX
  5
2C7
  8
0
  6
CONTINUOUS
 62
     7
 10
536.298522232
 20
-909.7659603268
 30
0.0
  0
VERTEX
  5
2C8
  8
0
  6
CONTINUOUS
 62
     7
 10
536.3468462957
 20
-910.3674830584
 30
0.0
  0
VERTEX
  5
2C9
  8
0
  6
CONTINUOUS
 62
     7
 10
536.4898264879
 20
-911.0653341881
 30
0.0
  0
VERTEX
  5
2CA
  8
0
  6
CONTINUOUS
 62
     7
 10
536.7274628086
 20
-911.8341450727
 30
0.0
  0
VERTEX
  5
2CB
  8
0
  6
CONTINUOUS
 62
     7
 10
537.0597552577
 20
-912.6441918047
 30
0.0
  0
SEQEND
  5
2C2
  8
0
  6
CONTINUOUS
 62
     7
  0
LINE
  5
E0
  8
0
  6
CONTINUOUS
 62
     7
 10
537.0597552577
 20
-908.6441918047
 30
0.0
 11
537.0597552577
 21
-910.6441911859
 31
0.0
  0
LINE
  5
E1
  8
0
  6
CONTINUOUS
 62
     7
 10
-246.7041767648
 20
-929.1441918047
 30
0.0
 11
-250.7041767648
 21
-929.1441918047
 31
0.0
  0
LINE
  5
E2
  8
0
  6
CONTINUOUS
 62
     7
 10
-250.7041767648
 20
-912.8802597822
 30
0.0
 11
-250.7041767648
 21
-929.1441918047
 31
0.0
  0
POLYLINE
  5
E3
  8
0
  6
CONTINUOUS
 62
     7
 66
     1
 10
0.0
 20
0.0
 30
0.0
  0
VERTEX
  5
2CD
  8
0
  6
CONTINUOUS
 62
     7
 10
-250.7041773836
 20
-912.8802597822
 30
0.0
  0
VERTEX
  5
2CE
  8
0
  6
CONTINUOUS
 62
     7
 10
-250.6212967837
 20
-913.2125522314
 30
0.0
  0
VERTEX
  5
2CF
  8
0
  6
CONTINUOUS
 62
     7
 10
-250.3793928914
 20
-913.4501885521
 30
0.0
  0
VERTEX
  5
2D0
  8
0
  6
CONTINUOUS
 62
     7
 10
-249.9930370894
 20
-913.5931687443
 30
0.0
  0
VERTEX
  5
2D1
  8
0
  6
CONTINUOUS
 62
     7
 10
-249.4819075851
 20
-913.641492808
 30
0.0
  0
VERTEX
  5
2D2
  8
0
  6
CONTINUOUS
 62
     7
 10
-248.897738019
 20
-913.5973039498
 30
0.0
  0
VERTEX
  5
2D3
  8
0
  6
CONTINUOUS
 62
     7
 10
-248.2526036742
 20
-913.4578285652
 30
0.0
  0
VERTEX
  5
2D4
  8
0
  6
CONTINUOUS
 62
     7
 10
-247.5145767028
 20
-913.2188138426
 30
0.0
  0
VERTEX
  5
2D5
  8
0
  6
CONTINUOUS
 62
     7
 10
-246.7041767648
 20
-912.8802597822
 30
0.0
  0
SEQEND
  5
2CC
  8
0
  6
CONTINUOUS
 62
     7
  0
ARC
  5
E4
  8
0
  6
CONTINUOUS
 62
     7
 10
-248.0711115347
 20
-912.9978003004
 30
0.0
 40
0.6438851934928421
 50
169.4817400635
 51
231.8987884445
  0
LINE
  5
E5
  8
0
  6
CONTINUOUS
 62
     7
 10
-250.7041767648
 20
-912.8802597822
 30
0.0
 11
-248.7041767648
 21
-912.8802597822
 31
0.0
  0
LINE
  5
E6
  8
0
  6
CONTINUOUS
 62
     7
 10
541.2958232352
 20
-929.1441918047
 30
0.0
 11
541.2958232352
 21
-912.8802597822
 31
0.0
  0
LINE
  5
E7
  8
0
  6
CONTINUOUS
 62
     7
 10
541.295823854
 20
-929.1441918047
 30
0.0
 11
537.2958232352
 21
-929.1441918047
 31
0.0
  0
LINE
  5
E8
  8
0
  6
CONTINUOUS
 62
     7
 10
537.0597552577
 20
-908.6441918047
 30
0.0
 11
-246.4681087873
 21
-908.6441918047
 31
0.0
  0
LINE
  5
E9
  8
0
  6
CONTINUOUS
 62
     7
 10
-246.7041767648
 20
-910.6441918047
 30
0.0
 11
-246.7041767648
 21
-908.6441918047
 31
0.0
  0
LINE
  5
EA
  8
0
  6
CONTINUOUS
 62
     7
 10
-246.4681087873
 20
-908.6441918047
 30
0.0
 11
-246.7041767648
 21
-908.6441918047
 31
0.0
  0
LINE
  5
EB
  8
0
  6
CONTINUOUS
 62
     7
 10
-246.4681087873
 20
-910.6441918047
 30
0.0
 11
-246.7041767648
 21
-910.6441918047
 31
0.0
  0
LINE
  5
EC
  8
0
  6
CONTINUOUS
 62
     7
 10
-250.7041767648
 20
-912.6441918047
 30
0.0
 11
-250.7041767648
 21
-912.8802597822
 31
0.0
  0
LINE
  5
ED
  8
0
  6
CONTINUOUS
 62
     7
 10
-248.7041767648
 20
-912.6441918047
 30
0.0
 11
-250.7041767648
 21
-912.6441918047
 31
0.0
  0
LINE
  5
EE
  8
0
  6
CONTINUOUS
 62
     7
 10
-248.7041767648
 20
-912.6441918047
 30
0.0
 11
-248.7041767648
 21
-912.8802597822
 31
0.0
  0
LINE
  5
EF
  8
0
  6
CONTINUOUS
 62
     7
 10
537.2958232352
 20
-910.6441918047
 30
0.0
 11
537.2958232352
 21
-908.6441918047
 31
0.0
  0
LINE
  5
F0
  8
0
  6
CONTINUOUS
 62
     7
 10
537.0597552577
 20
-908.6441918047
 30
0.0
 11
537.2958232352
 21
-908.6441918047
 31
0.0
  0
LINE
  5
F1
  8
0
  6
CONTINUOUS
 62
     7
 10
537.0597552577
 20
-910.6441918047
 30
0.0
 11
537.2958232352
 21
-910.6441918047
 31
0.0
  0
LINE
  5
F2
  8
0
  6
CONTINUOUS
 62
     7
 10
539.2958235096
 20
-912.6441918047
 30
0.0
 11
541.2958232352
 21
-912.6441918047
 31
0.0
  0
LINE
  5
F3
  8
0
  6
CONTINUOUS
 62
     7
 10
539.2958232352
 20
-912.6441918047
 30
0.0
 11
539.2958232352
 21
-912.8802597822
 31
0.0
  0
LINE
  5
F4
  8
0
  6
CONTINUOUS
 62
     7
 10
541.2958232352
 20
-912.6441918047
 30
0.0
 11
541.2958232352
 21
-912.8802597822
 31
0.0
  0
ARC
  5
F5
  8
0
  6
CONTINUOUS
 62
     7
 10
-246.7041767648
 20
-912.6441918047
 30
0.0
 40
4.000000274397308
 50
90.0
 51
180.0
  0
ARC
  5
F6
  8
0
  6
CONTINUOUS
 62
     7
 10
-246.7041767648
 20
-912.6441918047
 30
0.0
 40
2.000000274397195
 50
90.0
 51
180.0
  0
ARC
  5
F7
  8
0
  6
CONTINUOUS
 62
     7
 10
537.2958232352
 20
-912.6441918047
 30
0.0
 40
2.00000027439728
 50
0.0
 51
90.0
  0
ARC
  5
F8
  8
0
  6
CONTINUOUS
 62
     7
 10
537.2958232352
 20
-912.6441918047
 30
0.0
 40
4.000000274397166
 50
360.0
 51
90.0
  0
LINE
  5
F9
  8
0
  6
CONTINUOUS
 62
     7
 10
441.2944287901
 20
-930.1441918047
 30
0.0
 11
445.2958232352
 21
-930.1441918047
 31
0.0
  0
LINE
  5
FA
  8
0
  6
CONTINUOUS
 62
     7
 10
437.2958232352
 20
-930.1441918047
 30
0.0
 11
441.2944287901
 21
-930.1441918047
 31
0.0
  0
LINE
  5
FB
  8
0
  6
CONTINUOUS
 62
     7
 10
441.2946030958
 20
-930.6441918047
 30
0.0
 11
444.7958232352
 21
-930.6441918047
 31
0.0
  0
LINE
  5
FC
  8
0
  6
CONTINUOUS
 62
     7
 10
437.7958232352
 20
-930.6441918047
 30
0.0
 11
441.2946030958
 21
-930.6441918047
 31
0.0
  0
ARC
  5
FD
  8
0
  6
HIDDEN
 62
     7
 10
-211.7041767648
 20
-910.1441918047
 30
0.0
 40
7.516648189186462
 50
183.8140748343
 51
356.1859251657
  0
ARC
  5
FE
  8
0
  6
HIDDEN
 62
     7
 10
502.2958232352
 20
-910.1441918047
 30
0.0
 40
7.516648189186518
 50
183.8140748343
 51
356.1859251657
  0
POLYLINE
  5
FF
  8
0
  6
HIDDEN
 62
     7
 66
     1
 10
0.0
 20
0.0
 30
0.0
  0
VERTEX
  5
2D7
  8
0
  6
HIDDEN
 62
     7
 10
537.2958232352
 20
-912.8802597822
 30
0.0
  0
VERTEX
  5
2D8
  8
0
  6
HIDDEN
 62
     7
 10
537.2958232352
 20
-912.8802597822
 30
0.0
  0
SEQEND
  5
2D6
  8
0
  6
HIDDEN
 62
     7
  0
ARC
  5
100
  8
0
  6
HIDDEN
 62
     7
 10
538.7386490532
 20
-913.2064560217
 30
0.0
 40
0.4383305344878093
 50
262.7196674464
 51
317.1622535237
  0
POLYLINE
  5
101
  8
0
  6
HIDDEN
 62
     7
 66
     1
 10
0.0
 20
0.0
 30
0.0
  0
VERTEX
  5
2DA
  8
0
  6
HIDDEN
 62
     7
 10
-245.7071158084
 20
-911.2038083281
 30
0.0
  0
VERTEX
  5
2DB
  8
0
  6
HIDDEN
 62
     7
 10
-245.7510646197
 20
-910.9717461827
 30
0.0
  0
VERTEX
  5
2DC
  8
0
  6
HIDDEN
 62
     7
 10
-245.8532442687
 20
-910.8460138572
 30
0.0
  0
SEQEND
  5
2D9
  8
0
  6
HIDDEN
 62
     7
  0
POLYLINE
  5
102
  8
0
  6
HIDDEN
 62
     7
 66
     1
 10
0.0
 20
0.0
 30
0.0
  0
VERTEX
  5
2DE
  8
0
  6
HIDDEN
 62
     7
 10
-246.4681087873
 20
-912.6441918047
 30
0.0
  0
VERTEX
  5
2DF
  8
0
  6
HIDDEN
 62
     7
 10
-246.4681087873
 20
-912.6441918047
 30
0.0
  0
SEQEND
  5
2DD
  8
0
  6
HIDDEN
 62
     7
  0
POLYLINE
  5
103
  8
0
  6
HIDDEN
 62
     7
 66
     1
 10
0.0
 20
0.0
 30
0.0
  0
VERTEX
  5
2E1
  8
0
  6
HIDDEN
 62
     7
 10
536.4448907391
 20
-910.8460138573
 30
0.0
  0
VERTEX
  5
2E2
  8
0
  6
HIDDEN
 62
     7
 10
536.3427110902
 20
-910.9717461826
 30
0.0
  0
VERTEX
  5
2E3
  8
0
  6
HIDDEN
 62
     7
 10
536.2987622788
 20
-911.2038083282
 30
0.0
  0
SEQEND
  5
2E0
  8
0
  6
HIDDEN
 62
     7
  0
POLYLINE
  5
104
  8
0
  6
HIDDEN
 62
     7
 66
     1
 10
0.0
 20
0.0
 30
0.0
  0
VERTEX
  5
2E5
  8
0
  6
HIDDEN
 62
     7
 10
537.0597552577
 20
-912.6441918047
 30
0.0
  0
VERTEX
  5
2E6
  8
0
  6
HIDDEN
 62
     7
 10
537.0597552577
 20
-912.6441918047
 30
0.0
  0
SEQEND
  5
2E4
  8
0
  6
HIDDEN
 62
     7
  0
ARC
  5
105
  8
0
  6
HIDDEN
 62
     7
 10
-248.1470025828
 20
-913.2064560217
 30
0.0
 40
0.4383305344384253
 50
222.8377464772
 51
277.2803325558
  0
POLYLINE
  5
106
  8
0
  6
HIDDEN
 62
     7
 66
     1
 10
0.0
 20
0.0
 30
0.0
  0
VERTEX
  5
2E8
  8
0
  6
HIDDEN
 62
     7
 10
-246.7041767648
 20
-912.8802597822
 30
0.0
  0
VERTEX
  5
2E9
  8
0
  6
HIDDEN
 62
     7
 10
-246.7041767648
 20
-912.8802597822
 30
0.0
  0
SEQEND
  5
2E7
  8
0
  6
HIDDEN
 62
     7
  0
LINE
  5
107
  8
0
  6
HIDDEN
 62
     7
 10
539.2958232352
 20
-929.1441918047
 30
0.0
 11
539.2958232352
 21
-912.8802597822
 31
0.0
  0
LINE
  5
108
  8
0
  6
HIDDEN
 62
     7
 10
537.0597552577
 20
-910.6441918047
 30
0.0
 11
-246.4681087873
 21
-910.6441918047
 31
0.0
  0
LINE
  5
109
  8
0
  6
HIDDEN
 62
     7
 10
-248.7041767648
 20
-912.8802597822
 30
0.0
 11
-248.7041767648
 21
-929.1441918047
 31
0.0
  0
LINE
  5
10A
  8
0
  6
HIDDEN
 62
     7
 10
-225.1873377986
 20
-913.1477252914
 30
0.0
 11
-234.221015731
 21
-913.1477252914
 31
0.0
  0
LINE
  5
10B
  8
0
  6
HIDDEN
 62
     7
 10
515.778984269
 20
-913.1477252914
 30
0.0
 11
524.8126622014
 21
-913.1477252914
 31
0.0
  0
LINE
  5
10C
  8
0
  6
HIDDEN
 62
     7
 10
517.2958232352
 20
-911.8441918048
 30
0.0
 11
523.2958232352
 21
-911.8441918048
 31
0.0
  0
LINE
  5
10D
  8
0
  6
HIDDEN
 62
     7
 10
-226.7041767648
 20
-911.8441918048
 30
0.0
 11
-232.7041767648
 21
-911.8441918048
 31
0.0
  0
POLYLINE
  5
10E
  8
0
  6
HIDDEN
 62
     7
 66
     1
 10
0.0
 20
0.0
 30
0.0
  0
VERTEX
  5
2EB
  8
0
  6
HIDDEN
 62
     7
 10
-246.7041767648
 20
-912.8802597822
 30
0.0
  0
VERTEX
  5
2EC
  8
0
  6
HIDDEN
 62
     7
 10
-246.7041767648
 20
-912.8802597822
 30
0.0
  0
SEQEND
  5
2EA
  8
0
  6
HIDDEN
 62
     7
  0
POLYLINE
  5
10F
  8
0
  6
HIDDEN
 62
     7
 66
     1
 10
0.0
 20
0.0
 30
0.0
  0
VERTEX
  5
2EE
  8
0
  6
HIDDEN
 62
     7
 10
536.2990115843
 20
-909.7607924907
 30
0.0
  0
VERTEX
  5
2EF
  8
0
  6
HIDDEN
 62
     7
 10
536.3427110902
 20
-909.2993010779
 30
0.0
  0
VERTEX
  5
2F0
  8
0
  6
HIDDEN
 62
     7
 10
536.4821864749
 20
-908.9560514798
 30
0.0
  0
VERTEX
  5
2F1
  8
0
  6
HIDDEN
 62
     7
 10
536.7212011974
 20
-908.7271448442
 30
0.0
  0
VERTEX
  5
2F2
  8
0
  6
HIDDEN
 62
     7
 10
537.0597552577
 20
-908.6441911859
 30
0.0
  0
SEQEND
  5
2ED
  8
0
  6
HIDDEN
 62
     7
  0
POLYLINE
  5
110
  8
0
  6
HIDDEN
 62
     7
 66
     1
 10
0.0
 20
0.0
 30
0.0
  0
VERTEX
  5
2F4
  8
0
  6
HIDDEN
 62
     7
 10
-246.4681087873
 20
-912.6441918047
 30
0.0
  0
VERTEX
  5
2F5
  8
0
  6
HIDDEN
 62
     7
 10
-246.4681087873
 20
-912.6441918047
 30
0.0
  0
SEQEND
  5
2F3
  8
0
  6
HIDDEN
 62
     7
  0
POLYLINE
  5
111
  8
0
  6
HIDDEN
 62
     7
 66
     1
 10
0.0
 20
0.0
 30
0.0
  0
VERTEX
  5
2F7
  8
0
  6
HIDDEN
 62
     7
 10
537.0597552577
 20
-912.6441918047
 30
0.0
  0
VERTEX
  5
2F8
  8
0
  6
HIDDEN
 62
     7
 10
537.0597552577
 20
-912.6441918047
 30
0.0
  0
SEQEND
  5
2F6
  8
0
  6
HIDDEN
 62
     7
  0
POLYLINE
  5
112
  8
0
  6
HIDDEN
 62
     7
 66
     1
 10
0.0
 20
0.0
 30
0.0
  0
VERTEX
  5
2FA
  8
0
  6
HIDDEN
 62
     7
 10
537.2958232352
 20
-912.8802597822
 30
0.0
  0
VERTEX
  5
2FB
  8
0
  6
HIDDEN
 62
     7
 10
537.2958232352
 20
-912.8802597822
 30
0.0
  0
SEQEND
  5
2F9
  8
0
  6
HIDDEN
 62
     7
  0
LINE
  5
113
  8
0
  6
HIDDEN
 62
     7
 10
441.2940801788
 20
-911.6441918047
 30
0.0
 11
446.2958232352
 21
-911.6441918047
 31
0.0
  0
LINE
  5
114
  8
0
  6
HIDDEN
 62
     7
 10
436.2958232352
 20
-911.6441918047
 30
0.0
 11
441.2940801788
 21
-911.6441918047
 31
0.0
  0
LINE
  5
115
  8
0
  6
HIDDEN
 62
     7
 10
-211.7041767648
 20
-917.6608399939
 30
0.0
 11
-199.2041767648
 21
-917.6608399939
 31
0.0
  0
LINE
  5
116
  8
0
  6
HIDDEN
 62
     7
 10
-199.2041767648
 20
-917.6608399939
 30
0.0
 11
489.7958232352
 21
-917.6608399939
 31
0.0
  0
LINE
  5
117
  8
0
  6
HIDDEN
 62
     7
 10
489.7958232352
 20
-917.6608399939
 30
0.0
 11
502.2958232352
 21
-917.6608399939
 31
0.0
  0
LINE
  5
118
  8
0
  6
HIDDEN
 62
     7
 10
538.6817089832
 20
-913.6414980481
 30
0.0
 11
540.0675939189
 21
-913.6414980481
 31
0.0
  0
LINE
  5
119
  8
0
  6
HIDDEN
 62
     7
 10
-245.7068705215
 20
-911.2022062717
 30
0.0
 11
-245.7068705215
 21
-909.760220348
 31
0.0
  0
LINE
  5
11A
  8
0
  6
HIDDEN
 62
     7
 10
536.2985169919
 20
-909.7602203485
 30
0.0
 11
536.2985169919
 21
-911.202206272
 31
0.0
  0
LINE
  5
11B
  8
0
  6
HIDDEN
 62
     7
 10
-249.4759474486
 20
-913.6414980481
 30
0.0
 11
-248.0900625128
 21
-913.6414980481
 31
0.0
  0
ARC
  5
11C
  8
0
  6
HIDDEN
 62
     7
 10
-222.8200601403
 20
-911.1141918048
 30
0.0
 40
0.470000000028449
 50
90.0
 51
139.3250604347
  0
ARC
  5
11D
  8
0
  6
HIDDEN
 62
     7
 10
-236.5882933892
 20
-911.1141918048
 30
0.0
 40
0.470000000028449
 50
40.6749395653
 51
90.0
  0
ARC
  5
11E
  8
0
  6
HIDDEN
 62
     7
 10
527.1799398597
 20
-911.1141918048
 30
0.0
 40
0.470000000028449
 50
90.0
 51
139.3250604347
  0
ARC
  5
11F
  8
0
  6
HIDDEN
 62
     7
 10
513.4117066108
 20
-911.1141918048
 30
0.0
 40
0.470000000028449
 50
40.6749395653
 51
90.0
  0
ARC
  5
120
  8
0
  6
HIDDEN
 62
     7
 10
527.1799398597
 20
-911.1141918048
 30
0.0
 40
2.470000000000027
 50
90.0
 51
139.3250604347
  0
ARC
  5
121
  8
0
  6
HIDDEN
 62
     7
 10
513.4117066108
 20
-911.1141918048
 30
0.0
 40
2.470000000000054
 50
40.6749395653
 51
90.0
  0
ARC
  5
122
  8
0
  6
HIDDEN
 62
     7
 10
-222.8200601403
 20
-911.1141918048
 30
0.0
 40
2.470000000000027
 50
90.0
 51
139.3250604347
  0
ARC
  5
123
  8
0
  6
HIDDEN
 62
     7
 10
-236.5882933892
 20
-911.1141918048
 30
0.0
 40
2.470000000000027
 50
40.6749395653
 51
90.0
  0
LINE
  5
124
  8
0
  6
HIDDEN
 62
     7
 10
-236.2318362321
 20
-910.8078614355
 30
0.0
 11
-234.221015731
 21
-913.1477252914
 31
0.0
  0
LINE
  5
125
  8
0
  6
HIDDEN
 62
     7
 10
-225.1873377986
 20
-913.1477252914
 30
0.0
 11
-223.1765172974
 21
-910.8078614355
 31
0.0
  0
LINE
  5
126
  8
0
  6
HIDDEN
 62
     7
 10
513.7681637679
 20
-910.8078614355
 30
0.0
 11
515.778984269
 21
-913.1477252914
 31
0.0
  0
LINE
  5
127
  8
0
  6
HIDDEN
 62
     7
 10
524.8126622014
 20
-913.1477252914
 30
0.0
 11
526.8234827026
 21
-910.8078614355
 31
0.0
  0
LINE
  5
128
  8
0
  6
HIDDEN
 62
     7
 10
515.2850027341
 20
-909.5043279489
 30
0.0
 11
517.2958232352
 21
-911.8441918048
 31
0.0
  0
LINE
  5
129
  8
0
  6
HIDDEN
 62
     7
 10
523.2958232352
 20
-911.8441918048
 30
0.0
 11
525.3066437364
 21
-909.5043279489
 31
0.0
  0
LINE
  5
12A
  8
0
  6
HIDDEN
 62
     7
 10
-234.7149972659
 20
-909.5043279489
 30
0.0
 11
-232.7041767648
 21
-911.8441918048
 31
0.0
  0
LINE
  5
12B
  8
0
  6
HIDDEN
 62
     7
 10
-226.7041767648
 20
-911.8441918048
 30
0.0
 11
-224.6933562636
 21
-909.5043279489
 31
0.0
  0
LINE
  5
12C
  8
0
  6
HIDDEN
 62
     7
 10
-225.1873377986
 20
-913.1477252914
 30
0.0
 11
-226.7041767648
 21
-911.8441918048
 31
0.0
  0
LINE
  5
12D
  8
0
  6
HIDDEN
 62
     7
 10
-232.7041767648
 20
-911.8441918048
 30
0.0
 11
-234.221015731
 21
-913.1477252914
 31
0.0
  0
LINE
  5
12E
  8
0
  6
HIDDEN
 62
     7
 10
524.8126622014
 20
-913.1477252914
 30
0.0
 11
523.2958232352
 21
-911.8441918048
 31
0.0
  0
LINE
  5
12F
  8
0
  6
HIDDEN
 62
     7
 10
517.2958232352
 20
-911.8441918048
 30
0.0
 11
515.778984269
 21
-913.1477252914
 31
0.0
  0
LINE
  5
130
  8
0
  6
HIDDEN
 62
     7
 10
436.2958232352
 20
-910.6441918047
 30
0.0
 11
436.2958232352
 21
-911.6441918047
 31
0.0
  0
LINE
  5
131
  8
0
  6
HIDDEN
 62
     7
 10
446.2958232352
 20
-911.6441918047
 30
0.0
 11
446.2958232352
 21
-910.6441918047
 31
0.0
  0
LINE
  5
132
  8
0
  6
HIDDEN
 62
     7
 10
437.2958232352
 20
-911.6441918047
 30
0.0
 11
437.2958232352
 21
-929.1441918047
 31
0.0
  0
LINE
  5
133
  8
0
  6
HIDDEN
 62
     7
 10
445.2958232352
 20
-929.1441918047
 30
0.0
 11
445.2958232352
 21
-911.6441918047
 31
0.0
  0
LINE
  5
134
  8
0
  6
CONTINUOUS
 62
     7
 10
679.6733220135
 20
-697.8925592949
 30
0.0
 11
680.6733220135
 21
-697.8925592949
 31
0.0
  0
LINE
  5
135
  8
0
  6
CONTINUOUS
 62
     7
 10
680.6733220135
 20
-689.8925592949
 30
0.0
 11
679.6733220135
 21
-689.8925592949
 31
0.0
  0
LINE
  5
136
  8
0
  6
CONTINUOUS
 62
     7
 10
680.6733220135
 20
-697.8925592949
 30
0.0
 11
681.1733220135
 21
-697.3925592949
 31
0.0
  0
LINE
  5
137
  8
0
  6
CONTINUOUS
 62
     7
 10
681.1733220135
 20
-690.3925592949
 30
0.0
 11
680.6733220135
 21
-689.8925592949
 31
0.0
  0
LINE
  5
138
  8
0
  6
CONTINUOUS
 62
     7
 10
679.6733220135
 20
978.1074407051
 30
0.0
 11
679.6733220135
 21
-789.8925592949
 31
0.0
  0
ARC
  5
139
  8
0
  6
CONTINUOUS
 62
     7
 10
661.1733220135
 20
-791.8925592949
 30
0.0
 40
3.000000000000105
 50
41.8103148958
 51
48.1896851042
  0
ARC
  5
13A
  8
0
  6
CONTINUOUS
 62
     7
 10
661.1733220135
 20
980.1074407051
 30
0.0
 40
3.000000000000114
 50
311.8103148958
 51
318.1896851042
  0
LINE
  5
13B
  8
0
  6
CONTINUOUS
 62
     7
 10
679.6733220135
 20
982.1074407051
 30
0.0
 11
679.6733220135
 21
978.1074407051
 31
0.0
  0
POLYLINE
  5
13C
  8
0
  6
CONTINUOUS
 62
     7
 66
     1
 10
0.0
 20
0.0
 30
0.0
  0
VERTEX
  5
2FD
  8
0
  6
CONTINUOUS
 62
     7
 10
663.409389991
 20
978.1074407051
 30
0.0
  0
VERTEX
  5
2FE
  8
0
  6
CONTINUOUS
 62
     7
 10
663.7416824402
 20
978.9174874371
 30
0.0
  0
VERTEX
  5
2FF
  8
0
  6
CONTINUOUS
 62
     7
 10
663.9793187609
 20
979.6862983216
 30
0.0
  0
VERTEX
  5
300
  8
0
  6
CONTINUOUS
 62
     7
 10
664.1222989531
 20
980.3841494514
 30
0.0
  0
VERTEX
  5
301
  8
0
  6
CONTINUOUS
 62
     7
 10
664.1706230168
 20
980.985672183
 30
0.0
  0
VERTEX
  5
302
  8
0
  6
CONTINUOUS
 62
     7
 10
664.1264341586
 20
981.4523314319
 30
0.0
  0
VERTEX
  5
303
  8
0
  6
CONTINUOUS
 62
     7
 10
663.9869587739
 20
981.7955810301
 30
0.0
  0
VERTEX
  5
304
  8
0
  6
CONTINUOUS
 62
     7
 10
663.7479440514
 20
982.0244876656
 30
0.0
  0
VERTEX
  5
305
  8
0
  6
CONTINUOUS
 62
     7
 10
663.409389991
 20
982.1074413239
 30
0.0
  0
SEQEND
  5
2FC
  8
0
  6
CONTINUOUS
 62
     7
  0
LINE
  5
13D
  8
0
  6
CONTINUOUS
 62
     7
 10
663.409389991
 20
982.1074407051
 30
0.0
 11
679.6733220135
 21
982.1074407051
 31
0.0
  0
POLYLINE
  5
13E
  8
0
  6
CONTINUOUS
 62
     7
 66
     1
 10
0.0
 20
0.0
 30
0.0
  0
VERTEX
  5
307
  8
0
  6
CONTINUOUS
 62
     7
 10
659.1733217391
 20
977.8713727276
 30
0.0
  0
VERTEX
  5
308
  8
0
  6
CONTINUOUS
 62
     7
 10
659.2562023316
 20
977.5390802758
 30
0.0
  0
VERTEX
  5
309
  8
0
  6
CONTINUOUS
 62
     7
 10
659.4981062034
 20
977.3014439543
 30
0.0
  0
VERTEX
  5
30A
  8
0
  6
CONTINUOUS
 62
     7
 10
659.8844619748
 20
977.1584637629
 30
0.0
  0
VERTEX
  5
30B
  8
0
  6
CONTINUOUS
 62
     7
 10
660.3955914413
 20
977.1101397017
 30
0.0
  0
VERTEX
  5
30C
  8
0
  6
CONTINUOUS
 62
     7
 10
660.9797609665
 20
977.1543285635
 30
0.0
  0
VERTEX
  5
30D
  8
0
  6
CONTINUOUS
 62
     7
 10
661.6248952596
 20
977.2938039496
 30
0.0
  0
VERTEX
  5
30E
  8
0
  6
CONTINUOUS
 62
     7
 10
662.3629221617
 20
977.532818671
 30
0.0
  0
VERTEX
  5
30F
  8
0
  6
CONTINUOUS
 62
     7
 10
663.1733220135
 20
977.8713727276
 30
0.0
  0
SEQEND
  5
306
  8
0
  6
CONTINUOUS
 62
     7
  0
POLYLINE
  5
13F
  8
0
  6
CONTINUOUS
 62
     7
 66
     1
 10
0.0
 20
0.0
 30
0.0
  0
VERTEX
  5
311
  8
0
  6
CONTINUOUS
 62
     7
 10
663.1733220135
 20
-789.6564913174
 30
0.0
  0
VERTEX
  5
312
  8
0
  6
CONTINUOUS
 62
     7
 10
662.362922163
 20
-789.3179372609
 30
0.0
  0
VERTEX
  5
313
  8
0
  6
CONTINUOUS
 62
     7
 10
661.6248952611
 20
-789.0789225396
 30
0.0
  0
VERTEX
  5
314
  8
0
  6
CONTINUOUS
 62
     7
 10
660.9797609671
 20
-788.9394471533
 30
0.0
  0
VERTEX
  5
315
  8
0
  6
CONTINUOUS
 62
     7
 10
660.3955914416
 20
-788.8952582913
 30
0.0
  0
VERTEX
  5
316
  8
0
  6
CONTINUOUS
 62
     7
 10
659.8844619752
 20
-788.9435823524
 30
0.0
  0
VERTEX
  5
317
  8
0
  6
CONTINUOUS
 62
     7
 10
659.4981062038
 20
-789.0865625438
 30
0.0
  0
VERTEX
  5
318
  8
0
  6
CONTINUOUS
 62
     7
 10
659.2562023317
 20
-789.3241988654
 30
0.0
  0
VERTEX
  5
319
  8
0
  6
CONTINUOUS
 62
     7
 10
659.1733217391
 20
-789.6564913174
 30
0.0
  0
SEQEND
  5
310
  8
0
  6
CONTINUOUS
 62
     7
  0
LINE
  5
140
  8
0
  6
CONTINUOUS
 62
     7
 10
659.1733220135
 20
-789.6564913174
 30
0.0
 11
659.1733220135
 21
977.8713727276
 31
0.0
  0
ARC
  5
141
  8
0
  6
CONTINUOUS
 62
     7
 10
663.5287931802
 20
979.4336884789
 30
0.0
 40
0.6842514287407164
 50
43.6065929786
 51
100.0496743335
  0
LINE
  5
142
  8
0
  6
CONTINUOUS
 62
     7
 10
663.409389991
 20
982.1074407051
 30
0.0
 11
663.409389991
 21
980.1074407051
 31
0.0
  0
LINE
  5
143
  8
0
  6
CONTINUOUS
 62
     7
 10
661.1733220135
 20
977.8713727276
 30
0.0
 11
659.1733220135
 21
977.8713727276
 31
0.0
  0
ARC
  5
144
  8
0
  6
CONTINUOUS
 62
     7
 10
661.8063876206
 20
977.7538321924
 30
0.0
 40
0.6438852286352402
 50
169.4817390925
 51
231.8987784375
  0
ARC
  5
145
  8
0
  6
CONTINUOUS
 62
     7
 10
661.8063876207
 20
-789.5389507821
 30
0.0
 40
0.6438852287710106
 50
128.1012215811
 51
190.5182609056
  0
LINE
  5
146
  8
0
  6
CONTINUOUS
 62
     7
 10
659.1733220135
 20
-789.6564913174
 30
0.0
 11
661.1733217391
 21
-789.6564913174
 31
0.0
  0
ARC
  5
147
  8
0
  6
CONTINUOUS
 62
     7
 10
663.5287931802
 20
-791.2188070687
 30
0.0
 40
0.684251428708226
 50
259.9503256683
 51
316.3934070308
  0
POLYLINE
  5
148
  8
0
  6
CONTINUOUS
 62
     7
 66
     1
 10
0.0
 20
0.0
 30
0.0
  0
VERTEX
  5
31B
  8
0
  6
CONTINUOUS
 62
     7
 10
663.409389991
 20
-793.8925599137
 30
0.0
  0
VERTEX
  5
31C
  8
0
  6
CONTINUOUS
 62
     7
 10
663.7479440514
 20
-793.8096062554
 30
0.0
  0
VERTEX
  5
31D
  8
0
  6
CONTINUOUS
 62
     7
 10
663.9869587739
 20
-793.5806996198
 30
0.0
  0
VERTEX
  5
31E
  8
0
  6
CONTINUOUS
 62
     7
 10
664.1264341585
 20
-793.2374500217
 30
0.0
  0
VERTEX
  5
31F
  8
0
  6
CONTINUOUS
 62
     7
 10
664.1706230168
 20
-792.7707907727
 30
0.0
  0
VERTEX
  5
320
  8
0
  6
CONTINUOUS
 62
     7
 10
664.1222989532
 20
-792.1692680412
 30
0.0
  0
VERTEX
  5
321
  8
0
  6
CONTINUOUS
 62
     7
 10
663.979318761
 20
-791.4714169115
 30
0.0
  0
VERTEX
  5
322
  8
0
  6
CONTINUOUS
 62
     7
 10
663.7416824403
 20
-790.7026060269
 30
0.0
  0
VERTEX
  5
323
  8
0
  6
CONTINUOUS
 62
     7
 10
663.409389991
 20
-789.8925592949
 30
0.0
  0
SEQEND
  5
31A
  8
0
  6
CONTINUOUS
 62
     7
  0
LINE
  5
149
  8
0
  6
CONTINUOUS
 62
     7
 10
663.409389991
 20
-793.8925592949
 30
0.0
 11
663.409389991
 21
-791.8925599137
 31
0.0
  0
LINE
  5
14A
  8
0
  6
CONTINUOUS
 62
     7
 10
679.6733220135
 20
-789.8925592949
 30
0.0
 11
679.6733220135
 21
-793.8925592949
 31
0.0
  0
LINE
  5
14B
  8
0
  6
CONTINUOUS
 62
     7
 10
663.409389991
 20
-793.8925592949
 30
0.0
 11
679.6733220135
 21
-793.8925592949
 31
0.0
  0
LINE
  5
14C
  8
0
  6
CONTINUOUS
 62
     7
 10
663.2946423571
 20
980.1074407051
 30
0.0
 11
663.2946423571
 21
982.1074407051
 31
0.0
  0
LINE
  5
14D
  8
0
  6
CONTINUOUS
 62
     7
 10
663.409389991
 20
982.1074407051
 30
0.0
 11
663.2946423571
 21
982.1074407051
 31
0.0
  0
LINE
  5
14E
  8
0
  6
CONTINUOUS
 62
     7
 10
663.409389991
 20
980.1074407051
 30
0.0
 11
663.2946423571
 21
980.1074407051
 31
0.0
  0
LINE
  5
14F
  8
0
  6
CONTINUOUS
 62
     7
 10
661.1733220135
 20
978.1074407051
 30
0.0
 11
659.1733220135
 21
978.1074407051
 31
0.0
  0
LINE
  5
150
  8
0
  6
CONTINUOUS
 62
     7
 10
659.1733220135
 20
978.1074407051
 30
0.0
 11
659.1733220135
 21
977.8713727276
 31
0.0
  0
LINE
  5
151
  8
0
  6
CONTINUOUS
 62
     7
 10
661.1733220135
 20
978.1074407051
 30
0.0
 11
661.1733220135
 21
977.8713727276
 31
0.0
  0
LINE
  5
152
  8
0
  6
CONTINUOUS
 62
     7
 10
663.2946423571
 20
-793.8925592949
 30
0.0
 11
663.2946423571
 21
-791.8925592949
 31
0.0
  0
LINE
  5
153
  8
0
  6
CONTINUOUS
 62
     7
 10
663.409389991
 20
-793.8925592949
 30
0.0
 11
663.2946423571
 21
-793.8925592949
 31
0.0
  0
LINE
  5
154
  8
0
  6
CONTINUOUS
 62
     7
 10
663.409389991
 20
-791.8925592949
 30
0.0
 11
663.2946423571
 21
-791.8925592949
 31
0.0
  0
LINE
  5
155
  8
0
  6
CONTINUOUS
 62
     7
 10
661.1733220135
 20
-789.8925592949
 30
0.0
 11
659.1733220135
 21
-789.8925592949
 31
0.0
  0
LINE
  5
156
  8
0
  6
CONTINUOUS
 62
     7
 10
659.1733220135
 20
-789.8925592949
 30
0.0
 11
659.1733220135
 21
-789.6564913174
 31
0.0
  0
LINE
  5
157
  8
0
  6
CONTINUOUS
 62
     7
 10
661.1733220135
 20
-789.8925592949
 30
0.0
 11
661.1733220135
 21
-789.6564913174
 31
0.0
  0
LINE
  5
158
  8
0
  6
CONTINUOUS
 62
     7
 10
663.2946423571
 20
982.1074407051
 30
0.0
 11
663.1733220135
 21
982.1074407051
 31
0.0
  0
LINE
  5
159
  8
0
  6
CONTINUOUS
 62
     7
 10
663.2946423571
 20
980.1074407051
 30
0.0
 11
663.2946423571
 21
982.1074407051
 31
0.0
  0
LINE
  5
15A
  8
0
  6
CONTINUOUS
 62
     7
 10
663.2946423571
 20
980.1074407051
 30
0.0
 11
663.1733220135
 21
980.1074407051
 31
0.0
  0
LINE
  5
15B
  8
0
  6
CONTINUOUS
 62
     7
 10
663.1733220135
 20
980.1074413239
 30
0.0
 11
663.1733220135
 21
982.1074407051
 31
0.0
  0
LINE
  5
15C
  8
0
  6
CONTINUOUS
 62
     7
 10
663.2946423571
 20
-793.8925592949
 30
0.0
 11
663.2946423571
 21
-791.8925592949
 31
0.0
  0
LINE
  5
15D
  8
0
  6
CONTINUOUS
 62
     7
 10
663.2946423571
 20
-793.8925592949
 30
0.0
 11
663.1733220135
 21
-793.8925592949
 31
0.0
  0
LINE
  5
15E
  8
0
  6
CONTINUOUS
 62
     7
 10
663.1733220135
 20
-791.8925592949
 30
0.0
 11
663.1733220135
 21
-793.8925592949
 31
0.0
  0
LINE
  5
15F
  8
0
  6
CONTINUOUS
 62
     7
 10
663.2946423571
 20
-791.8925592949
 30
0.0
 11
663.1733220135
 21
-791.8925592949
 31
0.0
  0
ARC
  5
160
  8
0
  6
CONTINUOUS
 62
     7
 10
663.1733220135
 20
978.1074407051
 30
0.0
 40
2.000000618793933
 50
90.0
 51
180.0
  0
ARC
  5
161
  8
0
  6
CONTINUOUS
 62
     7
 10
663.1733220135
 20
978.1074407051
 30
0.0
 40
4.00000061879382
 50
90.0
 51
180.0
  0
ARC
  5
162
  8
0
  6
CONTINUOUS
 62
     7
 10
663.1733220135
 20
-789.8925592949
 30
0.0
 40
4.000000618793479
 50
180.0
 51
270.0
  0
ARC
  5
163
  8
0
  6
CONTINUOUS
 62
     7
 10
663.1733220135
 20
-789.8925592949
 30
0.0
 40
2.000000618794047
 50
180.0
 51
270.0
  0
LINE
  5
164
  8
0
  6
CONTINUOUS
 62
     7
 10
663.1733220135
 20
977.8713727276
 30
0.0
 11
662.362922161
 21
977.5328186708
 31
0.0
  0
LINE
  5
165
  8
0
  6
CONTINUOUS
 62
     7
 10
680.6733220135
 20
-697.8925592949
 30
0.0
 11
680.6733220135
 21
-689.8925595379
 31
0.0
  0
LINE
  5
166
  8
0
  6
CONTINUOUS
 62
     7
 10
681.1733220135
 20
-697.3925592949
 30
0.0
 11
681.1733220135
 21
-690.3925595075
 31
0.0
  0
ARC
  5
167
  8
0
  6
HIDDEN
 62
     7
 10
660.6733220135
 20
-760.8925592949
 30
0.0
 40
7.516648189186447
 50
273.8140748343
 51
86.1859251657
  0
ARC
  5
168
  8
0
  6
HIDDEN
 62
     7
 10
660.6733220135
 20
949.1074407051
 30
0.0
 40
7.516648189186447
 50
273.8140748343
 51
86.1859251657
  0
POLYLINE
  5
169
  8
0
  6
HIDDEN
 62
     7
 66
     1
 10
0.0
 20
0.0
 30
0.0
  0
VERTEX
  5
325
  8
0
  6
HIDDEN
 62
     7
 10
664.17038297
 20
979.5478241816
 30
0.0
  0
VERTEX
  5
326
  8
0
  6
HIDDEN
 62
     7
 10
664.1264341586
 20
979.7798863273
 30
0.0
  0
VERTEX
  5
327
  8
0
  6
HIDDEN
 62
     7
 10
664.0242545097
 20
979.9056186525
 30
0.0
  0
SEQEND
  5
324
  8
0
  6
HIDDEN
 62
     7
  0
POLYLINE
  5
16A
  8
0
  6
HIDDEN
 62
     7
 66
     1
 10
0.0
 20
0.0
 30
0.0
  0
VERTEX
  5
329
  8
0
  6
HIDDEN
 62
     7
 10
663.409389991
 20
978.1074407051
 30
0.0
  0
VERTEX
  5
32A
  8
0
  6
HIDDEN
 62
     7
 10
663.409389991
 20
978.1074407051
 30
0.0
  0
SEQEND
  5
328
  8
0
  6
HIDDEN
 62
     7
  0
ARC
  5
16B
  8
0
  6
HIDDEN
 62
     7
 10
661.730496447
 20
977.5451764008
 30
0.0
 40
0.4383304471355428
 50
222.8377371087
 51
277.2803322431
  0
POLYLINE
  5
16C
  8
0
  6
HIDDEN
 62
     7
 66
     1
 10
0.0
 20
0.0
 30
0.0
  0
VERTEX
  5
32C
  8
0
  6
HIDDEN
 62
     7
 10
663.1733220135
 20
977.8713727276
 30
0.0
  0
VERTEX
  5
32D
  8
0
  6
HIDDEN
 62
     7
 10
663.1733220135
 20
977.8713727276
 30
0.0
  0
SEQEND
  5
32B
  8
0
  6
HIDDEN
 62
     7
  0
ARC
  5
16D
  8
0
  6
HIDDEN
 62
     7
 10
661.7304964469
 20
-789.3302949903
 30
0.0
 40
0.4383304469825902
 50
82.7196677602
 51
137.1622629255
  0
POLYLINE
  5
16E
  8
0
  6
HIDDEN
 62
     7
 66
     1
 10
0.0
 20
0.0
 30
0.0
  0
VERTEX
  5
32F
  8
0
  6
HIDDEN
 62
     7
 10
663.1733220135
 20
-789.6564913174
 30
0.0
  0
VERTEX
  5
330
  8
0
  6
HIDDEN
 62
     7
 10
663.1733220135
 20
-789.6564913174
 30
0.0
  0
SEQEND
  5
32E
  8
0
  6
HIDDEN
 62
     7
  0
POLYLINE
  5
16F
  8
0
  6
HIDDEN
 62
     7
 66
     1
 10
0.0
 20
0.0
 30
0.0
  0
VERTEX
  5
332
  8
0
  6
HIDDEN
 62
     7
 10
664.0242545097
 20
-791.6907372421
 30
0.0
  0
VERTEX
  5
333
  8
0
  6
HIDDEN
 62
     7
 10
664.1264341585
 20
-791.565004917
 30
0.0
  0
VERTEX
  5
334
  8
0
  6
HIDDEN
 62
     7
 10
664.17038297
 20
-791.3329427713
 30
0.0
  0
SEQEND
  5
331
  8
0
  6
HIDDEN
 62
     7
  0
POLYLINE
  5
170
  8
0
  6
HIDDEN
 62
     7
 66
     1
 10
0.0
 20
0.0
 30
0.0
  0
VERTEX
  5
336
  8
0
  6
HIDDEN
 62
     7
 10
663.409389991
 20
-789.8925592949
 30
0.0
  0
VERTEX
  5
337
  8
0
  6
HIDDEN
 62
     7
 10
663.409389991
 20
-789.8925592949
 30
0.0
  0
SEQEND
  5
335
  8
0
  6
HIDDEN
 62
     7
  0
LINE
  5
171
  8
0
  6
HIDDEN
 62
     7
 10
663.409389991
 20
-791.8925592949
 30
0.0
 11
679.6733220135
 21
-791.8925592949
 31
0.0
  0
LINE
  5
172
  8
0
  6
HIDDEN
 62
     7
 10
661.1733220135
 20
-789.6564913174
 30
0.0
 11
661.1733220135
 21
977.8713727276
 31
0.0
  0
LINE
  5
173
  8
0
  6
HIDDEN
 62
     7
 10
663.409389991
 20
980.1074407051
 30
0.0
 11
679.6733220135
 21
980.1074407051
 31
0.0
  0
LINE
  5
174
  8
0
  6
HIDDEN
 62
     7
 10
670.4233220135
 20
-793.8925592949
 30
0.0
 11
670.4233220135
 21
-791.8925592948
 31
0.0
  0
LINE
  5
175
  8
0
  6
HIDDEN
 62
     7
 10
670.4233220135
 20
982.1074407051
 30
0.0
 11
670.4233220135
 21
980.1074407051
 31
0.0
  0
LINE
  5
176
  8
0
  6
HIDDEN
 62
     7
 10
670.4233220135
 20
982.1074407051
 30
0.0
 11
670.4233220135
 21
980.1074407051
 31
0.0
  0
LINE
  5
177
  8
0
  6
HIDDEN
 62
     7
 10
670.4233220135
 20
-793.8925592949
 30
0.0
 11
670.4233220135
 21
-791.8925592948
 31
0.0
  0
LINE
  5
178
  8
0
  6
HIDDEN
 62
     7
 10
663.6768555002
 20
86.1074407051
 30
0.0
 11
663.6768555002
 21
81.5906017389
 31
0.0
  0
LINE
  5
179
  8
0
  6
HIDDEN
 62
     7
 10
663.6768555002
 20
90.6242796713
 30
0.0
 11
663.6768555002
 21
86.1074407051
 31
0.0
  0
LINE
  5
17A
  8
0
  6
HIDDEN
 62
     7
 10
663.6768555002
 20
886.1074407051
 30
0.0
 11
663.6768555002
 21
881.5906017389
 31
0.0
  0
LINE
  5
17B
  8
0
  6
HIDDEN
 62
     7
 10
663.6768555002
 20
890.6242796713
 30
0.0
 11
663.6768555002
 21
886.1074407051
 31
0.0
  0
LINE
  5
17C
  8
0
  6
HIDDEN
 62
     7
 10
663.6768555002
 20
-713.8925592949
 30
0.0
 11
663.6768555002
 21
-718.4093982611
 31
0.0
  0
LINE
  5
17D
  8
0
  6
HIDDEN
 62
     7
 10
663.6768555002
 20
-709.3757203287
 30
0.0
 11
663.6768555002
 21
-713.8925592949
 31
0.0
  0
LINE
  5
17E
  8
0
  6
HIDDEN
 62
     7
 10
662.3733220136
 20
89.1074407051
 30
0.0
 11
662.3733220136
 21
83.1074407051
 31
0.0
  0
LINE
  5
17F
  8
0
  6
HIDDEN
 62
     7
 10
662.3733220136
 20
889.1074407051
 30
0.0
 11
662.3733220136
 21
883.1074407051
 31
0.0
  0
LINE
  5
180
  8
0
  6
HIDDEN
 62
     7
 10
662.3733220136
 20
-710.8925592949
 30
0.0
 11
662.3733220136
 21
-716.8925592949
 31
0.0
  0
POLYLINE
  5
181
  8
0
  6
HIDDEN
 62
     7
 66
     1
 10
0.0
 20
0.0
 30
0.0
  0
VERTEX
  5
339
  8
0
  6
HIDDEN
 62
     7
 10
663.409389991
 20
978.1074407051
 30
0.0
  0
VERTEX
  5
33A
  8
0
  6
HIDDEN
 62
     7
 10
663.409389991
 20
978.1074407051
 30
0.0
  0
SEQEND
  5
338
  8
0
  6
HIDDEN
 62
     7
  0
POLYLINE
  5
182
  8
0
  6
HIDDEN
 62
     7
 66
     1
 10
0.0
 20
0.0
 30
0.0
  0
VERTEX
  5
33C
  8
0
  6
HIDDEN
 62
     7
 10
663.1733220135
 20
977.8713727276
 30
0.0
  0
VERTEX
  5
33D
  8
0
  6
HIDDEN
 62
     7
 10
663.1733220135
 20
977.8713727276
 30
0.0
  0
SEQEND
  5
33B
  8
0
  6
HIDDEN
 62
     7
  0
LINE
  5
183
  8
0
  6
HIDDEN
 62
     7
 10
660.7438237866
 20
977.1364813548
 30
0.0
 11
660.4020607386
 21
977.1106290647
 31
0.0
  0
POLYLINE
  5
184
  8
0
  6
HIDDEN
 62
     7
 66
     1
 10
0.0
 20
0.0
 30
0.0
  0
VERTEX
  5
33F
  8
0
  6
HIDDEN
 62
     7
 10
663.409389991
 20
-789.8925592949
 30
0.0
  0
VERTEX
  5
340
  8
0
  6
HIDDEN
 62
     7
 10
663.409389991
 20
-789.8925592949
 30
0.0
  0
SEQEND
  5
33E
  8
0
  6
HIDDEN
 62
     7
  0
POLYLINE
  5
185
  8
0
  6
HIDDEN
 62
     7
 66
     1
 10
0.0
 20
0.0
 30
0.0
  0
VERTEX
  5
342
  8
0
  6
HIDDEN
 62
     7
 10
663.1733220135
 20
-789.6564913174
 30
0.0
  0
VERTEX
  5
343
  8
0
  6
HIDDEN
 62
     7
 10
663.1733220135
 20
-789.6564913174
 30
0.0
  0
SEQEND
  5
341
  8
0
  6
HIDDEN
 62
     7
  0
LINE
  5
186
  8
0
  6
HIDDEN
 62
     7
 10
662.1733220135
 20
-698.8925592949
 30
0.0
 11
662.1733220135
 21
-688.8925595987
 31
0.0
  0
LINE
  5
187
  8
0
  6
HIDDEN
 62
     7
 10
668.1899702027
 20
-748.3925592949
 30
0.0
 11
668.1899702027
 21
936.6074407051
 31
0.0
  0
LINE
  5
188
  8
0
  6
HIDDEN
 62
     7
 10
668.1899702027
 20
-760.8925592949
 30
0.0
 11
668.1899702027
 21
-748.3925592949
 31
0.0
  0
LINE
  5
189
  8
0
  6
HIDDEN
 62
     7
 10
668.1899702027
 20
936.6074407051
 30
0.0
 11
668.1899702027
 21
949.1074407051
 31
0.0
  0
LINE
  5
18A
  8
0
  6
HIDDEN
 62
     7
 10
664.1706282569
 20
979.5494262378
 30
0.0
 11
664.1706282569
 21
980.9914121612
 31
0.0
  0
LINE
  5
18B
  8
0
  6
HIDDEN
 62
     7
 10
660.4015515574
 20
977.1101344616
 30
0.0
 11
661.7874364987
 21
977.1101344616
 31
0.0
  0
LINE
  5
18C
  8
0
  6
HIDDEN
 62
     7
 10
661.7874364984
 20
-788.8952530512
 30
0.0
 11
660.4015515568
 21
-788.8952530512
 31
0.0
  0
LINE
  5
18D
  8
0
  6
HIDDEN
 62
     7
 10
664.1706282569
 20
-792.7765307507
 30
0.0
 11
664.1706282569
 21
-791.3345448274
 31
0.0
  0
ARC
  5
18E
  8
0
  6
HIDDEN
 62
     7
 10
661.6433220136
 20
892.9915573296
 30
0.0
 40
0.470000000028449
 50
180.0
 51
229.3250604347
  0
ARC
  5
18F
  8
0
  6
HIDDEN
 62
     7
 10
661.6433220136
 20
879.2233240807
 30
0.0
 40
0.470000000028449
 50
130.6749395653
 51
180.0
  0
ARC
  5
190
  8
0
  6
HIDDEN
 62
     7
 10
661.6433220136
 20
-707.0084426704
 30
0.0
 40
0.470000000028449
 50
180.0
 51
229.3250604347
  0
ARC
  5
191
  8
0
  6
HIDDEN
 62
     7
 10
661.6433220136
 20
-720.7766759193
 30
0.0
 40
0.470000000028449
 50
130.6749395653
 51
180.0
  0
ARC
  5
192
  8
0
  6
HIDDEN
 62
     7
 10
661.6433220136
 20
892.9915573296
 30
0.0
 40
2.470000000000054
 50
180.0
 51
229.3250604347
  0
ARC
  5
193
  8
0
  6
HIDDEN
 62
     7
 10
661.6433220136
 20
879.2233240807
 30
0.0
 40
2.470000000000027
 50
130.6749395653
 51
180.0
  0
ARC
  5
194
  8
0
  6
HIDDEN
 62
     7
 10
661.6433220136
 20
92.9915573296
 30
0.0
 40
2.470000000000027
 50
180.0
 51
229.3250604347
  0
ARC
  5
195
  8
0
  6
HIDDEN
 62
     7
 10
661.6433220136
 20
79.2233240807
 30
0.0
 40
2.470000000000027
 50
130.6749395653
 51
180.0
  0
ARC
  5
196
  8
0
  6
HIDDEN
 62
     7
 10
661.6433220136
 20
92.9915573296
 30
0.0
 40
0.470000000028449
 50
180.0
 51
229.3250604347
  0
ARC
  5
197
  8
0
  6
HIDDEN
 62
     7
 10
661.6433220136
 20
79.2233240807
 30
0.0
 40
0.470000000028449
 50
130.6749395653
 51
180.0
  0
ARC
  5
198
  8
0
  6
HIDDEN
 62
     7
 10
661.6433220136
 20
-707.0084426704
 30
0.0
 40
2.470000000000027
 50
180.0
 51
229.3250604347
  0
ARC
  5
199
  8
0
  6
HIDDEN
 62
     7
 10
661.6433220136
 20
-720.7766759193
 30
0.0
 40
2.470000000000027
 50
130.6749395653
 51
180.0
  0
LINE
  5
19A
  8
0
  6
HIDDEN
 62
     7
 10
661.3369916442
 20
79.5797812378
 30
0.0
 11
663.6768555002
 21
81.5906017389
 31
0.0
  0
LINE
  5
19B
  8
0
  6
HIDDEN
 62
     7
 10
663.6768555002
 20
90.6242796713
 30
0.0
 11
661.3369916442
 21
92.6351001725
 31
0.0
  0
LINE
  5
19C
  8
0
  6
HIDDEN
 62
     7
 10
661.3369916442
 20
879.5797812378
 30
0.0
 11
663.6768555002
 21
881.5906017389
 31
0.0
  0
LINE
  5
19D
  8
0
  6
HIDDEN
 62
     7
 10
663.6768555002
 20
890.6242796713
 30
0.0
 11
661.3369916442
 21
892.6351001725
 31
0.0
  0
LINE
  5
19E
  8
0
  6
HIDDEN
 62
     7
 10
661.3369916442
 20
-720.4202187622
 30
0.0
 11
663.6768555002
 21
-718.4093982611
 31
0.0
  0
LINE
  5
19F
  8
0
  6
HIDDEN
 62
     7
 10
663.6768555002
 20
-709.3757203287
 30
0.0
 11
661.3369916442
 21
-707.3648998275
 31
0.0
  0
LINE
  5
1A0
  8
0
  6
HIDDEN
 62
     7
 10
660.0334581577
 20
81.096620204
 30
0.0
 11
662.3733220136
 21
83.1074407051
 31
0.0
  0
LINE
  5
1A1
  8
0
  6
HIDDEN
 62
     7
 10
662.3733220136
 20
89.1074407051
 30
0.0
 11
660.0334581577
 21
91.1182612063
 31
0.0
  0
LINE
  5
1A2
  8
0
  6
HIDDEN
 62
     7
 10
660.0334581577
 20
881.096620204
 30
0.0
 11
662.3733220136
 21
883.1074407051
 31
0.0
  0
LINE
  5
1A3
  8
0
  6
HIDDEN
 62
     7
 10
662.3733220136
 20
889.1074407051
 30
0.0
 11
660.0334581577
 21
891.1182612063
 31
0.0
  0
LINE
  5
1A4
  8
0
  6
HIDDEN
 62
     7
 10
660.0334581577
 20
-718.903379796
 30
0.0
 11
662.3733220136
 21
-716.8925592949
 31
0.0
  0
LINE
  5
1A5
  8
0
  6
HIDDEN
 62
     7
 10
662.3733220136
 20
-710.8925592949
 30
0.0
 11
660.0334581577
 21
-708.8817387937
 31
0.0
  0
LINE
  5
1A6
  8
0
  6
HIDDEN
 62
     7
 10
663.6768555002
 20
-709.3757203287
 30
0.0
 11
662.3733220136
 21
-710.8925592949
 31
0.0
  0
LINE
  5
1A7
  8
0
  6
HIDDEN
 62
     7
 10
662.3733220136
 20
-716.8925592949
 30
0.0
 11
663.6768555002
 21
-718.4093982611
 31
0.0
  0
LINE
  5
1A8
  8
0
  6
HIDDEN
 62
     7
 10
663.6768555002
 20
90.6242796713
 30
0.0
 11
662.3733220136
 21
89.1074407051
 31
0.0
  0
LINE
  5
1A9
  8
0
  6
HIDDEN
 62
     7
 10
662.3733220136
 20
83.1074407051
 30
0.0
 11
663.6768555002
 21
81.5906017389
 31
0.0
  0
LINE
  5
1AA
  8
0
  6
HIDDEN
 62
     7
 10
663.6768555002
 20
890.6242796713
 30
0.0
 11
662.3733220136
 21
889.1074407051
 31
0.0
  0
LINE
  5
1AB
  8
0
  6
HIDDEN
 62
     7
 10
662.3733220136
 20
883.1074407051
 30
0.0
 11
663.6768555002
 21
881.5906017389
 31
0.0
  0
LINE
  5
1AC
  8
0
  6
HIDDEN
 62
     7
 10
661.1733220135
 20
-698.8925592949
 30
0.0
 11
662.1733220135
 21
-698.8925592949
 31
0.0
  0
LINE
  5
1AD
  8
0
  6
HIDDEN
 62
     7
 10
662.1733220135
 20
-688.8925592949
 30
0.0
 11
661.1733220135
 21
-688.8925592949
 31
0.0
  0
LINE
  5
1AE
  8
0
  6
HIDDEN
 62
     7
 10
662.1733220135
 20
-697.8925592949
 30
0.0
 11
679.6733220135
 21
-697.8925592949
 31
0.0
  0
LINE
  5
1AF
  8
0
  6
HIDDEN
 62
     7
 10
679.6733220135
 20
-689.8925592949
 30
0.0
 11
662.1733220135
 21
-689.8925592949
 31
0.0
  0
ARC
  5
1B0
  8
0
  6
CONTINUOUS
 62
     7
 10
804.8902201354
 20
980.1074407051
 30
0.0
 40
3.000000000000029
 50
311.8103148958
 51
318.1896851042
  0
ARC
  5
1B1
  8
0
  6
CONTINUOUS
 62
     7
 10
1592.8902201354
 20
980.1074407051
 30
0.0
 40
3.000000000000029
 50
221.8103148958
 51
228.1896851042
  0
ARC
  5
1B2
  8
0
  6
CONTINUOUS
 62
     7
 10
1592.8902201354
 20
-791.8925592949
 30
0.0
 40
3.00000000000002
 50
131.8103148958
 51
138.1896851042
  0
ARC
  5
1B3
  8
0
  6
CONTINUOUS
 62
     7
 10
804.8902201354
 20
-791.8925592949
 30
0.0
 40
2.999999999999962
 50
41.8103148958
 51
48.1896851042
  0
ARC
  5
1B4
  8
0
  6
CONTINUOUS
 62
     7
 10
807.243828631
 20
979.4743754751
 30
0.0
 40
0.6438851934746908
 50
38.1012115439
 51
100.5182599313
  0
LINE
  5
1B5
  8
0
  6
CONTINUOUS
 62
     7
 10
807.1262881129
 20
982.1074407051
 30
0.0
 11
807.1262881129
 21
980.1074407051
 31
0.0
  0
POLYLINE
  5
1B6
  8
0
  6
CONTINUOUS
 62
     7
 66
     1
 10
0.0
 20
0.0
 30
0.0
  0
VERTEX
  5
345
  8
0
  6
CONTINUOUS
 62
     7
 10
807.1262881129
 20
978.1074407051
 30
0.0
  0
VERTEX
  5
346
  8
0
  6
CONTINUOUS
 62
     7
 10
807.4648421733
 20
978.9178406431
 30
0.0
  0
VERTEX
  5
347
  8
0
  6
CONTINUOUS
 62
     7
 10
807.7038568958
 20
979.6558676145
 30
0.0
  0
VERTEX
  5
348
  8
0
  6
CONTINUOUS
 62
     7
 10
807.8433322805
 20
980.3010019594
 30
0.0
  0
VERTEX
  5
349
  8
0
  6
CONTINUOUS
 62
     7
 10
807.8875211386
 20
980.8851715254
 30
0.0
  0
VERTEX
  5
34A
  8
0
  6
CONTINUOUS
 62
     7
 10
807.8391970749
 20
981.3963010297
 30
0.0
  0
VERTEX
  5
34B
  8
0
  6
CONTINUOUS
 62
     7
 10
807.6962168828
 20
981.7826568317
 30
0.0
  0
VERTEX
  5
34C
  8
0
  6
CONTINUOUS
 62
     7
 10
807.4585805621
 20
982.024560724
 30
0.0
  0
VERTEX
  5
34D
  8
0
  6
CONTINUOUS
 62
     7
 10
807.1262881129
 20
982.1074413239
 30
0.0
  0
SEQEND
  5
344
  8
0
  6
CONTINUOUS
 62
     7
  0
POLYLINE
  5
1B7
  8
0
  6
CONTINUOUS
 62
     7
 66
     1
 10
0.0
 20
0.0
 30
0.0
  0
VERTEX
  5
34F
  8
0
  6
CONTINUOUS
 62
     7
 10
1590.6541521579
 20
982.1074413239
 30
0.0
  0
VERTEX
  5
350
  8
0
  6
CONTINUOUS
 62
     7
 10
1590.3218597089
 20
982.0245607241
 30
0.0
  0
VERTEX
  5
351
  8
0
  6
CONTINUOUS
 62
     7
 10
1590.0842233882
 20
981.7826568318
 30
0.0
  0
VERTEX
  5
352
  8
0
  6
CONTINUOUS
 62
     7
 10
1589.941243196
 20
981.3963010299
 30
0.0
  0
VERTEX
  5
353
  8
0
  6
CONTINUOUS
 62
     7
 10
1589.8929191323
 20
980.8851715255
 30
0.0
  0
VERTEX
  5
354
  8
0
  6
CONTINUOUS
 62
     7
 10
1589.9371079903
 20
980.3010019595
 30
0.0
  0
VERTEX
  5
355
  8
0
  6
CONTINUOUS
 62
     7
 10
1590.0765833748
 20
979.655867615
 30
0.0
  0
VERTEX
  5
356
  8
0
  6
CONTINUOUS
 62
     7
 10
1590.3155980974
 20
978.9178406435
 30
0.0
  0
VERTEX
  5
357
  8
0
  6
CONTINUOUS
 62
     7
 10
1590.6541521579
 20
978.1074407051
 30
0.0
  0
SEQEND
  5
34E
  8
0
  6
CONTINUOUS
 62
     7
  0
LINE
  5
1B8
  8
0
  6
CONTINUOUS
 62
     7
 10
807.1262881129
 20
982.1074407051
 30
0.0
 11
1590.6541521579
 21
982.1074407051
 31
0.0
  0
ARC
  5
1B9
  8
0
  6
CONTINUOUS
 62
     7
 10
805.5639727637
 20
-789.5370881176
 30
0.0
 40
0.6842514873475255
 50
133.6066022165
 51
190.0496743686
  0
LINE
  5
1BA
  8
0
  6
CONTINUOUS
 62
     7
 10
802.8902201354
 20
-789.6564913174
 30
0.0
 11
804.8902201354
 21
-789.6564913174
 31
0.0
  0
POLYLINE
  5
1BB
  8
0
  6
CONTINUOUS
 62
     7
 66
     1
 10
0.0
 20
0.0
 30
0.0
  0
VERTEX
  5
359
  8
0
  6
CONTINUOUS
 62
     7
 10
806.8902201354
 20
-789.6564913174
 30
0.0
  0
VERTEX
  5
35A
  8
0
  6
CONTINUOUS
 62
     7
 10
806.0801734746
 20
-789.3241988656
 30
0.0
  0
VERTEX
  5
35B
  8
0
  6
CONTINUOUS
 62
     7
 10
805.3113626547
 20
-789.086562544
 30
0.0
  0
VERTEX
  5
35C
  8
0
  6
CONTINUOUS
 62
     7
 10
804.6135115813
 20
-788.9435823526
 30
0.0
  0
VERTEX
  5
35D
  8
0
  6
CONTINUOUS
 62
     7
 10
804.0119888967
 20
-788.8952582914
 30
0.0
  0
VERTEX
  5
35E
  8
0
  6
CONTINUOUS
 62
     7
 10
803.5453296845
 20
-788.9394471532
 30
0.0
  0
VERTEX
  5
35F
  8
0
  6
CONTINUOUS
 62
     7
 10
803.2020801185
 20
-789.0789225393
 30
0.0
  0
VERTEX
  5
360
  8
0
  6
CONTINUOUS
 62
     7
 10
802.9731735087
 20
-789.3179372607
 30
0.0
  0
VERTEX
  5
361
  8
0
  6
CONTINUOUS
 62
     7
 10
802.890219861
 20
-789.6564913174
 30
0.0
  0
SEQEND
  5
358
  8
0
  6
CONTINUOUS
 62
     7
  0
POLYLINE
  5
1BC
  8
0
  6
CONTINUOUS
 62
     7
 66
     1
 10
0.0
 20
0.0
 30
0.0
  0
VERTEX
  5
363
  8
0
  6
CONTINUOUS
 62
     7
 10
802.890219861
 20
977.8713727276
 30
0.0
  0
VERTEX
  5
364
  8
0
  6
CONTINUOUS
 62
     7
 10
802.9731735089
 20
977.5328186708
 30
0.0
  0
VERTEX
  5
365
  8
0
  6
CONTINUOUS
 62
     7
 10
803.202080119
 20
977.2938039493
 30
0.0
  0
VERTEX
  5
366
  8
0
  6
CONTINUOUS
 62
     7
 10
803.5453296847
 20
977.1543285634
 30
0.0
  0
VERTEX
  5
367
  8
0
  6
CONTINUOUS
 62
     7
 10
804.0119888967
 20
977.1101397018
 30
0.0
  0
VERTEX
  5
368
  8
0
  6
CONTINUOUS
 62
     7
 10
804.6135115813
 20
977.1584637631
 30
0.0
  0
VERTEX
  5
369
  8
0
  6
CONTINUOUS
 62
     7
 10
805.3113626547
 20
977.3014439545
 30
0.0
  0
VERTEX
  5
36A
  8
0
  6
CONTINUOUS
 62
     7
 10
806.0801734746
 20
977.539080276
 30
0.0
  0
VERTEX
  5
36B
  8
0
  6
CONTINUOUS
 62
     7
 10
806.8902201354
 20
977.8713727276
 30
0.0
  0
SEQEND
  5
362
  8
0
  6
CONTINUOUS
 62
     7
  0
LINE
  5
1BD
  8
0
  6
CONTINUOUS
 62
     7
 10
802.8902201354
 20
-789.6564913174
 30
0.0
 11
802.8902201354
 21
977.8713727276
 31
0.0
  0
LINE
  5
1BE
  8
0
  6
CONTINUOUS
 62
     7
 10
804.890219861
 20
977.8713727276
 30
0.0
 11
802.8902201354
 21
977.8713727276
 31
0.0
  0
ARC
  5
1BF
  8
0
  6
CONTINUOUS
 62
     7
 10
805.563972764
 20
977.7519695279
 30
0.0
 40
0.6842514876656504
 50
169.9503256386
 51
226.3933977346
  0
POLYLINE
  5
1C0
  8
0
  6
CONTINUOUS
 62
     7
 66
     1
 10
0.0
 20
0.0
 30
0.0
  0
VERTEX
  5
36D
  8
0
  6
CONTINUOUS
 62
     7
 10
1590.6541521579
 20
-789.8925592949
 30
0.0
  0
VERTEX
  5
36E
  8
0
  6
CONTINUOUS
 62
     7
 10
1590.3155980976
 20
-790.7029592331
 30
0.0
  0
VERTEX
  5
36F
  8
0
  6
CONTINUOUS
 62
     7
 10
1590.076583375
 20
-791.4409862045
 30
0.0
  0
VERTEX
  5
370
  8
0
  6
CONTINUOUS
 62
     7
 10
1589.9371079904
 20
-792.0861205492
 30
0.0
  0
VERTEX
  5
371
  8
0
  6
CONTINUOUS
 62
     7
 10
1589.8929191321
 20
-792.670290115
 30
0.0
  0
VERTEX
  5
372
  8
0
  6
CONTINUOUS
 62
     7
 10
1589.9412431958
 20
-793.1814196192
 30
0.0
  0
VERTEX
  5
373
  8
0
  6
CONTINUOUS
 62
     7
 10
1590.084223388
 20
-793.5677754212
 30
0.0
  0
VERTEX
  5
374
  8
0
  6
CONTINUOUS
 62
     7
 10
1590.3218597087
 20
-793.8096793137
 30
0.0
  0
VERTEX
  5
375
  8
0
  6
CONTINUOUS
 62
     7
 10
1590.6541521579
 20
-793.8925599137
 30
0.0
  0
SEQEND
  5
36C
  8
0
  6
CONTINUOUS
 62
     7
  0
LINE
  5
1C1
  8
0
  6
CONTINUOUS
 62
     7
 10
807.1262881129
 20
-793.8925592949
 30
0.0
 11
1590.6541521579
 21
-793.8925592949
 31
0.0
  0
POLYLINE
  5
1C2
  8
0
  6
CONTINUOUS
 62
     7
 66
     1
 10
0.0
 20
0.0
 30
0.0
  0
VERTEX
  5
377
  8
0
  6
CONTINUOUS
 62
     7
 10
807.1262881129
 20
-793.8925599137
 30
0.0
  0
VERTEX
  5
378
  8
0
  6
CONTINUOUS
 62
     7
 10
807.4585805621
 20
-793.8096793137
 30
0.0
  0
VERTEX
  5
379
  8
0
  6
CONTINUOUS
 62
     7
 10
807.6962168828
 20
-793.5677754213
 30
0.0
  0
VERTEX
  5
37A
  8
0
  6
CONTINUOUS
 62
     7
 10
807.839197075
 20
-793.1814196193
 30
0.0
  0
VERTEX
  5
37B
  8
0
  6
CONTINUOUS
 62
     7
 10
807.8875211387
 20
-792.6702901151
 30
0.0
  0
VERTEX
  5
37C
  8
0
  6
CONTINUOUS
 62
     7
 10
807.8433322804
 20
-792.0861205491
 30
0.0
  0
VERTEX
  5
37D
  8
0
  6
CONTINUOUS
 62
     7
 10
807.7038568958
 20
-791.4409862043
 30
0.0
  0
VERTEX
  5
37E
  8
0
  6
CONTINUOUS
 62
     7
 10
807.4648421733
 20
-790.7029592328
 30
0.0
  0
VERTEX
  5
37F
  8
0
  6
CONTINUOUS
 62
     7
 10
807.1262881129
 20
-789.8925592949
 30
0.0
  0
SEQEND
  5
376
  8
0
  6
CONTINUOUS
 62
     7
  0
ARC
  5
1C3
  8
0
  6
CONTINUOUS
 62
     7
 10
807.243828631
 20
-791.2594940648
 30
0.0
 40
0.6438851935232507
 50
259.4817400663
 51
321.8987884408
  0
LINE
  5
1C4
  8
0
  6
CONTINUOUS
 62
     7
 10
807.1262881129
 20
-793.8925592949
 30
0.0
 11
807.1262881129
 21
-791.8925599137
 31
0.0
  0
ARC
  5
1C5
  8
0
  6
CONTINUOUS
 62
     7
 10
1590.5366116398
 20
-791.2594940647
 30
0.0
 40
0.643885193524157
 50
218.1012115609
 51
280.5182599312
  0
LINE
  5
1C6
  8
0
  6
CONTINUOUS
 62
     7
 10
1590.6541521579
 20
-791.8925592949
 30
0.0
 11
1590.6541521579
 21
-793.8925592949
 31
0.0
  0
LINE
  5
1C7
  8
0
  6
CONTINUOUS
 62
     7
 10
1590.6541521579
 20
980.1074413239
 30
0.0
 11
1590.6541521579
 21
982.1074407051
 31
0.0
  0
ARC
  5
1C8
  8
0
  6
CONTINUOUS
 62
     7
 10
1590.5366116399
 20
979.4743754752
 30
0.0
 40
0.6438851933928023
 50
79.4817400717
 51
141.8987884738
  0
ARC
  5
1C9
  8
0
  6
CONTINUOUS
 62
     7
 10
1592.2164675071
 20
977.7519695279
 30
0.0
 40
0.6842514874477392
 50
313.6066022186
 51
10.0496743617
  0
LINE
  5
1CA
  8
0
  6
CONTINUOUS
 62
     7
 10
1592.8902201354
 20
977.8713727276
 30
0.0
 11
1594.8902201354
 21
977.8713727276
 31
0.0
  0
POLYLINE
  5
1CB
  8
0
  6
CONTINUOUS
 62
     7
 66
     1
 10
0.0
 20
0.0
 30
0.0
  0
VERTEX
  5
381
  8
0
  6
CONTINUOUS
 62
     7
 10
1590.8902201354
 20
977.8713727276
 30
0.0
  0
VERTEX
  5
382
  8
0
  6
CONTINUOUS
 62
     7
 10
1591.7002667962
 20
977.5390802758
 30
0.0
  0
VERTEX
  5
383
  8
0
  6
CONTINUOUS
 62
     7
 10
1592.4690776161
 20
977.3014439543
 30
0.0
  0
VERTEX
  5
384
  8
0
  6
CONTINUOUS
 62
     7
 10
1593.1669286896
 20
977.1584637629
 30
0.0
  0
VERTEX
  5
385
  8
0
  6
CONTINUOUS
 62
     7
 10
1593.7684513741
 20
977.1101397017
 30
0.0
  0
VERTEX
  5
386
  8
0
  6
CONTINUOUS
 62
     7
 10
1594.2351105863
 20
977.1543285635
 30
0.0
  0
VERTEX
  5
387
  8
0
  6
CONTINUOUS
 62
     7
 10
1594.5783601521
 20
977.2938039496
 30
0.0
  0
VERTEX
  5
388
  8
0
  6
CONTINUOUS
 62
     7
 10
1594.8072667621
 20
977.532818671
 30
0.0
  0
VERTEX
  5
389
  8
0
  6
CONTINUOUS
 62
     7
 10
1594.8902204098
 20
977.8713727276
 30
0.0
  0
SEQEND
  5
380
  8
0
  6
CONTINUOUS
 62
     7
  0
LINE
  5
1CC
  8
0
  6
CONTINUOUS
 62
     7
 10
1594.8902201354
 20
-789.6564913174
 30
0.0
 11
1594.8902201354
 21
977.8713727276
 31
0.0
  0
POLYLINE
  5
1CD
  8
0
  6
CONTINUOUS
 62
     7
 66
     1
 10
0.0
 20
0.0
 30
0.0
  0
VERTEX
  5
38B
  8
0
  6
CONTINUOUS
 62
     7
 10
1594.8902204098
 20
-789.6564913174
 30
0.0
  0
VERTEX
  5
38C
  8
0
  6
CONTINUOUS
 62
     7
 10
1594.8072667623
 20
-789.3179372609
 30
0.0
  0
VERTEX
  5
38D
  8
0
  6
CONTINUOUS
 62
     7
 10
1594.5783601527
 20
-789.0789225396
 30
0.0
  0
VERTEX
  5
38E
  8
0
  6
CONTINUOUS
 62
     7
 10
1594.2351105867
 20
-788.9394471533
 30
0.0
  0
VERTEX
  5
38F
  8
0
  6
CONTINUOUS
 62
     7
 10
1593.7684513744
 20
-788.8952582913
 30
0.0
  0
VERTEX
  5
390
  8
0
  6
CONTINUOUS
 62
     7
 10
1593.1669286902
 20
-788.9435823524
 30
0.0
  0
VERTEX
  5
391
  8
0
  6
CONTINUOUS
 62
     7
 10
1592.4690776169
 20
-789.0865625438
 30
0.0
  0
VERTEX
  5
392
  8
0
  6
CONTINUOUS
 62
     7
 10
1591.7002667968
 20
-789.3241988654
 30
0.0
  0
VERTEX
  5
393
  8
0
  6
CONTINUOUS
 62
     7
 10
1590.8902201354
 20
-789.6564913174
 30
0.0
  0
SEQEND
  5
38A
  8
0
  6
CONTINUOUS
 62
     7
  0
ARC
  5
1CE
  8
0
  6
CONTINUOUS
 62
     7
 10
1592.2164675075
 20
-789.5370881175
 30
0.0
 40
0.6842514870655085
 50
349.9503256235
 51
46.3933978066
  0
LINE
  5
1CF
  8
0
  6
CONTINUOUS
 62
     7
 10
1594.8902201354
 20
-789.6564913174
 30
0.0
 11
1592.8902204098
 21
-789.6564913174
 31
0.0
  0
CIRCLE
  5
1D0
  8
0
  6
CONTINUOUS
 62
     7
 10
823.8902201354
 20
886.1074407051
 30
0.0
 40
3.000000000000114
  0
CIRCLE
  5
1D1
  8
0
  6
CONTINUOUS
 62
     7
 10
823.8902201354
 20
-713.8925592949
 30
0.0
 40
3.000000000000114
  0
CIRCLE
  5
1D2
  8
0
  6
CONTINUOUS
 62
     7
 10
823.8902201354
 20
86.1074407051
 30
0.0
 40
3.000000000000114
  0
CIRCLE
  5
1D3
  8
0
  6
CONTINUOUS
 62
     7
 10
1573.8902201354
 20
886.1074407051
 30
0.0
 40
3.0
  0
CIRCLE
  5
1D4
  8
0
  6
CONTINUOUS
 62
     7
 10
1573.8902201354
 20
-713.8925592949
 30
0.0
 40
3.0
  0
CIRCLE
  5
1D5
  8
0
  6
CONTINUOUS
 62
     7
 10
1573.8902201354
 20
86.1074407051
 30
0.0
 40
3.0
  0
LINE
  5
1D6
  8
0
  6
CONTINUOUS
 62
     7
 10
804.8902201354
 20
-789.6564913174
 30
0.0
 11
804.8902201354
 21
-789.8925592949
 31
0.0
  0
LINE
  5
1D7
  8
0
  6
CONTINUOUS
 62
     7
 10
804.8902195166
 20
-789.8925592949
 30
0.0
 11
802.8902201354
 21
-789.8925592949
 31
0.0
  0
LINE
  5
1D8
  8
0
  6
CONTINUOUS
 62
     7
 10
802.8902201354
 20
-789.6564913174
 30
0.0
 11
802.8902201354
 21
-789.8925592949
 31
0.0
  0
LINE
  5
1D9
  8
0
  6
CONTINUOUS
 62
     7
 10
802.8902201354
 20
977.8713727276
 30
0.0
 11
802.8902201354
 21
978.1074407051
 31
0.0
  0
LINE
  5
1DA
  8
0
  6
CONTINUOUS
 62
     7
 10
804.8902201354
 20
978.1074407051
 30
0.0
 11
802.8902201354
 21
978.1074407051
 31
0.0
  0
LINE
  5
1DB
  8
0
  6
CONTINUOUS
 62
     7
 10
804.8902201354
 20
977.8713727276
 30
0.0
 11
804.8902201354
 21
978.1074407051
 31
0.0
  0
LINE
  5
1DC
  8
0
  6
CONTINUOUS
 62
     7
 10
807.011540479
 20
980.1074407051
 30
0.0
 11
807.1262881129
 21
980.1074407051
 31
0.0
  0
LINE
  5
1DD
  8
0
  6
CONTINUOUS
 62
     7
 10
807.011540479
 20
982.1074407051
 30
0.0
 11
807.011540479
 21
980.1074407051
 31
0.0
  0
LINE
  5
1DE
  8
0
  6
CONTINUOUS
 62
     7
 10
807.011540479
 20
982.1074407051
 30
0.0
 11
807.1262881129
 21
982.1074407051
 31
0.0
  0
LINE
  5
1DF
  8
0
  6
CONTINUOUS
 62
     7
 10
807.011540479
 20
-791.8925592948
 30
0.0
 11
807.011540479
 21
-793.8925592949
 31
0.0
  0
LINE
  5
1E0
  8
0
  6
CONTINUOUS
 62
     7
 10
807.011540479
 20
-791.8925592949
 30
0.0
 11
807.1262881129
 21
-791.8925592949
 31
0.0
  0
LINE
  5
1E1
  8
0
  6
CONTINUOUS
 62
     7
 10
807.011540479
 20
-793.8925592949
 30
0.0
 11
807.1262881129
 21
-793.8925592949
 31
0.0
  0
LINE
  5
1E2
  8
0
  6
CONTINUOUS
 62
     7
 10
1594.8902201354
 20
978.1074407051
 30
0.0
 11
1592.8902201354
 21
978.1074407051
 31
0.0
  0
LINE
  5
1E3
  8
0
  6
CONTINUOUS
 62
     7
 10
1594.8902201354
 20
977.8713727276
 30
0.0
 11
1594.8902201354
 21
978.1074407051
 31
0.0
  0
LINE
  5
1E4
  8
0
  6
CONTINUOUS
 62
     7
 10
1592.8902201354
 20
977.8713727276
 30
0.0
 11
1592.8902201354
 21
978.1074407051
 31
0.0
  0
LINE
  5
1E5
  8
0
  6
CONTINUOUS
 62
     7
 10
1590.7688997919
 20
-793.8925592949
 30
0.0
 11
1590.7688997919
 21
-791.8925592949
 31
0.0
  0
LINE
  5
1E6
  8
0
  6
CONTINUOUS
 62
     7
 10
1590.7688997919
 20
-791.8925592949
 30
0.0
 11
1590.6541521579
 21
-791.8925592949
 31
0.0
  0
LINE
  5
1E7
  8
0
  6
CONTINUOUS
 62
     7
 10
1590.7688997919
 20
-793.8925592949
 30
0.0
 11
1590.6541521579
 21
-793.8925592949
 31
0.0
  0
LINE
  5
1E8
  8
0
  6
CONTINUOUS
 62
     7
 10
1590.7688997919
 20
980.1074407051
 30
0.0
 11
1590.7688997919
 21
982.1074407051
 31
0.0
  0
LINE
  5
1E9
  8
0
  6
CONTINUOUS
 62
     7
 10
1590.7688997919
 20
980.1074407051
 30
0.0
 11
1590.6541521579
 21
980.1074407051
 31
0.0
  0
LINE
  5
1EA
  8
0
  6
CONTINUOUS
 62
     7
 10
1590.7688997919
 20
982.1074407051
 30
0.0
 11
1590.6541521579
 21
982.1074407051
 31
0.0
  0
LINE
  5
1EB
  8
0
  6
CONTINUOUS
 62
     7
 10
1594.8902201354
 20
-789.8925592949
 30
0.0
 11
1592.8902207542
 21
-789.8925592949
 31
0.0
  0
LINE
  5
1EC
  8
0
  6
CONTINUOUS
 62
     7
 10
1594.8902201354
 20
-789.6564913174
 30
0.0
 11
1594.8902201354
 21
-789.8925592949
 31
0.0
  0
LINE
  5
1ED
  8
0
  6
CONTINUOUS
 62
     7
 10
1592.8902201354
 20
-789.6564913174
 30
0.0
 11
1592.8902201354
 21
-789.8925592949
 31
0.0
  0
LINE
  5
1EE
  8
0
  6
CONTINUOUS
 62
     7
 10
807.011540479
 20
-791.8925592949
 30
0.0
 11
807.011540479
 21
-793.8925592949
 31
0.0
  0
LINE
  5
1EF
  8
0
  6
CONTINUOUS
 62
     7
 10
806.8902201354
 20
-793.8925592949
 30
0.0
 11
807.011540479
 21
-793.8925592949
 31
0.0
  0
LINE
  5
1F0
  8
0
  6
CONTINUOUS
 62
     7
 10
806.8902201354
 20
-791.8925592949
 30
0.0
 11
806.8902201354
 21
-793.8925592949
 31
0.0
  0
LINE
  5
1F1
  8
0
  6
CONTINUOUS
 62
     7
 10
806.8902201354
 20
-791.8925592949
 30
0.0
 11
807.011540479
 21
-791.8925592949
 31
0.0
  0
LINE
  5
1F2
  8
0
  6
CONTINUOUS
 62
     7
 10
807.011540479
 20
982.1074407051
 30
0.0
 11
807.011540479
 21
980.1074407051
 31
0.0
  0
LINE
  5
1F3
  8
0
  6
CONTINUOUS
 62
     7
 10
806.8902201354
 20
980.1074407051
 30
0.0
 11
807.011540479
 21
980.1074407051
 31
0.0
  0
LINE
  5
1F4
  8
0
  6
CONTINUOUS
 62
     7
 10
806.8902201354
 20
980.1074413239
 30
0.0
 11
806.8902201354
 21
982.1074407051
 31
0.0
  0
LINE
  5
1F5
  8
0
  6
CONTINUOUS
 62
     7
 10
806.8902201354
 20
982.1074407051
 30
0.0
 11
807.011540479
 21
982.1074407051
 31
0.0
  0
LINE
  5
1F6
  8
0
  6
CONTINUOUS
 62
     7
 10
1590.7688997919
 20
980.1074407051
 30
0.0
 11
1590.7688997919
 21
982.1074407051
 31
0.0
  0
LINE
  5
1F7
  8
0
  6
CONTINUOUS
 62
     7
 10
1590.8902201354
 20
982.1074407051
 30
0.0
 11
1590.8902201354
 21
980.1074407051
 31
0.0
  0
LINE
  5
1F8
  8
0
  6
CONTINUOUS
 62
     7
 10
1590.8902201354
 20
980.1074407051
 30
0.0
 11
1590.7688997919
 21
980.1074407051
 31
0.0
  0
LINE
  5
1F9
  8
0
  6
CONTINUOUS
 62
     7
 10
1590.8902201354
 20
982.1074407051
 30
0.0
 11
1590.7688997919
 21
982.1074407051
 31
0.0
  0
LINE
  5
1FA
  8
0
  6
CONTINUOUS
 62
     7
 10
1590.7688997919
 20
-793.8925592949
 30
0.0
 11
1590.7688997919
 21
-791.8925592949
 31
0.0
  0
LINE
  5
1FB
  8
0
  6
CONTINUOUS
 62
     7
 10
1590.8902201354
 20
-793.8925592949
 30
0.0
 11
1590.8902201354
 21
-791.8925599137
 31
0.0
  0
LINE
  5
1FC
  8
0
  6
CONTINUOUS
 62
     7
 10
1590.8902201354
 20
-791.8925592949
 30
0.0
 11
1590.7688997919
 21
-791.8925592949
 31
0.0
  0
LINE
  5
1FD
  8
0
  6
CONTINUOUS
 62
     7
 10
1590.8902201354
 20
-793.8925592949
 30
0.0
 11
1590.7688997919
 21
-793.8925592949
 31
0.0
  0
ARC
  5
1FE
  8
0
  6
CONTINUOUS
 62
     7
 10
806.8902201354
 20
-789.8925592949
 30
0.0
 40
2.000000618793933
 50
180.0
 51
270.0
  0
ARC
  5
1FF
  8
0
  6
CONTINUOUS
 62
     7
 10
806.8902201354
 20
-789.8925592949
 30
0.0
 40
4.000000618793933
 50
180.0
 51
270.0
  0
ARC
  5
200
  8
0
  6
CONTINUOUS
 62
     7
 10
806.8902201354
 20
978.1074407051
 30
0.0
 40
2.000000618794161
 50
90.0
 51
180.0
  0
ARC
  5
201
  8
0
  6
CONTINUOUS
 62
     7
 10
806.8902201354
 20
978.1074407051
 30
0.0
 40
4.000000618793706
 50
90.0
 51
180.0
  0
ARC
  5
202
  8
0
  6
CONTINUOUS
 62
     7
 10
1590.8902201354
 20
978.1074407051
 30
0.0
 40
2.00000061879382
 50
360.0
 51
90.0
  0
ARC
  5
203
  8
0
  6
CONTINUOUS
 62
     7
 10
1590.8902201354
 20
978.1074407051
 30
0.0
 40
4.000000618793706
 50
360.0
 51
90.0
  0
ARC
  5
204
  8
0
  6
CONTINUOUS
 62
     7
 10
1590.8902201354
 20
-789.8925592949
 30
0.0
 40
2.000000618794161
 50
270.0
 51
360.0
  0
ARC
  5
205
  8
0
  6
CONTINUOUS
 62
     7
 10
1590.8902201354
 20
-789.8925592949
 30
0.0
 40
4.000000618793365
 50
270.0
 51
0.0
  0
ENDSEC
  0
EOF
