  0
SECTION
  2
HEADER
  9
$ACADVER
  1
AC1009
  9
$DWGCODEPAGE
  3
ansi_1252
  9
$INSBASE
 10
0.0
 20
0.0
 30
0.0
  9
$EXTMIN
 10
0.0
 20
0.0
 30
0.0
  9
$EXTMAX
 10
297.0
 20
210.0
 30
0.0
  9
$LIMMIN
 10
0.0
 20
0.0
  9
$LIMMAX
 10
0.0
 20
0.0
  9
$ORTHOMODE
 70
     0
  9
$REGENMODE
 70
     1
  9
$FILLMODE
 70
     1
  9
$QTEXTMODE
 70
     0
  9
$MIRRTEXT
 70
     1
  9
$DRAGMODE
 70
     2
  9
$LTSCALE
 40
1.0
  9
$OSMODE
 70
    37
  9
$ATTMODE
 70
     1
  9
$TEXTSIZE
 40
3.5277777778
  9
$TRACEWID
 40
1.0
  9
$TEXTSTYLE
  7
STANDARD
  9
$CLAYER
  8
0
  9
$CELTYPE
  6
BYLAYER
  9
$CECOLOR
 62
   256
  9
$DIMSCALE
 40
1.0
  9
$DIMASZ
 40
1.8
  9
$DIMEXO
 40
0.7
  9
$DIMDLI
 40
3.75
  9
$DIMRND
 40
0.0
  9
$DIMDLE
 40
0.0
  9
$DIMEXE
 40
0.5
  9
$DIMTP
 40
0.0
  9
$DIMTM
 40
0.0
  9
$DIMTXT
 40
2.4694444444
  9
$DIMCEN
 40
2.5
  9
$DIMTSZ
 40
0.0
  9
$DIMTOL
 70
     0
  9
$DIMLIM
 70
     0
  9
$DIMTIH
 70
     1
  9
$DIMTOH
 70
     1
  9
$DIMSE1
 70
     0
  9
$DIMSE2
 70
     0
  9
$DIMTAD
 70
     1
  9
$DIMZIN
 70
     0
  9
$DIMBLK
  1

  9
$DIMASO
 70
     1
  9
$DIMSHO
 70
     1
  9
$DIMPOST
  1

  9
$DIMAPOST
  1

  9
$DIMALT
 70
     0
  9
$DIMALTD
 70
     3
  9
$DIMALTF
 40
0.0393700787
  9
$DIMLFAC
 40
1.0
  9
$DIMTOFL
 70
     1
  9
$DIMTVP
 40
0.0
  9
$DIMTIX
 70
     0
  9
$DIMSOXD
 70
     0
  9
$DIMSAH
 70
     0
  9
$DIMBLK1
  1

  9
$DIMBLK2
  1

  9
$DIMSTYLE
  2
ISO-25
  9
$DIMCLRD
 70
     0
  9
$DIMCLRE
 70
     0
  9
$DIMCLRT
 70
     0
  9
$DIMTFAC
 40
1.0
  9
$DIMGAP
 40
2.0
  9
$LUNITS
 70
     2
  9
$LUPREC
 70
     2
  9
$SKETCHINC
 40
1.0
  9
$FILLETRAD
 40
10.0
  9
$AUNITS
 70
     0
  9
$AUPREC
 70
     0
  9
$MENU
  1
.
  9
$ELEVATION
 40
0.0
  9
$PELEVATION
 40
0.0
  9
$THICKNESS
 40
0.0
  9
$LIMCHECK
 70
     0
  9
$CHAMFERA
 40
10.0
  9
$CHAMFERB
 40
10.0
  9
$SKPOLY
 70
     0
  9
$TDCREATE
 40
2455110.344465961
  9
$TDUPDATE
 40
2455110.344465972
  9
$TDINDWG
 40
0.0000000116
  9
$TDUSRTIMER
 40
0.0000000116
  9
$USRTIMER
 70
     1
  9
$ANGBASE
 50
0.0
  9
$ANGDIR
 70
     0
  9
$PDMODE
 70
     0
  9
$PDSIZE
 40
-1.0
  9
$PLINEWID
 40
0.0
  9
$COORDS
 70
     1
  9
$SPLFRAME
 70
     0
  9
$SPLINETYPE
 70
     6
  9
$SPLINESEGS
 70
     8
  9
$ATTDIA
 70
     0
  9
$ATTREQ
 70
     1
  9
$HANDLING
 70
     1
  9
$HANDSEED
  5
3AF
  9
$SURFTAB1
 70
     6
  9
$SURFTAB2
 70
     6
  9
$SURFTYPE
 70
     6
  9
$SURFU
 70
     6
  9
$SURFV
 70
     6
  9
$UCSNAME
  2

  9
$UCSORG
 10
0.0
 20
0.0
 30
0.0
  9
$UCSXDIR
 10
1.0
 20
0.0
 30
0.0
  9
$UCSYDIR
 10
0.0
 20
1.0
 30
0.0
  9
$PUCSNAME
  2

  9
$PUCSORG
 10
0.0
 20
0.0
 30
0.0
  9
$PUCSXDIR
 10
1.0
 20
0.0
 30
0.0
  9
$PUCSYDIR
 10
0.0
 20
1.0
 30
0.0
  9
$USERI1
 70
     0
  9
$USERI2
 70
     0
  9
$USERI3
 70
     0
  9
$USERI4
 70
     0
  9
$USERI5
 70
     0
  9
$USERR1
 40
0.0
  9
$USERR2
 40
0.0
  9
$USERR3
 40
0.0
  9
$USERR4
 40
0.0
  9
$USERR5
 40
0.0
  9
$WORLDVIEW
 70
     1
  9
$SHADEDGE
 70
     3
  9
$SHADEDIF
 70
    70
  9
$TILEMODE
 70
     1
  9
$MAXACTVP
 70
    64
  9
$PLIMCHECK
 70
     0
  9
$PEXTMIN
 10
1.0000000000E+20
 20
1.0000000000E+20
 30
1.0000000000E+20
  9
$PEXTMAX
 10
-1.0000000000E+20
 20
-1.0000000000E+20
 30
-1.0000000000E+20
  9
$PLIMMIN
 10
0.0
 20
0.0
  9
$PLIMMAX
 10
420.0
 20
297.0
  9
$UNITMODE
 70
     0
  9
$VISRETAIN
 70
     1
  9
$PLINEGEN
 70
     0
  9
$PSLTSCALE
 70
     1
  0
ENDSEC
  0
SECTION
  2
TABLES
  0
TABLE
  2
VPORT
 70
     1
  0
VPORT
  2
*ACTIVE
 70
     0
 10
0.0
 20
0.0
 11
1.0
 21
1.0
 12
148.5
 22
105.0
 13
0.0
 23
0.0
 14
10.0
 24
10.0
 15
10.0
 25
10.0
 16
0.0
 26
0.0
 36
1.0
 17
0.0
 27
0.0
 37
0.0
 40
210.0
 41
1.4142857143
 42
50.0
 43
0.0
 44
0.0
 50
0.0
 51
0.0
 71
     0
 72
  2000
 73
     1
 74
     3
 75
     0
 76
     0
 77
     0
 78
     0
  0
ENDTAB
  0
TABLE
  2
LTYPE
 70
     6
  0
LTYPE
  2
CONTINUOUS
 70
     0
  3
Solid line
 72
    65
 73
     0
 40
0.0
  0
LTYPE
  2
HIDDEN
 70
     0
  3
Hidden __ __ __ __ __ __ __ __ __ __ __ __ __ __
 72
    65
 73
     2
 40
1.905
 49
1.27
 49
-0.635
  0
LTYPE
  2
PHANTOM
 70
     0
  3
Phantom ______  __  __  ______  __  __  ______
 72
    65
 73
     6
 40
12.7
 49
6.35
 49
-1.27
 49
1.27
 49
-1.27
 49
1.27
 49
-1.27
  0
LTYPE
  2
CENTER
 70
     0
  3
Center ____ _ ____ _ ____ _ ____ _ ____ _ ____
 72
    65
 73
     4
 40
10.16
 49
6.35
 49
-1.27
 49
1.27
 49
-1.27
  0
LTYPE
  2
CENTERX2
 70
     0
  3
Center (2x) ________  __  ________  __  _____
 72
    65
 73
     4
 40
20.32
 49
12.7
 49
-2.54
 49
2.54
 49
-2.54
  0
LTYPE
  2
DOT2
 70
     0
  3
Dot (.5x) ........................................
 72
    65
 73
     2
 40
0.635
 49
0.0
 49
-0.635
  0
ENDTAB
  0
TABLE
  2
LAYER
 70
     5
  0
LAYER
  2
0
 70
     0
 62
     7
  6
CONTINUOUS
  0
LAYER
  2
SLD-0
 70
     0
 62
     7
  6
CONTINUOUS
  0
LAYER
  2
AM_BOR
 70
     0
 62
     7
  6
CONTINUOUS
  0
LAYER
  2
BIEGLINIE__ZU_
 70
     0
 62
     8
  6
CONTINUOUS
  0
LAYER
  2
BIEGELINIE__WEG_
 70
     0
 62
     8
  6
HIDDEN
  0
ENDTAB
  0
TABLE
  2
STYLE
 70
     1
  0
STYLE
  2
STANDARD
 70
     0
 40
0.0
 41
1.0
 50
0.0
 71
     0
 42
2.5
  3
txt
  4

  0
ENDTAB
  0
TABLE
  2
VIEW
 70
     0
  0
ENDTAB
  0
TABLE
  2
UCS
 70
     0
  0
ENDTAB
  0
TABLE
  2
APPID
 70
     1
  0
APPID
  2
ACAD
 70
     0
  0
ENDTAB
  0
TABLE
  2
DIMSTYLE
 70
     1
  0
DIMSTYLE
  2
ISO-25
 70
     0
  3

  4

  5

  6

  7

 40
1.0
 41
2.5
 42
0.625
 43
3.75
 44
1.25
 45
0.0
 46
0.0
 47
0.0
 48
0.0
140
2.5
141
2.5
142
0.0
143
0.0393700787
144
1.0
145
0.0
146
1.0
147
0.625
 71
     0
 72
     0
 73
     0
 74
     0
 75
     0
 76
     0
 77
     1
 78
     8
170
     0
171
     3
172
     1
173
     0
174
     0
175
     0
176
     0
177
     0
178
     0
  0
ENDTAB
  0
ENDSEC
  0
SECTION
  2
BLOCKS
  0
BLOCK
  8
0
  2
$MODEL_SPACE
 70
     0
 10
0.0
 20
0.0
 30
0.0
  3
$MODEL_SPACE
  1

  0
ENDBLK
  5
21
  8
0
  0
BLOCK
 67
     1
  8
0
  2
$PAPER_SPACE
 70
     0
 10
0.0
 20
0.0
 30
0.0
  3
$PAPER_SPACE
  1

  0
ENDBLK
  5
1D
 67
     1
  8
0
  0
ENDSEC
  0
SECTION
  2
ENTITIES
  0
TEXT
  5
33
  8
SLD-0
 10
767.9733152177
 20
-923.1199818396
 30
0.0
 40
19.05
  1
RS/GA  BxH 1000 x 1800
 41
0.6204545455
 11
767.9733152177
 21
-928.5628389824
 31
0.0
 73
     1
  0
ARC
  5
34
  8
0
  6
CONTINUOUS
 62
     7
 10
589.7958232352
 20
936.6074407051
 30
0.0
 40
20.00000000000023
 50
360.0
 51
90.0
  0
ARC
  5
35
  8
0
  6
CONTINUOUS
 62
     7
 10
589.7958232352
 20
936.6074407051
 30
0.0
 40
5.000000000000114
 50
0.0
 51
90.0
  0
LINE
  5
36
  8
0
  6
CONTINUOUS
 62
     7
 10
-299.2041767648
 20
956.6074407051
 30
0.0
 11
589.7958232352
 21
956.6074407051
 31
0.0
  0
LINE
  5
37
  8
0
  6
CONTINUOUS
 62
     7
 10
-299.2041767648
 20
941.6074407051
 30
0.0
 11
589.7958232352
 21
941.6074407051
 31
0.0
  0
LINE
  5
38
  8
0
  6
CONTINUOUS
 62
     7
 10
589.7958232352
 20
-768.3925592949
 30
0.0
 11
-299.2041767648
 21
-768.3925592949
 31
0.0
  0
LINE
  5
39
  8
0
  6
CONTINUOUS
 62
     7
 10
589.7958232352
 20
-753.3925592949
 30
0.0
 11
-299.2041767648
 21
-753.3925592949
 31
0.0
  0
ARC
  5
3A
  8
0
  6
CONTINUOUS
 62
     7
 10
-299.2041767648
 20
-748.3925592949
 30
0.0
 40
20.00000000000011
 50
180.0
 51
270.0
  0
ARC
  5
3B
  8
0
  6
CONTINUOUS
 62
     7
 10
-299.2041767648
 20
-748.3925592949
 30
0.0
 40
5.0
 50
180.0
 51
270.0
  0
LINE
  5
3C
  8
0
  6
CONTINUOUS
 62
     7
 10
609.7958232352
 20
936.6074407051
 30
0.0
 11
609.7958232352
 21
-748.3925592949
 31
0.0
  0
LINE
  5
3D
  8
0
  6
CONTINUOUS
 62
     7
 10
594.7958232352
 20
936.6074407051
 30
0.0
 11
594.7958232352
 21
-748.3925592949
 31
0.0
  0
LINE
  5
3E
  8
0
  6
CONTINUOUS
 62
     7
 10
-304.2041767648
 20
936.6074407051
 30
0.0
 11
-304.2041767648
 21
-748.3925592949
 31
0.0
  0
LINE
  5
3F
  8
0
  6
CONTINUOUS
 62
     7
 10
-319.2041767648
 20
936.6074407051
 30
0.0
 11
-319.2041767648
 21
-748.3925592949
 31
0.0
  0
ARC
  5
40
  8
0
  6
CONTINUOUS
 62
     7
 10
-299.2041767648
 20
936.6074407051
 30
0.0
 40
20.00000000000034
 50
90.0
 51
180.0
  0
ARC
  5
41
  8
0
  6
CONTINUOUS
 62
     7
 10
-299.2041767648
 20
936.6074407051
 30
0.0
 40
5.000000000000227
 50
90.0
 51
180.0
  0
ARC
  5
42
  8
0
  6
CONTINUOUS
 62
     7
 10
589.7958232352
 20
-748.3925592949
 30
0.0
 40
20.00000000000011
 50
270.0
 51
360.0
  0
ARC
  5
43
  8
0
  6
CONTINUOUS
 62
     7
 10
589.7958232352
 20
-748.3925592949
 30
0.0
 40
5.0
 50
270.0
 51
0.0
  0
ARC
  5
44
  8
0
  6
CONTINUOUS
 62
     7
 10
-346.704176146
 20
-789.8925592949
 30
0.0
 40
2.00000061879382
 50
180.0
 51
269.9999822729
  0
ARC
  5
45
  8
0
  6
CONTINUOUS
 62
     7
 10
-346.7041767648
 20
-789.8925592949
 30
0.0
 40
4.0
 50
180.0
 51
270.0
  0
LINE
  5
46
  8
0
  6
CONTINUOUS
 62
     7
 10
-330.2041767648
 20
-791.8925592949
 30
0.0
 11
-330.2041767648
 21
-793.8925592949
 31
0.0
  0
LINE
  5
47
  8
0
  6
CONTINUOUS
 62
     7
 10
-346.7041767648
 20
-791.8925592949
 30
0.0
 11
-330.2041767648
 21
-791.8925592949
 31
0.0
  0
LINE
  5
48
  8
0
  6
CONTINUOUS
 62
     7
 10
-346.7041767648
 20
-793.8925592949
 30
0.0
 11
-330.2041767648
 21
-793.8925592949
 31
0.0
  0
LINE
  5
49
  8
0
  6
CONTINUOUS
 62
     7
 10
-348.7041773836
 20
978.1074407051
 30
0.0
 11
-348.7041767648
 21
-789.8925592949
 31
0.0
  0
LINE
  5
4A
  8
0
  6
CONTINUOUS
 62
     7
 10
-350.7041767648
 20
978.1074407051
 30
0.0
 11
-350.7041767648
 21
-789.8925592949
 31
0.0
  0
LINE
  5
4B
  8
0
  6
CONTINUOUS
 62
     7
 10
620.7958232352
 20
-793.8925592949
 30
0.0
 11
620.7958232352
 21
-791.8925592949
 31
0.0
  0
LINE
  5
4C
  8
0
  6
CONTINUOUS
 62
     7
 10
-330.2041767648
 20
-793.8925592949
 30
0.0
 11
-330.2041767648
 21
-791.8925592948
 31
0.0
  0
LINE
  5
4D
  8
0
  6
CONTINUOUS
 62
     7
 10
-330.2041767648
 20
-791.8925592948
 30
0.0
 11
620.7958232352
 21
-791.8925592949
 31
0.0
  0
LINE
  5
4E
  8
0
  6
CONTINUOUS
 62
     7
 10
-330.2041767648
 20
-793.8925592949
 30
0.0
 11
620.7958232352
 21
-793.8925592949
 31
0.0
  0
LINE
  5
4F
  8
0
  6
CONTINUOUS
 62
     7
 10
620.7958232352
 20
982.1074407051
 30
0.0
 11
620.7958232352
 21
980.1074407051
 31
0.0
  0
LINE
  5
50
  8
0
  6
CONTINUOUS
 62
     7
 10
620.7958232352
 20
980.1074407051
 30
0.0
 11
-330.2041767648
 21
980.1074407051
 31
0.0
  0
LINE
  5
51
  8
0
  6
CONTINUOUS
 62
     7
 10
-330.2041767648
 20
982.1074407051
 30
0.0
 11
-330.2041767648
 21
980.1074407051
 31
0.0
  0
LINE
  5
52
  8
0
  6
CONTINUOUS
 62
     7
 10
620.7958232352
 20
982.1074407051
 30
0.0
 11
-330.2041767648
 21
982.1074407051
 31
0.0
  0
ARC
  5
53
  8
0
  6
CONTINUOUS
 62
     7
 10
637.2958226164
 20
978.1074407051
 30
0.0
 40
2.000001237587753
 50
0.0
 51
89.9999822729
  0
ARC
  5
54
  8
0
  6
CONTINUOUS
 62
     7
 10
637.2958232352
 20
978.1074407051
 30
0.0
 40
4.000000618793933
 50
0.0
 51
90.0
  0
LINE
  5
55
  8
0
  6
CONTINUOUS
 62
     7
 10
639.2958235446
 20
-789.8925592949
 30
0.0
 11
639.295823854
 21
978.1074407051
 31
0.0
  0
LINE
  5
56
  8
0
  6
CONTINUOUS
 62
     7
 10
641.2958232352
 20
-789.8925592949
 30
0.0
 11
641.295823854
 21
978.1074407051
 31
0.0
  0
LINE
  5
57
  8
0
  6
CONTINUOUS
 62
     7
 10
-330.2041767648
 20
980.1074407051
 30
0.0
 11
-330.2041767648
 21
982.1074407051
 31
0.0
  0
LINE
  5
58
  8
0
  6
CONTINUOUS
 62
     7
 10
-330.2041767648
 20
980.1074407051
 30
0.0
 11
-346.7041767648
 21
980.1074413239
 31
0.0
  0
LINE
  5
59
  8
0
  6
CONTINUOUS
 62
     7
 10
-330.2041767648
 20
982.1074407051
 30
0.0
 11
-346.7041767648
 21
982.1074407051
 31
0.0
  0
LINE
  5
5A
  8
0
  6
CONTINUOUS
 62
     7
 10
620.7958232352
 20
980.1074407051
 30
0.0
 11
620.7958232352
 21
982.1074407051
 31
0.0
  0
LINE
  5
5B
  8
0
  6
CONTINUOUS
 62
     7
 10
637.2958232352
 20
980.1074407051
 30
0.0
 11
620.7958232352
 21
980.1074407051
 31
0.0
  0
LINE
  5
5C
  8
0
  6
CONTINUOUS
 62
     7
 10
637.2958232352
 20
982.1074407051
 30
0.0
 11
620.7958232352
 21
982.1074407051
 31
0.0
  0
ARC
  5
5D
  8
0
  6
CONTINUOUS
 62
     7
 10
-346.704176146
 20
978.1074407051
 30
0.0
 40
2.000001237587696
 50
90.0000177271
 51
180.0
  0
ARC
  5
5E
  8
0
  6
CONTINUOUS
 62
     7
 10
-346.7041767648
 20
978.1074407051
 30
0.0
 40
4.0
 50
90.0
 51
180.0
  0
LINE
  5
5F
  8
0
  6
CONTINUOUS
 62
     7
 10
620.7958232352
 20
-791.8925592949
 30
0.0
 11
620.7958232352
 21
-793.8925592949
 31
0.0
  0
LINE
  5
60
  8
0
  6
CONTINUOUS
 62
     7
 10
620.7958232352
 20
-793.8925592949
 30
0.0
 11
637.2958232352
 21
-793.8925592949
 31
0.0
  0
LINE
  5
61
  8
0
  6
CONTINUOUS
 62
     7
 10
620.7958232352
 20
-791.8925592949
 30
0.0
 11
637.2958232352
 21
-791.8925599137
 31
0.0
  0
ARC
  5
62
  8
0
  6
CONTINUOUS
 62
     7
 10
637.2958226164
 20
-789.8925592949
 30
0.0
 40
2.000000928190843
 50
270.0000177271
 51
0.0
  0
ARC
  5
63
  8
0
  6
CONTINUOUS
 62
     7
 10
637.2958232352
 20
-789.8925592949
 30
0.0
 40
4.0
 50
270.0
 51
0.0
  0
CIRCLE
  5
64
  8
0
  6
CONTINUOUS
 62
     7
 10
-329.7041767648
 20
-713.8925592949
 30
0.0
 40
4.516838966197497
  0
CIRCLE
  5
65
  8
0
  6
CONTINUOUS
 62
     7
 10
-329.7041767648
 20
-713.8925592949
 30
0.0
 40
3.0
  0
CIRCLE
  5
66
  8
0
  6
CONTINUOUS
 62
     7
 10
-329.7041767648
 20
886.1074407051
 30
0.0
 40
4.516838966197497
  0
CIRCLE
  5
67
  8
0
  6
CONTINUOUS
 62
     7
 10
-329.7041767648
 20
86.1074407051
 30
0.0
 40
4.516838966197497
  0
CIRCLE
  5
68
  8
0
  6
CONTINUOUS
 62
     7
 10
-329.7041767648
 20
86.1074407051
 30
0.0
 40
3.0
  0
CIRCLE
  5
69
  8
0
  6
CONTINUOUS
 62
     7
 10
-329.7041767648
 20
886.1074407051
 30
0.0
 40
3.0
  0
CIRCLE
  5
6A
  8
0
  6
CONTINUOUS
 62
     7
 10
620.2958232352
 20
86.1074407051
 30
0.0
 40
4.516838966197497
  0
CIRCLE
  5
6B
  8
0
  6
CONTINUOUS
 62
     7
 10
620.2958232352
 20
-713.8925592949
 30
0.0
 40
4.516838966197497
  0
CIRCLE
  5
6C
  8
0
  6
CONTINUOUS
 62
     7
 10
620.2958232352
 20
-713.8925592949
 30
0.0
 40
3.0
  0
CIRCLE
  5
6D
  8
0
  6
CONTINUOUS
 62
     7
 10
620.2958232352
 20
86.1074407051
 30
0.0
 40
3.0
  0
CIRCLE
  5
6E
  8
0
  6
CONTINUOUS
 62
     7
 10
620.2958232352
 20
886.1074407051
 30
0.0
 40
4.516838966197497
  0
CIRCLE
  5
6F
  8
0
  6
CONTINUOUS
 62
     7
 10
620.2958232352
 20
886.1074407051
 30
0.0
 40
3.0
  0
POLYLINE
  5
70
  8
0
  6
CONTINUOUS
 62
     7
 66
     1
 10
0.0
 20
0.0
 30
0.0
  0
VERTEX
  5
210
  8
0
  6
CONTINUOUS
 62
     7
 10
637.0597552577
 20
-791.8925599137
 30
0.0
  0
VERTEX
  5
211
  8
0
  6
CONTINUOUS
 62
     7
 10
636.7274628085
 20
-791.8511196072
 30
0.0
  0
VERTEX
  5
212
  8
0
  6
CONTINUOUS
 62
     7
 10
636.4898264879
 20
-791.7301676422
 30
0.0
  0
VERTEX
  5
213
  8
0
  6
CONTINUOUS
 62
     7
 10
636.3468462957
 20
-791.5369897113
 30
0.0
  0
VERTEX
  5
214
  8
0
  6
CONTINUOUS
 62
     7
 10
636.298522232
 20
-791.2814249197
 30
0.0
  0
VERTEX
  5
215
  8
0
  6
CONTINUOUS
 62
     7
 10
636.3427110902
 20
-790.9893400916
 30
0.0
  0
VERTEX
  5
216
  8
0
  6
CONTINUOUS
 62
     7
 10
636.4821864749
 20
-790.6667728693
 30
0.0
  0
VERTEX
  5
217
  8
0
  6
CONTINUOUS
 62
     7
 10
636.7212011974
 20
-790.2977593265
 30
0.0
  0
VERTEX
  5
218
  8
0
  6
CONTINUOUS
 62
     7
 10
637.0597552577
 20
-789.8925592949
 30
0.0
  0
SEQEND
  5
20F
  8
0
  6
CONTINUOUS
 62
     7
  0
ARC
  5
71
  8
0
  6
CONTINUOUS
 62
     7
 10
643.9832813363
 20
-793.3348065614
 30
0.0
 40
7.732029462216828
 50
153.5642969802
 51
167.4659633831
  0
ARC
  5
72
  8
0
  6
CONTINUOUS
 62
     7
 10
-353.3916348761
 20
-793.334806565
 30
0.0
 40
7.732029473043717
 50
12.5340366247
 51
26.4357030092
  0
POLYLINE
  5
73
  8
0
  6
CONTINUOUS
 62
     7
 66
     1
 10
0.0
 20
0.0
 30
0.0
  0
VERTEX
  5
21A
  8
0
  6
CONTINUOUS
 62
     7
 10
-348.7041771092
 20
-789.6564913174
 30
0.0
  0
VERTEX
  5
21B
  8
0
  6
CONTINUOUS
 62
     7
 10
-348.6627002807
 20
-789.3179372599
 30
0.0
  0
VERTEX
  5
21C
  8
0
  6
CONTINUOUS
 62
     7
 10
-348.5482469635
 20
-789.0789225383
 30
0.0
  0
VERTEX
  5
21D
  8
0
  6
CONTINUOUS
 62
     7
 10
-348.3766221624
 20
-788.9394471525
 30
0.0
  0
VERTEX
  5
21E
  8
0
  6
CONTINUOUS
 62
     7
 10
-348.1432925325
 20
-788.8952582915
 30
0.0
  0
VERTEX
  5
21F
  8
0
  6
CONTINUOUS
 62
     7
 10
-347.8425311599
 20
-788.9435823533
 30
0.0
  0
VERTEX
  5
220
  8
0
  6
CONTINUOUS
 62
     7
 10
-347.4936055875
 20
-789.0865625449
 30
0.0
  0
VERTEX
  5
221
  8
0
  6
CONTINUOUS
 62
     7
 10
-347.1092001377
 20
-789.3241988662
 30
0.0
  0
VERTEX
  5
222
  8
0
  6
CONTINUOUS
 62
     7
 10
-346.7041767648
 20
-789.6564913174
 30
0.0
  0
SEQEND
  5
219
  8
0
  6
CONTINUOUS
 62
     7
  0
ARC
  5
74
  8
0
  6
CONTINUOUS
 62
     7
 10
-350.0432014107
 20
-796.484677035
 30
0.0
 40
7.600868751729001
 50
63.9410835286
 51
78.3039466905
  0
POLYLINE
  5
75
  8
0
  6
CONTINUOUS
 62
     7
 66
     1
 10
0.0
 20
0.0
 30
0.0
  0
VERTEX
  5
224
  8
0
  6
CONTINUOUS
 62
     7
 10
-346.7041767648
 20
977.8713727276
 30
0.0
  0
VERTEX
  5
225
  8
0
  6
CONTINUOUS
 62
     7
 10
-347.1092001373
 20
977.5390802763
 30
0.0
  0
VERTEX
  5
226
  8
0
  6
CONTINUOUS
 62
     7
 10
-347.4936055869
 20
977.3014439548
 30
0.0
  0
VERTEX
  5
227
  8
0
  6
CONTINUOUS
 62
     7
 10
-347.8425311594
 20
977.1584637633
 30
0.0
  0
VERTEX
  5
228
  8
0
  6
CONTINUOUS
 62
     7
 10
-348.1432925323
 20
977.1101397016
 30
0.0
  0
VERTEX
  5
229
  8
0
  6
CONTINUOUS
 62
     7
 10
-348.3766221623
 20
977.1543285628
 30
0.0
  0
VERTEX
  5
22A
  8
0
  6
CONTINUOUS
 62
     7
 10
-348.5482469633
 20
977.2938039487
 30
0.0
  0
VERTEX
  5
22B
  8
0
  6
CONTINUOUS
 62
     7
 10
-348.6627002807
 20
977.5328186703
 30
0.0
  0
VERTEX
  5
22C
  8
0
  6
CONTINUOUS
 62
     7
 10
-348.7041771092
 20
977.8713727276
 30
0.0
  0
SEQEND
  5
223
  8
0
  6
CONTINUOUS
 62
     7
  0
ARC
  5
76
  8
0
  6
CONTINUOUS
 62
     7
 10
-350.0432014014
 20
984.6995584113
 30
0.0
 40
7.60086871708543
 50
281.6960532981
 51
296.0589165214
  0
POLYLINE
  5
77
  8
0
  6
CONTINUOUS
 62
     7
 66
     1
 10
0.0
 20
0.0
 30
0.0
  0
VERTEX
  5
22E
  8
0
  6
CONTINUOUS
 62
     7
 10
-346.4681087873
 20
980.1074413239
 30
0.0
  0
VERTEX
  5
22F
  8
0
  6
CONTINUOUS
 62
     7
 10
-346.1358163382
 20
980.0660010176
 30
0.0
  0
VERTEX
  5
230
  8
0
  6
CONTINUOUS
 62
     7
 10
-345.8981800176
 20
979.9450490527
 30
0.0
  0
VERTEX
  5
231
  8
0
  6
CONTINUOUS
 62
     7
 10
-345.7551998254
 20
979.7518711219
 30
0.0
  0
VERTEX
  5
232
  8
0
  6
CONTINUOUS
 62
     7
 10
-345.7068757616
 20
979.4963063302
 30
0.0
  0
VERTEX
  5
233
  8
0
  6
CONTINUOUS
 62
     7
 10
-345.7510646197
 20
979.204221502
 30
0.0
  0
VERTEX
  5
234
  8
0
  6
CONTINUOUS
 62
     7
 10
-345.8905400042
 20
978.8816542798
 30
0.0
  0
VERTEX
  5
235
  8
0
  6
CONTINUOUS
 62
     7
 10
-346.1295547267
 20
978.512640737
 30
0.0
  0
VERTEX
  5
236
  8
0
  6
CONTINUOUS
 62
     7
 10
-346.4681087873
 20
978.1074407051
 30
0.0
  0
SEQEND
  5
22D
  8
0
  6
CONTINUOUS
 62
     7
  0
ARC
  5
78
  8
0
  6
CONTINUOUS
 62
     7
 10
-353.3916348635
 20
981.5496879713
 30
0.0
 40
7.732029459982217
 50
333.5642969752
 51
347.4659633818
  0
POLYLINE
  5
79
  8
0
  6
CONTINUOUS
 62
     7
 66
     1
 10
0.0
 20
0.0
 30
0.0
  0
VERTEX
  5
238
  8
0
  6
CONTINUOUS
 62
     7
 10
637.0597552577
 20
978.1074407051
 30
0.0
  0
VERTEX
  5
239
  8
0
  6
CONTINUOUS
 62
     7
 10
636.7212011974
 20
978.5126407368
 30
0.0
  0
VERTEX
  5
23A
  8
0
  6
CONTINUOUS
 62
     7
 10
636.4821864749
 20
978.8816542796
 30
0.0
  0
VERTEX
  5
23B
  8
0
  6
CONTINUOUS
 62
     7
 10
636.3427110902
 20
979.2042215019
 30
0.0
  0
VERTEX
  5
23C
  8
0
  6
CONTINUOUS
 62
     7
 10
636.298522232
 20
979.4963063301
 30
0.0
  0
VERTEX
  5
23D
  8
0
  6
CONTINUOUS
 62
     7
 10
636.3468462957
 20
979.7518711218
 30
0.0
  0
VERTEX
  5
23E
  8
0
  6
CONTINUOUS
 62
     7
 10
636.4898264878
 20
979.9450490527
 30
0.0
  0
VERTEX
  5
23F
  8
0
  6
CONTINUOUS
 62
     7
 10
636.7274628085
 20
980.0660010176
 30
0.0
  0
VERTEX
  5
240
  8
0
  6
CONTINUOUS
 62
     7
 10
637.0597552577
 20
980.1074413239
 30
0.0
  0
SEQEND
  5
237
  8
0
  6
CONTINUOUS
 62
     7
  0
ARC
  5
7A
  8
0
  6
CONTINUOUS
 62
     7
 10
643.9832813321
 20
981.5496879704
 30
0.0
 40
7.732029457902176
 50
192.534036613
 51
206.4357030247
  0
POLYLINE
  5
7B
  8
0
  6
CONTINUOUS
 62
     7
 66
     1
 10
0.0
 20
0.0
 30
0.0
  0
VERTEX
  5
242
  8
0
  6
CONTINUOUS
 62
     7
 10
-346.4681087873
 20
-789.8925592949
 30
0.0
  0
VERTEX
  5
243
  8
0
  6
CONTINUOUS
 62
     7
 10
-346.1295547268
 20
-790.2977593268
 30
0.0
  0
VERTEX
  5
244
  8
0
  6
CONTINUOUS
 62
     7
 10
-345.8905400043
 20
-790.6667728696
 30
0.0
  0
VERTEX
  5
245
  8
0
  6
CONTINUOUS
 62
     7
 10
-345.7510646197
 20
-790.9893400918
 30
0.0
  0
VERTEX
  5
246
  8
0
  6
CONTINUOUS
 62
     7
 10
-345.7068757615
 20
-791.2814249198
 30
0.0
  0
VERTEX
  5
247
  8
0
  6
CONTINUOUS
 62
     7
 10
-345.7551998252
 20
-791.5369897115
 30
0.0
  0
VERTEX
  5
248
  8
0
  6
CONTINUOUS
 62
     7
 10
-345.8981800174
 20
-791.7301676424
 30
0.0
  0
VERTEX
  5
249
  8
0
  6
CONTINUOUS
 62
     7
 10
-346.1358163381
 20
-791.8511196073
 30
0.0
  0
VERTEX
  5
24A
  8
0
  6
CONTINUOUS
 62
     7
 10
-346.4681087873
 20
-791.8925599137
 30
0.0
  0
SEQEND
  5
241
  8
0
  6
CONTINUOUS
 62
     7
  0
POLYLINE
  5
7C
  8
0
  6
CONTINUOUS
 62
     7
 66
     1
 10
0.0
 20
0.0
 30
0.0
  0
VERTEX
  5
24C
  8
0
  6
CONTINUOUS
 62
     7
 10
637.2958232352
 20
-789.6564913174
 30
0.0
  0
VERTEX
  5
24D
  8
0
  6
CONTINUOUS
 62
     7
 10
637.7008466078
 20
-789.324198866
 30
0.0
  0
VERTEX
  5
24E
  8
0
  6
CONTINUOUS
 62
     7
 10
638.0852520574
 20
-789.0865625446
 30
0.0
  0
VERTEX
  5
24F
  8
0
  6
CONTINUOUS
 62
     7
 10
638.4341776299
 20
-788.943582353
 30
0.0
  0
VERTEX
  5
250
  8
0
  6
CONTINUOUS
 62
     7
 10
638.7349390028
 20
-788.8952582914
 30
0.0
  0
VERTEX
  5
251
  8
0
  6
CONTINUOUS
 62
     7
 10
638.9682686327
 20
-788.9394471526
 30
0.0
  0
VERTEX
  5
252
  8
0
  6
CONTINUOUS
 62
     7
 10
639.1398934337
 20
-789.0789225384
 30
0.0
  0
VERTEX
  5
253
  8
0
  6
CONTINUOUS
 62
     7
 10
639.2543467511
 20
-789.31793726
 30
0.0
  0
VERTEX
  5
254
  8
0
  6
CONTINUOUS
 62
     7
 10
639.2958235796
 20
-789.6564913174
 30
0.0
  0
SEQEND
  5
24B
  8
0
  6
CONTINUOUS
 62
     7
  0
POLYLINE
  5
7D
  8
0
  6
CONTINUOUS
 62
     7
 66
     1
 10
0.0
 20
0.0
 30
0.0
  0
VERTEX
  5
256
  8
0
  6
CONTINUOUS
 62
     7
 10
639.2958235796
 20
977.8713727276
 30
0.0
  0
VERTEX
  5
257
  8
0
  6
CONTINUOUS
 62
     7
 10
639.254346751
 20
977.5328186698
 30
0.0
  0
VERTEX
  5
258
  8
0
  6
CONTINUOUS
 62
     7
 10
639.1398934335
 20
977.2938039481
 30
0.0
  0
VERTEX
  5
259
  8
0
  6
CONTINUOUS
 62
     7
 10
638.9682686326
 20
977.1543285626
 30
0.0
  0
VERTEX
  5
25A
  8
0
  6
CONTINUOUS
 62
     7
 10
638.7349390026
 20
977.110139702
 30
0.0
  0
VERTEX
  5
25B
  8
0
  6
CONTINUOUS
 62
     7
 10
638.4341776294
 20
977.158463764
 30
0.0
  0
VERTEX
  5
25C
  8
0
  6
CONTINUOUS
 62
     7
 10
638.0852520569
 20
977.3014439556
 30
0.0
  0
VERTEX
  5
25D
  8
0
  6
CONTINUOUS
 62
     7
 10
637.7008466074
 20
977.5390802768
 30
0.0
  0
VERTEX
  5
25E
  8
0
  6
CONTINUOUS
 62
     7
 10
637.2958232352
 20
977.8713727276
 30
0.0
  0
SEQEND
  5
255
  8
0
  6
CONTINUOUS
 62
     7
  0
ARC
  5
7E
  8
0
  6
CONTINUOUS
 62
     7
 10
640.6348478716
 20
984.6995584165
 30
0.0
 40
7.60086872168108
 50
243.9410834979
 51
258.3039467174
  0
ARC
  5
7F
  8
0
  6
CONTINUOUS
 62
     7
 10
640.634847872
 20
-796.4846770014
 30
0.0
 40
7.60086871752601
 50
101.6960532986
 51
116.0589165208
  0
ARC
  5
80
  8
0
  6
CONTINUOUS
 62
     7
 10
-348.7041767648
 20
-791.8925592949
 30
0.0
 40
3.00000000000002
 50
41.8103148958
 51
48.1896851042
  0
ARC
  5
81
  8
0
  6
CONTINUOUS
 62
     7
 10
-348.7041767648
 20
980.1074407051
 30
0.0
 40
3.000000000000067
 50
311.8103148958
 51
318.1896851042
  0
ARC
  5
82
  8
0
  6
CONTINUOUS
 62
     7
 10
639.2958232352
 20
980.1074407051
 30
0.0
 40
3.000000000000105
 50
221.8103148958
 51
228.1896851042
  0
ARC
  5
83
  8
0
  6
CONTINUOUS
 62
     7
 10
639.2958232352
 20
-791.8925592949
 30
0.0
 40
3.000000000000038
 50
131.8103148958
 51
138.1896851042
  0
CIRCLE
  5
84
  8
0
  6
CONTINUOUS
 62
     7
 10
541.2958232352
 20
-693.8925592949
 30
0.0
 40
3.500000000000051
  0
CIRCLE
  5
85
  8
0
  6
CONTINUOUS
 62
     7
 10
541.2958232352
 20
-693.8925592949
 30
0.0
 40
4.000000000000042
  0
CIRCLE
  5
86
  8
0
  6
CONTINUOUS
 62
     7
 10
541.2958232352
 20
-693.8925592949
 30
0.0
 40
5.000000000000024
  0
LINE
  5
87
  8
0
  6
HIDDEN
 62
     7
 10
-339.4541767648
 20
-793.8925592949
 30
0.0
 11
-339.4541767648
 21
-791.8925592948
 31
0.0
  0
LINE
  5
88
  8
0
  6
HIDDEN
 62
     7
 10
-339.4541767648
 20
-793.8925592949
 30
0.0
 11
-339.4541767648
 21
-791.8925592948
 31
0.0
  0
LINE
  5
89
  8
0
  6
HIDDEN
 62
     7
 10
-346.5828564212
 20
-793.8925592949
 30
0.0
 11
-346.5828564212
 21
-791.8925592949
 31
0.0
  0
LINE
  5
8A
  8
0
  6
HIDDEN
 62
     7
 10
630.0458232352
 20
-793.8925592949
 30
0.0
 11
630.0458232352
 21
-791.8925592948
 31
0.0
  0
LINE
  5
8B
  8
0
  6
HIDDEN
 62
     7
 10
630.0458232352
 20
982.1074407051
 30
0.0
 11
630.0458232352
 21
980.1074407051
 31
0.0
  0
LINE
  5
8C
  8
0
  6
HIDDEN
 62
     7
 10
637.1745028917
 20
982.1074407051
 30
0.0
 11
637.1745028917
 21
980.1074407051
 31
0.0
  0
LINE
  5
8D
  8
0
  6
HIDDEN
 62
     7
 10
-339.4541767648
 20
982.1074407051
 30
0.0
 11
-339.4541767648
 21
980.1074407051
 31
0.0
  0
LINE
  5
8E
  8
0
  6
HIDDEN
 62
     7
 10
637.1745028917
 20
-791.8925592948
 30
0.0
 11
637.1745028917
 21
-793.8925592949
 31
0.0
  0
LINE
  5
8F
  8
0
  6
HIDDEN
 62
     7
 10
-346.5828564212
 20
980.1074407051
 30
0.0
 11
-346.5828564212
 21
982.1074407051
 31
0.0
  0
LINE
  5
90
  8
0
  6
HIDDEN
 62
     7
 10
-339.4541767648
 20
982.1074407051
 30
0.0
 11
-339.4541767648
 21
980.1074407051
 31
0.0
  0
LINE
  5
91
  8
0
  6
HIDDEN
 62
     7
 10
630.0458232352
 20
982.1074407051
 30
0.0
 11
630.0458232352
 21
980.1074407051
 31
0.0
  0
LINE
  5
92
  8
0
  6
HIDDEN
 62
     7
 10
630.0458232352
 20
-793.8925592949
 30
0.0
 11
630.0458232352
 21
-791.8925592948
 31
0.0
  0
LINE
  5
93
  8
0
  6
HIDDEN
 62
     7
 10
-346.7041767648
 20
-793.8925592949
 30
0.0
 11
-346.7041767648
 21
-791.8925599137
 31
0.0
  0
LINE
  5
94
  8
0
  6
HIDDEN
 62
     7
 10
-346.5828564212
 20
-793.8925592949
 30
0.0
 11
-346.5828564212
 21
-791.8925592949
 31
0.0
  0
LINE
  5
95
  8
0
  6
HIDDEN
 62
     7
 10
-350.7041767648
 20
-789.8925592949
 30
0.0
 11
-348.7041773836
 21
-789.8925592949
 31
0.0
  0
LINE
  5
96
  8
0
  6
HIDDEN
 62
     7
 10
637.2958232352
 20
980.1074413239
 30
0.0
 11
637.2958232352
 21
982.1074407051
 31
0.0
  0
LINE
  5
97
  8
0
  6
HIDDEN
 62
     7
 10
637.1745028917
 20
982.1074407051
 30
0.0
 11
637.1745028917
 21
980.1074407051
 31
0.0
  0
LINE
  5
98
  8
0
  6
HIDDEN
 62
     7
 10
-346.7041767648
 20
982.1074407051
 30
0.0
 11
-346.7041767648
 21
980.1074407051
 31
0.0
  0
LINE
  5
99
  8
0
  6
HIDDEN
 62
     7
 10
-346.5828564212
 20
980.1074407051
 30
0.0
 11
-346.5828564212
 21
982.1074407051
 31
0.0
  0
LINE
  5
9A
  8
0
  6
HIDDEN
 62
     7
 10
639.2958232352
 20
978.1074407051
 30
0.0
 11
641.2958232352
 21
978.1074407051
 31
0.0
  0
LINE
  5
9B
  8
0
  6
HIDDEN
 62
     7
 10
-350.7041767648
 20
978.1074407051
 30
0.0
 11
-348.7041767648
 21
978.1074407051
 31
0.0
  0
LINE
  5
9C
  8
0
  6
HIDDEN
 62
     7
 10
639.295823854
 20
-789.8925592949
 30
0.0
 11
641.2958232352
 21
-789.8925592949
 31
0.0
  0
LINE
  5
9D
  8
0
  6
HIDDEN
 62
     7
 10
637.2958232352
 20
-791.8925592949
 30
0.0
 11
637.2958232352
 21
-793.8925592949
 31
0.0
  0
LINE
  5
9E
  8
0
  6
HIDDEN
 62
     7
 10
637.1745028917
 20
-791.8925592949
 30
0.0
 11
637.1745028917
 21
-793.8925592949
 31
0.0
  0
POLYLINE
  5
9F
  8
0
  6
HIDDEN
 62
     7
 66
     1
 10
0.0
 20
0.0
 30
0.0
  0
VERTEX
  5
260
  8
0
  6
HIDDEN
 62
     7
 10
637.0597552577
 20
-789.8925592949
 30
0.0
  0
VERTEX
  5
261
  8
0
  6
HIDDEN
 62
     7
 10
637.0597552577
 20
-789.8925592949
 30
0.0
  0
SEQEND
  5
25F
  8
0
  6
HIDDEN
 62
     7
  0
POLYLINE
  5
A0
  8
0
  6
HIDDEN
 62
     7
 66
     1
 10
0.0
 20
0.0
 30
0.0
  0
VERTEX
  5
263
  8
0
  6
HIDDEN
 62
     7
 10
637.0597552577
 20
-793.8925599137
 30
0.0
  0
VERTEX
  5
264
  8
0
  6
HIDDEN
 62
     7
 10
636.7274628085
 20
-793.8096793136
 30
0.0
  0
VERTEX
  5
265
  8
0
  6
HIDDEN
 62
     7
 10
636.4898264879
 20
-793.567775421
 30
0.0
  0
VERTEX
  5
266
  8
0
  6
HIDDEN
 62
     7
 10
636.3468462957
 20
-793.181419619
 30
0.0
  0
VERTEX
  5
267
  8
0
  6
HIDDEN
 62
     7
 10
636.298522232
 20
-792.6702901149
 30
0.0
  0
VERTEX
  5
268
  8
0
  6
HIDDEN
 62
     7
 10
636.3427110902
 20
-792.0861205491
 30
0.0
  0
VERTEX
  5
269
  8
0
  6
HIDDEN
 62
     7
 10
636.4355273321
 20
-791.6568050428
 30
0.0
  0
SEQEND
  5
262
  8
0
  6
HIDDEN
 62
     7
  0
LINE
  5
A1
  8
0
  6
HIDDEN
 62
     7
 10
637.0597552577
 20
-793.8925592949
 30
0.0
 11
637.0597552577
 21
-791.8925599137
 31
0.0
  0
POLYLINE
  5
A2
  8
0
  6
HIDDEN
 62
     7
 66
     1
 10
0.0
 20
0.0
 30
0.0
  0
VERTEX
  5
26B
  8
0
  6
HIDDEN
 62
     7
 10
-345.8438808616
 20
-791.656805043
 30
0.0
  0
VERTEX
  5
26C
  8
0
  6
HIDDEN
 62
     7
 10
-345.7510646197
 20
-792.0861205493
 30
0.0
  0
VERTEX
  5
26D
  8
0
  6
HIDDEN
 62
     7
 10
-345.7068757615
 20
-792.6702901151
 30
0.0
  0
VERTEX
  5
26E
  8
0
  6
HIDDEN
 62
     7
 10
-345.7551998252
 20
-793.1814196194
 30
0.0
  0
VERTEX
  5
26F
  8
0
  6
HIDDEN
 62
     7
 10
-345.8981800174
 20
-793.5677754214
 30
0.0
  0
VERTEX
  5
270
  8
0
  6
HIDDEN
 62
     7
 10
-346.1358163381
 20
-793.8096793137
 30
0.0
  0
VERTEX
  5
271
  8
0
  6
HIDDEN
 62
     7
 10
-346.4681087873
 20
-793.8925599137
 30
0.0
  0
SEQEND
  5
26A
  8
0
  6
HIDDEN
 62
     7
  0
POLYLINE
  5
A3
  8
0
  6
HIDDEN
 62
     7
 66
     1
 10
0.0
 20
0.0
 30
0.0
  0
VERTEX
  5
273
  8
0
  6
HIDDEN
 62
     7
 10
-346.7041767648
 20
-789.6564913174
 30
0.0
  0
VERTEX
  5
274
  8
0
  6
HIDDEN
 62
     7
 10
-346.7041767648
 20
-789.6564913174
 30
0.0
  0
SEQEND
  5
272
  8
0
  6
HIDDEN
 62
     7
  0
POLYLINE
  5
A4
  8
0
  6
HIDDEN
 62
     7
 66
     1
 10
0.0
 20
0.0
 30
0.0
  0
VERTEX
  5
276
  8
0
  6
HIDDEN
 62
     7
 10
-350.7041771092
 20
-789.6564913174
 30
0.0
  0
VERTEX
  5
277
  8
0
  6
HIDDEN
 62
     7
 10
-350.6212234595
 20
-789.3179372599
 30
0.0
  0
VERTEX
  5
278
  8
0
  6
HIDDEN
 62
     7
 10
-350.3923168446
 20
-789.0789225383
 30
0.0
  0
VERTEX
  5
279
  8
0
  6
HIDDEN
 62
     7
 10
-350.049067272
 20
-788.9394471525
 30
0.0
  0
VERTEX
  5
27A
  8
0
  6
HIDDEN
 62
     7
 10
-349.5824080525
 20
-788.8952582915
 30
0.0
  0
VERTEX
  5
27B
  8
0
  6
HIDDEN
 62
     7
 10
-348.980885359
 20
-788.9435823533
 30
0.0
  0
VERTEX
  5
27C
  8
0
  6
HIDDEN
 62
     7
 10
-348.5023544882
 20
-789.0416268174
 30
0.0
  0
SEQEND
  5
275
  8
0
  6
HIDDEN
 62
     7
  0
LINE
  5
A5
  8
0
  6
HIDDEN
 62
     7
 10
-350.7041767648
 20
-789.6564913174
 30
0.0
 11
-348.7041771092
 21
-789.6564913174
 31
0.0
  0
POLYLINE
  5
A6
  8
0
  6
HIDDEN
 62
     7
 66
     1
 10
0.0
 20
0.0
 30
0.0
  0
VERTEX
  5
27E
  8
0
  6
HIDDEN
 62
     7
 10
-346.7041767648
 20
977.8713727276
 30
0.0
  0
VERTEX
  5
27F
  8
0
  6
HIDDEN
 62
     7
 10
-346.7041767648
 20
977.8713727276
 30
0.0
  0
SEQEND
  5
27D
  8
0
  6
HIDDEN
 62
     7
  0
POLYLINE
  5
A7
  8
0
  6
HIDDEN
 62
     7
 66
     1
 10
0.0
 20
0.0
 30
0.0
  0
VERTEX
  5
281
  8
0
  6
HIDDEN
 62
     7
 10
-348.5023544875
 20
977.2565082272
 30
0.0
  0
VERTEX
  5
282
  8
0
  6
HIDDEN
 62
     7
 10
-348.980885358
 20
977.1584637633
 30
0.0
  0
VERTEX
  5
283
  8
0
  6
HIDDEN
 62
     7
 10
-349.5824080521
 20
977.1101397016
 30
0.0
  0
VERTEX
  5
284
  8
0
  6
HIDDEN
 62
     7
 10
-350.0490672718
 20
977.1543285628
 30
0.0
  0
VERTEX
  5
285
  8
0
  6
HIDDEN
 62
     7
 10
-350.3923168444
 20
977.2938039487
 30
0.0
  0
VERTEX
  5
286
  8
0
  6
HIDDEN
 62
     7
 10
-350.6212234594
 20
977.5328186703
 30
0.0
  0
VERTEX
  5
287
  8
0
  6
HIDDEN
 62
     7
 10
-350.7041771092
 20
977.8713727276
 30
0.0
  0
SEQEND
  5
280
  8
0
  6
HIDDEN
 62
     7
  0
LINE
  5
A8
  8
0
  6
HIDDEN
 62
     7
 10
-348.7041767648
 20
977.8713727276
 30
0.0
 11
-350.7041767648
 21
977.8713727276
 31
0.0
  0
POLYLINE
  5
A9
  8
0
  6
HIDDEN
 62
     7
 66
     1
 10
0.0
 20
0.0
 30
0.0
  0
VERTEX
  5
289
  8
0
  6
HIDDEN
 62
     7
 10
-346.4681087873
 20
978.1074407051
 30
0.0
  0
VERTEX
  5
28A
  8
0
  6
HIDDEN
 62
     7
 10
-346.4681087873
 20
978.1074407051
 30
0.0
  0
SEQEND
  5
288
  8
0
  6
HIDDEN
 62
     7
  0
POLYLINE
  5
AA
  8
0
  6
HIDDEN
 62
     7
 66
     1
 10
0.0
 20
0.0
 30
0.0
  0
VERTEX
  5
28C
  8
0
  6
HIDDEN
 62
     7
 10
-346.4681087873
 20
982.1074413239
 30
0.0
  0
VERTEX
  5
28D
  8
0
  6
HIDDEN
 62
     7
 10
-346.1358163382
 20
982.0245607241
 30
0.0
  0
VERTEX
  5
28E
  8
0
  6
HIDDEN
 62
     7
 10
-345.8981800176
 20
981.7826568318
 30
0.0
  0
VERTEX
  5
28F
  8
0
  6
HIDDEN
 62
     7
 10
-345.7551998254
 20
981.3963010299
 30
0.0
  0
VERTEX
  5
290
  8
0
  6
HIDDEN
 62
     7
 10
-345.7068757616
 20
980.8851715255
 30
0.0
  0
VERTEX
  5
291
  8
0
  6
HIDDEN
 62
     7
 10
-345.7510646197
 20
980.3010019595
 30
0.0
  0
VERTEX
  5
292
  8
0
  6
HIDDEN
 62
     7
 10
-345.8438808615
 20
979.871686453
 30
0.0
  0
SEQEND
  5
28B
  8
0
  6
HIDDEN
 62
     7
  0
LINE
  5
AB
  8
0
  6
HIDDEN
 62
     7
 10
-346.4681087873
 20
980.1074413239
 30
0.0
 11
-346.4681087873
 21
982.1074407051
 31
0.0
  0
POLYLINE
  5
AC
  8
0
  6
HIDDEN
 62
     7
 66
     1
 10
0.0
 20
0.0
 30
0.0
  0
VERTEX
  5
294
  8
0
  6
HIDDEN
 62
     7
 10
636.435527332
 20
979.8716864532
 30
0.0
  0
VERTEX
  5
295
  8
0
  6
HIDDEN
 62
     7
 10
636.3427110902
 20
980.3010019593
 30
0.0
  0
VERTEX
  5
296
  8
0
  6
HIDDEN
 62
     7
 10
636.298522232
 20
980.8851715254
 30
0.0
  0
VERTEX
  5
297
  8
0
  6
HIDDEN
 62
     7
 10
636.3468462957
 20
981.3963010297
 30
0.0
  0
VERTEX
  5
298
  8
0
  6
HIDDEN
 62
     7
 10
636.4898264878
 20
981.7826568316
 30
0.0
  0
VERTEX
  5
299
  8
0
  6
HIDDEN
 62
     7
 10
636.7274628085
 20
982.024560724
 30
0.0
  0
VERTEX
  5
29A
  8
0
  6
HIDDEN
 62
     7
 10
637.0597552577
 20
982.1074413239
 30
0.0
  0
SEQEND
  5
293
  8
0
  6
HIDDEN
 62
     7
  0
POLYLINE
  5
AD
  8
0
  6
HIDDEN
 62
     7
 66
     1
 10
0.0
 20
0.0
 30
0.0
  0
VERTEX
  5
29C
  8
0
  6
HIDDEN
 62
     7
 10
637.0597552577
 20
978.1074407051
 30
0.0
  0
VERTEX
  5
29D
  8
0
  6
HIDDEN
 62
     7
 10
637.0597552577
 20
978.1074407051
 30
0.0
  0
SEQEND
  5
29B
  8
0
  6
HIDDEN
 62
     7
  0
LINE
  5
AE
  8
0
  6
HIDDEN
 62
     7
 10
637.0597552577
 20
982.1074407051
 30
0.0
 11
637.0597552577
 21
980.1074407051
 31
0.0
  0
POLYLINE
  5
AF
  8
0
  6
HIDDEN
 62
     7
 66
     1
 10
0.0
 20
0.0
 30
0.0
  0
VERTEX
  5
29F
  8
0
  6
HIDDEN
 62
     7
 10
-346.4681087873
 20
-789.8925592949
 30
0.0
  0
VERTEX
  5
2A0
  8
0
  6
HIDDEN
 62
     7
 10
-346.4681087873
 20
-789.8925592949
 30
0.0
  0
SEQEND
  5
29E
  8
0
  6
HIDDEN
 62
     7
  0
LINE
  5
B0
  8
0
  6
HIDDEN
 62
     7
 10
-346.4681087873
 20
-791.8925592949
 30
0.0
 11
-346.4681087873
 21
-793.8925592949
 31
0.0
  0
POLYLINE
  5
B1
  8
0
  6
HIDDEN
 62
     7
 66
     1
 10
0.0
 20
0.0
 30
0.0
  0
VERTEX
  5
2A2
  8
0
  6
HIDDEN
 62
     7
 10
637.2958232352
 20
977.8713727276
 30
0.0
  0
VERTEX
  5
2A3
  8
0
  6
HIDDEN
 62
     7
 10
637.2958232352
 20
977.8713727276
 30
0.0
  0
SEQEND
  5
2A1
  8
0
  6
HIDDEN
 62
     7
  0
POLYLINE
  5
B2
  8
0
  6
HIDDEN
 62
     7
 66
     1
 10
0.0
 20
0.0
 30
0.0
  0
VERTEX
  5
2A5
  8
0
  6
HIDDEN
 62
     7
 10
641.2958235796
 20
977.8713727276
 30
0.0
  0
VERTEX
  5
2A6
  8
0
  6
HIDDEN
 62
     7
 10
641.2128699296
 20
977.5328186698
 30
0.0
  0
VERTEX
  5
2A7
  8
0
  6
HIDDEN
 62
     7
 10
640.9839633142
 20
977.2938039481
 30
0.0
  0
VERTEX
  5
2A8
  8
0
  6
HIDDEN
 62
     7
 10
640.6407137419
 20
977.1543285626
 30
0.0
  0
VERTEX
  5
2A9
  8
0
  6
HIDDEN
 62
     7
 10
640.1740545222
 20
977.110139702
 30
0.0
  0
VERTEX
  5
2AA
  8
0
  6
HIDDEN
 62
     7
 10
639.5725318276
 20
977.158463764
 30
0.0
  0
VERTEX
  5
2AB
  8
0
  6
HIDDEN
 62
     7
 10
639.0940009587
 20
977.2565082276
 30
0.0
  0
SEQEND
  5
2A4
  8
0
  6
HIDDEN
 62
     7
  0
LINE
  5
B3
  8
0
  6
HIDDEN
 62
     7
 10
639.2958235796
 20
977.8713727276
 30
0.0
 11
641.2958232352
 21
977.8713727276
 31
0.0
  0
POLYLINE
  5
B4
  8
0
  6
HIDDEN
 62
     7
 66
     1
 10
0.0
 20
0.0
 30
0.0
  0
VERTEX
  5
2AD
  8
0
  6
HIDDEN
 62
     7
 10
639.0940009579
 20
-789.041626817
 30
0.0
  0
VERTEX
  5
2AE
  8
0
  6
HIDDEN
 62
     7
 10
639.5725318285
 20
-788.943582353
 30
0.0
  0
VERTEX
  5
2AF
  8
0
  6
HIDDEN
 62
     7
 10
640.1740545226
 20
-788.8952582914
 30
0.0
  0
VERTEX
  5
2B0
  8
0
  6
HIDDEN
 62
     7
 10
640.6407137422
 20
-788.9394471526
 30
0.0
  0
VERTEX
  5
2B1
  8
0
  6
HIDDEN
 62
     7
 10
640.9839633147
 20
-789.0789225384
 30
0.0
  0
VERTEX
  5
2B2
  8
0
  6
HIDDEN
 62
     7
 10
641.2128699298
 20
-789.31793726
 30
0.0
  0
VERTEX
  5
2B3
  8
0
  6
HIDDEN
 62
     7
 10
641.2958235796
 20
-789.6564913174
 30
0.0
  0
SEQEND
  5
2AC
  8
0
  6
HIDDEN
 62
     7
  0
POLYLINE
  5
B5
  8
0
  6
HIDDEN
 62
     7
 66
     1
 10
0.0
 20
0.0
 30
0.0
  0
VERTEX
  5
2B5
  8
0
  6
HIDDEN
 62
     7
 10
637.2958232352
 20
-789.6564913174
 30
0.0
  0
VERTEX
  5
2B6
  8
0
  6
HIDDEN
 62
     7
 10
637.2958232352
 20
-789.6564913174
 30
0.0
  0
SEQEND
  5
2B4
  8
0
  6
HIDDEN
 62
     7
  0
LINE
  5
B6
  8
0
  6
HIDDEN
 62
     7
 10
641.2958232352
 20
-789.6564913174
 30
0.0
 11
639.2958232352
 21
-789.6564913174
 31
0.0
  0
LINE
  5
B7
  8
0
  6
HIDDEN
 62
     7
 10
636.2985169919
 20
-791.2784450427
 30
0.0
 11
636.2985169919
 21
-792.6643299783
 31
0.0
  0
LINE
  5
B8
  8
0
  6
HIDDEN
 62
     7
 10
636.2985169919
 20
-792.6643296702
 30
0.0
 11
636.2985169919
 21
-791.2784447204
 31
0.0
  0
LINE
  5
B9
  8
0
  6
HIDDEN
 62
     7
 10
-348.146162096
 20
-788.8952530514
 30
0.0
 11
-349.5881480158
 21
-788.8952530514
 31
0.0
  0
LINE
  5
BA
  8
0
  6
HIDDEN
 62
     7
 10
-349.5881480141
 20
977.1101344616
 30
0.0
 11
-348.1461620951
 21
977.1101344616
 31
0.0
  0
LINE
  5
BB
  8
0
  6
HIDDEN
 62
     7
 10
-345.7068705215
 20
979.4933264528
 30
0.0
 11
-345.7068705215
 21
980.8792113882
 31
0.0
  0
LINE
  5
BC
  8
0
  6
HIDDEN
 62
     7
 10
-345.7068705215
 20
980.8792110802
 30
0.0
 11
-345.7068705215
 21
979.4933261305
 31
0.0
  0
LINE
  5
BD
  8
0
  6
HIDDEN
 62
     7
 10
636.2985169919
 20
980.8792113889
 30
0.0
 11
636.2985169919
 21
979.4933264531
 31
0.0
  0
LINE
  5
BE
  8
0
  6
HIDDEN
 62
     7
 10
-345.7068705214
 20
-792.6643299785
 30
0.0
 11
-345.7068705214
 21
-791.2784450428
 31
0.0
  0
LINE
  5
BF
  8
0
  6
HIDDEN
 62
     7
 10
638.7378085668
 20
977.1101344619
 30
0.0
 11
640.179794487
 21
977.1101344619
 31
0.0
  0
LINE
  5
C0
  8
0
  6
HIDDEN
 62
     7
 10
640.1797944845
 20
-788.8952530513
 30
0.0
 11
638.7378085656
 21
-788.8952530513
 31
0.0
  0
LINE
  5
C1
  8
0
  6
CONTINUOUS
 62
     7
 10
537.2958232352
 20
-929.1441918047
 30
0.0
 11
537.2958232352
 21
-930.1441918047
 31
0.0
  0
LINE
  5
C2
  8
0
  6
CONTINUOUS
 62
     7
 10
545.2958232352
 20
-930.1441918047
 30
0.0
 11
545.2958232352
 21
-929.1441918047
 31
0.0
  0
LINE
  5
C3
  8
0
  6
CONTINUOUS
 62
     7
 10
537.2958232352
 20
-930.1441918047
 30
0.0
 11
537.7958232352
 21
-930.6441918047
 31
0.0
  0
LINE
  5
C4
  8
0
  6
CONTINUOUS
 62
     7
 10
544.7958232352
 20
-930.6441918047
 30
0.0
 11
545.2958232352
 21
-930.1441918047
 31
0.0
  0
LINE
  5
C5
  8
0
  6
CONTINUOUS
 62
     7
 10
620.7958232352
 20
-929.1441918047
 30
0.0
 11
620.7958232352
 21
-919.8941918047
 31
0.0
  0
LINE
  5
C6
  8
0
  6
CONTINUOUS
 62
     7
 10
620.7958232352
 20
-919.8941918047
 30
0.0
 11
630.0458232352
 21
-919.8941918047
 31
0.0
  0
LINE
  5
C7
  8
0
  6
CONTINUOUS
 62
     7
 10
630.0458232352
 20
-919.8941918047
 30
0.0
 11
637.1745028917
 21
-912.7655121483
 31
0.0
  0
ARC
  5
C8
  8
0
  6
CONTINUOUS
 62
     7
 10
639.2958232352
 20
-910.6441918047
 30
0.0
 40
2.999999999999953
 50
225.0
 51
228.1896851042
  0
LINE
  5
C9
  8
0
  6
CONTINUOUS
 62
     7
 10
637.2958232352
 20
-929.1441918047
 30
0.0
 11
620.7958232352
 21
-929.1441918047
 31
0.0
  0
LINE
  5
CA
  8
0
  6
CONTINUOUS
 62
     7
 10
-339.4541767648
 20
-919.8941918047
 30
0.0
 11
-346.5828564212
 21
-912.7655121483
 31
0.0
  0
LINE
  5
CB
  8
0
  6
CONTINUOUS
 62
     7
 10
-330.2041767648
 20
-919.8941918047
 30
0.0
 11
-339.4541767648
 21
-919.8941918047
 31
0.0
  0
LINE
  5
CC
  8
0
  6
CONTINUOUS
 62
     7
 10
-330.2041767648
 20
-919.8941918047
 30
0.0
 11
-330.2041767648
 21
-929.1441918047
 31
0.0
  0
LINE
  5
CD
  8
0
  6
CONTINUOUS
 62
     7
 10
-330.2041767648
 20
-929.1441918047
 30
0.0
 11
-346.7041767648
 21
-929.1441918047
 31
0.0
  0
ARC
  5
CE
  8
0
  6
CONTINUOUS
 62
     7
 10
-348.7041767648
 20
-910.6441918047
 30
0.0
 40
2.999999999999953
 50
311.8103148958
 51
315.0
  0
ARC
  5
CF
  8
0
  6
CONTINUOUS
 62
     7
 10
638.6627580051
 20
-912.9978003003
 30
0.0
 40
0.6438851935248224
 50
308.1012115542
 51
10.5182599339
  0
LINE
  5
D0
  8
0
  6
CONTINUOUS
 62
     7
 10
639.2958232352
 20
-912.8802597822
 30
0.0
 11
641.2958232352
 21
-912.8802597822
 31
0.0
  0
POLYLINE
  5
D1
  8
0
  6
CONTINUOUS
 62
     7
 66
     1
 10
0.0
 20
0.0
 30
0.0
  0
VERTEX
  5
2B8
  8
0
  6
CONTINUOUS
 62
     7
 10
637.2958232352
 20
-912.8802597822
 30
0.0
  0
VERTEX
  5
2B9
  8
0
  6
CONTINUOUS
 62
     7
 10
638.1062231732
 20
-913.2188138426
 30
0.0
  0
VERTEX
  5
2BA
  8
0
  6
CONTINUOUS
 62
     7
 10
638.8442501446
 20
-913.4578285651
 30
0.0
  0
VERTEX
  5
2BB
  8
0
  6
CONTINUOUS
 62
     7
 10
639.4893844895
 20
-913.5973039498
 30
0.0
  0
VERTEX
  5
2BC
  8
0
  6
CONTINUOUS
 62
     7
 10
640.0735540555
 20
-913.641492808
 30
0.0
  0
VERTEX
  5
2BD
  8
0
  6
CONTINUOUS
 62
     7
 10
640.5846835598
 20
-913.5931687443
 30
0.0
  0
VERTEX
  5
2BE
  8
0
  6
CONTINUOUS
 62
     7
 10
640.9710393617
 20
-913.4501885522
 30
0.0
  0
VERTEX
  5
2BF
  8
0
  6
CONTINUOUS
 62
     7
 10
641.2129432541
 20
-913.2125522315
 30
0.0
  0
VERTEX
  5
2C0
  8
0
  6
CONTINUOUS
 62
     7
 10
641.295823854
 20
-912.8802597822
 30
0.0
  0
SEQEND
  5
2B7
  8
0
  6
CONTINUOUS
 62
     7
  0
ARC
  5
D2
  8
0
  6
CONTINUOUS
 62
     7
 10
-346.348705598
 20
-911.317944031
 30
0.0
 40
0.6842514288148165
 50
43.6065929957
 51
100.0496743374
  0
LINE
  5
D3
  8
0
  6
CONTINUOUS
 62
     7
 10
-346.4681087873
 20
-910.6441918047
 30
0.0
 11
-346.4681087873
 21
-908.6441918047
 31
0.0
  0
POLYLINE
  5
D4
  8
0
  6
CONTINUOUS
 62
     7
 66
     1
 10
0.0
 20
0.0
 30
0.0
  0
VERTEX
  5
2C2
  8
0
  6
CONTINUOUS
 62
     7
 10
-346.4681087873
 20
-912.6441918047
 30
0.0
  0
VERTEX
  5
2C3
  8
0
  6
CONTINUOUS
 62
     7
 10
-346.1358163382
 20
-911.8341450729
 30
0.0
  0
VERTEX
  5
2C4
  8
0
  6
CONTINUOUS
 62
     7
 10
-345.8981800176
 20
-911.0653341884
 30
0.0
  0
VERTEX
  5
2C5
  8
0
  6
CONTINUOUS
 62
     7
 10
-345.7551998254
 20
-910.3674830586
 30
0.0
  0
VERTEX
  5
2C6
  8
0
  6
CONTINUOUS
 62
     7
 10
-345.7068757616
 20
-909.7659603269
 30
0.0
  0
VERTEX
  5
2C7
  8
0
  6
CONTINUOUS
 62
     7
 10
-345.7510646197
 20
-909.299301078
 30
0.0
  0
VERTEX
  5
2C8
  8
0
  6
CONTINUOUS
 62
     7
 10
-345.8905400042
 20
-908.95605148
 30
0.0
  0
VERTEX
  5
2C9
  8
0
  6
CONTINUOUS
 62
     7
 10
-346.1295547267
 20
-908.7271448443
 30
0.0
  0
VERTEX
  5
2CA
  8
0
  6
CONTINUOUS
 62
     7
 10
-346.4681087873
 20
-908.6441911859
 30
0.0
  0
SEQEND
  5
2C1
  8
0
  6
CONTINUOUS
 62
     7
  0
LINE
  5
D5
  8
0
  6
CONTINUOUS
 62
     7
 10
637.1745028917
 20
-912.7655121483
 30
0.0
 11
630.0458232352
 21
-919.8941918047
 31
0.0
  0
LINE
  5
D6
  8
0
  6
CONTINUOUS
 62
     7
 10
630.0458232352
 20
-919.8941918047
 30
0.0
 11
620.7958232352
 21
-919.8941918047
 31
0.0
  0
LINE
  5
D7
  8
0
  6
CONTINUOUS
 62
     7
 10
620.7958232352
 20
-919.8941918047
 30
0.0
 11
620.7958232352
 21
-929.1441918047
 31
0.0
  0
LINE
  5
D8
  8
0
  6
CONTINUOUS
 62
     7
 10
620.7958232352
 20
-929.1441918047
 30
0.0
 11
-330.2041767648
 21
-929.1441918047
 31
0.0
  0
LINE
  5
D9
  8
0
  6
CONTINUOUS
 62
     7
 10
-330.2041767648
 20
-919.8941918047
 30
0.0
 11
-330.2041767648
 21
-929.1441918047
 31
0.0
  0
LINE
  5
DA
  8
0
  6
CONTINUOUS
 62
     7
 10
-339.4541767648
 20
-919.8941918047
 30
0.0
 11
-330.2041767648
 21
-919.8941918047
 31
0.0
  0
LINE
  5
DB
  8
0
  6
CONTINUOUS
 62
     7
 10
-346.5828564212
 20
-912.7655121483
 30
0.0
 11
-339.4541767648
 21
-919.8941918047
 31
0.0
  0
ARC
  5
DC
  8
0
  6
CONTINUOUS
 62
     7
 10
639.2958232352
 20
-910.6441918047
 30
0.0
 40
3.000000000000123
 50
221.8103148958
 51
225.0
  0
ARC
  5
DD
  8
0
  6
CONTINUOUS
 62
     7
 10
-348.7041767648
 20
-910.6441918047
 30
0.0
 40
2.999999999999953
 50
315.0
 51
318.1896851042
  0
ARC
  5
DE
  8
0
  6
CONTINUOUS
 62
     7
 10
636.9403520686
 20
-911.3179440309
 30
0.0
 40
0.6842514286996138
 50
79.9503256643
 51
136.3934070188
  0
POLYLINE
  5
DF
  8
0
  6
CONTINUOUS
 62
     7
 66
     1
 10
0.0
 20
0.0
 30
0.0
  0
VERTEX
  5
2CC
  8
0
  6
CONTINUOUS
 62
     7
 10
637.0597552577
 20
-908.6441911859
 30
0.0
  0
VERTEX
  5
2CD
  8
0
  6
CONTINUOUS
 62
     7
 10
636.7212011974
 20
-908.7271448442
 30
0.0
  0
VERTEX
  5
2CE
  8
0
  6
CONTINUOUS
 62
     7
 10
636.4821864749
 20
-908.9560514797
 30
0.0
  0
VERTEX
  5
2CF
  8
0
  6
CONTINUOUS
 62
     7
 10
636.3427110902
 20
-909.2993010779
 30
0.0
  0
VERTEX
  5
2D0
  8
0
  6
CONTINUOUS
 62
     7
 10
636.298522232
 20
-909.7659603268
 30
0.0
  0
VERTEX
  5
2D1
  8
0
  6
CONTINUOUS
 62
     7
 10
636.3468462957
 20
-910.3674830583
 30
0.0
  0
VERTEX
  5
2D2
  8
0
  6
CONTINUOUS
 62
     7
 10
636.4898264878
 20
-911.065334188
 30
0.0
  0
VERTEX
  5
2D3
  8
0
  6
CONTINUOUS
 62
     7
 10
636.7274628085
 20
-911.8341450726
 30
0.0
  0
VERTEX
  5
2D4
  8
0
  6
CONTINUOUS
 62
     7
 10
637.0597552577
 20
-912.6441918047
 30
0.0
  0
SEQEND
  5
2CB
  8
0
  6
CONTINUOUS
 62
     7
  0
LINE
  5
E0
  8
0
  6
CONTINUOUS
 62
     7
 10
637.0597552577
 20
-908.6441918047
 30
0.0
 11
637.0597552577
 21
-910.6441911859
 31
0.0
  0
LINE
  5
E1
  8
0
  6
CONTINUOUS
 62
     7
 10
-346.7041767648
 20
-929.1441918047
 30
0.0
 11
-350.7041767648
 21
-929.1441918047
 31
0.0
  0
LINE
  5
E2
  8
0
  6
CONTINUOUS
 62
     7
 10
-350.7041767648
 20
-912.8802597822
 30
0.0
 11
-350.7041767648
 21
-929.1441918047
 31
0.0
  0
POLYLINE
  5
E3
  8
0
  6
CONTINUOUS
 62
     7
 66
     1
 10
0.0
 20
0.0
 30
0.0
  0
VERTEX
  5
2D6
  8
0
  6
CONTINUOUS
 62
     7
 10
-350.7041773836
 20
-912.8802597822
 30
0.0
  0
VERTEX
  5
2D7
  8
0
  6
CONTINUOUS
 62
     7
 10
-350.6212967836
 20
-913.2125522315
 30
0.0
  0
VERTEX
  5
2D8
  8
0
  6
CONTINUOUS
 62
     7
 10
-350.3793928912
 20
-913.4501885522
 30
0.0
  0
VERTEX
  5
2D9
  8
0
  6
CONTINUOUS
 62
     7
 10
-349.9930370893
 20
-913.5931687444
 30
0.0
  0
VERTEX
  5
2DA
  8
0
  6
CONTINUOUS
 62
     7
 10
-349.481907585
 20
-913.641492808
 30
0.0
  0
VERTEX
  5
2DB
  8
0
  6
CONTINUOUS
 62
     7
 10
-348.897738019
 20
-913.5973039497
 30
0.0
  0
VERTEX
  5
2DC
  8
0
  6
CONTINUOUS
 62
     7
 10
-348.2526036741
 20
-913.4578285651
 30
0.0
  0
VERTEX
  5
2DD
  8
0
  6
CONTINUOUS
 62
     7
 10
-347.5145767027
 20
-913.2188138426
 30
0.0
  0
VERTEX
  5
2DE
  8
0
  6
CONTINUOUS
 62
     7
 10
-346.7041767648
 20
-912.8802597822
 30
0.0
  0
SEQEND
  5
2D5
  8
0
  6
CONTINUOUS
 62
     7
  0
ARC
  5
E4
  8
0
  6
CONTINUOUS
 62
     7
 10
-348.0711115347
 20
-912.9978003003
 30
0.0
 40
0.6438851935177964
 50
169.4817400651
 51
231.8987884372
  0
LINE
  5
E5
  8
0
  6
CONTINUOUS
 62
     7
 10
-350.7041767648
 20
-912.8802597822
 30
0.0
 11
-348.7041767648
 21
-912.8802597822
 31
0.0
  0
LINE
  5
E6
  8
0
  6
CONTINUOUS
 62
     7
 10
641.2958232352
 20
-929.1441918047
 30
0.0
 11
641.2958232352
 21
-912.8802597822
 31
0.0
  0
LINE
  5
E7
  8
0
  6
CONTINUOUS
 62
     7
 10
641.295823854
 20
-929.1441918047
 30
0.0
 11
637.2958232352
 21
-929.1441918047
 31
0.0
  0
LINE
  5
E8
  8
0
  6
CONTINUOUS
 62
     7
 10
637.0597552577
 20
-908.6441918047
 30
0.0
 11
-346.4681087873
 21
-908.6441918047
 31
0.0
  0
LINE
  5
E9
  8
0
  6
CONTINUOUS
 62
     7
 10
-346.7041767648
 20
-910.6441918047
 30
0.0
 11
-346.7041767648
 21
-908.6441918047
 31
0.0
  0
LINE
  5
EA
  8
0
  6
CONTINUOUS
 62
     7
 10
-346.4681087873
 20
-908.6441918047
 30
0.0
 11
-346.7041767648
 21
-908.6441918047
 31
0.0
  0
LINE
  5
EB
  8
0
  6
CONTINUOUS
 62
     7
 10
-346.4681087873
 20
-910.6441918047
 30
0.0
 11
-346.7041767648
 21
-910.6441918047
 31
0.0
  0
LINE
  5
EC
  8
0
  6
CONTINUOUS
 62
     7
 10
-350.7041767648
 20
-912.6441918047
 30
0.0
 11
-350.7041767648
 21
-912.8802597822
 31
0.0
  0
LINE
  5
ED
  8
0
  6
CONTINUOUS
 62
     7
 10
-348.7041767648
 20
-912.6441918047
 30
0.0
 11
-350.7041767648
 21
-912.6441918047
 31
0.0
  0
LINE
  5
EE
  8
0
  6
CONTINUOUS
 62
     7
 10
-348.7041767648
 20
-912.6441918047
 30
0.0
 11
-348.7041767648
 21
-912.8802597822
 31
0.0
  0
LINE
  5
EF
  8
0
  6
CONTINUOUS
 62
     7
 10
637.2958232352
 20
-910.6441918047
 30
0.0
 11
637.2958232352
 21
-908.6441918047
 31
0.0
  0
LINE
  5
F0
  8
0
  6
CONTINUOUS
 62
     7
 10
637.0597552577
 20
-908.6441918047
 30
0.0
 11
637.2958232352
 21
-908.6441918047
 31
0.0
  0
LINE
  5
F1
  8
0
  6
CONTINUOUS
 62
     7
 10
637.0597552577
 20
-910.6441918047
 30
0.0
 11
637.2958232352
 21
-910.6441918047
 31
0.0
  0
LINE
  5
F2
  8
0
  6
CONTINUOUS
 62
     7
 10
639.2958235796
 20
-912.6441918047
 30
0.0
 11
641.2958232352
 21
-912.6441918047
 31
0.0
  0
LINE
  5
F3
  8
0
  6
CONTINUOUS
 62
     7
 10
639.2958232352
 20
-912.6441918047
 30
0.0
 11
639.2958232352
 21
-912.8802597822
 31
0.0
  0
LINE
  5
F4
  8
0
  6
CONTINUOUS
 62
     7
 10
641.2958232352
 20
-912.6441918047
 30
0.0
 11
641.2958232352
 21
-912.8802597822
 31
0.0
  0
ARC
  5
F5
  8
0
  6
CONTINUOUS
 62
     7
 10
-346.7041767648
 20
-912.6441918047
 30
0.0
 40
4.000000344396483
 50
90.0
 51
180.0
  0
ARC
  5
F6
  8
0
  6
CONTINUOUS
 62
     7
 10
-346.7041767648
 20
-912.6441918047
 30
0.0
 40
2.00000034439654
 50
90.0
 51
180.0
  0
ARC
  5
F7
  8
0
  6
CONTINUOUS
 62
     7
 10
637.2958232352
 20
-912.6441918047
 30
0.0
 40
2.000000344396653
 50
0.0
 51
90.0
  0
ARC
  5
F8
  8
0
  6
CONTINUOUS
 62
     7
 10
637.2958232352
 20
-912.6441918047
 30
0.0
 40
4.000000344396653
 50
0.0
 51
90.0
  0
LINE
  5
F9
  8
0
  6
CONTINUOUS
 62
     7
 10
-348.252603674
 20
-913.457828565
 30
0.0
 11
-348.4684225129
 21
-913.5044877079
 31
0.0
  0
ARC
  5
FA
  8
0
  6
CONTINUOUS
 62
     7
 10
-353.2962956498
 20
-909.3051668821
 30
0.0
 40
7.600869901793275
 50
333.9410854459
 51
348.3039480784
  0
LINE
  5
FB
  8
0
  6
CONTINUOUS
 62
     7
 10
541.2944287901
 20
-930.1441918047
 30
0.0
 11
545.2958232352
 21
-930.1441918047
 31
0.0
  0
LINE
  5
FC
  8
0
  6
CONTINUOUS
 62
     7
 10
537.2958232352
 20
-930.1441918047
 30
0.0
 11
541.2944287901
 21
-930.1441918047
 31
0.0
  0
LINE
  5
FD
  8
0
  6
CONTINUOUS
 62
     7
 10
541.2946030958
 20
-930.6441918047
 30
0.0
 11
544.7958232352
 21
-930.6441918047
 31
0.0
  0
LINE
  5
FE
  8
0
  6
CONTINUOUS
 62
     7
 10
537.7958232352
 20
-930.6441918047
 30
0.0
 11
541.2946030958
 21
-930.6441918047
 31
0.0
  0
ARC
  5
FF
  8
0
  6
HIDDEN
 62
     7
 10
-311.7041767648
 20
-910.1441918047
 30
0.0
 40
7.516648189186462
 50
183.8140748343
 51
356.1859251657
  0
ARC
  5
100
  8
0
  6
HIDDEN
 62
     7
 10
602.2958232352
 20
-910.1441918047
 30
0.0
 40
7.516648189186575
 50
183.8140748343
 51
356.1859251657
  0
POLYLINE
  5
101
  8
0
  6
HIDDEN
 62
     7
 66
     1
 10
0.0
 20
0.0
 30
0.0
  0
VERTEX
  5
2E0
  8
0
  6
HIDDEN
 62
     7
 10
637.2958232352
 20
-912.8802597822
 30
0.0
  0
VERTEX
  5
2E1
  8
0
  6
HIDDEN
 62
     7
 10
637.2958232352
 20
-912.8802597822
 30
0.0
  0
SEQEND
  5
2DF
  8
0
  6
HIDDEN
 62
     7
  0
ARC
  5
102
  8
0
  6
HIDDEN
 62
     7
 10
638.7386490533
 20
-913.2064560218
 30
0.0
 40
0.4383305344172823
 50
262.7196674471
 51
317.1622535256
  0
POLYLINE
  5
103
  8
0
  6
HIDDEN
 62
     7
 66
     1
 10
0.0
 20
0.0
 30
0.0
  0
VERTEX
  5
2E3
  8
0
  6
HIDDEN
 62
     7
 10
-345.7071158084
 20
-911.2038083281
 30
0.0
  0
VERTEX
  5
2E4
  8
0
  6
HIDDEN
 62
     7
 10
-345.7510646197
 20
-910.9717461827
 30
0.0
  0
VERTEX
  5
2E5
  8
0
  6
HIDDEN
 62
     7
 10
-345.8532442686
 20
-910.8460138573
 30
0.0
  0
SEQEND
  5
2E2
  8
0
  6
HIDDEN
 62
     7
  0
POLYLINE
  5
104
  8
0
  6
HIDDEN
 62
     7
 66
     1
 10
0.0
 20
0.0
 30
0.0
  0
VERTEX
  5
2E7
  8
0
  6
HIDDEN
 62
     7
 10
-346.4681087873
 20
-912.6441918047
 30
0.0
  0
VERTEX
  5
2E8
  8
0
  6
HIDDEN
 62
     7
 10
-346.4681087873
 20
-912.6441918047
 30
0.0
  0
SEQEND
  5
2E6
  8
0
  6
HIDDEN
 62
     7
  0
POLYLINE
  5
105
  8
0
  6
HIDDEN
 62
     7
 66
     1
 10
0.0
 20
0.0
 30
0.0
  0
VERTEX
  5
2EA
  8
0
  6
HIDDEN
 62
     7
 10
636.4448907391
 20
-910.8460138574
 30
0.0
  0
VERTEX
  5
2EB
  8
0
  6
HIDDEN
 62
     7
 10
636.3427110902
 20
-910.9717461826
 30
0.0
  0
VERTEX
  5
2EC
  8
0
  6
HIDDEN
 62
     7
 10
636.2987622788
 20
-911.2038083282
 30
0.0
  0
SEQEND
  5
2E9
  8
0
  6
HIDDEN
 62
     7
  0
POLYLINE
  5
106
  8
0
  6
HIDDEN
 62
     7
 66
     1
 10
0.0
 20
0.0
 30
0.0
  0
VERTEX
  5
2EE
  8
0
  6
HIDDEN
 62
     7
 10
637.0597552577
 20
-912.6441918047
 30
0.0
  0
VERTEX
  5
2EF
  8
0
  6
HIDDEN
 62
     7
 10
637.0597552577
 20
-912.6441918047
 30
0.0
  0
SEQEND
  5
2ED
  8
0
  6
HIDDEN
 62
     7
  0
ARC
  5
107
  8
0
  6
HIDDEN
 62
     7
 10
-348.1470025828
 20
-913.2064560217
 30
0.0
 40
0.4383305344671611
 50
222.8377464667
 51
277.280332552
  0
POLYLINE
  5
108
  8
0
  6
HIDDEN
 62
     7
 66
     1
 10
0.0
 20
0.0
 30
0.0
  0
VERTEX
  5
2F1
  8
0
  6
HIDDEN
 62
     7
 10
-346.7041767648
 20
-912.8802597822
 30
0.0
  0
VERTEX
  5
2F2
  8
0
  6
HIDDEN
 62
     7
 10
-346.7041767648
 20
-912.8802597822
 30
0.0
  0
SEQEND
  5
2F0
  8
0
  6
HIDDEN
 62
     7
  0
LINE
  5
109
  8
0
  6
HIDDEN
 62
     7
 10
639.2958232352
 20
-929.1441918047
 30
0.0
 11
639.2958232352
 21
-912.8802597822
 31
0.0
  0
LINE
  5
10A
  8
0
  6
HIDDEN
 62
     7
 10
637.0597552577
 20
-910.6441918047
 30
0.0
 11
-346.4681087873
 21
-910.6441918047
 31
0.0
  0
LINE
  5
10B
  8
0
  6
HIDDEN
 62
     7
 10
-348.7041767648
 20
-912.8802597822
 30
0.0
 11
-348.7041767648
 21
-929.1441918047
 31
0.0
  0
LINE
  5
10C
  8
0
  6
HIDDEN
 62
     7
 10
-325.1873377986
 20
-913.1477252914
 30
0.0
 11
-334.221015731
 21
-913.1477252914
 31
0.0
  0
LINE
  5
10D
  8
0
  6
HIDDEN
 62
     7
 10
615.778984269
 20
-913.1477252914
 30
0.0
 11
624.8126622014
 21
-913.1477252914
 31
0.0
  0
LINE
  5
10E
  8
0
  6
HIDDEN
 62
     7
 10
617.2958232352
 20
-911.8441918048
 30
0.0
 11
623.2958232352
 21
-911.8441918048
 31
0.0
  0
LINE
  5
10F
  8
0
  6
HIDDEN
 62
     7
 10
-326.7041767648
 20
-911.8441918048
 30
0.0
 11
-332.7041767648
 21
-911.8441918048
 31
0.0
  0
POLYLINE
  5
110
  8
0
  6
HIDDEN
 62
     7
 66
     1
 10
0.0
 20
0.0
 30
0.0
  0
VERTEX
  5
2F4
  8
0
  6
HIDDEN
 62
     7
 10
-346.7041767648
 20
-912.8802597822
 30
0.0
  0
VERTEX
  5
2F5
  8
0
  6
HIDDEN
 62
     7
 10
-347.5145767026
 20
-913.2188138425
 30
0.0
  0
VERTEX
  5
2F6
  8
0
  6
HIDDEN
 62
     7
 10
-348.252603674
 20
-913.457828565
 30
0.0
  0
SEQEND
  5
2F3
  8
0
  6
HIDDEN
 62
     7
  0
POLYLINE
  5
111
  8
0
  6
HIDDEN
 62
     7
 66
     1
 10
0.0
 20
0.0
 30
0.0
  0
VERTEX
  5
2F8
  8
0
  6
HIDDEN
 62
     7
 10
-348.4684225129
 20
-913.5044877079
 30
0.0
  0
VERTEX
  5
2F9
  8
0
  6
HIDDEN
 62
     7
 10
-348.8977380189
 20
-913.5973039497
 30
0.0
  0
VERTEX
  5
2FA
  8
0
  6
HIDDEN
 62
     7
 10
-349.4754382671
 20
-913.6410034437
 30
0.0
  0
SEQEND
  5
2F7
  8
0
  6
HIDDEN
 62
     7
  0
POLYLINE
  5
112
  8
0
  6
HIDDEN
 62
     7
 66
     1
 10
0.0
 20
0.0
 30
0.0
  0
VERTEX
  5
2FC
  8
0
  6
HIDDEN
 62
     7
 10
-346.7041767648
 20
-912.8802597822
 30
0.0
  0
VERTEX
  5
2FD
  8
0
  6
HIDDEN
 62
     7
 10
-346.7041767648
 20
-912.8802597822
 30
0.0
  0
SEQEND
  5
2FB
  8
0
  6
HIDDEN
 62
     7
  0
POLYLINE
  5
113
  8
0
  6
HIDDEN
 62
     7
 66
     1
 10
0.0
 20
0.0
 30
0.0
  0
VERTEX
  5
2FF
  8
0
  6
HIDDEN
 62
     7
 10
-346.4681087873
 20
-908.6441911859
 30
0.0
  0
VERTEX
  5
300
  8
0
  6
HIDDEN
 62
     7
 10
-346.1295547268
 20
-908.7271448443
 30
0.0
  0
VERTEX
  5
301
  8
0
  6
HIDDEN
 62
     7
 10
-345.8905400043
 20
-908.95605148
 30
0.0
  0
VERTEX
  5
302
  8
0
  6
HIDDEN
 62
     7
 10
-345.7510646197
 20
-909.2993010781
 30
0.0
  0
VERTEX
  5
303
  8
0
  6
HIDDEN
 62
     7
 10
-345.7068757615
 20
-909.7659603268
 30
0.0
  0
VERTEX
  5
304
  8
0
  6
HIDDEN
 62
     7
 10
-345.7551998252
 20
-910.3674830583
 30
0.0
  0
VERTEX
  5
305
  8
0
  6
HIDDEN
 62
     7
 10
-345.8532442686
 20
-910.8460138574
 30
0.0
  0
SEQEND
  5
2FE
  8
0
  6
HIDDEN
 62
     7
  0
LINE
  5
114
  8
0
  6
HIDDEN
 62
     7
 10
636.2990115843
 20
-909.7607924903
 30
0.0
 11
636.3259846165
 21
-909.4759420677
 31
0.0
  0
LINE
  5
115
  8
0
  6
HIDDEN
 62
     7
 10
636.9711030575
 20
-908.6659130472
 30
0.0
 11
637.0597552577
 21
-908.6441911859
 31
0.0
  0
POLYLINE
  5
116
  8
0
  6
HIDDEN
 62
     7
 66
     1
 10
0.0
 20
0.0
 30
0.0
  0
VERTEX
  5
307
  8
0
  6
HIDDEN
 62
     7
 10
-346.4681087873
 20
-912.6441918047
 30
0.0
  0
VERTEX
  5
308
  8
0
  6
HIDDEN
 62
     7
 10
-346.4681087873
 20
-912.6441918047
 30
0.0
  0
SEQEND
  5
306
  8
0
  6
HIDDEN
 62
     7
  0
POLYLINE
  5
117
  8
0
  6
HIDDEN
 62
     7
 66
     1
 10
0.0
 20
0.0
 30
0.0
  0
VERTEX
  5
30A
  8
0
  6
HIDDEN
 62
     7
 10
637.0597552577
 20
-912.6441918047
 30
0.0
  0
VERTEX
  5
30B
  8
0
  6
HIDDEN
 62
     7
 10
637.0597552577
 20
-912.6441918047
 30
0.0
  0
SEQEND
  5
309
  8
0
  6
HIDDEN
 62
     7
  0
POLYLINE
  5
118
  8
0
  6
HIDDEN
 62
     7
 66
     1
 10
0.0
 20
0.0
 30
0.0
  0
VERTEX
  5
30D
  8
0
  6
HIDDEN
 62
     7
 10
637.2958232352
 20
-912.8802597822
 30
0.0
  0
VERTEX
  5
30E
  8
0
  6
HIDDEN
 62
     7
 10
637.2958232352
 20
-912.8802597822
 30
0.0
  0
SEQEND
  5
30C
  8
0
  6
HIDDEN
 62
     7
  0
LINE
  5
119
  8
0
  6
HIDDEN
 62
     7
 10
541.2940801788
 20
-911.6441918047
 30
0.0
 11
546.2958232352
 21
-911.6441918047
 31
0.0
  0
LINE
  5
11A
  8
0
  6
HIDDEN
 62
     7
 10
536.2958232352
 20
-911.6441918047
 30
0.0
 11
541.2940801788
 21
-911.6441918047
 31
0.0
  0
LINE
  5
11B
  8
0
  6
HIDDEN
 62
     7
 10
-299.2041767648
 20
-917.6608399939
 30
0.0
 11
589.7958232352
 21
-917.6608399939
 31
0.0
  0
LINE
  5
11C
  8
0
  6
HIDDEN
 62
     7
 10
-311.7041767648
 20
-917.6608399939
 30
0.0
 11
-299.2041767648
 21
-917.6608399939
 31
0.0
  0
LINE
  5
11D
  8
0
  6
HIDDEN
 62
     7
 10
589.7958232352
 20
-917.6608399939
 30
0.0
 11
602.2958232352
 21
-917.6608399939
 31
0.0
  0
LINE
  5
11E
  8
0
  6
HIDDEN
 62
     7
 10
638.6817089833
 20
-913.6414980481
 30
0.0
 11
640.0675939191
 21
-913.6414980481
 31
0.0
  0
LINE
  5
11F
  8
0
  6
HIDDEN
 62
     7
 10
-345.7068705215
 20
-911.2022062717
 30
0.0
 11
-345.7068705215
 21
-909.760220348
 31
0.0
  0
LINE
  5
120
  8
0
  6
HIDDEN
 62
     7
 10
636.2985169919
 20
-909.7602203487
 30
0.0
 11
636.2985169919
 21
-911.2022062721
 31
0.0
  0
LINE
  5
121
  8
0
  6
HIDDEN
 62
     7
 10
-349.4759474487
 20
-913.6414980481
 30
0.0
 11
-348.0900625128
 21
-913.6414980481
 31
0.0
  0
ARC
  5
122
  8
0
  6
HIDDEN
 62
     7
 10
-322.8200601403
 20
-911.1141918048
 30
0.0
 40
0.470000000028449
 50
90.0
 51
139.3250604347
  0
ARC
  5
123
  8
0
  6
HIDDEN
 62
     7
 10
-336.5882933892
 20
-911.1141918048
 30
0.0
 40
0.470000000028449
 50
40.6749395653
 51
90.0
  0
ARC
  5
124
  8
0
  6
HIDDEN
 62
     7
 10
627.1799398597
 20
-911.1141918048
 30
0.0
 40
0.470000000028449
 50
90.0
 51
139.3250604347
  0
ARC
  5
125
  8
0
  6
HIDDEN
 62
     7
 10
613.4117066108
 20
-911.1141918048
 30
0.0
 40
0.470000000028449
 50
40.6749395653
 51
90.0
  0
ARC
  5
126
  8
0
  6
HIDDEN
 62
     7
 10
627.1799398597
 20
-911.1141918048
 30
0.0
 40
2.470000000000027
 50
90.0
 51
139.3250604347
  0
ARC
  5
127
  8
0
  6
HIDDEN
 62
     7
 10
613.4117066108
 20
-911.1141918048
 30
0.0
 40
2.470000000000027
 50
40.6749395653
 51
90.0
  0
ARC
  5
128
  8
0
  6
HIDDEN
 62
     7
 10
-322.8200601403
 20
-911.1141918048
 30
0.0
 40
2.470000000000027
 50
90.0
 51
139.3250604347
  0
ARC
  5
129
  8
0
  6
HIDDEN
 62
     7
 10
-336.5882933892
 20
-911.1141918048
 30
0.0
 40
2.470000000000027
 50
40.6749395653
 51
90.0
  0
LINE
  5
12A
  8
0
  6
HIDDEN
 62
     7
 10
-336.2318362321
 20
-910.8078614355
 30
0.0
 11
-334.221015731
 21
-913.1477252914
 31
0.0
  0
LINE
  5
12B
  8
0
  6
HIDDEN
 62
     7
 10
-325.1873377986
 20
-913.1477252914
 30
0.0
 11
-323.1765172974
 21
-910.8078614355
 31
0.0
  0
LINE
  5
12C
  8
0
  6
HIDDEN
 62
     7
 10
613.7681637679
 20
-910.8078614355
 30
0.0
 11
615.778984269
 21
-913.1477252914
 31
0.0
  0
LINE
  5
12D
  8
0
  6
HIDDEN
 62
     7
 10
624.8126622014
 20
-913.1477252914
 30
0.0
 11
626.8234827026
 21
-910.8078614355
 31
0.0
  0
LINE
  5
12E
  8
0
  6
HIDDEN
 62
     7
 10
615.2850027341
 20
-909.5043279489
 30
0.0
 11
617.2958232352
 21
-911.8441918048
 31
0.0
  0
LINE
  5
12F
  8
0
  6
HIDDEN
 62
     7
 10
623.2958232352
 20
-911.8441918048
 30
0.0
 11
625.3066437364
 21
-909.5043279489
 31
0.0
  0
LINE
  5
130
  8
0
  6
HIDDEN
 62
     7
 10
-334.7149972659
 20
-909.5043279489
 30
0.0
 11
-332.7041767648
 21
-911.8441918048
 31
0.0
  0
LINE
  5
131
  8
0
  6
HIDDEN
 62
     7
 10
-326.7041767648
 20
-911.8441918048
 30
0.0
 11
-324.6933562636
 21
-909.5043279489
 31
0.0
  0
LINE
  5
132
  8
0
  6
HIDDEN
 62
     7
 10
-325.1873377986
 20
-913.1477252914
 30
0.0
 11
-326.7041767648
 21
-911.8441918048
 31
0.0
  0
LINE
  5
133
  8
0
  6
HIDDEN
 62
     7
 10
-332.7041767648
 20
-911.8441918048
 30
0.0
 11
-334.221015731
 21
-913.1477252914
 31
0.0
  0
LINE
  5
134
  8
0
  6
HIDDEN
 62
     7
 10
624.8126622014
 20
-913.1477252914
 30
0.0
 11
623.2958232352
 21
-911.8441918048
 31
0.0
  0
LINE
  5
135
  8
0
  6
HIDDEN
 62
     7
 10
617.2958232352
 20
-911.8441918048
 30
0.0
 11
615.778984269
 21
-913.1477252914
 31
0.0
  0
LINE
  5
136
  8
0
  6
HIDDEN
 62
     7
 10
536.2958232352
 20
-910.6441918047
 30
0.0
 11
536.2958232352
 21
-911.6441918047
 31
0.0
  0
LINE
  5
137
  8
0
  6
HIDDEN
 62
     7
 10
546.2958232352
 20
-911.6441918047
 30
0.0
 11
546.2958232352
 21
-910.6441918047
 31
0.0
  0
LINE
  5
138
  8
0
  6
HIDDEN
 62
     7
 10
537.2958232352
 20
-911.6441918047
 30
0.0
 11
537.2958232352
 21
-929.1441918047
 31
0.0
  0
LINE
  5
139
  8
0
  6
HIDDEN
 62
     7
 10
545.2958232352
 20
-929.1441918047
 30
0.0
 11
545.2958232352
 21
-911.6441918047
 31
0.0
  0
LINE
  5
13A
  8
0
  6
CONTINUOUS
 62
     7
 10
786.8029688833
 20
-697.8925592949
 30
0.0
 11
787.8029688833
 21
-697.8925592949
 31
0.0
  0
LINE
  5
13B
  8
0
  6
CONTINUOUS
 62
     7
 10
787.8029688833
 20
-689.8925592949
 30
0.0
 11
786.8029688833
 21
-689.8925592949
 31
0.0
  0
LINE
  5
13C
  8
0
  6
CONTINUOUS
 62
     7
 10
787.8029688833
 20
-697.8925592949
 30
0.0
 11
788.3029688833
 21
-697.3925592949
 31
0.0
  0
LINE
  5
13D
  8
0
  6
CONTINUOUS
 62
     7
 10
788.3029688833
 20
-690.3925592949
 30
0.0
 11
787.8029688833
 21
-689.8925592949
 31
0.0
  0
LINE
  5
13E
  8
0
  6
CONTINUOUS
 62
     7
 10
786.8029688833
 20
978.1074407051
 30
0.0
 11
786.8029688833
 21
-789.8925592949
 31
0.0
  0
ARC
  5
13F
  8
0
  6
CONTINUOUS
 62
     7
 10
768.3029688833
 20
-791.8925592949
 30
0.0
 40
3.000000000000105
 50
41.8103148958
 51
48.1896851042
  0
ARC
  5
140
  8
0
  6
CONTINUOUS
 62
     7
 10
768.3029688833
 20
980.1074407051
 30
0.0
 40
3.000000000000114
 50
311.8103148958
 51
318.1896851042
  0
LINE
  5
141
  8
0
  6
CONTINUOUS
 62
     7
 10
786.8029688833
 20
982.1074407051
 30
0.0
 11
786.8029688833
 21
978.1074407051
 31
0.0
  0
POLYLINE
  5
142
  8
0
  6
CONTINUOUS
 62
     7
 66
     1
 10
0.0
 20
0.0
 30
0.0
  0
VERTEX
  5
310
  8
0
  6
CONTINUOUS
 62
     7
 10
770.5390368608
 20
978.1074407051
 30
0.0
  0
VERTEX
  5
311
  8
0
  6
CONTINUOUS
 62
     7
 10
770.8713293101
 20
978.9174874373
 30
0.0
  0
VERTEX
  5
312
  8
0
  6
CONTINUOUS
 62
     7
 10
771.1089656308
 20
979.6862983219
 30
0.0
  0
VERTEX
  5
313
  8
0
  6
CONTINUOUS
 62
     7
 10
771.2519458229
 20
980.3841494516
 30
0.0
  0
VERTEX
  5
314
  8
0
  6
CONTINUOUS
 62
     7
 10
771.3002698866
 20
980.9856721831
 30
0.0
  0
VERTEX
  5
315
  8
0
  6
CONTINUOUS
 62
     7
 10
771.2560810283
 20
981.452331432
 30
0.0
  0
VERTEX
  5
316
  8
0
  6
CONTINUOUS
 62
     7
 10
771.1166056437
 20
981.7955810301
 30
0.0
  0
VERTEX
  5
317
  8
0
  6
CONTINUOUS
 62
     7
 10
770.8775909212
 20
982.0244876657
 30
0.0
  0
VERTEX
  5
318
  8
0
  6
CONTINUOUS
 62
     7
 10
770.5390368608
 20
982.1074413239
 30
0.0
  0
SEQEND
  5
30F
  8
0
  6
CONTINUOUS
 62
     7
  0
LINE
  5
143
  8
0
  6
CONTINUOUS
 62
     7
 10
770.5390368608
 20
982.1074407051
 30
0.0
 11
786.8029688833
 21
982.1074407051
 31
0.0
  0
POLYLINE
  5
144
  8
0
  6
CONTINUOUS
 62
     7
 66
     1
 10
0.0
 20
0.0
 30
0.0
  0
VERTEX
  5
31A
  8
0
  6
CONTINUOUS
 62
     7
 10
766.3029685389
 20
977.8713727276
 30
0.0
  0
VERTEX
  5
31B
  8
0
  6
CONTINUOUS
 62
     7
 10
766.3858491329
 20
977.5390802763
 30
0.0
  0
VERTEX
  5
31C
  8
0
  6
CONTINUOUS
 62
     7
 10
766.6277530089
 20
977.3014439548
 30
0.0
  0
VERTEX
  5
31D
  8
0
  6
CONTINUOUS
 62
     7
 10
767.0141087865
 20
977.1584637633
 30
0.0
  0
VERTEX
  5
31E
  8
0
  6
CONTINUOUS
 62
     7
 10
767.5252382607
 20
977.1101397016
 30
0.0
  0
VERTEX
  5
31F
  8
0
  6
CONTINUOUS
 62
     7
 10
768.1094077944
 20
977.1543285628
 30
0.0
  0
VERTEX
  5
320
  8
0
  6
CONTINUOUS
 62
     7
 10
768.7545420983
 20
977.2938039487
 30
0.0
  0
VERTEX
  5
321
  8
0
  6
CONTINUOUS
 62
     7
 10
769.4925690145
 20
977.5328186703
 30
0.0
  0
VERTEX
  5
322
  8
0
  6
CONTINUOUS
 62
     7
 10
770.3029688833
 20
977.8713727276
 30
0.0
  0
SEQEND
  5
319
  8
0
  6
CONTINUOUS
 62
     7
  0
POLYLINE
  5
145
  8
0
  6
CONTINUOUS
 62
     7
 66
     1
 10
0.0
 20
0.0
 30
0.0
  0
VERTEX
  5
324
  8
0
  6
CONTINUOUS
 62
     7
 10
770.3029688833
 20
-789.6564913174
 30
0.0
  0
VERTEX
  5
325
  8
0
  6
CONTINUOUS
 62
     7
 10
769.492569015
 20
-789.3179372599
 30
0.0
  0
VERTEX
  5
326
  8
0
  6
CONTINUOUS
 62
     7
 10
768.754542099
 20
-789.0789225383
 30
0.0
  0
VERTEX
  5
327
  8
0
  6
CONTINUOUS
 62
     7
 10
768.1094077947
 20
-788.9394471525
 30
0.0
  0
VERTEX
  5
328
  8
0
  6
CONTINUOUS
 62
     7
 10
767.5252382611
 20
-788.8952582915
 30
0.0
  0
VERTEX
  5
329
  8
0
  6
CONTINUOUS
 62
     7
 10
767.0141087872
 20
-788.9435823533
 30
0.0
  0
VERTEX
  5
32A
  8
0
  6
CONTINUOUS
 62
     7
 10
766.6277530094
 20
-789.0865625449
 30
0.0
  0
VERTEX
  5
32B
  8
0
  6
CONTINUOUS
 62
     7
 10
766.3858491331
 20
-789.3241988662
 30
0.0
  0
VERTEX
  5
32C
  8
0
  6
CONTINUOUS
 62
     7
 10
766.3029685389
 20
-789.6564913174
 30
0.0
  0
SEQEND
  5
323
  8
0
  6
CONTINUOUS
 62
     7
  0
LINE
  5
146
  8
0
  6
CONTINUOUS
 62
     7
 10
766.3029688833
 20
-789.6564913174
 30
0.0
 11
766.3029688833
 21
977.8713727276
 31
0.0
  0
ARC
  5
147
  8
0
  6
CONTINUOUS
 62
     7
 10
770.65844005
 20
979.4336884789
 30
0.0
 40
0.6842514287226108
 50
43.6065929761
 51
100.0496743321
  0
LINE
  5
148
  8
0
  6
CONTINUOUS
 62
     7
 10
770.5390368608
 20
982.1074407051
 30
0.0
 11
770.5390368608
 21
980.1074407051
 31
0.0
  0
LINE
  5
149
  8
0
  6
CONTINUOUS
 62
     7
 10
768.3029688833
 20
977.8713727276
 30
0.0
 11
766.3029688833
 21
977.8713727276
 31
0.0
  0
ARC
  5
14A
  8
0
  6
CONTINUOUS
 62
     7
 10
768.9360344138
 20
977.7538321958
 30
0.0
 40
0.6438852215587118
 50
169.4817392837
 51
231.8987804496
  0
ARC
  5
14B
  8
0
  6
CONTINUOUS
 62
     7
 10
768.9360344137
 20
-789.5389507859
 30
0.0
 40
0.6438852213875237
 50
128.101219491
 51
190.51826068
  0
LINE
  5
14C
  8
0
  6
CONTINUOUS
 62
     7
 10
766.3029688833
 20
-789.6564913174
 30
0.0
 11
768.3029685389
 21
-789.6564913174
 31
0.0
  0
ARC
  5
14D
  8
0
  6
CONTINUOUS
 62
     7
 10
770.65844005
 20
-791.2188070687
 30
0.0
 40
0.6842514287152585
 50
259.9503256692
 51
316.3934070187
  0
POLYLINE
  5
14E
  8
0
  6
CONTINUOUS
 62
     7
 66
     1
 10
0.0
 20
0.0
 30
0.0
  0
VERTEX
  5
32E
  8
0
  6
CONTINUOUS
 62
     7
 10
770.5390368608
 20
-793.8925599137
 30
0.0
  0
VERTEX
  5
32F
  8
0
  6
CONTINUOUS
 62
     7
 10
770.8775909211
 20
-793.8096062554
 30
0.0
  0
VERTEX
  5
330
  8
0
  6
CONTINUOUS
 62
     7
 10
771.1166056436
 20
-793.5806996199
 30
0.0
  0
VERTEX
  5
331
  8
0
  6
CONTINUOUS
 62
     7
 10
771.2560810283
 20
-793.2374500217
 30
0.0
  0
VERTEX
  5
332
  8
0
  6
CONTINUOUS
 62
     7
 10
771.3002698866
 20
-792.7707907728
 30
0.0
  0
VERTEX
  5
333
  8
0
  6
CONTINUOUS
 62
     7
 10
771.251945823
 20
-792.1692680414
 30
0.0
  0
VERTEX
  5
334
  8
0
  6
CONTINUOUS
 62
     7
 10
771.1089656308
 20
-791.4714169118
 30
0.0
  0
VERTEX
  5
335
  8
0
  6
CONTINUOUS
 62
     7
 10
770.8713293101
 20
-790.7026060271
 30
0.0
  0
VERTEX
  5
336
  8
0
  6
CONTINUOUS
 62
     7
 10
770.5390368608
 20
-789.8925592949
 30
0.0
  0
SEQEND
  5
32D
  8
0
  6
CONTINUOUS
 62
     7
  0
LINE
  5
14F
  8
0
  6
CONTINUOUS
 62
     7
 10
770.5390368608
 20
-793.8925592949
 30
0.0
 11
770.5390368608
 21
-791.8925599137
 31
0.0
  0
LINE
  5
150
  8
0
  6
CONTINUOUS
 62
     7
 10
786.8029688833
 20
-789.8925592949
 30
0.0
 11
786.8029688833
 21
-793.8925592949
 31
0.0
  0
LINE
  5
151
  8
0
  6
CONTINUOUS
 62
     7
 10
770.5390368608
 20
-793.8925592949
 30
0.0
 11
786.8029688833
 21
-793.8925592949
 31
0.0
  0
LINE
  5
152
  8
0
  6
CONTINUOUS
 62
     7
 10
770.4242892269
 20
980.1074407051
 30
0.0
 11
770.4242892269
 21
982.1074407051
 31
0.0
  0
LINE
  5
153
  8
0
  6
CONTINUOUS
 62
     7
 10
770.5390368608
 20
982.1074407051
 30
0.0
 11
770.4242892269
 21
982.1074407051
 31
0.0
  0
LINE
  5
154
  8
0
  6
CONTINUOUS
 62
     7
 10
770.5390368608
 20
980.1074407051
 30
0.0
 11
770.4242892269
 21
980.1074407051
 31
0.0
  0
LINE
  5
155
  8
0
  6
CONTINUOUS
 62
     7
 10
768.3029688833
 20
978.1074407051
 30
0.0
 11
766.3029688833
 21
978.1074407051
 31
0.0
  0
LINE
  5
156
  8
0
  6
CONTINUOUS
 62
     7
 10
766.3029688833
 20
978.1074407051
 30
0.0
 11
766.3029688833
 21
977.8713727276
 31
0.0
  0
LINE
  5
157
  8
0
  6
CONTINUOUS
 62
     7
 10
768.3029688833
 20
978.1074407051
 30
0.0
 11
768.3029688833
 21
977.8713727276
 31
0.0
  0
LINE
  5
158
  8
0
  6
CONTINUOUS
 62
     7
 10
770.4242892269
 20
-793.8925592949
 30
0.0
 11
770.4242892269
 21
-791.8925592949
 31
0.0
  0
LINE
  5
159
  8
0
  6
CONTINUOUS
 62
     7
 10
770.5390368608
 20
-793.8925592949
 30
0.0
 11
770.4242892269
 21
-793.8925592949
 31
0.0
  0
LINE
  5
15A
  8
0
  6
CONTINUOUS
 62
     7
 10
770.5390368608
 20
-791.8925592949
 30
0.0
 11
770.4242892269
 21
-791.8925592949
 31
0.0
  0
LINE
  5
15B
  8
0
  6
CONTINUOUS
 62
     7
 10
768.3029688833
 20
-789.8925592949
 30
0.0
 11
766.3029688833
 21
-789.8925592949
 31
0.0
  0
LINE
  5
15C
  8
0
  6
CONTINUOUS
 62
     7
 10
766.3029688833
 20
-789.8925592949
 30
0.0
 11
766.3029688833
 21
-789.6564913174
 31
0.0
  0
LINE
  5
15D
  8
0
  6
CONTINUOUS
 62
     7
 10
768.3029688833
 20
-789.8925592949
 30
0.0
 11
768.3029688833
 21
-789.6564913174
 31
0.0
  0
LINE
  5
15E
  8
0
  6
CONTINUOUS
 62
     7
 10
770.4242892269
 20
982.1074407051
 30
0.0
 11
770.3029688833
 21
982.1074407051
 31
0.0
  0
LINE
  5
15F
  8
0
  6
CONTINUOUS
 62
     7
 10
770.4242892269
 20
980.1074407051
 30
0.0
 11
770.4242892269
 21
982.1074407051
 31
0.0
  0
LINE
  5
160
  8
0
  6
CONTINUOUS
 62
     7
 10
770.4242892269
 20
980.1074407051
 30
0.0
 11
770.3029688833
 21
980.1074407051
 31
0.0
  0
LINE
  5
161
  8
0
  6
CONTINUOUS
 62
     7
 10
770.3029688833
 20
980.1074413239
 30
0.0
 11
770.3029688833
 21
982.1074407051
 31
0.0
  0
LINE
  5
162
  8
0
  6
CONTINUOUS
 62
     7
 10
770.4242892269
 20
-793.8925592949
 30
0.0
 11
770.4242892269
 21
-791.8925592949
 31
0.0
  0
LINE
  5
163
  8
0
  6
CONTINUOUS
 62
     7
 10
770.4242892269
 20
-793.8925592949
 30
0.0
 11
770.3029688833
 21
-793.8925592949
 31
0.0
  0
LINE
  5
164
  8
0
  6
CONTINUOUS
 62
     7
 10
770.3029688833
 20
-791.8925592949
 30
0.0
 11
770.3029688833
 21
-793.8925592949
 31
0.0
  0
LINE
  5
165
  8
0
  6
CONTINUOUS
 62
     7
 10
770.4242892269
 20
-791.8925592949
 30
0.0
 11
770.3029688833
 21
-791.8925592949
 31
0.0
  0
ARC
  5
166
  8
0
  6
CONTINUOUS
 62
     7
 10
770.3029688833
 20
978.1074407051
 30
0.0
 40
2.000000618793933
 50
90.0
 51
180.0
  0
ARC
  5
167
  8
0
  6
CONTINUOUS
 62
     7
 10
770.3029688833
 20
978.1074407051
 30
0.0
 40
4.00000061879382
 50
90.0
 51
180.0
  0
ARC
  5
168
  8
0
  6
CONTINUOUS
 62
     7
 10
770.3029688833
 20
-789.8925592949
 30
0.0
 40
4.000000618793706
 50
180.0
 51
270.0
  0
ARC
  5
169
  8
0
  6
CONTINUOUS
 62
     7
 10
770.3029688833
 20
-789.8925592949
 30
0.0
 40
2.000000618794047
 50
180.0
 51
270.0
  0
LINE
  5
16A
  8
0
  6
CONTINUOUS
 62
     7
 10
768.5387233476
 20
-789.0322634113
 30
0.0
 11
768.754542098
 21
-789.0789225384
 31
0.0
  0
ARC
  5
16B
  8
0
  6
CONTINUOUS
 62
     7
 10
763.7108499995
 20
-793.231584217
 30
0.0
 40
7.600869900487754
 50
11.696051919
 51
26.0589145546
  0
LINE
  5
16C
  8
0
  6
CONTINUOUS
 62
     7
 10
787.8029688833
 20
-697.8925592949
 30
0.0
 11
787.8029688833
 21
-689.8925595379
 31
0.0
  0
LINE
  5
16D
  8
0
  6
CONTINUOUS
 62
     7
 10
788.3029688833
 20
-697.3925592949
 30
0.0
 11
788.3029688833
 21
-690.3925595075
 31
0.0
  0
ARC
  5
16E
  8
0
  6
HIDDEN
 62
     7
 10
767.8029688833
 20
-760.8925592949
 30
0.0
 40
7.51664818918656
 50
273.8140748343
 51
86.1859251657
  0
ARC
  5
16F
  8
0
  6
HIDDEN
 62
     7
 10
767.8029688833
 20
949.1074407051
 30
0.0
 40
7.51664818918656
 50
273.8140748343
 51
86.1859251657
  0
POLYLINE
  5
170
  8
0
  6
HIDDEN
 62
     7
 66
     1
 10
0.0
 20
0.0
 30
0.0
  0
VERTEX
  5
338
  8
0
  6
HIDDEN
 62
     7
 10
771.3000298398
 20
979.5478241816
 30
0.0
  0
VERTEX
  5
339
  8
0
  6
HIDDEN
 62
     7
 10
771.2560810283
 20
979.7798863273
 30
0.0
  0
VERTEX
  5
33A
  8
0
  6
HIDDEN
 62
     7
 10
771.1539013795
 20
979.9056186525
 30
0.0
  0
SEQEND
  5
337
  8
0
  6
HIDDEN
 62
     7
  0
POLYLINE
  5
171
  8
0
  6
HIDDEN
 62
     7
 66
     1
 10
0.0
 20
0.0
 30
0.0
  0
VERTEX
  5
33C
  8
0
  6
HIDDEN
 62
     7
 10
770.5390368608
 20
978.1074407051
 30
0.0
  0
VERTEX
  5
33D
  8
0
  6
HIDDEN
 62
     7
 10
770.5390368608
 20
978.1074407051
 30
0.0
  0
SEQEND
  5
33B
  8
0
  6
HIDDEN
 62
     7
  0
ARC
  5
172
  8
0
  6
HIDDEN
 62
     7
 10
768.8601432655
 20
977.5451764184
 30
0.0
 40
0.4383304647989804
 50
222.8377389908
 51
277.2803323078
  0
POLYLINE
  5
173
  8
0
  6
HIDDEN
 62
     7
 66
     1
 10
0.0
 20
0.0
 30
0.0
  0
VERTEX
  5
33F
  8
0
  6
HIDDEN
 62
     7
 10
770.3029688833
 20
977.8713727276
 30
0.0
  0
VERTEX
  5
340
  8
0
  6
HIDDEN
 62
     7
 10
770.3029688833
 20
977.8713727276
 30
0.0
  0
SEQEND
  5
33E
  8
0
  6
HIDDEN
 62
     7
  0
ARC
  5
174
  8
0
  6
HIDDEN
 62
     7
 10
768.8601432662
 20
-789.3302950087
 30
0.0
 40
0.43833046517116
 50
82.7196677061
 51
137.1622609764
  0
POLYLINE
  5
175
  8
0
  6
HIDDEN
 62
     7
 66
     1
 10
0.0
 20
0.0
 30
0.0
  0
VERTEX
  5
342
  8
0
  6
HIDDEN
 62
     7
 10
770.3029688833
 20
-789.6564913174
 30
0.0
  0
VERTEX
  5
343
  8
0
  6
HIDDEN
 62
     7
 10
770.3029688833
 20
-789.6564913174
 30
0.0
  0
SEQEND
  5
341
  8
0
  6
HIDDEN
 62
     7
  0
POLYLINE
  5
176
  8
0
  6
HIDDEN
 62
     7
 66
     1
 10
0.0
 20
0.0
 30
0.0
  0
VERTEX
  5
345
  8
0
  6
HIDDEN
 62
     7
 10
771.1539013794
 20
-791.6907372422
 30
0.0
  0
VERTEX
  5
346
  8
0
  6
HIDDEN
 62
     7
 10
771.2560810283
 20
-791.565004917
 30
0.0
  0
VERTEX
  5
347
  8
0
  6
HIDDEN
 62
     7
 10
771.3000298398
 20
-791.3329427713
 30
0.0
  0
SEQEND
  5
344
  8
0
  6
HIDDEN
 62
     7
  0
POLYLINE
  5
177
  8
0
  6
HIDDEN
 62
     7
 66
     1
 10
0.0
 20
0.0
 30
0.0
  0
VERTEX
  5
349
  8
0
  6
HIDDEN
 62
     7
 10
770.5390368608
 20
-789.8925592949
 30
0.0
  0
VERTEX
  5
34A
  8
0
  6
HIDDEN
 62
     7
 10
770.5390368608
 20
-789.8925592949
 30
0.0
  0
SEQEND
  5
348
  8
0
  6
HIDDEN
 62
     7
  0
LINE
  5
178
  8
0
  6
HIDDEN
 62
     7
 10
770.5390368608
 20
-791.8925592949
 30
0.0
 11
786.8029688833
 21
-791.8925592949
 31
0.0
  0
LINE
  5
179
  8
0
  6
HIDDEN
 62
     7
 10
768.3029688833
 20
-789.6564913174
 30
0.0
 11
768.3029688833
 21
977.8713727276
 31
0.0
  0
LINE
  5
17A
  8
0
  6
HIDDEN
 62
     7
 10
770.5390368608
 20
980.1074407051
 30
0.0
 11
786.8029688833
 21
980.1074407051
 31
0.0
  0
LINE
  5
17B
  8
0
  6
HIDDEN
 62
     7
 10
777.5529688833
 20
-793.8925592949
 30
0.0
 11
777.5529688833
 21
-791.8925592948
 31
0.0
  0
LINE
  5
17C
  8
0
  6
HIDDEN
 62
     7
 10
777.5529688833
 20
982.1074407051
 30
0.0
 11
777.5529688833
 21
980.1074407051
 31
0.0
  0
LINE
  5
17D
  8
0
  6
HIDDEN
 62
     7
 10
777.5529688833
 20
982.1074407051
 30
0.0
 11
777.5529688833
 21
980.1074407051
 31
0.0
  0
LINE
  5
17E
  8
0
  6
HIDDEN
 62
     7
 10
777.5529688833
 20
-793.8925592949
 30
0.0
 11
777.5529688833
 21
-791.8925592948
 31
0.0
  0
LINE
  5
17F
  8
0
  6
HIDDEN
 62
     7
 10
770.80650237
 20
86.1074407051
 30
0.0
 11
770.80650237
 21
81.5906017389
 31
0.0
  0
LINE
  5
180
  8
0
  6
HIDDEN
 62
     7
 10
770.80650237
 20
90.6242796713
 30
0.0
 11
770.80650237
 21
86.1074407051
 31
0.0
  0
LINE
  5
181
  8
0
  6
HIDDEN
 62
     7
 10
770.80650237
 20
886.1074407051
 30
0.0
 11
770.80650237
 21
881.5906017389
 31
0.0
  0
LINE
  5
182
  8
0
  6
HIDDEN
 62
     7
 10
770.80650237
 20
890.6242796713
 30
0.0
 11
770.80650237
 21
886.1074407051
 31
0.0
  0
LINE
  5
183
  8
0
  6
HIDDEN
 62
     7
 10
770.80650237
 20
-713.8925592949
 30
0.0
 11
770.80650237
 21
-718.4093982611
 31
0.0
  0
LINE
  5
184
  8
0
  6
HIDDEN
 62
     7
 10
770.80650237
 20
-709.3757203287
 30
0.0
 11
770.80650237
 21
-713.8925592949
 31
0.0
  0
LINE
  5
185
  8
0
  6
HIDDEN
 62
     7
 10
769.5029688834
 20
89.1074407051
 30
0.0
 11
769.5029688834
 21
83.1074407051
 31
0.0
  0
LINE
  5
186
  8
0
  6
HIDDEN
 62
     7
 10
769.5029688834
 20
889.1074407051
 30
0.0
 11
769.5029688834
 21
883.1074407051
 31
0.0
  0
LINE
  5
187
  8
0
  6
HIDDEN
 62
     7
 10
769.5029688834
 20
-710.8925592949
 30
0.0
 11
769.5029688834
 21
-716.8925592949
 31
0.0
  0
POLYLINE
  5
188
  8
0
  6
HIDDEN
 62
     7
 66
     1
 10
0.0
 20
0.0
 30
0.0
  0
VERTEX
  5
34C
  8
0
  6
HIDDEN
 62
     7
 10
770.5390368608
 20
978.1074407051
 30
0.0
  0
VERTEX
  5
34D
  8
0
  6
HIDDEN
 62
     7
 10
770.5390368608
 20
978.1074407051
 30
0.0
  0
SEQEND
  5
34B
  8
0
  6
HIDDEN
 62
     7
  0
POLYLINE
  5
189
  8
0
  6
HIDDEN
 62
     7
 66
     1
 10
0.0
 20
0.0
 30
0.0
  0
VERTEX
  5
34F
  8
0
  6
HIDDEN
 62
     7
 10
767.5317078948
 20
-788.8957476797
 30
0.0
  0
VERTEX
  5
350
  8
0
  6
HIDDEN
 62
     7
 10
768.1094077943
 20
-788.9394471526
 30
0.0
  0
VERTEX
  5
351
  8
0
  6
HIDDEN
 62
     7
 10
768.5387233476
 20
-789.0322634113
 30
0.0
  0
SEQEND
  5
34E
  8
0
  6
HIDDEN
 62
     7
  0
POLYLINE
  5
18A
  8
0
  6
HIDDEN
 62
     7
 66
     1
 10
0.0
 20
0.0
 30
0.0
  0
VERTEX
  5
353
  8
0
  6
HIDDEN
 62
     7
 10
768.754542098
 20
-789.0789225384
 30
0.0
  0
VERTEX
  5
354
  8
0
  6
HIDDEN
 62
     7
 10
769.4925690142
 20
-789.31793726
 30
0.0
  0
VERTEX
  5
355
  8
0
  6
HIDDEN
 62
     7
 10
770.3029688833
 20
-789.6564913174
 30
0.0
  0
SEQEND
  5
352
  8
0
  6
HIDDEN
 62
     7
  0
POLYLINE
  5
18B
  8
0
  6
HIDDEN
 62
     7
 66
     1
 10
0.0
 20
0.0
 30
0.0
  0
VERTEX
  5
357
  8
0
  6
HIDDEN
 62
     7
 10
770.3029688833
 20
977.8713727276
 30
0.0
  0
VERTEX
  5
358
  8
0
  6
HIDDEN
 62
     7
 10
770.3029688833
 20
977.8713727276
 30
0.0
  0
SEQEND
  5
356
  8
0
  6
HIDDEN
 62
     7
  0
ARC
  5
18C
  8
0
  6
HIDDEN
 62
     7
 10
767.8761720282
 20
-792.6837562628
 30
0.0
 40
3.424849847080003
 50
358.4573210822
 51
16.8546795669
  0
POLYLINE
  5
18D
  8
0
  6
HIDDEN
 62
     7
 66
     1
 10
0.0
 20
0.0
 30
0.0
  0
VERTEX
  5
35A
  8
0
  6
HIDDEN
 62
     7
 10
770.5390368608
 20
-789.8925592949
 30
0.0
  0
VERTEX
  5
35B
  8
0
  6
HIDDEN
 62
     7
 10
770.5390368608
 20
-789.8925592949
 30
0.0
  0
SEQEND
  5
359
  8
0
  6
HIDDEN
 62
     7
  0
POLYLINE
  5
18E
  8
0
  6
HIDDEN
 62
     7
 66
     1
 10
0.0
 20
0.0
 30
0.0
  0
VERTEX
  5
35D
  8
0
  6
HIDDEN
 62
     7
 10
770.3029688833
 20
-789.6564913174
 30
0.0
  0
VERTEX
  5
35E
  8
0
  6
HIDDEN
 62
     7
 10
770.3029688833
 20
-789.6564913174
 30
0.0
  0
SEQEND
  5
35C
  8
0
  6
HIDDEN
 62
     7
  0
LINE
  5
18F
  8
0
  6
HIDDEN
 62
     7
 10
769.3029688833
 20
-698.8925592949
 30
0.0
 11
769.3029688833
 21
-688.8925595987
 31
0.0
  0
LINE
  5
190
  8
0
  6
HIDDEN
 62
     7
 10
775.3196170725
 20
-760.8925592949
 30
0.0
 11
775.3196170725
 21
-748.3925592949
 31
0.0
  0
LINE
  5
191
  8
0
  6
HIDDEN
 62
     7
 10
775.3196170725
 20
-748.3925592949
 30
0.0
 11
775.3196170725
 21
936.6074407051
 31
0.0
  0
LINE
  5
192
  8
0
  6
HIDDEN
 62
     7
 10
775.3196170725
 20
936.6074407051
 30
0.0
 11
775.3196170725
 21
949.1074407051
 31
0.0
  0
LINE
  5
193
  8
0
  6
HIDDEN
 62
     7
 10
771.3002751267
 20
979.5494262378
 30
0.0
 11
771.3002751267
 21
980.9914121611
 31
0.0
  0
LINE
  5
194
  8
0
  6
HIDDEN
 62
     7
 10
767.5311983804
 20
977.1101344616
 30
0.0
 11
768.9170833208
 21
977.1101344616
 31
0.0
  0
LINE
  5
195
  8
0
  6
HIDDEN
 62
     7
 10
768.9170833217
 20
-788.8952530514
 30
0.0
 11
767.5311983822
 21
-788.8952530514
 31
0.0
  0
LINE
  5
196
  8
0
  6
HIDDEN
 62
     7
 10
771.3002751267
 20
-792.7765307506
 30
0.0
 11
771.3002751267
 21
-791.3345448274
 31
0.0
  0
ARC
  5
197
  8
0
  6
HIDDEN
 62
     7
 10
768.7729688834
 20
892.9915573296
 30
0.0
 40
0.4700000000285627
 50
180.0
 51
229.3250604347
  0
ARC
  5
198
  8
0
  6
HIDDEN
 62
     7
 10
768.7729688834
 20
879.2233240807
 30
0.0
 40
0.4700000000285627
 50
130.6749395653
 51
180.0
  0
ARC
  5
199
  8
0
  6
HIDDEN
 62
     7
 10
768.7729688834
 20
-707.0084426704
 30
0.0
 40
0.4700000000285627
 50
180.0
 51
229.3250604347
  0
ARC
  5
19A
  8
0
  6
HIDDEN
 62
     7
 10
768.7729688834
 20
-720.7766759193
 30
0.0
 40
0.4700000000285627
 50
130.6749395653
 51
180.0
  0
ARC
  5
19B
  8
0
  6
HIDDEN
 62
     7
 10
768.7729688834
 20
892.9915573296
 30
0.0
 40
2.470000000000141
 50
180.0
 51
229.3250604347
  0
ARC
  5
19C
  8
0
  6
HIDDEN
 62
     7
 10
768.7729688834
 20
879.2233240807
 30
0.0
 40
2.470000000000141
 50
130.6749395653
 51
180.0
  0
ARC
  5
19D
  8
0
  6
HIDDEN
 62
     7
 10
768.7729688834
 20
92.9915573296
 30
0.0
 40
2.470000000000141
 50
180.0
 51
229.3250604347
  0
ARC
  5
19E
  8
0
  6
HIDDEN
 62
     7
 10
768.7729688834
 20
79.2233240807
 30
0.0
 40
2.470000000000141
 50
130.6749395653
 51
180.0
  0
ARC
  5
19F
  8
0
  6
HIDDEN
 62
     7
 10
768.7729688834
 20
92.9915573296
 30
0.0
 40
0.4700000000285627
 50
180.0
 51
229.3250604347
  0
ARC
  5
1A0
  8
0
  6
HIDDEN
 62
     7
 10
768.7729688834
 20
79.2233240807
 30
0.0
 40
0.4700000000285627
 50
130.6749395653
 51
180.0
  0
ARC
  5
1A1
  8
0
  6
HIDDEN
 62
     7
 10
768.7729688834
 20
-707.0084426704
 30
0.0
 40
2.470000000000141
 50
180.0
 51
229.3250604347
  0
ARC
  5
1A2
  8
0
  6
HIDDEN
 62
     7
 10
768.7729688834
 20
-720.7766759193
 30
0.0
 40
2.470000000000141
 50
130.6749395653
 51
180.0
  0
LINE
  5
1A3
  8
0
  6
HIDDEN
 62
     7
 10
768.466638514
 20
79.5797812378
 30
0.0
 11
770.80650237
 21
81.5906017389
 31
0.0
  0
LINE
  5
1A4
  8
0
  6
HIDDEN
 62
     7
 10
770.80650237
 20
90.6242796713
 30
0.0
 11
768.466638514
 21
92.6351001725
 31
0.0
  0
LINE
  5
1A5
  8
0
  6
HIDDEN
 62
     7
 10
768.466638514
 20
879.5797812378
 30
0.0
 11
770.80650237
 21
881.5906017389
 31
0.0
  0
LINE
  5
1A6
  8
0
  6
HIDDEN
 62
     7
 10
770.80650237
 20
890.6242796713
 30
0.0
 11
768.466638514
 21
892.6351001725
 31
0.0
  0
LINE
  5
1A7
  8
0
  6
HIDDEN
 62
     7
 10
768.466638514
 20
-720.4202187622
 30
0.0
 11
770.80650237
 21
-718.4093982611
 31
0.0
  0
LINE
  5
1A8
  8
0
  6
HIDDEN
 62
     7
 10
770.80650237
 20
-709.3757203287
 30
0.0
 11
768.466638514
 21
-707.3648998275
 31
0.0
  0
LINE
  5
1A9
  8
0
  6
HIDDEN
 62
     7
 10
767.1631050275
 20
81.096620204
 30
0.0
 11
769.5029688834
 21
83.1074407051
 31
0.0
  0
LINE
  5
1AA
  8
0
  6
HIDDEN
 62
     7
 10
769.5029688834
 20
89.1074407051
 30
0.0
 11
767.1631050275
 21
91.1182612063
 31
0.0
  0
LINE
  5
1AB
  8
0
  6
HIDDEN
 62
     7
 10
767.1631050275
 20
881.096620204
 30
0.0
 11
769.5029688834
 21
883.1074407051
 31
0.0
  0
LINE
  5
1AC
  8
0
  6
HIDDEN
 62
     7
 10
769.5029688834
 20
889.1074407051
 30
0.0
 11
767.1631050275
 21
891.1182612063
 31
0.0
  0
LINE
  5
1AD
  8
0
  6
HIDDEN
 62
     7
 10
767.1631050275
 20
-718.903379796
 30
0.0
 11
769.5029688834
 21
-716.8925592949
 31
0.0
  0
LINE
  5
1AE
  8
0
  6
HIDDEN
 62
     7
 10
769.5029688834
 20
-710.8925592949
 30
0.0
 11
767.1631050275
 21
-708.8817387937
 31
0.0
  0
LINE
  5
1AF
  8
0
  6
HIDDEN
 62
     7
 10
770.80650237
 20
-709.3757203287
 30
0.0
 11
769.5029688834
 21
-710.8925592949
 31
0.0
  0
LINE
  5
1B0
  8
0
  6
HIDDEN
 62
     7
 10
769.5029688834
 20
-716.8925592949
 30
0.0
 11
770.80650237
 21
-718.4093982611
 31
0.0
  0
LINE
  5
1B1
  8
0
  6
HIDDEN
 62
     7
 10
770.80650237
 20
90.6242796713
 30
0.0
 11
769.5029688834
 21
89.1074407051
 31
0.0
  0
LINE
  5
1B2
  8
0
  6
HIDDEN
 62
     7
 10
769.5029688834
 20
83.1074407051
 30
0.0
 11
770.80650237
 21
81.5906017389
 31
0.0
  0
LINE
  5
1B3
  8
0
  6
HIDDEN
 62
     7
 10
770.80650237
 20
890.6242796713
 30
0.0
 11
769.5029688834
 21
889.1074407051
 31
0.0
  0
LINE
  5
1B4
  8
0
  6
HIDDEN
 62
     7
 10
769.5029688834
 20
883.1074407051
 30
0.0
 11
770.80650237
 21
881.5906017389
 31
0.0
  0
LINE
  5
1B5
  8
0
  6
HIDDEN
 62
     7
 10
768.3029688833
 20
-698.8925592949
 30
0.0
 11
769.3029688833
 21
-698.8925592949
 31
0.0
  0
LINE
  5
1B6
  8
0
  6
HIDDEN
 62
     7
 10
769.3029688833
 20
-688.8925592949
 30
0.0
 11
768.3029688833
 21
-688.8925592949
 31
0.0
  0
LINE
  5
1B7
  8
0
  6
HIDDEN
 62
     7
 10
769.3029688833
 20
-697.8925592949
 30
0.0
 11
786.8029688833
 21
-697.8925592949
 31
0.0
  0
LINE
  5
1B8
  8
0
  6
HIDDEN
 62
     7
 10
786.8029688833
 20
-689.8925592949
 30
0.0
 11
769.3029688833
 21
-689.8925592949
 31
0.0
  0
ARC
  5
1B9
  8
0
  6
CONTINUOUS
 62
     7
 10
899.0627050869
 20
980.1074407051
 30
0.0
 40
3.000000000000105
 50
311.8103148958
 51
318.1896851042
  0
ARC
  5
1BA
  8
0
  6
CONTINUOUS
 62
     7
 10
1887.0627050869
 20
980.1074407051
 30
0.0
 40
3.000000000000029
 50
221.8103148958
 51
228.1896851042
  0
ARC
  5
1BB
  8
0
  6
CONTINUOUS
 62
     7
 10
1887.0627050869
 20
-791.8925592949
 30
0.0
 40
2.999999999999927
 50
131.8103148958
 51
138.1896851042
  0
ARC
  5
1BC
  8
0
  6
CONTINUOUS
 62
     7
 10
899.0627050869
 20
-791.8925592949
 30
0.0
 40
3.000000000000038
 50
41.8103148958
 51
48.1896851042
  0
ARC
  5
1BD
  8
0
  6
CONTINUOUS
 62
     7
 10
901.4163135825
 20
979.474375475
 30
0.0
 40
0.6438851935060065
 50
38.1012115521
 51
100.5182599326
  0
LINE
  5
1BE
  8
0
  6
CONTINUOUS
 62
     7
 10
901.2987730644
 20
982.1074407051
 30
0.0
 11
901.2987730644
 21
980.1074407051
 31
0.0
  0
POLYLINE
  5
1BF
  8
0
  6
CONTINUOUS
 62
     7
 66
     1
 10
0.0
 20
0.0
 30
0.0
  0
VERTEX
  5
360
  8
0
  6
CONTINUOUS
 62
     7
 10
901.2987730644
 20
978.1074407051
 30
0.0
  0
VERTEX
  5
361
  8
0
  6
CONTINUOUS
 62
     7
 10
901.6373271248
 20
978.917840643
 30
0.0
  0
VERTEX
  5
362
  8
0
  6
CONTINUOUS
 62
     7
 10
901.8763418473
 20
979.6558676144
 30
0.0
  0
VERTEX
  5
363
  8
0
  6
CONTINUOUS
 62
     7
 10
902.0158172319
 20
980.3010019593
 30
0.0
  0
VERTEX
  5
364
  8
0
  6
CONTINUOUS
 62
     7
 10
902.0600060902
 20
980.8851715254
 30
0.0
  0
VERTEX
  5
365
  8
0
  6
CONTINUOUS
 62
     7
 10
902.0116820265
 20
981.3963010297
 30
0.0
  0
VERTEX
  5
366
  8
0
  6
CONTINUOUS
 62
     7
 10
901.8687018343
 20
981.7826568316
 30
0.0
  0
VERTEX
  5
367
  8
0
  6
CONTINUOUS
 62
     7
 10
901.6310655136
 20
982.024560724
 30
0.0
  0
VERTEX
  5
368
  8
0
  6
CONTINUOUS
 62
     7
 10
901.2987730644
 20
982.1074413239
 30
0.0
  0
SEQEND
  5
35F
  8
0
  6
CONTINUOUS
 62
     7
  0
POLYLINE
  5
1C0
  8
0
  6
CONTINUOUS
 62
     7
 66
     1
 10
0.0
 20
0.0
 30
0.0
  0
VERTEX
  5
36A
  8
0
  6
CONTINUOUS
 62
     7
 10
1884.8266371094
 20
982.1074413239
 30
0.0
  0
VERTEX
  5
36B
  8
0
  6
CONTINUOUS
 62
     7
 10
1884.4943446604
 20
982.0245607241
 30
0.0
  0
VERTEX
  5
36C
  8
0
  6
CONTINUOUS
 62
     7
 10
1884.2567083397
 20
981.7826568318
 30
0.0
  0
VERTEX
  5
36D
  8
0
  6
CONTINUOUS
 62
     7
 10
1884.1137281475
 20
981.3963010299
 30
0.0
  0
VERTEX
  5
36E
  8
0
  6
CONTINUOUS
 62
     7
 10
1884.0654040838
 20
980.8851715255
 30
0.0
  0
VERTEX
  5
36F
  8
0
  6
CONTINUOUS
 62
     7
 10
1884.1095929418
 20
980.3010019595
 30
0.0
  0
VERTEX
  5
370
  8
0
  6
CONTINUOUS
 62
     7
 10
1884.2490683264
 20
979.655867615
 30
0.0
  0
VERTEX
  5
371
  8
0
  6
CONTINUOUS
 62
     7
 10
1884.4880830489
 20
978.9178406435
 30
0.0
  0
VERTEX
  5
372
  8
0
  6
CONTINUOUS
 62
     7
 10
1884.8266371094
 20
978.1074407051
 30
0.0
  0
SEQEND
  5
369
  8
0
  6
CONTINUOUS
 62
     7
  0
LINE
  5
1C1
  8
0
  6
CONTINUOUS
 62
     7
 10
901.2987730644
 20
982.1074407051
 30
0.0
 11
1884.8266371094
 21
982.1074407051
 31
0.0
  0
ARC
  5
1C2
  8
0
  6
CONTINUOUS
 62
     7
 10
899.7364576335
 20
-789.5370881198
 30
0.0
 40
0.6842514754636079
 50
133.6066003206
 51
190.0496743524
  0
LINE
  5
1C3
  8
0
  6
CONTINUOUS
 62
     7
 10
897.0627050869
 20
-789.6564913174
 30
0.0
 11
899.0627050869
 21
-789.6564913174
 31
0.0
  0
POLYLINE
  5
1C4
  8
0
  6
CONTINUOUS
 62
     7
 66
     1
 10
0.0
 20
0.0
 30
0.0
  0
VERTEX
  5
374
  8
0
  6
CONTINUOUS
 62
     7
 10
901.0627050869
 20
-789.6564913174
 30
0.0
  0
VERTEX
  5
375
  8
0
  6
CONTINUOUS
 62
     7
 10
900.2526584116
 20
-789.324198866
 30
0.0
  0
VERTEX
  5
376
  8
0
  6
CONTINUOUS
 62
     7
 10
899.4838475786
 20
-789.0865625446
 30
0.0
  0
VERTEX
  5
377
  8
0
  6
CONTINUOUS
 62
     7
 10
898.7859964937
 20
-788.943582353
 30
0.0
  0
VERTEX
  5
378
  8
0
  6
CONTINUOUS
 62
     7
 10
898.1844737996
 20
-788.8952582914
 30
0.0
  0
VERTEX
  5
379
  8
0
  6
CONTINUOUS
 62
     7
 10
897.7178145799
 20
-788.9394471526
 30
0.0
  0
VERTEX
  5
37A
  8
0
  6
CONTINUOUS
 62
     7
 10
897.3745650075
 20
-789.0789225384
 30
0.0
  0
VERTEX
  5
37B
  8
0
  6
CONTINUOUS
 62
     7
 10
897.1456583924
 20
-789.31793726
 30
0.0
  0
VERTEX
  5
37C
  8
0
  6
CONTINUOUS
 62
     7
 10
897.0627047425
 20
-789.6564913174
 30
0.0
  0
SEQEND
  5
373
  8
0
  6
CONTINUOUS
 62
     7
  0
POLYLINE
  5
1C5
  8
0
  6
CONTINUOUS
 62
     7
 66
     1
 10
0.0
 20
0.0
 30
0.0
  0
VERTEX
  5
37E
  8
0
  6
CONTINUOUS
 62
     7
 10
897.0627047425
 20
977.8713727276
 30
0.0
  0
VERTEX
  5
37F
  8
0
  6
CONTINUOUS
 62
     7
 10
897.1456583926
 20
977.5328186698
 30
0.0
  0
VERTEX
  5
380
  8
0
  6
CONTINUOUS
 62
     7
 10
897.374565008
 20
977.2938039481
 30
0.0
  0
VERTEX
  5
381
  8
0
  6
CONTINUOUS
 62
     7
 10
897.7178145803
 20
977.1543285626
 30
0.0
  0
VERTEX
  5
382
  8
0
  6
CONTINUOUS
 62
     7
 10
898.1844738
 20
977.110139702
 30
0.0
  0
VERTEX
  5
383
  8
0
  6
CONTINUOUS
 62
     7
 10
898.7859964946
 20
977.158463764
 30
0.0
  0
VERTEX
  5
384
  8
0
  6
CONTINUOUS
 62
     7
 10
899.4838475796
 20
977.3014439556
 30
0.0
  0
VERTEX
  5
385
  8
0
  6
CONTINUOUS
 62
     7
 10
900.2526584124
 20
977.5390802768
 30
0.0
  0
VERTEX
  5
386
  8
0
  6
CONTINUOUS
 62
     7
 10
901.0627050869
 20
977.8713727276
 30
0.0
  0
SEQEND
  5
37D
  8
0
  6
CONTINUOUS
 62
     7
  0
LINE
  5
1C6
  8
0
  6
CONTINUOUS
 62
     7
 10
897.0627050869
 20
-789.6564913174
 30
0.0
 11
897.0627050869
 21
977.8713727276
 31
0.0
  0
LINE
  5
1C7
  8
0
  6
CONTINUOUS
 62
     7
 10
899.0627047425
 20
977.8713727276
 30
0.0
 11
897.0627050869
 21
977.8713727276
 31
0.0
  0
ARC
  5
1C8
  8
0
  6
CONTINUOUS
 62
     7
 10
899.7364576338
 20
977.7519695298
 30
0.0
 40
0.6842514757736251
 50
169.9503256284
 51
226.3933995784
  0
POLYLINE
  5
1C9
  8
0
  6
CONTINUOUS
 62
     7
 66
     1
 10
0.0
 20
0.0
 30
0.0
  0
VERTEX
  5
388
  8
0
  6
CONTINUOUS
 62
     7
 10
1884.8266371094
 20
-789.8925592949
 30
0.0
  0
VERTEX
  5
389
  8
0
  6
CONTINUOUS
 62
     7
 10
1884.488083049
 20
-790.7029592333
 30
0.0
  0
VERTEX
  5
38A
  8
0
  6
CONTINUOUS
 62
     7
 10
1884.2490683265
 20
-791.4409862048
 30
0.0
  0
VERTEX
  5
38B
  8
0
  6
CONTINUOUS
 62
     7
 10
1884.1095929419
 20
-792.0861205493
 30
0.0
  0
VERTEX
  5
38C
  8
0
  6
CONTINUOUS
 62
     7
 10
1884.0654040837
 20
-792.6702901151
 30
0.0
  0
VERTEX
  5
38D
  8
0
  6
CONTINUOUS
 62
     7
 10
1884.1137281474
 20
-793.1814196194
 30
0.0
  0
VERTEX
  5
38E
  8
0
  6
CONTINUOUS
 62
     7
 10
1884.2567083396
 20
-793.5677754214
 30
0.0
  0
VERTEX
  5
38F
  8
0
  6
CONTINUOUS
 62
     7
 10
1884.4943446602
 20
-793.8096793137
 30
0.0
  0
VERTEX
  5
390
  8
0
  6
CONTINUOUS
 62
     7
 10
1884.8266371094
 20
-793.8925599137
 30
0.0
  0
SEQEND
  5
387
  8
0
  6
CONTINUOUS
 62
     7
  0
LINE
  5
1CA
  8
0
  6
CONTINUOUS
 62
     7
 10
901.2987730644
 20
-793.8925592949
 30
0.0
 11
1884.8266371094
 21
-793.8925592949
 31
0.0
  0
POLYLINE
  5
1CB
  8
0
  6
CONTINUOUS
 62
     7
 66
     1
 10
0.0
 20
0.0
 30
0.0
  0
VERTEX
  5
392
  8
0
  6
CONTINUOUS
 62
     7
 10
901.2987730644
 20
-793.8925599137
 30
0.0
  0
VERTEX
  5
393
  8
0
  6
CONTINUOUS
 62
     7
 10
901.6310655136
 20
-793.8096793136
 30
0.0
  0
VERTEX
  5
394
  8
0
  6
CONTINUOUS
 62
     7
 10
901.8687018343
 20
-793.567775421
 30
0.0
  0
VERTEX
  5
395
  8
0
  6
CONTINUOUS
 62
     7
 10
902.0116820265
 20
-793.181419619
 30
0.0
  0
VERTEX
  5
396
  8
0
  6
CONTINUOUS
 62
     7
 10
902.0600060902
 20
-792.6702901149
 30
0.0
  0
VERTEX
  5
397
  8
0
  6
CONTINUOUS
 62
     7
 10
902.0158172319
 20
-792.0861205491
 30
0.0
  0
VERTEX
  5
398
  8
0
  6
CONTINUOUS
 62
     7
 10
901.8763418473
 20
-791.4409862043
 30
0.0
  0
VERTEX
  5
399
  8
0
  6
CONTINUOUS
 62
     7
 10
901.6373271248
 20
-790.7029592328
 30
0.0
  0
VERTEX
  5
39A
  8
0
  6
CONTINUOUS
 62
     7
 10
901.2987730644
 20
-789.8925592949
 30
0.0
  0
SEQEND
  5
391
  8
0
  6
CONTINUOUS
 62
     7
  0
ARC
  5
1CC
  8
0
  6
CONTINUOUS
 62
     7
 10
901.4163135824
 20
-791.2594940647
 30
0.0
 40
0.6438851935118621
 50
259.4817400794
 51
321.8987884579
  0
LINE
  5
1CD
  8
0
  6
CONTINUOUS
 62
     7
 10
901.2987730644
 20
-793.8925592949
 30
0.0
 11
901.2987730644
 21
-791.8925599137
 31
0.0
  0
ARC
  5
1CE
  8
0
  6
CONTINUOUS
 62
     7
 10
1884.7090965913
 20
-791.2594940648
 30
0.0
 40
0.6438851934816732
 50
218.1012115565
 51
280.518259933
  0
LINE
  5
1CF
  8
0
  6
CONTINUOUS
 62
     7
 10
1884.8266371094
 20
-791.8925592949
 30
0.0
 11
1884.8266371094
 21
-793.8925592949
 31
0.0
  0
LINE
  5
1D0
  8
0
  6
CONTINUOUS
 62
     7
 10
1884.8266371094
 20
980.1074413239
 30
0.0
 11
1884.8266371094
 21
982.1074407051
 31
0.0
  0
ARC
  5
1D1
  8
0
  6
CONTINUOUS
 62
     7
 10
1884.7090965914
 20
979.4743754752
 30
0.0
 40
0.6438851933929842
 50
79.4817400717
 51
141.8987884738
  0
ARC
  5
1D2
  8
0
  6
CONTINUOUS
 62
     7
 10
1886.3889525405
 20
977.75196953
 30
0.0
 40
0.6842514753642969
 50
313.6066003184
 51
10.0496743594
  0
LINE
  5
1D3
  8
0
  6
CONTINUOUS
 62
     7
 10
1887.0627050869
 20
977.8713727276
 30
0.0
 11
1889.0627050869
 21
977.8713727276
 31
0.0
  0
POLYLINE
  5
1D4
  8
0
  6
CONTINUOUS
 62
     7
 66
     1
 10
0.0
 20
0.0
 30
0.0
  0
VERTEX
  5
39C
  8
0
  6
CONTINUOUS
 62
     7
 10
1885.0627050869
 20
977.8713727276
 30
0.0
  0
VERTEX
  5
39D
  8
0
  6
CONTINUOUS
 62
     7
 10
1885.8727517622
 20
977.5390802763
 30
0.0
  0
VERTEX
  5
39E
  8
0
  6
CONTINUOUS
 62
     7
 10
1886.6415625953
 20
977.3014439548
 30
0.0
  0
VERTEX
  5
39F
  8
0
  6
CONTINUOUS
 62
     7
 10
1887.3394136802
 20
977.1584637633
 30
0.0
  0
VERTEX
  5
3A0
  8
0
  6
CONTINUOUS
 62
     7
 10
1887.9409363742
 20
977.1101397016
 30
0.0
  0
VERTEX
  5
3A1
  8
0
  6
CONTINUOUS
 62
     7
 10
1888.407595594
 20
977.1543285628
 30
0.0
  0
VERTEX
  5
3A2
  8
0
  6
CONTINUOUS
 62
     7
 10
1888.7508451665
 20
977.2938039487
 30
0.0
  0
VERTEX
  5
3A3
  8
0
  6
CONTINUOUS
 62
     7
 10
1888.9797517815
 20
977.5328186703
 30
0.0
  0
VERTEX
  5
3A4
  8
0
  6
CONTINUOUS
 62
     7
 10
1889.0627054313
 20
977.8713727276
 30
0.0
  0
SEQEND
  5
39B
  8
0
  6
CONTINUOUS
 62
     7
  0
LINE
  5
1D5
  8
0
  6
CONTINUOUS
 62
     7
 10
1889.0627050869
 20
-789.6564913174
 30
0.0
 11
1889.0627050869
 21
977.8713727276
 31
0.0
  0
POLYLINE
  5
1D6
  8
0
  6
CONTINUOUS
 62
     7
 66
     1
 10
0.0
 20
0.0
 30
0.0
  0
VERTEX
  5
3A6
  8
0
  6
CONTINUOUS
 62
     7
 10
1889.0627054313
 20
-789.6564913174
 30
0.0
  0
VERTEX
  5
3A7
  8
0
  6
CONTINUOUS
 62
     7
 10
1888.9797517817
 20
-789.3179372599
 30
0.0
  0
VERTEX
  5
3A8
  8
0
  6
CONTINUOUS
 62
     7
 10
1888.7508451668
 20
-789.0789225383
 30
0.0
  0
VERTEX
  5
3A9
  8
0
  6
CONTINUOUS
 62
     7
 10
1888.4075955942
 20
-788.9394471525
 30
0.0
  0
VERTEX
  5
3AA
  8
0
  6
CONTINUOUS
 62
     7
 10
1887.9409363746
 20
-788.8952582915
 30
0.0
  0
VERTEX
  5
3AB
  8
0
  6
CONTINUOUS
 62
     7
 10
1887.3394136812
 20
-788.9435823533
 30
0.0
  0
VERTEX
  5
3AC
  8
0
  6
CONTINUOUS
 62
     7
 10
1886.6415625965
 20
-789.0865625449
 30
0.0
  0
VERTEX
  5
3AD
  8
0
  6
CONTINUOUS
 62
     7
 10
1885.8727517631
 20
-789.3241988662
 30
0.0
  0
VERTEX
  5
3AE
  8
0
  6
CONTINUOUS
 62
     7
 10
1885.0627050869
 20
-789.6564913174
 30
0.0
  0
SEQEND
  5
3A5
  8
0
  6
CONTINUOUS
 62
     7
  0
ARC
  5
1D7
  8
0
  6
CONTINUOUS
 62
     7
 10
1886.3889525406
 20
-789.5370881194
 30
0.0
 40
0.684251475237812
 50
349.9503256125
 51
46.3933996047
  0
LINE
  5
1D8
  8
0
  6
CONTINUOUS
 62
     7
 10
1889.0627050869
 20
-789.6564913174
 30
0.0
 11
1887.0627054313
 21
-789.6564913174
 31
0.0
  0
CIRCLE
  5
1D9
  8
0
  6
CONTINUOUS
 62
     7
 10
918.0627050869
 20
886.1074407051
 30
0.0
 40
2.999999999999886
  0
CIRCLE
  5
1DA
  8
0
  6
CONTINUOUS
 62
     7
 10
918.0627050869
 20
-713.8925592949
 30
0.0
 40
2.999999999999886
  0
CIRCLE
  5
1DB
  8
0
  6
CONTINUOUS
 62
     7
 10
918.0627050869
 20
86.1074407051
 30
0.0
 40
2.999999999999886
  0
CIRCLE
  5
1DC
  8
0
  6
CONTINUOUS
 62
     7
 10
1868.0627050869
 20
886.1074407051
 30
0.0
 40
2.999999999999773
  0
CIRCLE
  5
1DD
  8
0
  6
CONTINUOUS
 62
     7
 10
1868.0627050869
 20
-713.8925592949
 30
0.0
 40
2.999999999999773
  0
CIRCLE
  5
1DE
  8
0
  6
CONTINUOUS
 62
     7
 10
1868.0627050869
 20
86.1074407051
 30
0.0
 40
2.999999999999773
  0
LINE
  5
1DF
  8
0
  6
CONTINUOUS
 62
     7
 10
897.0627050869
 20
977.8713727276
 30
0.0
 11
897.0627050869
 21
978.1074407051
 31
0.0
  0
LINE
  5
1E0
  8
0
  6
CONTINUOUS
 62
     7
 10
899.0627050869
 20
978.1074407051
 30
0.0
 11
897.0627050869
 21
978.1074407051
 31
0.0
  0
LINE
  5
1E1
  8
0
  6
CONTINUOUS
 62
     7
 10
899.0627050869
 20
977.8713727276
 30
0.0
 11
899.0627050869
 21
978.1074407051
 31
0.0
  0
LINE
  5
1E2
  8
0
  6
CONTINUOUS
 62
     7
 10
899.0627050869
 20
-789.6564913174
 30
0.0
 11
899.0627050869
 21
-789.8925592949
 31
0.0
  0
LINE
  5
1E3
  8
0
  6
CONTINUOUS
 62
     7
 10
899.0627044681
 20
-789.8925592949
 30
0.0
 11
897.0627050869
 21
-789.8925592949
 31
0.0
  0
LINE
  5
1E4
  8
0
  6
CONTINUOUS
 62
     7
 10
897.0627050869
 20
-789.6564913174
 30
0.0
 11
897.0627050869
 21
-789.8925592949
 31
0.0
  0
LINE
  5
1E5
  8
0
  6
CONTINUOUS
 62
     7
 10
901.1840254305
 20
980.1074407051
 30
0.0
 11
901.2987730644
 21
980.1074407051
 31
0.0
  0
LINE
  5
1E6
  8
0
  6
CONTINUOUS
 62
     7
 10
901.1840254305
 20
982.1074407051
 30
0.0
 11
901.1840254305
 21
980.1074407051
 31
0.0
  0
LINE
  5
1E7
  8
0
  6
CONTINUOUS
 62
     7
 10
901.1840254305
 20
982.1074407051
 30
0.0
 11
901.2987730644
 21
982.1074407051
 31
0.0
  0
LINE
  5
1E8
  8
0
  6
CONTINUOUS
 62
     7
 10
901.1840254305
 20
-791.8925592948
 30
0.0
 11
901.1840254305
 21
-793.8925592949
 31
0.0
  0
LINE
  5
1E9
  8
0
  6
CONTINUOUS
 62
     7
 10
901.1840254305
 20
-791.8925592949
 30
0.0
 11
901.2987730644
 21
-791.8925592949
 31
0.0
  0
LINE
  5
1EA
  8
0
  6
CONTINUOUS
 62
     7
 10
901.1840254305
 20
-793.8925592949
 30
0.0
 11
901.2987730644
 21
-793.8925592949
 31
0.0
  0
LINE
  5
1EB
  8
0
  6
CONTINUOUS
 62
     7
 10
1889.0627050869
 20
978.1074407051
 30
0.0
 11
1887.0627050869
 21
978.1074407051
 31
0.0
  0
LINE
  5
1EC
  8
0
  6
CONTINUOUS
 62
     7
 10
1889.0627050869
 20
977.8713727276
 30
0.0
 11
1889.0627050869
 21
978.1074407051
 31
0.0
  0
LINE
  5
1ED
  8
0
  6
CONTINUOUS
 62
     7
 10
1887.0627050869
 20
977.8713727276
 30
0.0
 11
1887.0627050869
 21
978.1074407051
 31
0.0
  0
LINE
  5
1EE
  8
0
  6
CONTINUOUS
 62
     7
 10
1884.9413847434
 20
-793.8925592949
 30
0.0
 11
1884.9413847434
 21
-791.8925592949
 31
0.0
  0
LINE
  5
1EF
  8
0
  6
CONTINUOUS
 62
     7
 10
1884.9413847434
 20
-791.8925592949
 30
0.0
 11
1884.8266371094
 21
-791.8925592949
 31
0.0
  0
LINE
  5
1F0
  8
0
  6
CONTINUOUS
 62
     7
 10
1884.9413847434
 20
-793.8925592949
 30
0.0
 11
1884.8266371094
 21
-793.8925592949
 31
0.0
  0
LINE
  5
1F1
  8
0
  6
CONTINUOUS
 62
     7
 10
1884.9413847434
 20
980.1074407051
 30
0.0
 11
1884.9413847434
 21
982.1074407051
 31
0.0
  0
LINE
  5
1F2
  8
0
  6
CONTINUOUS
 62
     7
 10
1884.9413847434
 20
980.1074407051
 30
0.0
 11
1884.8266371094
 21
980.1074407051
 31
0.0
  0
LINE
  5
1F3
  8
0
  6
CONTINUOUS
 62
     7
 10
1884.9413847434
 20
982.1074407051
 30
0.0
 11
1884.8266371094
 21
982.1074407051
 31
0.0
  0
LINE
  5
1F4
  8
0
  6
CONTINUOUS
 62
     7
 10
1889.0627050869
 20
-789.8925592949
 30
0.0
 11
1887.0627057057
 21
-789.8925592949
 31
0.0
  0
LINE
  5
1F5
  8
0
  6
CONTINUOUS
 62
     7
 10
1889.0627050869
 20
-789.6564913174
 30
0.0
 11
1889.0627050869
 21
-789.8925592949
 31
0.0
  0
LINE
  5
1F6
  8
0
  6
CONTINUOUS
 62
     7
 10
1887.0627050869
 20
-789.6564913174
 30
0.0
 11
1887.0627050869
 21
-789.8925592949
 31
0.0
  0
LINE
  5
1F7
  8
0
  6
CONTINUOUS
 62
     7
 10
901.1840254305
 20
-791.8925592949
 30
0.0
 11
901.1840254305
 21
-793.8925592949
 31
0.0
  0
LINE
  5
1F8
  8
0
  6
CONTINUOUS
 62
     7
 10
901.0627050869
 20
-793.8925592949
 30
0.0
 11
901.1840254305
 21
-793.8925592949
 31
0.0
  0
LINE
  5
1F9
  8
0
  6
CONTINUOUS
 62
     7
 10
901.0627050869
 20
-791.8925592949
 30
0.0
 11
901.0627050869
 21
-793.8925592949
 31
0.0
  0
LINE
  5
1FA
  8
0
  6
CONTINUOUS
 62
     7
 10
901.0627050869
 20
-791.8925592949
 30
0.0
 11
901.1840254305
 21
-791.8925592949
 31
0.0
  0
LINE
  5
1FB
  8
0
  6
CONTINUOUS
 62
     7
 10
901.1840254305
 20
982.1074407051
 30
0.0
 11
901.1840254305
 21
980.1074407051
 31
0.0
  0
LINE
  5
1FC
  8
0
  6
CONTINUOUS
 62
     7
 10
901.0627050869
 20
980.1074407051
 30
0.0
 11
901.1840254305
 21
980.1074407051
 31
0.0
  0
LINE
  5
1FD
  8
0
  6
CONTINUOUS
 62
     7
 10
901.0627050869
 20
980.1074413239
 30
0.0
 11
901.0627050869
 21
982.1074407051
 31
0.0
  0
LINE
  5
1FE
  8
0
  6
CONTINUOUS
 62
     7
 10
901.0627050869
 20
982.1074407051
 30
0.0
 11
901.1840254305
 21
982.1074407051
 31
0.0
  0
LINE
  5
1FF
  8
0
  6
CONTINUOUS
 62
     7
 10
1884.9413847434
 20
980.1074407051
 30
0.0
 11
1884.9413847434
 21
982.1074407051
 31
0.0
  0
LINE
  5
200
  8
0
  6
CONTINUOUS
 62
     7
 10
1885.0627050869
 20
982.1074407051
 30
0.0
 11
1885.0627050869
 21
980.1074407051
 31
0.0
  0
LINE
  5
201
  8
0
  6
CONTINUOUS
 62
     7
 10
1885.0627050869
 20
980.1074407051
 30
0.0
 11
1884.9413847434
 21
980.1074407051
 31
0.0
  0
LINE
  5
202
  8
0
  6
CONTINUOUS
 62
     7
 10
1885.0627050869
 20
982.1074407051
 30
0.0
 11
1884.9413847434
 21
982.1074407051
 31
0.0
  0
LINE
  5
203
  8
0
  6
CONTINUOUS
 62
     7
 10
1884.9413847434
 20
-793.8925592949
 30
0.0
 11
1884.9413847434
 21
-791.8925592949
 31
0.0
  0
LINE
  5
204
  8
0
  6
CONTINUOUS
 62
     7
 10
1885.0627050869
 20
-793.8925592949
 30
0.0
 11
1885.0627050869
 21
-791.8925599137
 31
0.0
  0
LINE
  5
205
  8
0
  6
CONTINUOUS
 62
     7
 10
1885.0627050869
 20
-791.8925592949
 30
0.0
 11
1884.9413847434
 21
-791.8925592949
 31
0.0
  0
LINE
  5
206
  8
0
  6
CONTINUOUS
 62
     7
 10
1885.0627050869
 20
-793.8925592949
 30
0.0
 11
1884.9413847434
 21
-793.8925592949
 31
0.0
  0
ARC
  5
207
  8
0
  6
CONTINUOUS
 62
     7
 10
901.0627050869
 20
-789.8925592949
 30
0.0
 40
2.000000618794047
 50
180.0
 51
270.0
  0
ARC
  5
208
  8
0
  6
CONTINUOUS
 62
     7
 10
901.0627050869
 20
-789.8925592949
 30
0.0
 40
4.000000618793933
 50
180.0
 51
270.0
  0
ARC
  5
209
  8
0
  6
CONTINUOUS
 62
     7
 10
901.0627050869
 20
978.1074407051
 30
0.0
 40
2.000000618794161
 50
90.0
 51
180.0
  0
ARC
  5
20A
  8
0
  6
CONTINUOUS
 62
     7
 10
901.0627050869
 20
978.1074407051
 30
0.0
 40
4.00000061879382
 50
90.0
 51
180.0
  0
ARC
  5
20B
  8
0
  6
CONTINUOUS
 62
     7
 10
1885.0627050869
 20
978.1074407051
 30
0.0
 40
2.00000061879382
 50
360.0
 51
90.0
  0
ARC
  5
20C
  8
0
  6
CONTINUOUS
 62
     7
 10
1885.0627050869
 20
978.1074407051
 30
0.0
 40
4.00000061879382
 50
360.0
 51
90.0
  0
ARC
  5
20D
  8
0
  6
CONTINUOUS
 62
     7
 10
1885.0627050869
 20
-789.8925592949
 30
0.0
 40
2.00000061879382
 50
270.0
 51
0.0
  0
ARC
  5
20E
  8
0
  6
CONTINUOUS
 62
     7
 10
1885.0627050869
 20
-789.8925592949
 30
0.0
 40
4.000000618793592
 50
270.0
 51
0.0
  0
ENDSEC
  0
EOF
