  0
SECTION
  2
HEADER
  9
$ACADVER
  1
AC1009
  9
$DWGCODEPAGE
  3
ansi_1252
  9
$INSBASE
 10
0.0
 20
0.0
 30
0.0
  9
$EXTMIN
 10
0.0
 20
0.0
 30
0.0
  9
$EXTMAX
 10
297.0
 20
210.0
 30
0.0
  9
$LIMMIN
 10
0.0
 20
0.0
  9
$LIMMAX
 10
0.0
 20
0.0
  9
$ORTHOMODE
 70
     0
  9
$REGENMODE
 70
     1
  9
$FILLMODE
 70
     1
  9
$QTEXTMODE
 70
     0
  9
$MIRRTEXT
 70
     1
  9
$DRAGMODE
 70
     2
  9
$LTSCALE
 40
1.0
  9
$OSMODE
 70
    37
  9
$ATTMODE
 70
     1
  9
$TEXTSIZE
 40
3.5277777778
  9
$TRACEWID
 40
1.0
  9
$TEXTSTYLE
  7
STANDARD
  9
$CLAYER
  8
0
  9
$CELTYPE
  6
BYLAYER
  9
$CECOLOR
 62
   256
  9
$DIMSCALE
 40
1.0
  9
$DIMASZ
 40
1.8
  9
$DIMEXO
 40
0.7
  9
$DIMDLI
 40
3.75
  9
$DIMRND
 40
0.0
  9
$DIMDLE
 40
0.0
  9
$DIMEXE
 40
0.5
  9
$DIMTP
 40
0.0
  9
$DIMTM
 40
0.0
  9
$DIMTXT
 40
2.4694444444
  9
$DIMCEN
 40
2.5
  9
$DIMTSZ
 40
0.0
  9
$DIMTOL
 70
     0
  9
$DIMLIM
 70
     0
  9
$DIMTIH
 70
     1
  9
$DIMTOH
 70
     1
  9
$DIMSE1
 70
     0
  9
$DIMSE2
 70
     0
  9
$DIMTAD
 70
     1
  9
$DIMZIN
 70
     0
  9
$DIMBLK
  1

  9
$DIMASO
 70
     1
  9
$DIMSHO
 70
     1
  9
$DIMPOST
  1

  9
$DIMAPOST
  1

  9
$DIMALT
 70
     0
  9
$DIMALTD
 70
     3
  9
$DIMALTF
 40
0.0393700787
  9
$DIMLFAC
 40
1.0
  9
$DIMTOFL
 70
     1
  9
$DIMTVP
 40
0.0
  9
$DIMTIX
 70
     0
  9
$DIMSOXD
 70
     0
  9
$DIMSAH
 70
     0
  9
$DIMBLK1
  1

  9
$DIMBLK2
  1

  9
$DIMSTYLE
  2
ISO-25
  9
$DIMCLRD
 70
     0
  9
$DIMCLRE
 70
     0
  9
$DIMCLRT
 70
     0
  9
$DIMTFAC
 40
1.0
  9
$DIMGAP
 40
2.0
  9
$LUNITS
 70
     2
  9
$LUPREC
 70
     2
  9
$SKETCHINC
 40
1.0
  9
$FILLETRAD
 40
10.0
  9
$AUNITS
 70
     0
  9
$AUPREC
 70
     0
  9
$MENU
  1
.
  9
$ELEVATION
 40
0.0
  9
$PELEVATION
 40
0.0
  9
$THICKNESS
 40
0.0
  9
$LIMCHECK
 70
     0
  9
$CHAMFERA
 40
10.0
  9
$CHAMFERB
 40
10.0
  9
$SKPOLY
 70
     0
  9
$TDCREATE
 40
2455112.424645174
  9
$TDUPDATE
 40
2455112.424645185
  9
$TDINDWG
 40
0.0000000116
  9
$TDUSRTIMER
 40
0.0000000116
  9
$USRTIMER
 70
     1
  9
$ANGBASE
 50
0.0
  9
$ANGDIR
 70
     0
  9
$PDMODE
 70
     0
  9
$PDSIZE
 40
-1.0
  9
$PLINEWID
 40
0.0
  9
$COORDS
 70
     1
  9
$SPLFRAME
 70
     0
  9
$SPLINETYPE
 70
     6
  9
$SPLINESEGS
 70
     8
  9
$ATTDIA
 70
     0
  9
$ATTREQ
 70
     1
  9
$HANDLING
 70
     1
  9
$HANDSEED
  5
64D
  9
$SURFTAB1
 70
     6
  9
$SURFTAB2
 70
     6
  9
$SURFTYPE
 70
     6
  9
$SURFU
 70
     6
  9
$SURFV
 70
     6
  9
$UCSNAME
  2

  9
$UCSORG
 10
0.0
 20
0.0
 30
0.0
  9
$UCSXDIR
 10
1.0
 20
0.0
 30
0.0
  9
$UCSYDIR
 10
0.0
 20
1.0
 30
0.0
  9
$PUCSNAME
  2

  9
$PUCSORG
 10
0.0
 20
0.0
 30
0.0
  9
$PUCSXDIR
 10
1.0
 20
0.0
 30
0.0
  9
$PUCSYDIR
 10
0.0
 20
1.0
 30
0.0
  9
$USERI1
 70
     0
  9
$USERI2
 70
     0
  9
$USERI3
 70
     0
  9
$USERI4
 70
     0
  9
$USERI5
 70
     0
  9
$USERR1
 40
0.0
  9
$USERR2
 40
0.0
  9
$USERR3
 40
0.0
  9
$USERR4
 40
0.0
  9
$USERR5
 40
0.0
  9
$WORLDVIEW
 70
     1
  9
$SHADEDGE
 70
     3
  9
$SHADEDIF
 70
    70
  9
$TILEMODE
 70
     1
  9
$MAXACTVP
 70
    64
  9
$PLIMCHECK
 70
     0
  9
$PEXTMIN
 10
1.0000000000E+20
 20
1.0000000000E+20
 30
1.0000000000E+20
  9
$PEXTMAX
 10
-1.0000000000E+20
 20
-1.0000000000E+20
 30
-1.0000000000E+20
  9
$PLIMMIN
 10
0.0
 20
0.0
  9
$PLIMMAX
 10
420.0
 20
297.0
  9
$UNITMODE
 70
     0
  9
$VISRETAIN
 70
     1
  9
$PLINEGEN
 70
     0
  9
$PSLTSCALE
 70
     1
  0
ENDSEC
  0
SECTION
  2
TABLES
  0
TABLE
  2
VPORT
 70
     1
  0
VPORT
  2
*ACTIVE
 70
     0
 10
0.0
 20
0.0
 11
1.0
 21
1.0
 12
148.5
 22
105.0
 13
0.0
 23
0.0
 14
10.0
 24
10.0
 15
10.0
 25
10.0
 16
0.0
 26
0.0
 36
1.0
 17
0.0
 27
0.0
 37
0.0
 40
210.0
 41
1.4142857143
 42
50.0
 43
0.0
 44
0.0
 50
0.0
 51
0.0
 71
     0
 72
  2000
 73
     1
 74
     3
 75
     0
 76
     0
 77
     0
 78
     0
  0
ENDTAB
  0
TABLE
  2
LTYPE
 70
     6
  0
LTYPE
  2
CONTINUOUS
 70
     0
  3
Solid line
 72
    65
 73
     0
 40
0.0
  0
LTYPE
  2
HIDDEN
 70
     0
  3
Hidden __ __ __ __ __ __ __ __ __ __ __ __ __ __
 72
    65
 73
     2
 40
1.905
 49
1.27
 49
-0.635
  0
LTYPE
  2
PHANTOM
 70
     0
  3
Phantom ______  __  __  ______  __  __  ______
 72
    65
 73
     6
 40
12.7
 49
6.35
 49
-1.27
 49
1.27
 49
-1.27
 49
1.27
 49
-1.27
  0
LTYPE
  2
CENTER
 70
     0
  3
Center ____ _ ____ _ ____ _ ____ _ ____ _ ____
 72
    65
 73
     4
 40
10.16
 49
6.35
 49
-1.27
 49
1.27
 49
-1.27
  0
LTYPE
  2
CENTERX2
 70
     0
  3
Center (2x) ________  __  ________  __  _____
 72
    65
 73
     4
 40
20.32
 49
12.7
 49
-2.54
 49
2.54
 49
-2.54
  0
LTYPE
  2
DOT2
 70
     0
  3
Dot (.5x) ........................................
 72
    65
 73
     2
 40
0.635
 49
0.0
 49
-0.635
  0
ENDTAB
  0
TABLE
  2
LAYER
 70
     5
  0
LAYER
  2
0
 70
     0
 62
     7
  6
CONTINUOUS
  0
LAYER
  2
SLD-0
 70
     0
 62
     7
  6
CONTINUOUS
  0
LAYER
  2
AM_BOR
 70
     0
 62
     7
  6
CONTINUOUS
  0
LAYER
  2
BIEGLINIE__ZU_
 70
     0
 62
     8
  6
CONTINUOUS
  0
LAYER
  2
BIEGELINIE__WEG_
 70
     0
 62
     8
  6
HIDDEN
  0
ENDTAB
  0
TABLE
  2
STYLE
 70
     1
  0
STYLE
  2
STANDARD
 70
     0
 40
0.0
 41
1.0
 50
0.0
 71
     0
 42
2.5
  3
txt
  4

  0
ENDTAB
  0
TABLE
  2
VIEW
 70
     0
  0
ENDTAB
  0
TABLE
  2
UCS
 70
     0
  0
ENDTAB
  0
TABLE
  2
APPID
 70
     1
  0
APPID
  2
ACAD
 70
     0
  0
ENDTAB
  0
TABLE
  2
DIMSTYLE
 70
     1
  0
DIMSTYLE
  2
ISO-25
 70
     0
  3

  4

  5

  6

  7

 40
1.0
 41
2.5
 42
0.625
 43
3.75
 44
1.25
 45
0.0
 46
0.0
 47
0.0
 48
0.0
140
2.5
141
2.5
142
0.0
143
0.0393700787
144
1.0
145
0.0
146
1.0
147
0.625
 71
     0
 72
     0
 73
     0
 74
     0
 75
     0
 76
     0
 77
     1
 78
     8
170
     0
171
     3
172
     1
173
     0
174
     0
175
     0
176
     0
177
     0
178
     0
  0
ENDTAB
  0
ENDSEC
  0
SECTION
  2
BLOCKS
  0
BLOCK
  8
0
  2
$MODEL_SPACE
 70
     0
 10
0.0
 20
0.0
 30
0.0
  3
$MODEL_SPACE
  1

  0
ENDBLK
  5
21
  8
0
  0
BLOCK
 67
     1
  8
0
  2
$PAPER_SPACE
 70
     0
 10
0.0
 20
0.0
 30
0.0
  3
$PAPER_SPACE
  1

  0
ENDBLK
  5
1D
 67
     1
  8
0
  0
ENDSEC
  0
SECTION
  2
ENTITIES
  0
LINE
  5
33
  8
0
  6
CONTINUOUS
 62
     7
 10
-158.4855478715
 20
986.2872319404
 30
0.0
 11
-158.4855478715
 21
988.2872319404
 31
0.0
  0
LINE
  5
34
  8
0
  6
CONTINUOUS
 62
     7
 10
-709.4855478715
 20
986.2872319404
 30
0.0
 11
-709.4855478715
 21
988.2872319404
 31
0.0
  0
LINE
  5
35
  8
0
  6
CONTINUOUS
 62
     7
 10
-709.4855478715
 20
986.2872319404
 30
0.0
 11
-158.4855478715
 21
986.2872319404
 31
0.0
  0
LINE
  5
36
  8
0
  6
CONTINUOUS
 62
     7
 10
-709.4855478715
 20
988.2872319404
 30
0.0
 11
-158.4855478715
 21
988.2872319404
 31
0.0
  0
ARC
  5
37
  8
0
  6
CONTINUOUS
 62
     7
 10
-726.9855478715
 20
985.2872319404
 30
0.0
 40
1.000000619493903
 50
90.0
 51
180.0
  0
ARC
  5
38
  8
0
  6
CONTINUOUS
 62
     7
 10
-726.985547252
 20
985.2872319404
 30
0.0
 40
3.000001238987693
 50
90.0000118315
 51
180.0
  0
LINE
  5
39
  8
0
  6
CONTINUOUS
 62
     7
 10
-727.9855478715
 20
-784.7127680596
 30
0.0
 11
-727.985548491
 21
985.2872319404
 31
0.0
  0
LINE
  5
3A
  8
0
  6
CONTINUOUS
 62
     7
 10
-729.9855481813
 20
-784.7127680596
 30
0.0
 11
-729.985548491
 21
985.2872319404
 31
0.0
  0
ARC
  5
3B
  8
0
  6
CONTINUOUS
 62
     7
 10
-726.9855478715
 20
-784.7127680596
 30
0.0
 40
1.000000000000114
 50
180.0
 51
270.0
  0
ARC
  5
3C
  8
0
  6
CONTINUOUS
 62
     7
 10
-726.985547252
 20
-784.7127680596
 30
0.0
 40
3.000000929240741
 50
180.0
 51
269.9999881686
  0
LINE
  5
3D
  8
0
  6
CONTINUOUS
 62
     7
 10
-709.4855478715
 20
988.2872319404
 30
0.0
 11
-709.4855478715
 21
986.2872319404
 31
0.0
  0
LINE
  5
3E
  8
0
  6
CONTINUOUS
 62
     7
 10
-726.9855478715
 20
986.2872319404
 30
0.0
 11
-709.4855478715
 21
986.2872319404
 31
0.0
  0
LINE
  5
3F
  8
0
  6
CONTINUOUS
 62
     7
 10
-726.9855478715
 20
988.2872319404
 30
0.0
 11
-709.4855478715
 21
988.2872319404
 31
0.0
  0
LINE
  5
40
  8
0
  6
CONTINUOUS
 62
     7
 10
-709.4855478715
 20
-787.7127680596
 30
0.0
 11
-709.4855478715
 21
-785.7127680596
 31
0.0
  0
LINE
  5
41
  8
0
  6
CONTINUOUS
 62
     7
 10
-709.4855478715
 20
-785.7127680596
 30
0.0
 11
-726.9855478715
 21
-785.7127680596
 31
0.0
  0
LINE
  5
42
  8
0
  6
CONTINUOUS
 62
     7
 10
-709.4855478715
 20
-787.7127680596
 30
0.0
 11
-726.9855478715
 21
-787.7127686791
 31
0.0
  0
LINE
  5
43
  8
0
  6
CONTINUOUS
 62
     7
 10
-158.4855478715
 20
-785.7127680596
 30
0.0
 11
-158.4855478715
 21
-787.7127680596
 31
0.0
  0
LINE
  5
44
  8
0
  6
CONTINUOUS
 62
     7
 10
-709.4855478715
 20
-785.7127680596
 30
0.0
 11
-709.4855478715
 21
-787.7127680596
 31
0.0
  0
LINE
  5
45
  8
0
  6
CONTINUOUS
 62
     7
 10
-158.4855478715
 20
-785.7127680596
 30
0.0
 11
-709.4855478715
 21
-785.7127680596
 31
0.0
  0
LINE
  5
46
  8
0
  6
CONTINUOUS
 62
     7
 10
-158.4855478715
 20
-787.7127680596
 30
0.0
 11
-709.4855478715
 21
-787.7127680596
 31
0.0
  0
LINE
  5
47
  8
0
  6
CONTINUOUS
 62
     7
 10
-158.4855478715
 20
-787.7127680596
 30
0.0
 11
-158.4855478715
 21
-785.7127680596
 31
0.0
  0
LINE
  5
48
  8
0
  6
CONTINUOUS
 62
     7
 10
-140.9855478715
 20
-787.7127680596
 30
0.0
 11
-158.4855478715
 21
-787.7127680596
 31
0.0
  0
LINE
  5
49
  8
0
  6
CONTINUOUS
 62
     7
 10
-140.9855478715
 20
-785.7127680596
 30
0.0
 11
-158.4855478715
 21
-785.7127680596
 31
0.0
  0
ARC
  5
4A
  8
0
  6
CONTINUOUS
 62
     7
 10
-140.9855478715
 20
-784.7127680596
 30
0.0
 40
1.000000000000114
 50
270.0
 51
0.0
  0
ARC
  5
4B
  8
0
  6
CONTINUOUS
 62
     7
 10
-140.985548491
 20
-784.7127680596
 30
0.0
 40
3.000000619493846
 50
270.0000118315
 51
0.0
  0
LINE
  5
4C
  8
0
  6
CONTINUOUS
 62
     7
 10
-139.9855478715
 20
947.7872319404
 30
0.0
 11
-137.9855478715
 21
947.7872319404
 31
0.0
  0
LINE
  5
4D
  8
0
  6
CONTINUOUS
 62
     7
 10
-139.9855478715
 20
-747.2127680596
 30
0.0
 11
-137.9855478715
 21
-747.2127680596
 31
0.0
  0
LINE
  5
4E
  8
0
  6
CONTINUOUS
 62
     7
 10
-137.9855478715
 20
947.7872319404
 30
0.0
 11
-137.9855478715
 21
946.7872319404
 31
0.0
  0
LINE
  5
4F
  8
0
  6
CONTINUOUS
 62
     7
 10
-137.9855478715
 20
-746.2127680596
 30
0.0
 11
-137.9855478715
 21
-747.2127680596
 31
0.0
  0
LINE
  5
50
  8
0
  6
CONTINUOUS
 62
     7
 10
-139.9855478715
 20
947.7872319404
 30
0.0
 11
-139.9855478715
 21
946.7872319404
 31
0.0
  0
LINE
  5
51
  8
0
  6
CONTINUOUS
 62
     7
 10
-139.9855478715
 20
-746.2127680596
 30
0.0
 11
-139.9855478715
 21
-747.2127680596
 31
0.0
  0
LINE
  5
52
  8
0
  6
CONTINUOUS
 62
     7
 10
-139.9855478715
 20
-770.0733001414
 30
0.0
 11
-137.9855478715
 21
-770.0733001414
 31
0.0
  0
LINE
  5
53
  8
0
  6
CONTINUOUS
 62
     7
 10
-137.9855478715
 20
-769.1606813805
 30
0.0
 11
-137.9855478715
 21
-770.0733001414
 31
0.0
  0
LINE
  5
54
  8
0
  6
CONTINUOUS
 62
     7
 10
-139.9855478715
 20
-770.0733001414
 30
0.0
 11
-139.9855478715
 21
-769.1606813805
 31
0.0
  0
LINE
  5
55
  8
0
  6
CONTINUOUS
 62
     7
 10
-137.9855478715
 20
-770.0733001414
 30
0.0
 11
-137.9855478715
 21
-784.7127680596
 31
0.0
  0
LINE
  5
56
  8
0
  6
CONTINUOUS
 62
     7
 10
-139.9855478715
 20
-770.0733001414
 30
0.0
 11
-139.9855478715
 21
-784.7127680596
 31
0.0
  0
LINE
  5
57
  8
0
  6
CONTINUOUS
 62
     7
 10
-137.9855478715
 20
-747.2127680596
 30
0.0
 11
-137.9855478715
 21
-749.8520357404
 31
0.0
  0
LINE
  5
58
  8
0
  6
CONTINUOUS
 62
     7
 10
-139.9855478715
 20
-749.8520357404
 30
0.0
 11
-139.9855478715
 21
-747.2127680596
 31
0.0
  0
LINE
  5
59
  8
0
  6
CONTINUOUS
 62
     7
 10
-158.4855478715
 20
988.2872319404
 30
0.0
 11
-158.4855478715
 21
986.2872319404
 31
0.0
  0
LINE
  5
5A
  8
0
  6
CONTINUOUS
 62
     7
 10
-158.4855478715
 20
988.2872319404
 30
0.0
 11
-140.9855478715
 21
988.2872325599
 31
0.0
  0
LINE
  5
5B
  8
0
  6
CONTINUOUS
 62
     7
 10
-158.4855478715
 20
986.2872319404
 30
0.0
 11
-140.9855478715
 21
986.2872319404
 31
0.0
  0
ARC
  5
5C
  8
0
  6
CONTINUOUS
 62
     7
 10
-140.985548491
 20
985.2872319404
 30
0.0
 40
3.000001238987693
 50
0.0
 51
89.9999881685
  0
ARC
  5
5D
  8
0
  6
CONTINUOUS
 62
     7
 10
-140.9855478715
 20
985.2872319404
 30
0.0
 40
1.0
 50
0.0
 51
90.0
  0
LINE
  5
5E
  8
0
  6
CONTINUOUS
 62
     7
 10
-137.9855478715
 20
947.7872319404
 30
0.0
 11
-137.9855478715
 21
950.4264996211
 31
0.0
  0
LINE
  5
5F
  8
0
  6
CONTINUOUS
 62
     7
 10
-139.9855478715
 20
950.4264996211
 30
0.0
 11
-139.9855478715
 21
947.7872319404
 31
0.0
  0
LINE
  5
60
  8
0
  6
CONTINUOUS
 62
     7
 10
-139.9855478715
 20
970.6477640222
 30
0.0
 11
-137.9855478715
 21
970.6477640222
 31
0.0
  0
LINE
  5
61
  8
0
  6
CONTINUOUS
 62
     7
 10
-137.985547252
 20
985.2872319404
 30
0.0
 11
-137.9855478715
 21
970.6477640222
 31
0.0
  0
LINE
  5
62
  8
0
  6
CONTINUOUS
 62
     7
 10
-139.9855478715
 20
985.2872319404
 30
0.0
 11
-139.9855478715
 21
970.6477640222
 31
0.0
  0
LINE
  5
63
  8
0
  6
CONTINUOUS
 62
     7
 10
-137.9855478715
 20
969.7351452613
 30
0.0
 11
-137.9855478715
 21
970.6477640222
 31
0.0
  0
LINE
  5
64
  8
0
  6
CONTINUOUS
 62
     7
 10
-139.9855478715
 20
970.6477640222
 30
0.0
 11
-139.9855478715
 21
969.7351452613
 31
0.0
  0
LINE
  5
65
  8
0
  6
CONTINUOUS
 62
     7
 10
-137.9855478715
 20
-763.7035016448
 30
0.0
 11
-137.9855478715
 21
-769.1606813805
 31
0.0
  0
LINE
  5
66
  8
0
  6
CONTINUOUS
 62
     7
 10
-139.9855478715
 20
-769.1606813805
 30
0.0
 11
-139.9855478715
 21
-763.7035016448
 31
0.0
  0
LINE
  5
67
  8
0
  6
CONTINUOUS
 62
     7
 10
-137.9855478715
 20
964.2779655256
 30
0.0
 11
-137.9855478715
 21
969.7351452613
 31
0.0
  0
LINE
  5
68
  8
0
  6
CONTINUOUS
 62
     7
 10
-139.9855478715
 20
969.7351452613
 30
0.0
 11
-139.9855478715
 21
964.2779655256
 31
0.0
  0
LINE
  5
69
  8
0
  6
CONTINUOUS
 62
     7
 10
-137.9855478715
 20
-757.7127680596
 30
0.0
 11
-137.9855478715
 21
-763.7035016448
 31
0.0
  0
LINE
  5
6A
  8
0
  6
CONTINUOUS
 62
     7
 10
-139.9855478715
 20
-763.7035016448
 30
0.0
 11
-139.9855478715
 21
-762.198880008
 31
0.0
  0
LINE
  5
6B
  8
0
  6
CONTINUOUS
 62
     7
 10
-137.9855478715
 20
958.2872319404
 30
0.0
 11
-137.9855478715
 21
964.2779655256
 31
0.0
  0
LINE
  5
6C
  8
0
  6
CONTINUOUS
 62
     7
 10
-139.9855478715
 20
964.2779655256
 30
0.0
 11
-139.9855478715
 21
962.7733438887
 31
0.0
  0
LINE
  5
6D
  8
0
  6
CONTINUOUS
 62
     7
 10
-137.9855478715
 20
-749.8520357404
 30
0.0
 11
-137.9855478715
 21
-755.7127680596
 31
0.0
  0
LINE
  5
6E
  8
0
  6
CONTINUOUS
 62
     7
 10
-139.9855478715
 20
-750.2903553879
 30
0.0
 11
-139.9855478715
 21
-749.8520357404
 31
0.0
  0
LINE
  5
6F
  8
0
  6
CONTINUOUS
 62
     7
 10
-137.9855478715
 20
950.4264996211
 30
0.0
 11
-137.9855478715
 21
956.2872319404
 31
0.0
  0
LINE
  5
70
  8
0
  6
CONTINUOUS
 62
     7
 10
-139.9855478715
 20
950.8648192686
 30
0.0
 11
-139.9855478715
 21
950.4264996211
 31
0.0
  0
CIRCLE
  5
71
  8
0
  6
CONTINUOUS
 62
     7
 10
-708.9855478715
 20
-707.7127680596
 30
0.0
 40
4.516838966197497
  0
CIRCLE
  5
72
  8
0
  6
CONTINUOUS
 62
     7
 10
-708.9855478715
 20
92.2872319404
 30
0.0
 40
4.516838966197497
  0
CIRCLE
  5
73
  8
0
  6
CONTINUOUS
 62
     7
 10
-708.9855478715
 20
892.2872319404
 30
0.0
 40
4.516838966197497
  0
CIRCLE
  5
74
  8
0
  6
CONTINUOUS
 62
     7
 10
-708.9855478715
 20
892.2872319404
 30
0.0
 40
3.000000000000114
  0
CIRCLE
  5
75
  8
0
  6
CONTINUOUS
 62
     7
 10
-708.9855478715
 20
92.2872319404
 30
0.0
 40
3.000000000000114
  0
CIRCLE
  5
76
  8
0
  6
CONTINUOUS
 62
     7
 10
-708.9855478715
 20
-707.7127680596
 30
0.0
 40
3.000000000000114
  0
ARC
  5
77
  8
0
  6
CONTINUOUS
 62
     7
 10
-217.9855478715
 20
967.2872319404
 30
0.0
 40
4.516838966197509
 50
299.5276563099
 51
180.0
  0
ARC
  5
78
  8
0
  6
CONTINUOUS
 62
     7
 10
-217.9855478715
 20
967.2872319404
 30
0.0
 40
4.516838966197522
 50
180.0
 51
240.4723436901
  0
ARC
  5
79
  8
0
  6
CONTINUOUS
 62
     7
 10
-217.9855478715
 20
-766.7127680596
 30
0.0
 40
4.516838966197497
 50
180.0
 51
60.4723436901
  0
ARC
  5
7A
  8
0
  6
CONTINUOUS
 62
     7
 10
-217.9855478715
 20
-766.7127680596
 30
0.0
 40
4.516838966197497
 50
119.5276563099
 51
180.0
  0
CIRCLE
  5
7B
  8
0
  6
CONTINUOUS
 62
     7
 10
-217.9855478715
 20
-766.7127680596
 30
0.0
 40
3.000000000000028
  0
CIRCLE
  5
7C
  8
0
  6
CONTINUOUS
 62
     7
 10
-217.9855478715
 20
967.2872319404
 30
0.0
 40
3.000000000000028
  0
LINE
  5
7D
  8
0
  6
CONTINUOUS
 62
     7
 10
-137.9855478715
 20
-755.7127680596
 30
0.0
 11
-137.9855478715
 21
-757.7127680596
 31
0.0
  0
LINE
  5
7E
  8
0
  6
CONTINUOUS
 62
     7
 10
-137.9855478715
 20
956.2872319404
 30
0.0
 11
-137.9855478715
 21
958.2872319404
 31
0.0
  0
POLYLINE
  5
7F
  8
0
  6
CONTINUOUS
 62
     7
 66
     1
 10
0.0
 20
0.0
 30
0.0
  0
VERTEX
  5
41C
  8
0
  6
CONTINUOUS
 62
     7
 10
-725.0630109508
 20
-785.6511436701
 30
0.0
  0
VERTEX
  5
41D
  8
0
  6
CONTINUOUS
 62
     7
 10
-725.0808460892
 20
-785.4538503651
 30
0.0
  0
VERTEX
  5
41E
  8
0
  6
CONTINUOUS
 62
     7
 10
-725.1571207468
 20
-784.7127680596
 30
0.0
  0
SEQEND
  5
41B
  8
0
  6
CONTINUOUS
 62
     7
  0
POLYLINE
  5
80
  8
0
  6
CONTINUOUS
 62
     7
 66
     1
 10
0.0
 20
0.0
 30
0.0
  0
VERTEX
  5
420
  8
0
  6
CONTINUOUS
 62
     7
 10
-142.8139749963
 20
-784.7127680596
 30
0.0
  0
VERTEX
  5
421
  8
0
  6
CONTINUOUS
 62
     7
 10
-142.8872952752
 20
-785.4618962575
 30
0.0
  0
VERTEX
  5
422
  8
0
  6
CONTINUOUS
 62
     7
 10
-142.9047512519
 20
-785.6618999653
 30
0.0
  0
SEQEND
  5
41F
  8
0
  6
CONTINUOUS
 62
     7
  0
POLYLINE
  5
81
  8
0
  6
CONTINUOUS
 62
     7
 66
     1
 10
0.0
 20
0.0
 30
0.0
  0
VERTEX
  5
424
  8
0
  6
CONTINUOUS
 62
     7
 10
-725.1571207468
 20
-785.7127686791
 30
0.0
  0
VERTEX
  5
425
  8
0
  6
CONTINUOUS
 62
     7
 10
-725.0838004679
 20
-785.6810894956
 30
0.0
  0
VERTEX
  5
426
  8
0
  6
CONTINUOUS
 62
     7
 10
-725.0308501174
 20
-785.6048182697
 30
0.0
  0
VERTEX
  5
427
  8
0
  6
CONTINUOUS
 62
     7
 10
-724.9860592019
 20
-785.4133563734
 30
0.0
  0
VERTEX
  5
428
  8
0
  6
CONTINUOUS
 62
     7
 10
-725.0269109459
 20
-785.1586735426
 30
0.0
  0
VERTEX
  5
429
  8
0
  6
CONTINUOUS
 62
     7
 10
-725.0808460892
 20
-784.9597955968
 30
0.0
  0
VERTEX
  5
42A
  8
0
  6
CONTINUOUS
 62
     7
 10
-725.1571207468
 20
-784.7127680596
 30
0.0
  0
SEQEND
  5
423
  8
0
  6
CONTINUOUS
 62
     7
  0
POLYLINE
  5
82
  8
0
  6
CONTINUOUS
 62
     7
 66
     1
 10
0.0
 20
0.0
 30
0.0
  0
VERTEX
  5
42C
  8
0
  6
CONTINUOUS
 62
     7
 10
-725.1571207468
 20
985.2872319404
 30
0.0
  0
VERTEX
  5
42D
  8
0
  6
CONTINUOUS
 62
     7
 10
-725.0808460892
 20
986.0283142461
 30
0.0
  0
VERTEX
  5
42E
  8
0
  6
CONTINUOUS
 62
     7
 10
-725.0630109508
 20
986.225607551
 30
0.0
  0
SEQEND
  5
42B
  8
0
  6
CONTINUOUS
 62
     7
  0
POLYLINE
  5
83
  8
0
  6
CONTINUOUS
 62
     7
 66
     1
 10
0.0
 20
0.0
 30
0.0
  0
VERTEX
  5
430
  8
0
  6
CONTINUOUS
 62
     7
 10
-142.9047512519
 20
986.2363638461
 30
0.0
  0
VERTEX
  5
431
  8
0
  6
CONTINUOUS
 62
     7
 10
-142.8872952751
 20
986.0363601382
 30
0.0
  0
VERTEX
  5
432
  8
0
  6
CONTINUOUS
 62
     7
 10
-142.8139749963
 20
985.2872319404
 30
0.0
  0
SEQEND
  5
42F
  8
0
  6
CONTINUOUS
 62
     7
  0
POLYLINE
  5
84
  8
0
  6
CONTINUOUS
 62
     7
 66
     1
 10
0.0
 20
0.0
 30
0.0
  0
VERTEX
  5
434
  8
0
  6
CONTINUOUS
 62
     7
 10
-142.8139749963
 20
986.2872325599
 30
0.0
  0
VERTEX
  5
435
  8
0
  6
CONTINUOUS
 62
     7
 10
-142.8902496538
 20
986.2562410397
 30
0.0
  0
VERTEX
  5
436
  8
0
  6
CONTINUOUS
 62
     7
 10
-142.9441847972
 20
986.1823126846
 30
0.0
  0
VERTEX
  5
437
  8
0
  6
CONTINUOUS
 62
     7
 10
-142.9850365412
 20
986.000798513
 30
0.0
  0
VERTEX
  5
438
  8
0
  6
CONTINUOUS
 62
     7
 10
-142.9402456256
 20
985.739169615
 30
0.0
  0
VERTEX
  5
439
  8
0
  6
CONTINUOUS
 62
     7
 10
-142.8872952751
 20
985.5369414428
 30
0.0
  0
VERTEX
  5
43A
  8
0
  6
CONTINUOUS
 62
     7
 10
-142.8139749963
 20
985.2872319404
 30
0.0
  0
SEQEND
  5
433
  8
0
  6
CONTINUOUS
 62
     7
  0
POLYLINE
  5
85
  8
0
  6
CONTINUOUS
 62
     7
 66
     1
 10
0.0
 20
0.0
 30
0.0
  0
VERTEX
  5
43C
  8
0
  6
CONTINUOUS
 62
     7
 10
-725.1571207468
 20
985.2872319404
 30
0.0
  0
VERTEX
  5
43D
  8
0
  6
CONTINUOUS
 62
     7
 10
-725.0808460892
 20
985.5342594776
 30
0.0
  0
VERTEX
  5
43E
  8
0
  6
CONTINUOUS
 62
     7
 10
-725.0269109459
 20
985.7331374234
 30
0.0
  0
VERTEX
  5
43F
  8
0
  6
CONTINUOUS
 62
     7
 10
-724.9860592019
 20
985.9878202542
 30
0.0
  0
VERTEX
  5
440
  8
0
  6
CONTINUOUS
 62
     7
 10
-725.0308501174
 20
986.1792821505
 30
0.0
  0
VERTEX
  5
441
  8
0
  6
CONTINUOUS
 62
     7
 10
-725.0838004679
 20
986.2555533764
 30
0.0
  0
VERTEX
  5
442
  8
0
  6
CONTINUOUS
 62
     7
 10
-725.1571207468
 20
986.2872325599
 30
0.0
  0
SEQEND
  5
43B
  8
0
  6
CONTINUOUS
 62
     7
  0
POLYLINE
  5
86
  8
0
  6
CONTINUOUS
 62
     7
 66
     1
 10
0.0
 20
0.0
 30
0.0
  0
VERTEX
  5
444
  8
0
  6
CONTINUOUS
 62
     7
 10
-727.9346794117
 20
983.3680285805
 30
0.0
  0
VERTEX
  5
445
  8
0
  6
CONTINUOUS
 62
     7
 10
-727.7346759651
 20
983.3854845368
 30
0.0
  0
VERTEX
  5
446
  8
0
  6
CONTINUOUS
 62
     7
 10
-726.9855478715
 20
983.4588048156
 30
0.0
  0
SEQEND
  5
443
  8
0
  6
CONTINUOUS
 62
     7
  0
POLYLINE
  5
87
  8
0
  6
CONTINUOUS
 62
     7
 66
     1
 10
0.0
 20
0.0
 30
0.0
  0
VERTEX
  5
448
  8
0
  6
CONTINUOUS
 62
     7
 10
-727.9855480766
 20
983.4588048156
 30
0.0
  0
VERTEX
  5
449
  8
0
  6
CONTINUOUS
 62
     7
 10
-727.9545565691
 20
983.382530158
 30
0.0
  0
VERTEX
  5
44A
  8
0
  6
CONTINUOUS
 62
     7
 10
-727.8806282443
 20
983.3285950146
 30
0.0
  0
VERTEX
  5
44B
  8
0
  6
CONTINUOUS
 62
     7
 10
-727.6991141485
 20
983.2877432707
 30
0.0
  0
VERTEX
  5
44C
  8
0
  6
CONTINUOUS
 62
     7
 10
-727.4374853586
 20
983.3325341864
 30
0.0
  0
VERTEX
  5
44D
  8
0
  6
CONTINUOUS
 62
     7
 10
-727.2352572702
 20
983.3854845368
 30
0.0
  0
VERTEX
  5
44E
  8
0
  6
CONTINUOUS
 62
     7
 10
-726.9855478715
 20
983.4588048156
 30
0.0
  0
SEQEND
  5
447
  8
0
  6
CONTINUOUS
 62
     7
  0
POLYLINE
  5
88
  8
0
  6
CONTINUOUS
 62
     7
 66
     1
 10
0.0
 20
0.0
 30
0.0
  0
VERTEX
  5
450
  8
0
  6
CONTINUOUS
 62
     7
 10
-726.9855478715
 20
-782.8843409349
 30
0.0
  0
VERTEX
  5
451
  8
0
  6
CONTINUOUS
 62
     7
 10
-727.7346759624
 20
-782.8110206561
 30
0.0
  0
VERTEX
  5
452
  8
0
  6
CONTINUOUS
 62
     7
 10
-727.9346794116
 20
-782.7935646995
 30
0.0
  0
SEQEND
  5
44F
  8
0
  6
CONTINUOUS
 62
     7
  0
POLYLINE
  5
89
  8
0
  6
CONTINUOUS
 62
     7
 66
     1
 10
0.0
 20
0.0
 30
0.0
  0
VERTEX
  5
454
  8
0
  6
CONTINUOUS
 62
     7
 10
-726.9855478715
 20
-782.8843409349
 30
0.0
  0
VERTEX
  5
455
  8
0
  6
CONTINUOUS
 62
     7
 10
-727.2352572693
 20
-782.8110206561
 30
0.0
  0
VERTEX
  5
456
  8
0
  6
CONTINUOUS
 62
     7
 10
-727.4374853574
 20
-782.7580703057
 30
0.0
  0
VERTEX
  5
457
  8
0
  6
CONTINUOUS
 62
     7
 10
-727.6991141485
 20
-782.71327939
 30
0.0
  0
VERTEX
  5
458
  8
0
  6
CONTINUOUS
 62
     7
 10
-727.8806282445
 20
-782.7541311339
 30
0.0
  0
VERTEX
  5
459
  8
0
  6
CONTINUOUS
 62
     7
 10
-727.9545565692
 20
-782.8080662773
 30
0.0
  0
VERTEX
  5
45A
  8
0
  6
CONTINUOUS
 62
     7
 10
-727.9855480766
 20
-782.8843409349
 30
0.0
  0
SEQEND
  5
453
  8
0
  6
CONTINUOUS
 62
     7
  0
POLYLINE
  5
8A
  8
0
  6
CONTINUOUS
 62
     7
 66
     1
 10
0.0
 20
0.0
 30
0.0
  0
VERTEX
  5
45C
  8
0
  6
CONTINUOUS
 62
     7
 10
-142.8139749963
 20
-784.7127680596
 30
0.0
  0
VERTEX
  5
45D
  8
0
  6
CONTINUOUS
 62
     7
 10
-142.8872952752
 20
-784.9624775621
 30
0.0
  0
VERTEX
  5
45E
  8
0
  6
CONTINUOUS
 62
     7
 10
-142.9402456257
 20
-785.1647057343
 30
0.0
  0
VERTEX
  5
45F
  8
0
  6
CONTINUOUS
 62
     7
 10
-142.9850365412
 20
-785.4263346323
 30
0.0
  0
VERTEX
  5
460
  8
0
  6
CONTINUOUS
 62
     7
 10
-142.9441847971
 20
-785.6078488042
 30
0.0
  0
VERTEX
  5
461
  8
0
  6
CONTINUOUS
 62
     7
 10
-142.8902496538
 20
-785.6817771591
 30
0.0
  0
VERTEX
  5
462
  8
0
  6
CONTINUOUS
 62
     7
 10
-142.8139749963
 20
-785.7127686791
 30
0.0
  0
SEQEND
  5
45B
  8
0
  6
CONTINUOUS
 62
     7
  0
POLYLINE
  5
8B
  8
0
  6
CONTINUOUS
 62
     7
 66
     1
 10
0.0
 20
0.0
 30
0.0
  0
VERTEX
  5
464
  8
0
  6
CONTINUOUS
 62
     7
 10
-140.9855478715
 20
983.4588048156
 30
0.0
  0
VERTEX
  5
465
  8
0
  6
CONTINUOUS
 62
     7
 10
-140.2444656654
 20
983.382530158
 30
0.0
  0
VERTEX
  5
466
  8
0
  6
CONTINUOUS
 62
     7
 10
-140.0471726195
 20
983.3646950405
 30
0.0
  0
SEQEND
  5
463
  8
0
  6
CONTINUOUS
 62
     7
  0
POLYLINE
  5
8C
  8
0
  6
CONTINUOUS
 62
     7
 66
     1
 10
0.0
 20
0.0
 30
0.0
  0
VERTEX
  5
468
  8
0
  6
CONTINUOUS
 62
     7
 10
-140.9855478715
 20
983.4588048156
 30
0.0
  0
VERTEX
  5
469
  8
0
  6
CONTINUOUS
 62
     7
 10
-140.7385204357
 20
983.382530158
 30
0.0
  0
VERTEX
  5
46A
  8
0
  6
CONTINUOUS
 62
     7
 10
-140.5396425721
 20
983.3285950146
 30
0.0
  0
VERTEX
  5
46B
  8
0
  6
CONTINUOUS
 62
     7
 10
-140.2849598481
 20
983.2877432707
 30
0.0
  0
VERTEX
  5
46C
  8
0
  6
CONTINUOUS
 62
     7
 10
-140.0934980304
 20
983.3325341864
 30
0.0
  0
VERTEX
  5
46D
  8
0
  6
CONTINUOUS
 62
     7
 10
-140.0172268365
 20
983.3854845368
 30
0.0
  0
VERTEX
  5
46E
  8
0
  6
CONTINUOUS
 62
     7
 10
-139.9855476664
 20
983.4588048156
 30
0.0
  0
SEQEND
  5
467
  8
0
  6
CONTINUOUS
 62
     7
  0
POLYLINE
  5
8D
  8
0
  6
CONTINUOUS
 62
     7
 66
     1
 10
0.0
 20
0.0
 30
0.0
  0
VERTEX
  5
470
  8
0
  6
CONTINUOUS
 62
     7
 10
-140.0471726197
 20
-782.7902311599
 30
0.0
  0
VERTEX
  5
471
  8
0
  6
CONTINUOUS
 62
     7
 10
-140.2444656642
 20
-782.8080662773
 30
0.0
  0
VERTEX
  5
472
  8
0
  6
CONTINUOUS
 62
     7
 10
-140.9855478715
 20
-782.8843409349
 30
0.0
  0
SEQEND
  5
46F
  8
0
  6
CONTINUOUS
 62
     7
  0
POLYLINE
  5
8E
  8
0
  6
CONTINUOUS
 62
     7
 66
     1
 10
0.0
 20
0.0
 30
0.0
  0
VERTEX
  5
474
  8
0
  6
CONTINUOUS
 62
     7
 10
-139.9855476664
 20
-782.8843409349
 30
0.0
  0
VERTEX
  5
475
  8
0
  6
CONTINUOUS
 62
     7
 10
-140.0172268367
 20
-782.8110206561
 30
0.0
  0
VERTEX
  5
476
  8
0
  6
CONTINUOUS
 62
     7
 10
-140.093498031
 20
-782.7580703057
 30
0.0
  0
VERTEX
  5
477
  8
0
  6
CONTINUOUS
 62
     7
 10
-140.2849598481
 20
-782.71327939
 30
0.0
  0
VERTEX
  5
478
  8
0
  6
CONTINUOUS
 62
     7
 10
-140.5396425717
 20
-782.7541311339
 30
0.0
  0
VERTEX
  5
479
  8
0
  6
CONTINUOUS
 62
     7
 10
-140.7385204353
 20
-782.8080662773
 30
0.0
  0
VERTEX
  5
47A
  8
0
  6
CONTINUOUS
 62
     7
 10
-140.9855478715
 20
-782.8843409349
 30
0.0
  0
SEQEND
  5
473
  8
0
  6
CONTINUOUS
 62
     7
  0
ARC
  5
8F
  8
0
  6
CONTINUOUS
 62
     7
 10
-139.9855478715
 20
986.2872319404
 30
0.0
 40
2.999999999999995
 50
199.4712206345
 51
250.5287793655
  0
ARC
  5
90
  8
0
  6
CONTINUOUS
 62
     7
 10
-139.9855478715
 20
-785.7127680596
 30
0.0
 40
3.000000000000011
 50
109.4712206345
 51
160.5287793655
  0
ARC
  5
91
  8
0
  6
CONTINUOUS
 62
     7
 10
-727.9855478715
 20
-785.7127680596
 30
0.0
 40
3.000000000000129
 50
19.4712206345
 51
70.5287793655
  0
ARC
  5
92
  8
0
  6
CONTINUOUS
 62
     7
 10
-727.9855478715
 20
986.2872319404
 30
0.0
 40
3.000000000000205
 50
289.4712206345
 51
340.5287793655
  0
ARC
  5
93
  8
0
  6
CONTINUOUS
 62
     7
 10
-148.9855478715
 20
92.2872319404
 30
0.0
 40
2.500000000000004
 50
249.5126848508
 51
110.4873151256
  0
LINE
  5
94
  8
0
  6
CONTINUOUS
 62
     7
 10
-154.4855478715
 20
85.7872319404
 30
0.0
 11
-153.4855478715
 21
85.7872319404
 31
0.0
  0
LINE
  5
95
  8
0
  6
CONTINUOUS
 62
     7
 10
-154.4855478715
 20
85.7872319404
 30
0.0
 11
-154.4855478715
 21
98.7872319404
 31
0.0
  0
LINE
  5
96
  8
0
  6
CONTINUOUS
 62
     7
 10
-153.4855478715
 20
98.7872319404
 30
0.0
 11
-154.4855478715
 21
98.7872319404
 31
0.0
  0
LINE
  5
97
  8
0
  6
CONTINUOUS
 62
     7
 10
-142.4855478715
 20
85.7872319404
 30
0.0
 11
-153.4855478715
 21
85.7872319404
 31
0.0
  0
LINE
  5
98
  8
0
  6
CONTINUOUS
 62
     7
 10
-142.4855478715
 20
98.7872319404
 30
0.0
 11
-153.4855478715
 21
98.7872319404
 31
0.0
  0
CIRCLE
  5
99
  8
0
  6
CONTINUOUS
 62
     7
 10
-147.9855478715
 20
92.2872319404
 30
0.0
 40
3.0
  0
LINE
  5
9A
  8
0
  6
CONTINUOUS
 62
     7
 10
-141.4855478715
 20
98.7872319404
 30
0.0
 11
-142.4855478715
 21
98.7872319404
 31
0.0
  0
LINE
  5
9B
  8
0
  6
CONTINUOUS
 62
     7
 10
-141.4855478715
 20
98.7872319404
 30
0.0
 11
-141.4855478715
 21
85.7872319404
 31
0.0
  0
LINE
  5
9C
  8
0
  6
CONTINUOUS
 62
     7
 10
-142.4855478715
 20
85.7872319404
 30
0.0
 11
-141.4855478715
 21
85.7872319404
 31
0.0
  0
LINE
  5
9D
  8
0
  6
CONTINUOUS
 62
     7
 10
411.5144521285
 20
-748.2127680596
 30
0.0
 11
-125.9855478715
 21
-748.2127680596
 31
0.0
  0
LINE
  5
9E
  8
0
  6
CONTINUOUS
 62
     7
 10
411.5144521285
 20
-763.2127680596
 30
0.0
 11
-44.0575581871
 21
-763.2127680596
 31
0.0
  0
LINE
  5
9F
  8
0
  6
CONTINUOUS
 62
     7
 10
-55.913537556
 20
-763.2127680596
 30
0.0
 11
-125.9855478715
 21
-763.2127680596
 31
0.0
  0
LINE
  5
A0
  8
0
  6
CONTINUOUS
 62
     7
 10
-127.9855478715
 20
-750.2903553878
 30
0.0
 11
-127.9855478715
 21
-762.198880008
 31
0.0
  0
LINE
  5
A1
  8
0
  6
CONTINUOUS
 62
     7
 10
411.5144521285
 20
948.7872319404
 30
0.0
 11
-125.9855478715
 21
948.7872319404
 31
0.0
  0
LINE
  5
A2
  8
0
  6
CONTINUOUS
 62
     7
 10
-127.9855478715
 20
950.8648192686
 30
0.0
 11
-127.9855478715
 21
962.7733438887
 31
0.0
  0
LINE
  5
A3
  8
0
  6
CONTINUOUS
 62
     7
 10
411.5144521285
 20
963.7872319404
 30
0.0
 11
-44.0575581871
 21
963.7872319404
 31
0.0
  0
LINE
  5
A4
  8
0
  6
CONTINUOUS
 62
     7
 10
-55.913537556
 20
963.7872319404
 30
0.0
 11
-125.9855478715
 21
963.7872319404
 31
0.0
  0
ARC
  5
A5
  8
0
  6
CONTINUOUS
 62
     7
 10
411.5144521285
 20
-743.2127680596
 30
0.0
 40
4.999999999999773
 50
270.0
 51
0.0
  0
ARC
  5
A6
  8
0
  6
CONTINUOUS
 62
     7
 10
411.5144521285
 20
-743.2127680596
 30
0.0
 40
19.99999999999966
 50
270.0
 51
0.0
  0
LINE
  5
A7
  8
0
  6
CONTINUOUS
 62
     7
 10
416.5144521285
 20
-743.2127680596
 30
0.0
 11
416.5144521285
 21
943.7872319404
 31
0.0
  0
LINE
  5
A8
  8
0
  6
CONTINUOUS
 62
     7
 10
431.5144521285
 20
-743.2127680596
 30
0.0
 11
431.5144521285
 21
943.7872319404
 31
0.0
  0
ARC
  5
A9
  8
0
  6
CONTINUOUS
 62
     7
 10
411.5144521285
 20
943.7872319404
 30
0.0
 40
4.999999999999886
 50
0.0
 51
90.0
  0
ARC
  5
AA
  8
0
  6
CONTINUOUS
 62
     7
 10
411.5144521285
 20
943.7872319404
 30
0.0
 40
19.99999999999977
 50
0.0
 51
90.0
  0
ARC
  5
AB
  8
0
  6
CONTINUOUS
 62
     7
 10
-679.4855478715
 20
943.7872319404
 30
0.0
 40
4.999999999999773
 50
90.0
 51
180.0
  0
ARC
  5
AC
  8
0
  6
CONTINUOUS
 62
     7
 10
-679.4855478715
 20
943.7872319404
 30
0.0
 40
19.99999999999966
 50
90.0
 51
180.0
  0
LINE
  5
AD
  8
0
  6
CONTINUOUS
 62
     7
 10
-684.4855478715
 20
943.7872319404
 30
0.0
 11
-684.4855478715
 21
-743.2127680596
 31
0.0
  0
LINE
  5
AE
  8
0
  6
CONTINUOUS
 62
     7
 10
-699.4855478715
 20
943.7872319404
 30
0.0
 11
-699.4855478715
 21
-743.2127680596
 31
0.0
  0
ARC
  5
AF
  8
0
  6
CONTINUOUS
 62
     7
 10
-679.4855478715
 20
-743.2127680596
 30
0.0
 40
4.999999999999886
 50
180.0
 51
270.0
  0
ARC
  5
B0
  8
0
  6
CONTINUOUS
 62
     7
 10
-679.4855478715
 20
-743.2127680596
 30
0.0
 40
19.99999999999977
 50
180.0
 51
270.0
  0
LINE
  5
B1
  8
0
  6
CONTINUOUS
 62
     7
 10
-679.4855478715
 20
948.7872319404
 30
0.0
 11
-140.9855478715
 21
948.7872319404
 31
0.0
  0
LINE
  5
B2
  8
0
  6
CONTINUOUS
 62
     7
 10
-679.4855478715
 20
963.7872319404
 30
0.0
 11
-223.913537556
 21
963.7872319404
 31
0.0
  0
LINE
  5
B3
  8
0
  6
CONTINUOUS
 62
     7
 10
-212.0575581871
 20
963.7872319404
 30
0.0
 11
-140.9855478715
 21
963.7872319404
 31
0.0
  0
LINE
  5
B4
  8
0
  6
CONTINUOUS
 62
     7
 10
-139.9855478715
 20
950.8648192686
 30
0.0
 11
-139.9855478715
 21
962.7733438887
 31
0.0
  0
LINE
  5
B5
  8
0
  6
CONTINUOUS
 62
     7
 10
-679.4855478715
 20
-748.2127680596
 30
0.0
 11
-140.9855478715
 21
-748.2127680596
 31
0.0
  0
LINE
  5
B6
  8
0
  6
CONTINUOUS
 62
     7
 10
-139.9855478715
 20
-750.2903553879
 30
0.0
 11
-139.9855478715
 21
-762.198880008
 31
0.0
  0
LINE
  5
B7
  8
0
  6
CONTINUOUS
 62
     7
 10
-679.4855478715
 20
-763.2127680596
 30
0.0
 11
-223.913537556
 21
-763.2127680596
 31
0.0
  0
LINE
  5
B8
  8
0
  6
CONTINUOUS
 62
     7
 10
-212.0575581871
 20
-763.2127680596
 30
0.0
 11
-140.9855478715
 21
-763.2127680596
 31
0.0
  0
CIRCLE
  5
B9
  8
0
  6
CONTINUOUS
 62
     7
 10
-629.9855478715
 20
-687.7127680596
 30
0.0
 40
3.9999999999999
  0
CIRCLE
  5
BA
  8
0
  6
CONTINUOUS
 62
     7
 10
-629.9855478715
 20
-687.7127680596
 30
0.0
 40
3.499999999999976
  0
CIRCLE
  5
BB
  8
0
  6
CONTINUOUS
 62
     7
 10
-629.9855478715
 20
-687.7127680596
 30
0.0
 40
4.99999999999997
  0
CIRCLE
  5
BC
  8
0
  6
CONTINUOUS
 62
     7
 10
362.0144536479
 20
-687.7127680596
 30
0.0
 40
4.000000000000046
  0
CIRCLE
  5
BD
  8
0
  6
CONTINUOUS
 62
     7
 10
362.0144536479
 20
-687.7127680596
 30
0.0
 40
3.500000000000003
  0
CIRCLE
  5
BE
  8
0
  6
CONTINUOUS
 62
     7
 10
362.0144536479
 20
-687.7127680596
 30
0.0
 40
5.000000000000088
  0
ARC
  5
BF
  8
0
  6
CONTINUOUS
 62
     7
 10
-129.1522215565
 20
948.5533881289
 30
0.0
 40
1.766162983478932
 50
269.8410663731
 51
311.3433335687
  0
LINE
  5
C0
  8
0
  6
CONTINUOUS
 62
     7
 10
-127.9855478715
 20
-746.6529513364
 30
0.0
 11
-127.9855478715
 21
947.2274152172
 31
0.0
  0
ARC
  5
C1
  8
0
  6
CONTINUOUS
 62
     7
 10
-129.1522215565
 20
-747.9789242482
 30
0.0
 40
1.766162983477761
 50
48.6566664313
 51
90.1589336269
  0
LINE
  5
C2
  8
0
  6
CONTINUOUS
 62
     7
 10
-131.9855478715
 20
946.7872319404
 30
0.0
 11
-129.1571207364
 21
946.7872319404
 31
0.0
  0
LINE
  5
C3
  8
0
  6
CONTINUOUS
 62
     7
 10
-129.1571207364
 20
-746.2127680596
 30
0.0
 11
-131.9855478715
 21
-746.2127680596
 31
0.0
  0
LINE
  5
C4
  8
0
  6
CONTINUOUS
 62
     7
 10
-154.9855478715
 20
946.7872319404
 30
0.0
 11
-131.9855478715
 21
946.7872319404
 31
0.0
  0
LINE
  5
C5
  8
0
  6
CONTINUOUS
 62
     7
 10
-154.9855478715
 20
-746.2127680596
 30
0.0
 11
-154.9855478715
 21
946.7872319404
 31
0.0
  0
LINE
  5
C6
  8
0
  6
CONTINUOUS
 62
     7
 10
-154.9855478715
 20
-746.2127680596
 30
0.0
 11
-131.9855478715
 21
-746.2127680596
 31
0.0
  0
ARC
  5
C7
  8
0
  6
CONTINUOUS
 62
     7
 10
-130.6983775275
 20
947.5661659785
 30
0.0
 40
0.7892263412781131
 50
279.263310695
 51
334.5820083094
  0
LINE
  5
C8
  8
0
  6
CONTINUOUS
 62
     7
 10
-127.9855478715
 20
947.2274152172
 30
0.0
 11
-129.9855478568
 21
947.2274152172
 31
0.0
  0
ARC
  5
C9
  8
0
  6
CONTINUOUS
 62
     7
 10
-130.6983775275
 20
-746.9917020978
 30
0.0
 40
0.7892263412773529
 50
25.4179916906
 51
80.736689305
  0
LINE
  5
CA
  8
0
  6
CONTINUOUS
 62
     7
 10
-127.9855478715
 20
-746.6529513364
 30
0.0
 11
-129.9855478715
 21
-746.6529513364
 31
0.0
  0
LINE
  5
CB
  8
0
  6
CONTINUOUS
 62
     7
 10
-129.9855478715
 20
-749.8530139633
 30
0.0
 11
-129.9855478715
 21
-746.6529513364
 31
0.0
  0
LINE
  5
CC
  8
0
  6
CONTINUOUS
 62
     7
 10
-127.9855478715
 20
-746.6529513364
 30
0.0
 11
-127.9855478715
 21
-749.8530139633
 31
0.0
  0
LINE
  5
CD
  8
0
  6
CONTINUOUS
 62
     7
 10
-129.9855478715
 20
950.427477844
 30
0.0
 11
-129.9855478715
 21
947.2274152172
 31
0.0
  0
LINE
  5
CE
  8
0
  6
CONTINUOUS
 62
     7
 10
-127.9855478715
 20
947.2274152172
 30
0.0
 11
-127.9855478715
 21
950.427477844
 31
0.0
  0
LINE
  5
CF
  8
0
  6
CONTINUOUS
 62
     7
 10
-127.9855478715
 20
973.8227341098
 30
0.0
 11
-129.9855478715
 21
973.8227341098
 31
0.0
  0
LINE
  5
D0
  8
0
  6
CONTINUOUS
 62
     7
 10
-127.9855478715
 20
973.8227341098
 30
0.0
 11
-127.9855484903
 21
984.2872319404
 31
0.0
  0
LINE
  5
D1
  8
0
  6
CONTINUOUS
 62
     7
 10
-129.9855484903
 20
984.2872319404
 30
0.0
 11
-129.9855478715
 21
973.8227341098
 31
0.0
  0
LINE
  5
D2
  8
0
  6
CONTINUOUS
 62
     7
 10
-127.9855478715
 20
-773.248270229
 30
0.0
 11
-129.9855478715
 21
-773.248270229
 31
0.0
  0
LINE
  5
D3
  8
0
  6
CONTINUOUS
 62
     7
 10
-127.9855478715
 20
-773.248270229
 30
0.0
 11
-127.9855478715
 21
-783.7127680596
 31
0.0
  0
LINE
  5
D4
  8
0
  6
CONTINUOUS
 62
     7
 10
-129.9855481809
 20
-783.7127680596
 30
0.0
 11
-129.9855478715
 21
-773.248270229
 31
0.0
  0
LINE
  5
D5
  8
0
  6
CONTINUOUS
 62
     7
 10
-127.9855478715
 20
964.2779655256
 30
0.0
 11
-127.9855478715
 21
973.8227341098
 31
0.0
  0
LINE
  5
D6
  8
0
  6
CONTINUOUS
 62
     7
 10
-129.9855478715
 20
973.8227341098
 30
0.0
 11
-129.9855478715
 21
964.2779655256
 31
0.0
  0
LINE
  5
D7
  8
0
  6
CONTINUOUS
 62
     7
 10
-127.9855478715
 20
-763.7035016448
 30
0.0
 11
-127.9855478715
 21
-773.248270229
 31
0.0
  0
LINE
  5
D8
  8
0
  6
CONTINUOUS
 62
     7
 10
-129.9855478715
 20
-773.248270229
 30
0.0
 11
-129.9855478715
 21
-763.7035016448
 31
0.0
  0
LINE
  5
D9
  8
0
  6
CONTINUOUS
 62
     7
 10
441.5144521285
 20
986.2872319404
 30
0.0
 11
441.5144521285
 21
988.2872319404
 31
0.0
  0
LINE
  5
DA
  8
0
  6
CONTINUOUS
 62
     7
 10
-109.4855478715
 20
986.2872319404
 30
0.0
 11
-109.4855478715
 21
988.2872319404
 31
0.0
  0
LINE
  5
DB
  8
0
  6
CONTINUOUS
 62
     7
 10
-109.4855478715
 20
986.2872319404
 30
0.0
 11
441.5144521285
 21
986.2872319404
 31
0.0
  0
LINE
  5
DC
  8
0
  6
CONTINUOUS
 62
     7
 10
-109.4855478715
 20
988.2872319404
 30
0.0
 11
441.5144521285
 21
988.2872319404
 31
0.0
  0
ARC
  5
DD
  8
0
  6
CONTINUOUS
 62
     7
 10
-125.9855478715
 20
-783.7127680596
 30
0.0
 40
2.0
 50
180.0
 51
269.9999999997
  0
ARC
  5
DE
  8
0
  6
CONTINUOUS
 62
     7
 10
-125.9855472527
 20
-783.7127680596
 30
0.0
 40
4.000000928190801
 50
180.0
 51
269.9999911363
  0
ARC
  5
DF
  8
0
  6
CONTINUOUS
 62
     7
 10
-125.9855478715
 20
984.2872319404
 30
0.0
 40
2.000000618793848
 50
90.0
 51
180.0
  0
ARC
  5
E0
  8
0
  6
CONTINUOUS
 62
     7
 10
-125.9855472527
 20
984.2872319404
 30
0.0
 40
4.000001237587711
 50
90.0000088636
 51
180.0
  0
LINE
  5
E1
  8
0
  6
CONTINUOUS
 62
     7
 10
-109.4855478715
 20
-785.7127680596
 30
0.0
 11
-109.4855478715
 21
-787.7127680596
 31
0.0
  0
LINE
  5
E2
  8
0
  6
CONTINUOUS
 62
     7
 10
-125.9855478715
 20
-785.7127680596
 30
0.0
 11
-109.4855478715
 21
-785.7127680596
 31
0.0
  0
LINE
  5
E3
  8
0
  6
CONTINUOUS
 62
     7
 10
-109.4855478715
 20
-787.7127680596
 30
0.0
 11
-125.9855478715
 21
-787.7127686784
 31
0.0
  0
LINE
  5
E4
  8
0
  6
CONTINUOUS
 62
     7
 10
-109.4855478715
 20
986.2872319404
 30
0.0
 11
-109.4855478715
 21
988.2872319404
 31
0.0
  0
LINE
  5
E5
  8
0
  6
CONTINUOUS
 62
     7
 10
-109.4855478715
 20
988.2872319404
 30
0.0
 11
-125.9855478715
 21
988.2872319404
 31
0.0
  0
LINE
  5
E6
  8
0
  6
CONTINUOUS
 62
     7
 10
-125.9855478715
 20
986.2872319404
 30
0.0
 11
-109.4855478715
 21
986.2872319404
 31
0.0
  0
LINE
  5
E7
  8
0
  6
CONTINUOUS
 62
     7
 10
441.5144521285
 20
-785.7127680596
 30
0.0
 11
441.5144521285
 21
-787.7127680596
 31
0.0
  0
LINE
  5
E8
  8
0
  6
CONTINUOUS
 62
     7
 10
-109.4855478715
 20
-785.7127680596
 30
0.0
 11
-109.4855478715
 21
-787.7127680596
 31
0.0
  0
LINE
  5
E9
  8
0
  6
CONTINUOUS
 62
     7
 10
441.5144521285
 20
-787.7127680596
 30
0.0
 11
-109.4855478715
 21
-787.7127680596
 31
0.0
  0
LINE
  5
EA
  8
0
  6
CONTINUOUS
 62
     7
 10
441.5144521285
 20
-785.7127680596
 30
0.0
 11
-109.4855478715
 21
-785.7127680596
 31
0.0
  0
LINE
  5
EB
  8
0
  6
CONTINUOUS
 62
     7
 10
441.5144536479
 20
988.2872319404
 30
0.0
 11
441.5144536479
 21
986.2872319404
 31
0.0
  0
LINE
  5
EC
  8
0
  6
CONTINUOUS
 62
     7
 10
441.5144536479
 20
988.2872319404
 30
0.0
 11
458.0144536479
 21
988.2872325592
 31
0.0
  0
LINE
  5
ED
  8
0
  6
CONTINUOUS
 62
     7
 10
441.5144536479
 20
986.2872319404
 30
0.0
 11
458.0144536479
 21
986.2872319404
 31
0.0
  0
LINE
  5
EE
  8
0
  6
CONTINUOUS
 62
     7
 10
441.5144536479
 20
-787.7127680596
 30
0.0
 11
441.5144536479
 21
-785.7127680596
 31
0.0
  0
LINE
  5
EF
  8
0
  6
CONTINUOUS
 62
     7
 10
458.0144536479
 20
-787.7127680596
 30
0.0
 11
441.5144536479
 21
-787.7127680596
 31
0.0
  0
LINE
  5
F0
  8
0
  6
CONTINUOUS
 62
     7
 10
458.0144536479
 20
-785.7127680596
 30
0.0
 11
441.5144536479
 21
-785.7127680596
 31
0.0
  0
ARC
  5
F1
  8
0
  6
CONTINUOUS
 62
     7
 10
458.0144530291
 20
-783.7127680596
 30
0.0
 40
4.000000618793933
 50
270.0000088637
 51
0.0
  0
ARC
  5
F2
  8
0
  6
CONTINUOUS
 62
     7
 10
458.0144536479
 20
-783.7127680596
 30
0.0
 40
2.0
 50
270.0000000003
 51
0.0
  0
ARC
  5
F3
  8
0
  6
CONTINUOUS
 62
     7
 10
458.0144530291
 20
984.2872319404
 30
0.0
 40
4.00000123758781
 50
360.0
 51
89.9999911364
  0
ARC
  5
F4
  8
0
  6
CONTINUOUS
 62
     7
 10
458.0144536479
 20
984.2872319404
 30
0.0
 40
2.0
 50
360.0
 51
90.0
  0
LINE
  5
F5
  8
0
  6
CONTINUOUS
 62
     7
 10
462.0144542667
 20
984.2872319404
 30
0.0
 11
462.0144536479
 21
-783.7127680596
 31
0.0
  0
LINE
  5
F6
  8
0
  6
CONTINUOUS
 62
     7
 10
460.0144536479
 20
984.2872319404
 30
0.0
 11
460.0144536479
 21
-783.7127680596
 31
0.0
  0
LINE
  5
F7
  8
0
  6
CONTINUOUS
 62
     7
 10
-127.9855478715
 20
960.0011455905
 30
0.0
 11
-129.9855478715
 21
960.0011455905
 31
0.0
  0
LINE
  5
F8
  8
0
  6
CONTINUOUS
 62
     7
 10
-127.9855478715
 20
962.7733438887
 30
0.0
 11
-127.9855478715
 21
964.2779655256
 31
0.0
  0
LINE
  5
F9
  8
0
  6
CONTINUOUS
 62
     7
 10
-129.9855478715
 20
964.2779655256
 30
0.0
 11
-129.9855478715
 21
960.0011455905
 31
0.0
  0
LINE
  5
FA
  8
0
  6
CONTINUOUS
 62
     7
 10
-127.9855478715
 20
-759.4266817097
 30
0.0
 11
-129.9855480656
 21
-759.4266817097
 31
0.0
  0
LINE
  5
FB
  8
0
  6
CONTINUOUS
 62
     7
 10
-127.9855478715
 20
-762.198880008
 30
0.0
 11
-127.9855478715
 21
-763.7035016448
 31
0.0
  0
LINE
  5
FC
  8
0
  6
CONTINUOUS
 62
     7
 10
-129.9855478715
 20
-763.7035016448
 30
0.0
 11
-129.9855478715
 21
-759.4266817097
 31
0.0
  0
LINE
  5
FD
  8
0
  6
CONTINUOUS
 62
     7
 10
-129.9855480656
 20
954.5733182903
 30
0.0
 11
-127.9855478715
 21
954.5733182903
 31
0.0
  0
LINE
  5
FE
  8
0
  6
CONTINUOUS
 62
     7
 10
-129.9855478715
 20
954.5733182903
 30
0.0
 11
-129.9855478715
 21
950.427477844
 31
0.0
  0
LINE
  5
FF
  8
0
  6
CONTINUOUS
 62
     7
 10
-127.9855478715
 20
950.427477844
 30
0.0
 11
-127.9855478715
 21
950.8648192686
 31
0.0
  0
LINE
  5
100
  8
0
  6
CONTINUOUS
 62
     7
 10
-129.9855478715
 20
-753.9988544095
 30
0.0
 11
-127.9855478715
 21
-753.9988544095
 31
0.0
  0
LINE
  5
101
  8
0
  6
CONTINUOUS
 62
     7
 10
-129.9855478715
 20
-753.9988544095
 30
0.0
 11
-129.9855478715
 21
-749.8530139633
 31
0.0
  0
LINE
  5
102
  8
0
  6
CONTINUOUS
 62
     7
 10
-127.9855478715
 20
-749.8530139633
 30
0.0
 11
-127.9855478715
 21
-750.2903553878
 31
0.0
  0
ARC
  5
103
  8
0
  6
CONTINUOUS
 62
     7
 10
-49.9855478715
 20
967.2872319404
 30
0.0
 40
4.516838966197507
 50
299.5276563099
 51
180.0
  0
ARC
  5
104
  8
0
  6
CONTINUOUS
 62
     7
 10
-49.9855478715
 20
967.2872319404
 30
0.0
 40
4.516838966197504
 50
180.0
 51
240.4723436901
  0
ARC
  5
105
  8
0
  6
CONTINUOUS
 62
     7
 10
-49.9855478715
 20
-766.7127680596
 30
0.0
 40
4.516838966197504
 50
180.0
 51
60.4723436901
  0
ARC
  5
106
  8
0
  6
CONTINUOUS
 62
     7
 10
-49.9855478715
 20
-766.7127680596
 30
0.0
 40
4.51683896619751
 50
119.5276563099
 51
180.0
  0
CIRCLE
  5
107
  8
0
  6
CONTINUOUS
 62
     7
 10
-49.9855478715
 20
967.2872319404
 30
0.0
 40
3.0
  0
CIRCLE
  5
108
  8
0
  6
CONTINUOUS
 62
     7
 10
-49.9855478715
 20
-766.7127680596
 30
0.0
 40
3.0
  0
CIRCLE
  5
109
  8
0
  6
CONTINUOUS
 62
     7
 10
441.0144521285
 20
92.2872319404
 30
0.0
 40
4.516838966197326
  0
CIRCLE
  5
10A
  8
0
  6
CONTINUOUS
 62
     7
 10
441.0144521285
 20
-707.7127680596
 30
0.0
 40
4.516838966197326
  0
CIRCLE
  5
10B
  8
0
  6
CONTINUOUS
 62
     7
 10
441.0144521285
 20
892.2872319404
 30
0.0
 40
4.516838966197326
  0
CIRCLE
  5
10C
  8
0
  6
CONTINUOUS
 62
     7
 10
441.0144521285
 20
892.2872319404
 30
0.0
 40
2.999999999999886
  0
CIRCLE
  5
10D
  8
0
  6
CONTINUOUS
 62
     7
 10
441.0144521285
 20
92.2872319404
 30
0.0
 40
2.999999999999886
  0
CIRCLE
  5
10E
  8
0
  6
CONTINUOUS
 62
     7
 10
441.0144521285
 20
-707.7127680596
 30
0.0
 40
2.999999999999886
  0
LINE
  5
10F
  8
0
  6
CONTINUOUS
 62
     7
 10
-129.9855480656
 20
954.5733182903
 30
0.0
 11
-129.9662869713
 21
956.2872319404
 31
0.0
  0
LINE
  5
110
  8
0
  6
CONTINUOUS
 62
     7
 10
-129.9662869713
 20
-755.7127680596
 30
0.0
 11
-129.9855480656
 21
-753.9988544095
 31
0.0
  0
LINE
  5
111
  8
0
  6
CONTINUOUS
 62
     7
 10
-129.9662869713
 20
-757.7127680596
 30
0.0
 11
-129.9662869713
 21
-755.7127680596
 31
0.0
  0
LINE
  5
112
  8
0
  6
CONTINUOUS
 62
     7
 10
-129.9855480656
 20
-759.4266817097
 30
0.0
 11
-129.9662869713
 21
-757.7127680596
 31
0.0
  0
ARC
  5
113
  8
0
  6
CONTINUOUS
 62
     7
 10
-129.5532148447
 20
-790.9407944977
 30
0.0
 40
8.272904754416412
 50
64.453263637
 51
77.5366032464
  0
ARC
  5
114
  8
0
  6
CONTINUOUS
 62
     7
 10
-129.5532148454
 20
991.515258378
 30
0.0
 40
8.272904754352036
 50
282.4633967619
 51
295.5467363689
  0
LINE
  5
115
  8
0
  6
CONTINUOUS
 62
     7
 10
-129.9662869713
 20
958.2872319404
 30
0.0
 11
-129.9855480656
 21
960.0011455905
 31
0.0
  0
LINE
  5
116
  8
0
  6
CONTINUOUS
 62
     7
 10
-129.9662869713
 20
956.2872319404
 30
0.0
 11
-129.9662869713
 21
958.2872319404
 31
0.0
  0
POLYLINE
  5
117
  8
0
  6
CONTINUOUS
 62
     7
 66
     1
 10
0.0
 20
0.0
 30
0.0
  0
VERTEX
  5
47C
  8
0
  6
CONTINUOUS
 62
     7
 10
-127.9855480656
 20
984.0511639629
 30
0.0
  0
VERTEX
  5
47D
  8
0
  6
CONTINUOUS
 62
     7
 10
-127.9423697997
 20
983.7170528842
 30
0.0
  0
VERTEX
  5
47E
  8
0
  6
CONTINUOUS
 62
     7
 10
-127.8210162224
 20
983.478360365
 30
0.0
  0
VERTEX
  5
47F
  8
0
  6
CONTINUOUS
 62
     7
 10
-127.6352385523
 20
983.3350864052
 30
0.0
  0
VERTEX
  5
480
  8
0
  6
CONTINUOUS
 62
     7
 10
-127.3997634459
 20
983.2872310049
 30
0.0
  0
VERTEX
  5
481
  8
0
  6
CONTINUOUS
 62
     7
 10
-127.1170160596
 20
983.3348675907
 30
0.0
  0
VERTEX
  5
482
  8
0
  6
CONTINUOUS
 62
     7
 10
-126.7810502932
 20
983.4780686123
 30
0.0
  0
VERTEX
  5
483
  8
0
  6
CONTINUOUS
 62
     7
 10
-126.3997746547
 20
983.7168340697
 30
0.0
  0
VERTEX
  5
484
  8
0
  6
CONTINUOUS
 62
     7
 10
-125.9855478715
 20
984.0511639629
 30
0.0
  0
SEQEND
  5
47B
  8
0
  6
CONTINUOUS
 62
     7
  0
POLYLINE
  5
118
  8
0
  6
CONTINUOUS
 62
     7
 66
     1
 10
0.0
 20
0.0
 30
0.0
  0
VERTEX
  5
486
  8
0
  6
CONTINUOUS
 62
     7
 10
-125.9855478715
 20
-783.4767000821
 30
0.0
  0
VERTEX
  5
487
  8
0
  6
CONTINUOUS
 62
     7
 10
-126.3997746544
 20
-783.1423701892
 30
0.0
  0
VERTEX
  5
488
  8
0
  6
CONTINUOUS
 62
     7
 10
-126.7810502928
 20
-782.9036047319
 30
0.0
  0
VERTEX
  5
489
  8
0
  6
CONTINUOUS
 62
     7
 10
-127.1170160593
 20
-782.7604037102
 30
0.0
  0
VERTEX
  5
48A
  8
0
  6
CONTINUOUS
 62
     7
 10
-127.3997634459
 20
-782.7127671242
 30
0.0
  0
VERTEX
  5
48B
  8
0
  6
CONTINUOUS
 62
     7
 10
-127.6352385521
 20
-782.7606225242
 30
0.0
  0
VERTEX
  5
48C
  8
0
  6
CONTINUOUS
 62
     7
 10
-127.8210162222
 20
-782.9038964839
 30
0.0
  0
VERTEX
  5
48D
  8
0
  6
CONTINUOUS
 62
     7
 10
-127.9423697996
 20
-783.1425890032
 30
0.0
  0
VERTEX
  5
48E
  8
0
  6
CONTINUOUS
 62
     7
 10
-127.9855480656
 20
-783.4767000821
 30
0.0
  0
SEQEND
  5
485
  8
0
  6
CONTINUOUS
 62
     7
  0
ARC
  5
119
  8
0
  6
CONTINUOUS
 62
     7
 10
-133.1733248577
 20
987.8417714091
 30
0.0
 40
8.230930985026147
 50
334.4148847821
 51
347.5636499348
  0
POLYLINE
  5
11A
  8
0
  6
CONTINUOUS
 62
     7
 66
     1
 10
0.0
 20
0.0
 30
0.0
  0
VERTEX
  5
490
  8
0
  6
CONTINUOUS
 62
     7
 10
-125.749479894
 20
984.2872319404
 30
0.0
  0
VERTEX
  5
491
  8
0
  6
CONTINUOUS
 62
     7
 10
-125.4153688172
 20
984.7005659259
 30
0.0
  0
VERTEX
  5
492
  8
0
  6
CONTINUOUS
 62
     7
 10
-125.1766762986
 20
985.0816171287
 30
0.0
  0
VERTEX
  5
493
  8
0
  6
CONTINUOUS
 62
     7
 10
-125.0334023382
 20
985.4179455194
 30
0.0
  0
VERTEX
  5
494
  8
0
  6
CONTINUOUS
 62
     7
 10
-124.985546936
 20
985.7014440655
 30
0.0
  0
VERTEX
  5
495
  8
0
  6
CONTINUOUS
 62
     7
 10
-125.0331835238
 20
985.9364053031
 30
0.0
  0
VERTEX
  5
496
  8
0
  6
CONTINUOUS
 62
     7
 10
-125.1763845461
 20
986.1222166352
 30
0.0
  0
VERTEX
  5
497
  8
0
  6
CONTINUOUS
 62
     7
 10
-125.4151500028
 20
986.2438654556
 30
0.0
  0
VERTEX
  5
498
  8
0
  6
CONTINUOUS
 62
     7
 10
-125.749479894
 20
986.2872325592
 30
0.0
  0
SEQEND
  5
48F
  8
0
  6
CONTINUOUS
 62
     7
  0
LINE
  5
11B
  8
0
  6
CONTINUOUS
 62
     7
 10
-127.975917518
 20
-757.7127680596
 30
0.0
 11
-129.9662869713
 21
-757.7127680596
 31
0.0
  0
LINE
  5
11C
  8
0
  6
CONTINUOUS
 62
     7
 10
-127.975917518
 20
956.2872319404
 30
0.0
 11
-129.9662869713
 21
956.2872319404
 31
0.0
  0
POLYLINE
  5
11D
  8
0
  6
CONTINUOUS
 62
     7
 66
     1
 10
0.0
 20
0.0
 30
0.0
  0
VERTEX
  5
49A
  8
0
  6
CONTINUOUS
 62
     7
 10
457.7783856704
 20
986.2872325592
 30
0.0
  0
VERTEX
  5
49B
  8
0
  6
CONTINUOUS
 62
     7
 10
457.4442745918
 20
986.2440542839
 30
0.0
  0
VERTEX
  5
49C
  8
0
  6
CONTINUOUS
 62
     7
 10
457.2055820726
 20
986.1227006805
 30
0.0
  0
VERTEX
  5
49D
  8
0
  6
CONTINUOUS
 62
     7
 10
457.0623081128
 20
985.9369229709
 30
0.0
  0
VERTEX
  5
49E
  8
0
  6
CONTINUOUS
 62
     7
 10
457.0144527125
 20
985.7014478151
 30
0.0
  0
VERTEX
  5
49F
  8
0
  6
CONTINUOUS
 62
     7
 10
457.0620892982
 20
985.4187003693
 30
0.0
  0
VERTEX
  5
4A0
  8
0
  6
CONTINUOUS
 62
     7
 10
457.2052903198
 20
985.0827345319
 30
0.0
  0
VERTEX
  5
4A1
  8
0
  6
CONTINUOUS
 62
     7
 10
457.4440557772
 20
984.7014588122
 30
0.0
  0
VERTEX
  5
4A2
  8
0
  6
CONTINUOUS
 62
     7
 10
457.7783856704
 20
984.2872319404
 30
0.0
  0
SEQEND
  5
499
  8
0
  6
CONTINUOUS
 62
     7
  0
ARC
  5
11E
  8
0
  6
CONTINUOUS
 62
     7
 10
465.2424817325
 20
987.854899285
 30
0.0
 40
8.272906400140448
 50
192.4633944791
 51
205.546733767
  0
LINE
  5
11F
  8
0
  6
CONTINUOUS
 62
     7
 10
-127.975917518
 20
-755.7127680596
 30
0.0
 11
-129.9662869713
 21
-755.7127680596
 31
0.0
  0
LINE
  5
120
  8
0
  6
CONTINUOUS
 62
     7
 10
-127.975917518
 20
958.2872319404
 30
0.0
 11
-129.9662869713
 21
958.2872319404
 31
0.0
  0
ARC
  5
121
  8
0
  6
CONTINUOUS
 62
     7
 10
461.5690801542
 20
991.4752903222
 30
0.0
 40
8.231222375774022
 50
244.4151842216
 51
257.5634906405
  0
POLYLINE
  5
122
  8
0
  6
CONTINUOUS
 62
     7
 66
     1
 10
0.0
 20
0.0
 30
0.0
  0
VERTEX
  5
4A4
  8
0
  6
CONTINUOUS
 62
     7
 10
458.0144536479
 20
984.0511639629
 30
0.0
  0
VERTEX
  5
4A5
  8
0
  6
CONTINUOUS
 62
     7
 10
458.4277921553
 20
983.7170528841
 30
0.0
  0
VERTEX
  5
4A6
  8
0
  6
CONTINUOUS
 62
     7
 10
458.8088444355
 20
983.4783603649
 30
0.0
  0
VERTEX
  5
4A7
  8
0
  6
CONTINUOUS
 62
     7
 10
459.1451708811
 20
983.3350864051
 30
0.0
  0
VERTEX
  5
4A8
  8
0
  6
CONTINUOUS
 62
     7
 10
459.4286654873
 20
983.2872310049
 30
0.0
  0
VERTEX
  5
4A9
  8
0
  6
CONTINUOUS
 62
     7
 10
459.6636266779
 20
983.3348675927
 30
0.0
  0
VERTEX
  5
4AA
  8
0
  6
CONTINUOUS
 62
     7
 10
459.8494379724
 20
983.478068615
 30
0.0
  0
VERTEX
  5
4AB
  8
0
  6
CONTINUOUS
 62
     7
 10
459.971086768
 20
983.7168340717
 30
0.0
  0
VERTEX
  5
4AC
  8
0
  6
CONTINUOUS
 62
     7
 10
460.0144538627
 20
984.0511639629
 30
0.0
  0
SEQEND
  5
4A3
  8
0
  6
CONTINUOUS
 62
     7
  0
ARC
  5
123
  8
0
  6
CONTINUOUS
 62
     7
 10
461.5690801588
 20
-790.9008264573
 30
0.0
 40
8.231222392035388
 50
102.4365093662
 51
115.5848157597
  0
POLYLINE
  5
124
  8
0
  6
CONTINUOUS
 62
     7
 66
     1
 10
0.0
 20
0.0
 30
0.0
  0
VERTEX
  5
4AE
  8
0
  6
CONTINUOUS
 62
     7
 10
460.0144538627
 20
-783.4767000821
 30
0.0
  0
VERTEX
  5
4AF
  8
0
  6
CONTINUOUS
 62
     7
 10
459.9710867679
 20
-783.1423701909
 30
0.0
  0
VERTEX
  5
4B0
  8
0
  6
CONTINUOUS
 62
     7
 10
459.8494379722
 20
-782.9036047341
 30
0.0
  0
VERTEX
  5
4B1
  8
0
  6
CONTINUOUS
 62
     7
 10
459.6636266777
 20
-782.7604037119
 30
0.0
  0
VERTEX
  5
4B2
  8
0
  6
CONTINUOUS
 62
     7
 10
459.4286654873
 20
-782.7127671242
 30
0.0
  0
VERTEX
  5
4B3
  8
0
  6
CONTINUOUS
 62
     7
 10
459.1451708812
 20
-782.7606225245
 30
0.0
  0
VERTEX
  5
4B4
  8
0
  6
CONTINUOUS
 62
     7
 10
458.8088444357
 20
-782.9038964843
 30
0.0
  0
VERTEX
  5
4B5
  8
0
  6
CONTINUOUS
 62
     7
 10
458.4277921554
 20
-783.1425890035
 30
0.0
  0
VERTEX
  5
4B6
  8
0
  6
CONTINUOUS
 62
     7
 10
458.0144536479
 20
-783.4767000821
 30
0.0
  0
SEQEND
  5
4AD
  8
0
  6
CONTINUOUS
 62
     7
  0
ARC
  5
125
  8
0
  6
CONTINUOUS
 62
     7
 10
-133.1736078161
 20
-787.2673949187
 30
0.0
 40
8.23122393757383
 50
12.4365071873
 51
25.5848132959
  0
POLYLINE
  5
126
  8
0
  6
CONTINUOUS
 62
     7
 66
     1
 10
0.0
 20
0.0
 30
0.0
  0
VERTEX
  5
4B8
  8
0
  6
CONTINUOUS
 62
     7
 10
-125.749479894
 20
-785.7127686784
 30
0.0
  0
VERTEX
  5
4B9
  8
0
  6
CONTINUOUS
 62
     7
 10
-125.4151500028
 20
-785.6694015748
 30
0.0
  0
VERTEX
  5
4BA
  8
0
  6
CONTINUOUS
 62
     7
 10
-125.176384546
 20
-785.5477527544
 30
0.0
  0
VERTEX
  5
4BB
  8
0
  6
CONTINUOUS
 62
     7
 10
-125.0331835238
 20
-785.3619414223
 30
0.0
  0
VERTEX
  5
4BC
  8
0
  6
CONTINUOUS
 62
     7
 10
-124.985546936
 20
-785.1269801848
 30
0.0
  0
VERTEX
  5
4BD
  8
0
  6
CONTINUOUS
 62
     7
 10
-125.0334023364
 20
-784.8434855217
 30
0.0
  0
VERTEX
  5
4BE
  8
0
  6
CONTINUOUS
 62
     7
 10
-125.1766762961
 20
-784.5071590084
 30
0.0
  0
VERTEX
  5
4BF
  8
0
  6
CONTINUOUS
 62
     7
 10
-125.4153688154
 20
-784.1261066511
 30
0.0
  0
VERTEX
  5
4C0
  8
0
  6
CONTINUOUS
 62
     7
 10
-125.749479894
 20
-783.7127680596
 30
0.0
  0
SEQEND
  5
4B7
  8
0
  6
CONTINUOUS
 62
     7
  0
POLYLINE
  5
127
  8
0
  6
CONTINUOUS
 62
     7
 66
     1
 10
0.0
 20
0.0
 30
0.0
  0
VERTEX
  5
4C2
  8
0
  6
CONTINUOUS
 62
     7
 10
457.7783856704
 20
-783.7127680596
 30
0.0
  0
VERTEX
  5
4C3
  8
0
  6
CONTINUOUS
 62
     7
 10
457.4440557793
 20
-784.126999592
 30
0.0
  0
VERTEX
  5
4C4
  8
0
  6
CONTINUOUS
 62
     7
 10
457.2052903225
 20
-784.5082764788
 30
0.0
  0
VERTEX
  5
4C5
  8
0
  6
CONTINUOUS
 62
     7
 10
457.0620893003
 20
-784.8442404167
 30
0.0
  0
VERTEX
  5
4C6
  8
0
  6
CONTINUOUS
 62
     7
 10
457.0144527125
 20
-785.1269839344
 30
0.0
  0
VERTEX
  5
4C7
  8
0
  6
CONTINUOUS
 62
     7
 10
457.0623081127
 20
-785.3624590901
 30
0.0
  0
VERTEX
  5
4C8
  8
0
  6
CONTINUOUS
 62
     7
 10
457.2055820724
 20
-785.5482367997
 30
0.0
  0
VERTEX
  5
4C9
  8
0
  6
CONTINUOUS
 62
     7
 10
457.4442745917
 20
-785.6695904031
 30
0.0
  0
VERTEX
  5
4CA
  8
0
  6
CONTINUOUS
 62
     7
 10
457.7783856704
 20
-785.7127686784
 30
0.0
  0
SEQEND
  5
4C1
  8
0
  6
CONTINUOUS
 62
     7
  0
ARC
  5
128
  8
0
  6
CONTINUOUS
 62
     7
 10
465.2427706505
 20
-787.2805246074
 30
0.0
 40
8.273205540516688
 50
154.4535717361
 51
167.5364469876
  0
ARC
  5
129
  8
0
  6
CONTINUOUS
 62
     7
 10
460.0144536479
 20
986.2872319404
 30
0.0
 40
3.00000000000008
 50
221.8103148958
 51
228.1896851042
  0
ARC
  5
12A
  8
0
  6
CONTINUOUS
 62
     7
 10
460.0144536479
 20
-785.7127680596
 30
0.0
 40
3.000000000000063
 50
131.8103148958
 51
138.1896851042
  0
ARC
  5
12B
  8
0
  6
CONTINUOUS
 62
     7
 10
-127.9855478715
 20
-785.7127680596
 30
0.0
 40
3.000000000000029
 50
41.8103148958
 51
48.1896851042
  0
ARC
  5
12C
  8
0
  6
CONTINUOUS
 62
     7
 10
-127.9855478715
 20
986.2872319404
 30
0.0
 40
2.999999999999985
 50
311.8103148958
 51
318.1896851042
  0
LINE
  5
12D
  8
0
  6
HIDDEN
 62
     7
 10
-137.9855478715
 20
946.7872319404
 30
0.0
 11
-137.9855478715
 21
-746.2127680596
 31
0.0
  0
LINE
  5
12E
  8
0
  6
HIDDEN
 62
     7
 10
-139.9855478715
 20
946.7872319404
 30
0.0
 11
-139.9855478715
 21
-746.2127680596
 31
0.0
  0
LINE
  5
12F
  8
0
  6
HIDDEN
 62
     7
 10
-718.7355478715
 20
986.2872319404
 30
0.0
 11
-718.7355478715
 21
988.2872319404
 31
0.0
  0
LINE
  5
130
  8
0
  6
HIDDEN
 62
     7
 10
-725.864227528
 20
986.2872319404
 30
0.0
 11
-725.864227528
 21
988.2872319404
 31
0.0
  0
LINE
  5
131
  8
0
  6
HIDDEN
 62
     7
 10
-718.7355478715
 20
986.2872319404
 30
0.0
 11
-718.7355478715
 21
988.2872319404
 31
0.0
  0
LINE
  5
132
  8
0
  6
HIDDEN
 62
     7
 10
-718.7355478715
 20
-785.7127680596
 30
0.0
 11
-718.7355478715
 21
-787.7127680596
 31
0.0
  0
LINE
  5
133
  8
0
  6
HIDDEN
 62
     7
 10
-725.864227528
 20
-787.7127680596
 30
0.0
 11
-725.864227528
 21
-785.7127680596
 31
0.0
  0
LINE
  5
134
  8
0
  6
HIDDEN
 62
     7
 10
-718.7355478715
 20
-785.7127680596
 30
0.0
 11
-718.7355478715
 21
-787.7127680596
 31
0.0
  0
LINE
  5
135
  8
0
  6
HIDDEN
 62
     7
 10
-149.2355478715
 20
986.2872319404
 30
0.0
 11
-149.2355478715
 21
988.2872319404
 31
0.0
  0
LINE
  5
136
  8
0
  6
HIDDEN
 62
     7
 10
-149.2355478715
 20
-785.7127680596
 30
0.0
 11
-149.2355478715
 21
-787.7127680596
 31
0.0
  0
LINE
  5
137
  8
0
  6
HIDDEN
 62
     7
 10
-142.1068682151
 20
986.2872319404
 30
0.0
 11
-142.1068682151
 21
988.2872319404
 31
0.0
  0
LINE
  5
138
  8
0
  6
HIDDEN
 62
     7
 10
-149.2355478715
 20
986.2872319404
 30
0.0
 11
-149.2355478715
 21
988.2872319404
 31
0.0
  0
LINE
  5
139
  8
0
  6
HIDDEN
 62
     7
 10
-149.2355478715
 20
-785.7127680596
 30
0.0
 11
-149.2355478715
 21
-787.7127680596
 31
0.0
  0
LINE
  5
13A
  8
0
  6
HIDDEN
 62
     7
 10
-142.1068682151
 20
-785.7127680596
 30
0.0
 11
-142.1068682151
 21
-787.7127680596
 31
0.0
  0
LINE
  5
13B
  8
0
  6
HIDDEN
 62
     7
 10
-726.9855478715
 20
988.2872325599
 30
0.0
 11
-726.9855478715
 21
986.2872319404
 31
0.0
  0
LINE
  5
13C
  8
0
  6
HIDDEN
 62
     7
 10
-725.864227528
 20
986.2872319404
 30
0.0
 11
-725.864227528
 21
988.2872319404
 31
0.0
  0
LINE
  5
13D
  8
0
  6
HIDDEN
 62
     7
 10
-729.985548491
 20
-784.7127680596
 30
0.0
 11
-727.9855478715
 21
-784.7127680596
 31
0.0
  0
LINE
  5
13E
  8
0
  6
HIDDEN
 62
     7
 10
-729.9855478715
 20
985.2872319404
 30
0.0
 11
-727.9855478715
 21
985.2872319404
 31
0.0
  0
LINE
  5
13F
  8
0
  6
HIDDEN
 62
     7
 10
-726.9855478715
 20
-787.7127680596
 30
0.0
 11
-726.9855478715
 21
-785.7127680596
 31
0.0
  0
LINE
  5
140
  8
0
  6
HIDDEN
 62
     7
 10
-725.864227528
 20
-787.7127680596
 30
0.0
 11
-725.864227528
 21
-785.7127680596
 31
0.0
  0
LINE
  5
141
  8
0
  6
HIDDEN
 62
     7
 10
-139.9855478715
 20
-784.7127680596
 30
0.0
 11
-137.985547252
 21
-784.7127680596
 31
0.0
  0
LINE
  5
142
  8
0
  6
HIDDEN
 62
     7
 10
-140.9855478715
 20
-785.7127680596
 30
0.0
 11
-140.9855478715
 21
-787.7127686791
 31
0.0
  0
LINE
  5
143
  8
0
  6
HIDDEN
 62
     7
 10
-142.1068682151
 20
-785.7127680596
 30
0.0
 11
-142.1068682151
 21
-787.7127680596
 31
0.0
  0
LINE
  5
144
  8
0
  6
HIDDEN
 62
     7
 10
-140.9855478715
 20
986.2872319404
 30
0.0
 11
-140.9855478715
 21
988.2872319404
 31
0.0
  0
LINE
  5
145
  8
0
  6
HIDDEN
 62
     7
 10
-142.1068682151
 20
986.2872319404
 30
0.0
 11
-142.1068682151
 21
988.2872319404
 31
0.0
  0
LINE
  5
146
  8
0
  6
HIDDEN
 62
     7
 10
-139.9855478715
 20
985.2872319404
 30
0.0
 11
-137.9855478715
 21
985.2872319404
 31
0.0
  0
ARC
  5
147
  8
0
  6
HIDDEN
 62
     7
 10
-217.9855478715
 20
967.2872319404
 30
0.0
 40
4.516838966197522
 50
240.4723436901
 51
299.5276563099
  0
ARC
  5
148
  8
0
  6
HIDDEN
 62
     7
 10
-217.9855478715
 20
-766.7127680596
 30
0.0
 40
4.516838966197496
 50
60.4723436901
 51
119.5276563099
  0
ARC
  5
149
  8
0
  6
HIDDEN
 62
     7
 10
-728.9095673869
 20
-786.508515169
 30
0.0
 40
3.940949416553597
 50
342.2072715653
 51
12.5654407617
  0
ARC
  5
14A
  8
0
  6
HIDDEN
 62
     7
 10
-139.5911781174
 20
-786.5426767945
 30
0.0
 40
3.428634530058704
 50
165.114482662
 51
199.9542998468
  0
POLYLINE
  5
14B
  8
0
  6
HIDDEN
 62
     7
 66
     1
 10
0.0
 20
0.0
 30
0.0
  0
VERTEX
  5
4CC
  8
0
  6
HIDDEN
 62
     7
 10
-725.1571207468
 20
-784.7127680596
 30
0.0
  0
VERTEX
  5
4CD
  8
0
  6
HIDDEN
 62
     7
 10
-725.1571207468
 20
-784.7127680596
 30
0.0
  0
SEQEND
  5
4CB
  8
0
  6
HIDDEN
 62
     7
  0
LINE
  5
14C
  8
0
  6
HIDDEN
 62
     7
 10
-725.1571207468
 20
-785.7127680596
 30
0.0
 11
-725.1571207468
 21
-787.7127686791
 31
0.0
  0
ARC
  5
14D
  8
0
  6
HIDDEN
 62
     7
 10
-728.4225479958
 20
987.1052106853
 30
0.0
 40
3.472778546167262
 50
345.3280057498
 51
19.8992819207
  0
ARC
  5
14E
  8
0
  6
HIDDEN
 62
     7
 10
-139.1014450219
 20
987.0954639409
 30
0.0
 40
3.899126985818438
 50
162.2027192377
 51
192.7284982573
  0
ARC
  5
14F
  8
0
  6
HIDDEN
 62
     7
 10
-728.793779544
 20
987.1713341587
 30
0.0
 40
3.899126358329071
 50
252.2027176112
 51
282.7285009051
  0
POLYLINE
  5
150
  8
0
  6
HIDDEN
 62
     7
 66
     1
 10
0.0
 20
0.0
 30
0.0
  0
VERTEX
  5
4CF
  8
0
  6
HIDDEN
 62
     7
 10
-726.9855478715
 20
983.4588048156
 30
0.0
  0
VERTEX
  5
4D0
  8
0
  6
HIDDEN
 62
     7
 10
-726.9855478715
 20
983.4588048156
 30
0.0
  0
SEQEND
  5
4CE
  8
0
  6
HIDDEN
 62
     7
  0
LINE
  5
151
  8
0
  6
HIDDEN
 62
     7
 10
-727.9855478715
 20
983.4588048156
 30
0.0
 11
-729.9855480766
 21
983.4588048156
 31
0.0
  0
ARC
  5
152
  8
0
  6
HIDDEN
 62
     7
 10
-728.8154562698
 20
-786.1071372713
 30
0.0
 40
3.42863399358968
 50
75.1144797774
 51
109.9543017185
  0
POLYLINE
  5
153
  8
0
  6
HIDDEN
 62
     7
 66
     1
 10
0.0
 20
0.0
 30
0.0
  0
VERTEX
  5
4D2
  8
0
  6
HIDDEN
 62
     7
 10
-726.9855478715
 20
-782.8843409349
 30
0.0
  0
VERTEX
  5
4D3
  8
0
  6
HIDDEN
 62
     7
 10
-726.9855478715
 20
-782.8843409349
 30
0.0
  0
SEQEND
  5
4D1
  8
0
  6
HIDDEN
 62
     7
  0
LINE
  5
154
  8
0
  6
HIDDEN
 62
     7
 10
-729.9855478715
 20
-782.8843409349
 30
0.0
 11
-727.9855478715
 21
-782.8843409349
 31
0.0
  0
POLYLINE
  5
155
  8
0
  6
HIDDEN
 62
     7
 66
     1
 10
0.0
 20
0.0
 30
0.0
  0
VERTEX
  5
4D5
  8
0
  6
HIDDEN
 62
     7
 10
-725.1571207468
 20
985.2872319404
 30
0.0
  0
VERTEX
  5
4D6
  8
0
  6
HIDDEN
 62
     7
 10
-725.1571207468
 20
985.2872319404
 30
0.0
  0
SEQEND
  5
4D4
  8
0
  6
HIDDEN
 62
     7
  0
LINE
  5
156
  8
0
  6
HIDDEN
 62
     7
 10
-725.1571207468
 20
986.2872319404
 30
0.0
 11
-725.1571207468
 21
988.2872319404
 31
0.0
  0
POLYLINE
  5
157
  8
0
  6
HIDDEN
 62
     7
 66
     1
 10
0.0
 20
0.0
 30
0.0
  0
VERTEX
  5
4D8
  8
0
  6
HIDDEN
 62
     7
 10
-142.8139749963
 20
985.2872319404
 30
0.0
  0
VERTEX
  5
4D9
  8
0
  6
HIDDEN
 62
     7
 10
-142.8139749963
 20
985.2872319404
 30
0.0
  0
SEQEND
  5
4D7
  8
0
  6
HIDDEN
 62
     7
  0
LINE
  5
158
  8
0
  6
HIDDEN
 62
     7
 10
-142.8139749963
 20
988.2872325599
 30
0.0
 11
-142.8139749963
 21
986.2872319404
 31
0.0
  0
POLYLINE
  5
159
  8
0
  6
HIDDEN
 62
     7
 66
     1
 10
0.0
 20
0.0
 30
0.0
  0
VERTEX
  5
4DB
  8
0
  6
HIDDEN
 62
     7
 10
-140.9855478715
 20
983.4588048156
 30
0.0
  0
VERTEX
  5
4DC
  8
0
  6
HIDDEN
 62
     7
 10
-140.9855478715
 20
983.4588048156
 30
0.0
  0
SEQEND
  5
4DA
  8
0
  6
HIDDEN
 62
     7
  0
ARC
  5
15A
  8
0
  6
HIDDEN
 62
     7
 10
-139.1675694565
 20
986.7242314807
 30
0.0
 40
3.472777968354568
 50
255.3280027649
 51
289.8992838896
  0
LINE
  5
15B
  8
0
  6
HIDDEN
 62
     7
 10
-137.9855478715
 20
983.4588048156
 30
0.0
 11
-139.9855478715
 21
983.4588048156
 31
0.0
  0
ARC
  5
15C
  8
0
  6
HIDDEN
 62
     7
 10
-139.1898010836
 20
-786.6367869094
 30
0.0
 40
3.940948754316932
 50
72.2072698936
 51
102.5654434597
  0
POLYLINE
  5
15D
  8
0
  6
HIDDEN
 62
     7
 66
     1
 10
0.0
 20
0.0
 30
0.0
  0
VERTEX
  5
4DE
  8
0
  6
HIDDEN
 62
     7
 10
-140.9855478715
 20
-782.8843409349
 30
0.0
  0
VERTEX
  5
4DF
  8
0
  6
HIDDEN
 62
     7
 10
-140.9855478715
 20
-782.8843409349
 30
0.0
  0
SEQEND
  5
4DD
  8
0
  6
HIDDEN
 62
     7
  0
LINE
  5
15E
  8
0
  6
HIDDEN
 62
     7
 10
-139.9855478715
 20
-782.8843409349
 30
0.0
 11
-137.9855476664
 21
-782.8843409349
 31
0.0
  0
POLYLINE
  5
15F
  8
0
  6
HIDDEN
 62
     7
 66
     1
 10
0.0
 20
0.0
 30
0.0
  0
VERTEX
  5
4E1
  8
0
  6
HIDDEN
 62
     7
 10
-142.8139749963
 20
-784.7127680596
 30
0.0
  0
VERTEX
  5
4E2
  8
0
  6
HIDDEN
 62
     7
 10
-142.8139749963
 20
-784.7127680596
 30
0.0
  0
SEQEND
  5
4E0
  8
0
  6
HIDDEN
 62
     7
  0
LINE
  5
160
  8
0
  6
HIDDEN
 62
     7
 10
-142.8139749963
 20
-787.7127680596
 30
0.0
 11
-142.8139749963
 21
-785.7127680596
 31
0.0
  0
ARC
  5
161
  8
0
  6
HIDDEN
 62
     7
 10
-148.9855478715
 20
92.2872319404
 30
0.0
 40
2.500000000000004
 50
110.4873151256
 51
180.0
  0
ARC
  5
162
  8
0
  6
HIDDEN
 62
     7
 10
-148.9855478715
 20
92.2872319404
 30
0.0
 40
2.5
 50
180.0
 51
249.5126848508
  0
LINE
  5
163
  8
0
  6
HIDDEN
 62
     7
 10
-132.4855478715
 20
946.7872319404
 30
0.0
 11
-132.4855478715
 21
-746.2127680596
 31
0.0
  0
LINE
  5
164
  8
0
  6
HIDDEN
 62
     7
 10
-143.4855478715
 20
946.7872319404
 30
0.0
 11
-143.4855478715
 21
97.272135673
 31
0.0
  0
LINE
  5
165
  8
0
  6
HIDDEN
 62
     7
 10
-143.4855478715
 20
87.3023282077
 30
0.0
 11
-143.4855478715
 21
-746.2127680596
 31
0.0
  0
LINE
  5
166
  8
0
  6
HIDDEN
 62
     7
 10
-153.9855478715
 20
98.7872319404
 30
0.0
 11
-153.9855478715
 21
85.7872319404
 31
0.0
  0
LINE
  5
167
  8
0
  6
HIDDEN
 62
     7
 10
-153.4855478715
 20
98.7872319404
 30
0.0
 11
-153.4855478715
 21
85.7872319404
 31
0.0
  0
LINE
  5
168
  8
0
  6
HIDDEN
 62
     7
 10
-141.9855478715
 20
85.7872319404
 30
0.0
 11
-141.9855478715
 21
98.7872319404
 31
0.0
  0
LINE
  5
169
  8
0
  6
HIDDEN
 62
     7
 10
-142.4855478715
 20
85.7872319404
 30
0.0
 11
-142.4855478715
 21
98.7872319404
 31
0.0
  0
POLYLINE
  5
16A
  8
0
  6
HIDDEN
 62
     7
 66
     1
 10
0.0
 20
0.0
 30
0.0
  0
VERTEX
  5
4E4
  8
0
  6
HIDDEN
 62
     7
 10
-154.3515732753
 20
85.7872319404
 30
0.0
  0
VERTEX
  5
4E5
  8
0
  6
HIDDEN
 62
     7
 10
-154.2422565793
 20
86.2550364993
 30
0.0
  0
VERTEX
  5
4E6
  8
0
  6
HIDDEN
 62
     7
 10
-154.0832880682
 20
86.5414850869
 30
0.0
  0
VERTEX
  5
4E7
  8
0
  6
HIDDEN
 62
     7
 10
-153.8886539525
 20
86.7146380839
 30
0.0
  0
VERTEX
  5
4E8
  8
0
  6
HIDDEN
 62
     7
 10
-153.6834115214
 20
86.8017333958
 30
0.0
  0
VERTEX
  5
4E9
  8
0
  6
HIDDEN
 62
     7
 10
-153.4855478715
 20
86.8267326426
 30
0.0
  0
SEQEND
  5
4E3
  8
0
  6
HIDDEN
 62
     7
  0
POLYLINE
  5
16B
  8
0
  6
HIDDEN
 62
     7
 66
     1
 10
0.0
 20
0.0
 30
0.0
  0
VERTEX
  5
4EB
  8
0
  6
HIDDEN
 62
     7
 10
-154.3515732753
 20
98.7872319404
 30
0.0
  0
VERTEX
  5
4EC
  8
0
  6
HIDDEN
 62
     7
 10
-154.2422565793
 20
98.3194273814
 30
0.0
  0
VERTEX
  5
4ED
  8
0
  6
HIDDEN
 62
     7
 10
-154.0832880682
 20
98.0329787939
 30
0.0
  0
VERTEX
  5
4EE
  8
0
  6
HIDDEN
 62
     7
 10
-153.8886539525
 20
97.8598257968
 30
0.0
  0
VERTEX
  5
4EF
  8
0
  6
HIDDEN
 62
     7
 10
-153.6834115214
 20
97.7727304849
 30
0.0
  0
VERTEX
  5
4F0
  8
0
  6
HIDDEN
 62
     7
 10
-153.4855478715
 20
97.7477312381
 30
0.0
  0
SEQEND
  5
4EA
  8
0
  6
HIDDEN
 62
     7
  0
ARC
  5
16C
  8
0
  6
HIDDEN
 62
     7
 10
-142.6006153575
 20
85.8503675293
 30
0.0
 40
0.9831222512095182
 50
356.3179616268
 51
83.2785291508
  0
ARC
  5
16D
  8
0
  6
HIDDEN
 62
     7
 10
-142.6006153575
 20
98.7240963514
 30
0.0
 40
0.9831222512095182
 50
276.7214708492
 51
3.6820383732
  0
LINE
  5
16E
  8
0
  6
HIDDEN
 62
     7
 10
-152.4855478715
 20
87.7872319404
 30
0.0
 11
-152.9855478715
 21
87.7872319404
 31
0.0
  0
ARC
  5
16F
  8
0
  6
HIDDEN
 62
     7
 10
-152.8152861637
 20
86.9531423591
 30
0.0
 40
0.8512898910759388
 50
67.2109370405
 51
101.5372152302
  0
ARC
  5
170
  8
0
  6
HIDDEN
 62
     7
 10
-153.0085380016
 20
87.3515286124
 30
0.0
 40
0.5252993013198656
 50
272.5083953058
 51
354.6257048728
  0
LINE
  5
171
  8
0
  6
HIDDEN
 62
     7
 10
-152.9855478715
 20
86.8267326426
 30
0.0
 11
-153.4855478715
 21
86.8267326426
 31
0.0
  0
POLYLINE
  5
172
  8
0
  6
HIDDEN
 62
     7
 66
     1
 10
0.0
 20
0.0
 30
0.0
  0
VERTEX
  5
4F2
  8
0
  6
HIDDEN
 62
     7
 10
-151.9855478715
 20
87.3023282077
 30
0.0
  0
VERTEX
  5
4F3
  8
0
  6
HIDDEN
 62
     7
 10
-152.0591528436
 20
86.969711779
 30
0.0
  0
VERTEX
  5
4F4
  8
0
  6
HIDDEN
 62
     7
 10
-152.3250295166
 20
86.4495833818
 30
0.0
  0
VERTEX
  5
4F5
  8
0
  6
HIDDEN
 62
     7
 10
-152.7416747602
 20
85.9077099038
 30
0.0
  0
VERTEX
  5
4F6
  8
0
  6
HIDDEN
 62
     7
 10
-152.8416167881
 20
85.8316580195
 30
0.0
  0
VERTEX
  5
4F7
  8
0
  6
HIDDEN
 62
     7
 10
-152.9312197015
 20
85.7937560144
 30
0.0
  0
VERTEX
  5
4F8
  8
0
  6
HIDDEN
 62
     7
 10
-152.9855478715
 20
85.7872319404
 30
0.0
  0
SEQEND
  5
4F1
  8
0
  6
HIDDEN
 62
     7
  0
POLYLINE
  5
173
  8
0
  6
HIDDEN
 62
     7
 66
     1
 10
0.0
 20
0.0
 30
0.0
  0
VERTEX
  5
4FA
  8
0
  6
HIDDEN
 62
     7
 10
-151.9855478715
 20
97.272135673
 30
0.0
  0
VERTEX
  5
4FB
  8
0
  6
HIDDEN
 62
     7
 10
-152.0591528436
 20
97.6047521018
 30
0.0
  0
VERTEX
  5
4FC
  8
0
  6
HIDDEN
 62
     7
 10
-152.3250295166
 20
98.1248804989
 30
0.0
  0
VERTEX
  5
4FD
  8
0
  6
HIDDEN
 62
     7
 10
-152.7416747602
 20
98.666753977
 30
0.0
  0
VERTEX
  5
4FE
  8
0
  6
HIDDEN
 62
     7
 10
-152.8416167881
 20
98.7428058612
 30
0.0
  0
VERTEX
  5
4FF
  8
0
  6
HIDDEN
 62
     7
 10
-152.9312197015
 20
98.7807078663
 30
0.0
  0
VERTEX
  5
500
  8
0
  6
HIDDEN
 62
     7
 10
-152.9855478715
 20
98.7872319404
 30
0.0
  0
SEQEND
  5
4F9
  8
0
  6
HIDDEN
 62
     7
  0
LINE
  5
174
  8
0
  6
HIDDEN
 62
     7
 10
-152.9855478715
 20
97.7477312381
 30
0.0
 11
-153.4855478715
 21
97.7477312381
 31
0.0
  0
ARC
  5
175
  8
0
  6
HIDDEN
 62
     7
 10
-153.0085380016
 20
97.2229352683
 30
0.0
 40
0.5252993013198347
 50
5.3742951272
 51
87.4916046942
  0
ARC
  5
176
  8
0
  6
HIDDEN
 62
     7
 10
-152.8152861637
 20
97.6213215216
 30
0.0
 40
0.8512898910752397
 50
258.4627847698
 51
292.7890629595
  0
LINE
  5
177
  8
0
  6
HIDDEN
 62
     7
 10
-152.4855478715
 20
96.7872319404
 30
0.0
 11
-152.9855478715
 21
96.7872319404
 31
0.0
  0
LINE
  5
178
  8
0
  6
HIDDEN
 62
     7
 10
-142.4855478715
 20
86.8267326426
 30
0.0
 11
-142.9855478715
 21
86.8267326426
 31
0.0
  0
ARC
  5
179
  8
0
  6
HIDDEN
 62
     7
 10
-142.9606253457
 20
87.3535601659
 30
0.0
 40
0.5274166963780326
 50
185.5743607195
 51
267.291539102
  0
ARC
  5
17A
  8
0
  6
HIDDEN
 62
     7
 10
-143.1219101753
 20
86.6090128195
 30
0.0
 40
1.186083881819173
 50
83.3981908938
 51
107.8536568355
  0
LINE
  5
17B
  8
0
  6
HIDDEN
 62
     7
 10
-142.9855478715
 20
87.7872319404
 30
0.0
 11
-143.4855478715
 21
87.7872319404
 31
0.0
  0
POLYLINE
  5
17C
  8
0
  6
HIDDEN
 62
     7
 66
     1
 10
0.0
 20
0.0
 30
0.0
  0
VERTEX
  5
502
  8
0
  6
HIDDEN
 62
     7
 10
-142.9855478715
 20
85.7872319404
 30
0.0
  0
VERTEX
  5
503
  8
0
  6
HIDDEN
 62
     7
 10
-143.0684384657
 20
85.8023140911
 30
0.0
  0
VERTEX
  5
504
  8
0
  6
HIDDEN
 62
     7
 10
-143.1734359035
 20
85.8612355156
 30
0.0
  0
VERTEX
  5
505
  8
0
  6
HIDDEN
 62
     7
 10
-143.4164907193
 20
86.1163486289
 30
0.0
  0
VERTEX
  5
506
  8
0
  6
HIDDEN
 62
     7
 10
-143.8095616899
 20
86.7398873507
 30
0.0
  0
VERTEX
  5
507
  8
0
  6
HIDDEN
 62
     7
 10
-143.9650415946
 20
87.1408191422
 30
0.0
  0
VERTEX
  5
508
  8
0
  6
HIDDEN
 62
     7
 10
-143.9855478715
 20
87.3023282077
 30
0.0
  0
SEQEND
  5
501
  8
0
  6
HIDDEN
 62
     7
  0
POLYLINE
  5
17D
  8
0
  6
HIDDEN
 62
     7
 66
     1
 10
0.0
 20
0.0
 30
0.0
  0
VERTEX
  5
50A
  8
0
  6
HIDDEN
 62
     7
 10
-142.9855478715
 20
98.7872319404
 30
0.0
  0
VERTEX
  5
50B
  8
0
  6
HIDDEN
 62
     7
 10
-143.0684384657
 20
98.7721497897
 30
0.0
  0
VERTEX
  5
50C
  8
0
  6
HIDDEN
 62
     7
 10
-143.1734359035
 20
98.7132283651
 30
0.0
  0
VERTEX
  5
50D
  8
0
  6
HIDDEN
 62
     7
 10
-143.4164907193
 20
98.4581152518
 30
0.0
  0
VERTEX
  5
50E
  8
0
  6
HIDDEN
 62
     7
 10
-143.8095616899
 20
97.8345765301
 30
0.0
  0
VERTEX
  5
50F
  8
0
  6
HIDDEN
 62
     7
 10
-143.9650415946
 20
97.4336447385
 30
0.0
  0
VERTEX
  5
510
  8
0
  6
HIDDEN
 62
     7
 10
-143.9855478715
 20
97.272135673
 30
0.0
  0
SEQEND
  5
509
  8
0
  6
HIDDEN
 62
     7
  0
LINE
  5
17E
  8
0
  6
HIDDEN
 62
     7
 10
-142.9855478715
 20
96.7872319404
 30
0.0
 11
-143.4855478715
 21
96.7872319404
 31
0.0
  0
ARC
  5
17F
  8
0
  6
HIDDEN
 62
     7
 10
-143.1219101753
 20
97.9654510612
 30
0.0
 40
1.186083881819269
 50
252.1463431645
 51
276.6018091062
  0
ARC
  5
180
  8
0
  6
HIDDEN
 62
     7
 10
-142.9606253457
 20
97.2209037148
 30
0.0
 40
0.5274166963780055
 50
92.708460898
 51
174.4256392805
  0
LINE
  5
181
  8
0
  6
HIDDEN
 62
     7
 10
-142.4855478715
 20
97.7477312381
 30
0.0
 11
-142.9855478715
 21
97.7477312381
 31
0.0
  0
LINE
  5
182
  8
0
  6
HIDDEN
 62
     7
 10
-151.9855478715
 20
97.272135673
 30
0.0
 11
-151.9855478715
 21
87.3023282077
 31
0.0
  0
LINE
  5
183
  8
0
  6
HIDDEN
 62
     7
 10
-152.9855478715
 20
85.7872319404
 30
0.0
 11
-152.9855478715
 21
98.7872319404
 31
0.0
  0
LINE
  5
184
  8
0
  6
HIDDEN
 62
     7
 10
-143.9855478715
 20
87.3023282077
 30
0.0
 11
-143.9855478715
 21
97.272135673
 31
0.0
  0
LINE
  5
185
  8
0
  6
HIDDEN
 62
     7
 10
-142.9855478715
 20
98.7872319404
 30
0.0
 11
-142.9855478715
 21
85.7872319404
 31
0.0
  0
LINE
  5
186
  8
0
  6
HIDDEN
 62
     7
 10
-152.4855478715
 20
87.3023282077
 30
0.0
 11
-152.4855478715
 21
87.7872319404
 31
0.0
  0
LINE
  5
187
  8
0
  6
HIDDEN
 62
     7
 10
-152.4855478715
 20
96.7872319404
 30
0.0
 11
-152.4855478715
 21
97.272135673
 31
0.0
  0
LINE
  5
188
  8
0
  6
HIDDEN
 62
     7
 10
-143.4855478715
 20
97.272135673
 30
0.0
 11
-143.4855478715
 21
96.7872319404
 31
0.0
  0
LINE
  5
189
  8
0
  6
HIDDEN
 62
     7
 10
-143.4855478715
 20
87.7872319404
 30
0.0
 11
-143.4855478715
 21
87.3023282077
 31
0.0
  0
LINE
  5
18A
  8
0
  6
HIDDEN
 62
     7
 10
-152.9855478715
 20
87.7872319404
 30
0.0
 11
-154.4855478715
 21
87.7872319404
 31
0.0
  0
LINE
  5
18B
  8
0
  6
HIDDEN
 62
     7
 10
-152.9855478715
 20
96.7872319404
 30
0.0
 11
-154.4855478715
 21
96.7872319404
 31
0.0
  0
LINE
  5
18C
  8
0
  6
HIDDEN
 62
     7
 10
-141.4855478715
 20
96.7872319404
 30
0.0
 11
-142.9855478715
 21
96.7872319404
 31
0.0
  0
LINE
  5
18D
  8
0
  6
HIDDEN
 62
     7
 10
-141.4855478715
 20
87.7872319404
 30
0.0
 11
-142.9855478715
 21
87.7872319404
 31
0.0
  0
LINE
  5
18E
  8
0
  6
HIDDEN
 62
     7
 10
-125.9855478715
 20
-748.2127680596
 30
0.0
 11
-127.9855478715
 21
-748.2127680596
 31
0.0
  0
LINE
  5
18F
  8
0
  6
HIDDEN
 62
     7
 10
-44.0575581871
 20
-763.2127680596
 30
0.0
 11
-55.913537556
 21
-763.2127680596
 31
0.0
  0
LINE
  5
190
  8
0
  6
HIDDEN
 62
     7
 10
-125.9855478715
 20
-763.2127680596
 30
0.0
 11
-127.9855478715
 21
-763.2127680596
 31
0.0
  0
LINE
  5
191
  8
0
  6
HIDDEN
 62
     7
 10
-125.9855478715
 20
948.7872319404
 30
0.0
 11
-127.9855478715
 21
948.7872319404
 31
0.0
  0
LINE
  5
192
  8
0
  6
HIDDEN
 62
     7
 10
-44.0575581871
 20
963.7872319404
 30
0.0
 11
-55.913537556
 21
963.7872319404
 31
0.0
  0
LINE
  5
193
  8
0
  6
HIDDEN
 62
     7
 10
-125.9855478715
 20
963.7872319404
 30
0.0
 11
-127.9855478715
 21
963.7872319404
 31
0.0
  0
LINE
  5
194
  8
0
  6
HIDDEN
 62
     7
 10
-140.9855478715
 20
948.7872319404
 30
0.0
 11
-139.9855478715
 21
948.7872319404
 31
0.0
  0
LINE
  5
195
  8
0
  6
HIDDEN
 62
     7
 10
-223.913537556
 20
963.7872319404
 30
0.0
 11
-212.0575581871
 21
963.7872319404
 31
0.0
  0
LINE
  5
196
  8
0
  6
HIDDEN
 62
     7
 10
-140.9855478715
 20
963.7872319404
 30
0.0
 11
-139.9855478715
 21
963.7872319404
 31
0.0
  0
LINE
  5
197
  8
0
  6
HIDDEN
 62
     7
 10
-140.9855478715
 20
-748.2127680596
 30
0.0
 11
-139.9855478715
 21
-748.2127680596
 31
0.0
  0
LINE
  5
198
  8
0
  6
HIDDEN
 62
     7
 10
-223.913537556
 20
-763.2127680596
 30
0.0
 11
-212.0575581871
 21
-763.2127680596
 31
0.0
  0
LINE
  5
199
  8
0
  6
HIDDEN
 62
     7
 10
-140.9855478715
 20
-763.2127680596
 30
0.0
 11
-139.9855478715
 21
-763.2127680596
 31
0.0
  0
LINE
  5
19A
  8
0
  6
HIDDEN
 62
     7
 10
-152.4855478715
 20
87.7872319404
 30
0.0
 11
-143.4855478715
 21
87.7872319404
 31
0.0
  0
LINE
  5
19B
  8
0
  6
HIDDEN
 62
     7
 10
-143.4855478715
 20
87.7872319404
 30
0.0
 11
-143.4855478715
 21
96.7872319404
 31
0.0
  0
LINE
  5
19C
  8
0
  6
HIDDEN
 62
     7
 10
-143.4855478715
 20
96.7872319404
 30
0.0
 11
-152.4855478715
 21
96.7872319404
 31
0.0
  0
LINE
  5
19D
  8
0
  6
HIDDEN
 62
     7
 10
-152.4855478715
 20
96.7872319404
 30
0.0
 11
-152.4855478715
 21
87.7872319404
 31
0.0
  0
LINE
  5
19E
  8
0
  6
HIDDEN
 62
     7
 10
-129.9855478715
 20
-746.6529513364
 30
0.0
 11
-129.9855478715
 21
947.2274152172
 31
0.0
  0
LINE
  5
19F
  8
0
  6
HIDDEN
 62
     7
 10
-118.7355478715
 20
986.2872319404
 30
0.0
 11
-118.7355478715
 21
988.2872319404
 31
0.0
  0
LINE
  5
1A0
  8
0
  6
HIDDEN
 62
     7
 10
-125.864227528
 20
986.2872319404
 30
0.0
 11
-125.864227528
 21
988.2872319404
 31
0.0
  0
LINE
  5
1A1
  8
0
  6
HIDDEN
 62
     7
 10
-118.7355478715
 20
-785.7127680596
 30
0.0
 11
-118.7355478715
 21
-787.7127680596
 31
0.0
  0
LINE
  5
1A2
  8
0
  6
HIDDEN
 62
     7
 10
-118.7355478715
 20
986.2872319404
 30
0.0
 11
-118.7355478715
 21
988.2872319404
 31
0.0
  0
LINE
  5
1A3
  8
0
  6
HIDDEN
 62
     7
 10
450.7644521285
 20
986.2872319404
 30
0.0
 11
450.7644521285
 21
988.2872319404
 31
0.0
  0
LINE
  5
1A4
  8
0
  6
HIDDEN
 62
     7
 10
457.8931331301
 20
986.2872319404
 30
0.0
 11
457.8931331301
 21
988.2872319404
 31
0.0
  0
LINE
  5
1A5
  8
0
  6
HIDDEN
 62
     7
 10
-118.7355478715
 20
-785.7127680596
 30
0.0
 11
-118.7355478715
 21
-787.7127680596
 31
0.0
  0
LINE
  5
1A6
  8
0
  6
HIDDEN
 62
     7
 10
-125.864227528
 20
-787.7127680596
 30
0.0
 11
-125.864227528
 21
-785.7127680596
 31
0.0
  0
LINE
  5
1A7
  8
0
  6
HIDDEN
 62
     7
 10
450.7644521285
 20
-785.7127680596
 30
0.0
 11
450.7644521285
 21
-787.7127680596
 31
0.0
  0
LINE
  5
1A8
  8
0
  6
HIDDEN
 62
     7
 10
457.8931327817
 20
-785.7127680596
 30
0.0
 11
457.8931331301
 21
-787.7127680596
 31
0.0
  0
LINE
  5
1A9
  8
0
  6
HIDDEN
 62
     7
 10
450.7644536479
 20
986.2872319404
 30
0.0
 11
450.7644536479
 21
988.2872319404
 31
0.0
  0
LINE
  5
1AA
  8
0
  6
HIDDEN
 62
     7
 10
450.7644536479
 20
-785.7127680596
 30
0.0
 11
450.7644536479
 21
-787.7127680596
 31
0.0
  0
ARC
  5
1AB
  8
0
  6
HIDDEN
 62
     7
 10
-49.9855478715
 20
967.2872319404
 30
0.0
 40
4.516838966197507
 50
240.4723436901
 51
299.5276563099
  0
ARC
  5
1AC
  8
0
  6
HIDDEN
 62
     7
 10
-49.9855478715
 20
-766.7127680596
 30
0.0
 40
4.51683896619751
 50
60.4723436901
 51
119.5276563099
  0
LINE
  5
1AD
  8
0
  6
HIDDEN
 62
     7
 10
-129.9855478715
 20
984.2872319404
 30
0.0
 11
-127.9855478715
 21
984.2872319404
 31
0.0
  0
LINE
  5
1AE
  8
0
  6
HIDDEN
 62
     7
 10
-125.9855478715
 20
-787.7127680596
 30
0.0
 11
-125.9855478715
 21
-785.7127680596
 31
0.0
  0
LINE
  5
1AF
  8
0
  6
HIDDEN
 62
     7
 10
-125.864227528
 20
-787.7127680596
 30
0.0
 11
-125.864227528
 21
-785.7127680596
 31
0.0
  0
LINE
  5
1B0
  8
0
  6
HIDDEN
 62
     7
 10
-129.9855478715
 20
-783.7127680596
 30
0.0
 11
-127.9855478715
 21
-783.7127680596
 31
0.0
  0
LINE
  5
1B1
  8
0
  6
HIDDEN
 62
     7
 10
-125.9855478715
 20
988.2872325592
 30
0.0
 11
-125.9855478715
 21
986.2872319404
 31
0.0
  0
LINE
  5
1B2
  8
0
  6
HIDDEN
 62
     7
 10
-125.864227528
 20
986.2872319404
 30
0.0
 11
-125.864227528
 21
988.2872319404
 31
0.0
  0
LINE
  5
1B3
  8
0
  6
HIDDEN
 62
     7
 10
458.0144536479
 20
-785.7127680596
 30
0.0
 11
458.0144536479
 21
-787.7127686784
 31
0.0
  0
LINE
  5
1B4
  8
0
  6
HIDDEN
 62
     7
 10
457.8931331302
 20
-785.7127680596
 30
0.0
 11
457.8931331302
 21
-787.7127680596
 31
0.0
  0
LINE
  5
1B5
  8
0
  6
HIDDEN
 62
     7
 10
460.0144536479
 20
984.2872319404
 30
0.0
 11
462.0144536479
 21
984.2872319404
 31
0.0
  0
LINE
  5
1B6
  8
0
  6
HIDDEN
 62
     7
 10
458.0144536479
 20
986.2872319404
 30
0.0
 11
458.0144536479
 21
988.2872319404
 31
0.0
  0
LINE
  5
1B7
  8
0
  6
HIDDEN
 62
     7
 10
457.8931331301
 20
986.2872319404
 30
0.0
 11
457.8931331301
 21
988.2872319404
 31
0.0
  0
LINE
  5
1B8
  8
0
  6
HIDDEN
 62
     7
 10
460.0144536479
 20
-783.7127680596
 30
0.0
 11
462.0144542667
 21
-783.7127680596
 31
0.0
  0
POLYLINE
  5
1B9
  8
0
  6
HIDDEN
 62
     7
 66
     1
 10
0.0
 20
0.0
 30
0.0
  0
VERTEX
  5
512
  8
0
  6
HIDDEN
 62
     7
 10
-127.7677907418
 20
-782.8628483572
 30
0.0
  0
VERTEX
  5
513
  8
0
  6
HIDDEN
 62
     7
 10
-128.2484841373
 20
-782.7604037102
 30
0.0
  0
VERTEX
  5
514
  8
0
  6
HIDDEN
 62
     7
 10
-128.8139788831
 20
-782.7127671242
 30
0.0
  0
VERTEX
  5
515
  8
0
  6
HIDDEN
 62
     7
 10
-129.2849290727
 20
-782.7606225242
 30
0.0
  0
VERTEX
  5
516
  8
0
  6
HIDDEN
 62
     7
 10
-129.6564843948
 20
-782.9038964839
 30
0.0
  0
VERTEX
  5
517
  8
0
  6
HIDDEN
 62
     7
 10
-129.8991915378
 20
-783.1425890032
 30
0.0
  0
VERTEX
  5
518
  8
0
  6
HIDDEN
 62
     7
 10
-129.9855480656
 20
-783.4767000821
 30
0.0
  0
SEQEND
  5
511
  8
0
  6
HIDDEN
 62
     7
  0
POLYLINE
  5
1BA
  8
0
  6
HIDDEN
 62
     7
 66
     1
 10
0.0
 20
0.0
 30
0.0
  0
VERTEX
  5
51A
  8
0
  6
HIDDEN
 62
     7
 10
-129.9855480656
 20
984.0511639629
 30
0.0
  0
VERTEX
  5
51B
  8
0
  6
HIDDEN
 62
     7
 10
-129.899191538
 20
983.7170528842
 30
0.0
  0
VERTEX
  5
51C
  8
0
  6
HIDDEN
 62
     7
 10
-129.6564843951
 20
983.478360365
 30
0.0
  0
VERTEX
  5
51D
  8
0
  6
HIDDEN
 62
     7
 10
-129.284929073
 20
983.3350864052
 30
0.0
  0
VERTEX
  5
51E
  8
0
  6
HIDDEN
 62
     7
 10
-128.8139788831
 20
983.2872310049
 30
0.0
  0
VERTEX
  5
51F
  8
0
  6
HIDDEN
 62
     7
 10
-128.2484841378
 20
983.3348675907
 30
0.0
  0
VERTEX
  5
520
  8
0
  6
HIDDEN
 62
     7
 10
-127.7677907414
 20
983.4373122378
 30
0.0
  0
SEQEND
  5
519
  8
0
  6
HIDDEN
 62
     7
  0
POLYLINE
  5
1BB
  8
0
  6
HIDDEN
 62
     7
 66
     1
 10
0.0
 20
0.0
 30
0.0
  0
VERTEX
  5
522
  8
0
  6
HIDDEN
 62
     7
 10
-125.9855478715
 20
984.0511639629
 30
0.0
  0
VERTEX
  5
523
  8
0
  6
HIDDEN
 62
     7
 10
-125.9855478715
 20
984.0511639629
 30
0.0
  0
SEQEND
  5
521
  8
0
  6
HIDDEN
 62
     7
  0
LINE
  5
1BC
  8
0
  6
HIDDEN
 62
     7
 10
-127.9855478715
 20
984.0511639629
 30
0.0
 11
-129.9855480656
 21
984.0511639629
 31
0.0
  0
POLYLINE
  5
1BD
  8
0
  6
HIDDEN
 62
     7
 66
     1
 10
0.0
 20
0.0
 30
0.0
  0
VERTEX
  5
525
  8
0
  6
HIDDEN
 62
     7
 10
-125.9855478715
 20
-783.4767000821
 30
0.0
  0
VERTEX
  5
526
  8
0
  6
HIDDEN
 62
     7
 10
-125.9855478715
 20
-783.4767000821
 30
0.0
  0
SEQEND
  5
524
  8
0
  6
HIDDEN
 62
     7
  0
LINE
  5
1BE
  8
0
  6
HIDDEN
 62
     7
 10
-129.9855478715
 20
-783.4767000821
 30
0.0
 11
-127.9855478715
 21
-783.4767000821
 31
0.0
  0
POLYLINE
  5
1BF
  8
0
  6
HIDDEN
 62
     7
 66
     1
 10
0.0
 20
0.0
 30
0.0
  0
VERTEX
  5
528
  8
0
  6
HIDDEN
 62
     7
 10
-125.1355256916
 20
986.0691999873
 30
0.0
  0
VERTEX
  5
529
  8
0
  6
HIDDEN
 62
     7
 10
-125.0334023382
 20
986.5486587486
 30
0.0
  0
VERTEX
  5
52A
  8
0
  6
HIDDEN
 62
     7
 10
-124.985546936
 20
987.115655753
 30
0.0
  0
VERTEX
  5
52B
  8
0
  6
HIDDEN
 62
     7
 10
-125.0331835238
 20
987.5855781556
 30
0.0
  0
VERTEX
  5
52C
  8
0
  6
HIDDEN
 62
     7
 10
-125.1763845461
 20
987.9572007623
 30
0.0
  0
VERTEX
  5
52D
  8
0
  6
HIDDEN
 62
     7
 10
-125.4151500028
 20
988.2004983654
 30
0.0
  0
VERTEX
  5
52E
  8
0
  6
HIDDEN
 62
     7
 10
-125.749479894
 20
988.2872325592
 30
0.0
  0
SEQEND
  5
527
  8
0
  6
HIDDEN
 62
     7
  0
POLYLINE
  5
1C0
  8
0
  6
HIDDEN
 62
     7
 66
     1
 10
0.0
 20
0.0
 30
0.0
  0
VERTEX
  5
530
  8
0
  6
HIDDEN
 62
     7
 10
-125.749479894
 20
984.2872319404
 30
0.0
  0
VERTEX
  5
531
  8
0
  6
HIDDEN
 62
     7
 10
-125.749479894
 20
984.2872319404
 30
0.0
  0
SEQEND
  5
52F
  8
0
  6
HIDDEN
 62
     7
  0
LINE
  5
1C1
  8
0
  6
HIDDEN
 62
     7
 10
-125.749479894
 20
986.2872319404
 30
0.0
 11
-125.749479894
 21
988.2872319404
 31
0.0
  0
LINE
  5
1C2
  8
0
  6
HIDDEN
 62
     7
 10
-127.975917518
 20
-757.7127680596
 30
0.0
 11
-127.975917518
 21
-755.7127680596
 31
0.0
  0
LINE
  5
1C3
  8
0
  6
HIDDEN
 62
     7
 10
-127.975917518
 20
956.2872319404
 30
0.0
 11
-127.975917518
 21
958.2872319404
 31
0.0
  0
POLYLINE
  5
1C4
  8
0
  6
HIDDEN
 62
     7
 66
     1
 10
0.0
 20
0.0
 30
0.0
  0
VERTEX
  5
533
  8
0
  6
HIDDEN
 62
     7
 10
457.7783856704
 20
988.2872325592
 30
0.0
  0
VERTEX
  5
534
  8
0
  6
HIDDEN
 62
     7
 10
457.4442745918
 20
988.200876022
 30
0.0
  0
VERTEX
  5
535
  8
0
  6
HIDDEN
 62
     7
 10
457.2055820726
 20
987.9581688527
 30
0.0
  0
VERTEX
  5
536
  8
0
  6
HIDDEN
 62
     7
 10
457.0623081128
 20
987.5866134911
 30
0.0
  0
VERTEX
  5
537
  8
0
  6
HIDDEN
 62
     7
 10
457.0144527125
 20
987.1156632523
 30
0.0
  0
VERTEX
  5
538
  8
0
  6
HIDDEN
 62
     7
 10
457.0620892982
 20
986.5501684481
 30
0.0
  0
VERTEX
  5
539
  8
0
  6
HIDDEN
 62
     7
 10
457.1645339142
 20
986.0694751477
 30
0.0
  0
SEQEND
  5
532
  8
0
  6
HIDDEN
 62
     7
  0
POLYLINE
  5
1C5
  8
0
  6
HIDDEN
 62
     7
 66
     1
 10
0.0
 20
0.0
 30
0.0
  0
VERTEX
  5
53B
  8
0
  6
HIDDEN
 62
     7
 10
457.7783856704
 20
984.2872319404
 30
0.0
  0
VERTEX
  5
53C
  8
0
  6
HIDDEN
 62
     7
 10
457.7783856704
 20
984.2872319404
 30
0.0
  0
SEQEND
  5
53A
  8
0
  6
HIDDEN
 62
     7
  0
LINE
  5
1C6
  8
0
  6
HIDDEN
 62
     7
 10
457.7783856704
 20
988.2872325592
 30
0.0
 11
457.7783856704
 21
986.2872319404
 31
0.0
  0
POLYLINE
  5
1C7
  8
0
  6
HIDDEN
 62
     7
 66
     1
 10
0.0
 20
0.0
 30
0.0
  0
VERTEX
  5
53E
  8
0
  6
HIDDEN
 62
     7
 10
458.0144536479
 20
984.0511639629
 30
0.0
  0
VERTEX
  5
53F
  8
0
  6
HIDDEN
 62
     7
 10
458.0144536479
 20
984.0511639629
 30
0.0
  0
SEQEND
  5
53D
  8
0
  6
HIDDEN
 62
     7
  0
POLYLINE
  5
1C8
  8
0
  6
HIDDEN
 62
     7
 66
     1
 10
0.0
 20
0.0
 30
0.0
  0
VERTEX
  5
541
  8
0
  6
HIDDEN
 62
     7
 10
459.7964236325
 20
983.4372115309
 30
0.0
  0
VERTEX
  5
542
  8
0
  6
HIDDEN
 62
     7
 10
460.2758879928
 20
983.3350864051
 30
0.0
  0
VERTEX
  5
543
  8
0
  6
HIDDEN
 62
     7
 10
460.8428771749
 20
983.2872310049
 30
0.0
  0
VERTEX
  5
544
  8
0
  6
HIDDEN
 62
     7
 10
461.3127995308
 20
983.3348675927
 30
0.0
  0
VERTEX
  5
545
  8
0
  6
HIDDEN
 62
     7
 10
461.6844220999
 20
983.478068615
 30
0.0
  0
VERTEX
  5
546
  8
0
  6
HIDDEN
 62
     7
 10
461.9277196779
 20
983.7168340717
 30
0.0
  0
VERTEX
  5
547
  8
0
  6
HIDDEN
 62
     7
 10
462.0144538627
 20
984.0511639629
 30
0.0
  0
SEQEND
  5
540
  8
0
  6
HIDDEN
 62
     7
  0
LINE
  5
1C9
  8
0
  6
HIDDEN
 62
     7
 10
462.0144536479
 20
984.0511639629
 30
0.0
 11
460.0144536479
 21
984.0511639629
 31
0.0
  0
POLYLINE
  5
1CA
  8
0
  6
HIDDEN
 62
     7
 66
     1
 10
0.0
 20
0.0
 30
0.0
  0
VERTEX
  5
549
  8
0
  6
HIDDEN
 62
     7
 10
462.0144538627
 20
-783.4767000821
 30
0.0
  0
VERTEX
  5
54A
  8
0
  6
HIDDEN
 62
     7
 10
461.9277196778
 20
-783.1423701909
 30
0.0
  0
VERTEX
  5
54B
  8
0
  6
HIDDEN
 62
     7
 10
461.6844220995
 20
-782.9036047341
 30
0.0
  0
VERTEX
  5
54C
  8
0
  6
HIDDEN
 62
     7
 10
461.3127995304
 20
-782.7604037119
 30
0.0
  0
VERTEX
  5
54D
  8
0
  6
HIDDEN
 62
     7
 10
460.8428771749
 20
-782.7127671242
 30
0.0
  0
VERTEX
  5
54E
  8
0
  6
HIDDEN
 62
     7
 10
460.2758879931
 20
-782.7606225245
 30
0.0
  0
VERTEX
  5
54F
  8
0
  6
HIDDEN
 62
     7
 10
459.7964236326
 20
-782.8627476504
 30
0.0
  0
SEQEND
  5
548
  8
0
  6
HIDDEN
 62
     7
  0
POLYLINE
  5
1CB
  8
0
  6
HIDDEN
 62
     7
 66
     1
 10
0.0
 20
0.0
 30
0.0
  0
VERTEX
  5
551
  8
0
  6
HIDDEN
 62
     7
 10
458.0144536479
 20
-783.4767000821
 30
0.0
  0
VERTEX
  5
552
  8
0
  6
HIDDEN
 62
     7
 10
458.0144536479
 20
-783.4767000821
 30
0.0
  0
SEQEND
  5
550
  8
0
  6
HIDDEN
 62
     7
  0
LINE
  5
1CC
  8
0
  6
HIDDEN
 62
     7
 10
460.0144536479
 20
-783.4767000821
 30
0.0
 11
462.0144538627
 21
-783.4767000821
 31
0.0
  0
POLYLINE
  5
1CD
  8
0
  6
HIDDEN
 62
     7
 66
     1
 10
0.0
 20
0.0
 30
0.0
  0
VERTEX
  5
554
  8
0
  6
HIDDEN
 62
     7
 10
-125.749479894
 20
-787.7127686784
 30
0.0
  0
VERTEX
  5
555
  8
0
  6
HIDDEN
 62
     7
 10
-125.4151500028
 20
-787.6260344846
 30
0.0
  0
VERTEX
  5
556
  8
0
  6
HIDDEN
 62
     7
 10
-125.176384546
 20
-787.3827368814
 30
0.0
  0
VERTEX
  5
557
  8
0
  6
HIDDEN
 62
     7
 10
-125.0331835238
 20
-787.0111142747
 30
0.0
  0
VERTEX
  5
558
  8
0
  6
HIDDEN
 62
     7
 10
-124.985546936
 20
-786.5411918723
 30
0.0
  0
VERTEX
  5
559
  8
0
  6
HIDDEN
 62
     7
 10
-125.0334023364
 20
-785.9742026339
 30
0.0
  0
VERTEX
  5
55A
  8
0
  6
HIDDEN
 62
     7
 10
-125.1355274324
 20
-785.4947383654
 30
0.0
  0
SEQEND
  5
553
  8
0
  6
HIDDEN
 62
     7
  0
POLYLINE
  5
1CE
  8
0
  6
HIDDEN
 62
     7
 66
     1
 10
0.0
 20
0.0
 30
0.0
  0
VERTEX
  5
55C
  8
0
  6
HIDDEN
 62
     7
 10
-125.749479894
 20
-783.7127680596
 30
0.0
  0
VERTEX
  5
55D
  8
0
  6
HIDDEN
 62
     7
 10
-125.749479894
 20
-783.7127680596
 30
0.0
  0
SEQEND
  5
55B
  8
0
  6
HIDDEN
 62
     7
  0
LINE
  5
1CF
  8
0
  6
HIDDEN
 62
     7
 10
-125.749479894
 20
-785.7127680596
 30
0.0
 11
-125.749479894
 21
-787.7127686784
 31
0.0
  0
POLYLINE
  5
1D0
  8
0
  6
HIDDEN
 62
     7
 66
     1
 10
0.0
 20
0.0
 30
0.0
  0
VERTEX
  5
55F
  8
0
  6
HIDDEN
 62
     7
 10
457.1645356817
 20
-785.4950135589
 30
0.0
  0
VERTEX
  5
560
  8
0
  6
HIDDEN
 62
     7
 10
457.0620893003
 20
-785.9757124237
 30
0.0
  0
VERTEX
  5
561
  8
0
  6
HIDDEN
 62
     7
 10
457.0144527125
 20
-786.5411993715
 30
0.0
  0
VERTEX
  5
562
  8
0
  6
HIDDEN
 62
     7
 10
457.0623081127
 20
-787.0121496102
 30
0.0
  0
VERTEX
  5
563
  8
0
  6
HIDDEN
 62
     7
 10
457.2055820724
 20
-787.3837049718
 30
0.0
  0
VERTEX
  5
564
  8
0
  6
HIDDEN
 62
     7
 10
457.4442745917
 20
-787.6264121412
 30
0.0
  0
VERTEX
  5
565
  8
0
  6
HIDDEN
 62
     7
 10
457.7783856704
 20
-787.7127686784
 30
0.0
  0
SEQEND
  5
55E
  8
0
  6
HIDDEN
 62
     7
  0
POLYLINE
  5
1D1
  8
0
  6
HIDDEN
 62
     7
 66
     1
 10
0.0
 20
0.0
 30
0.0
  0
VERTEX
  5
567
  8
0
  6
HIDDEN
 62
     7
 10
457.7783856704
 20
-783.7127680596
 30
0.0
  0
VERTEX
  5
568
  8
0
  6
HIDDEN
 62
     7
 10
457.7783856704
 20
-783.7127680596
 30
0.0
  0
SEQEND
  5
566
  8
0
  6
HIDDEN
 62
     7
  0
LINE
  5
1D2
  8
0
  6
HIDDEN
 62
     7
 10
457.7783856704
 20
-787.7127680596
 30
0.0
 11
457.7783856704
 21
-785.7127680596
 31
0.0
  0
LINE
  5
1D3
  8
0
  6
HIDDEN
 62
     7
 10
-724.9859772461
 20
-786.7919055672
 30
0.0
 11
-724.9859772462
 21
-785.4058136151
 31
0.0
  0
LINE
  5
1D4
  8
0
  6
HIDDEN
 62
     7
 10
-724.9859772397
 20
-785.4058619956
 30
0.0
 11
-724.9859772396
 21
-786.7920526336
 31
0.0
  0
LINE
  5
1D5
  8
0
  6
HIDDEN
 62
     7
 10
-729.1482487456
 20
983.2876571811
 30
0.0
 11
-727.7064436268
 21
983.2876571826
 31
0.0
  0
LINE
  5
1D6
  8
0
  6
HIDDEN
 62
     7
 10
-727.7064140269
 20
-782.713197429
 30
0.0
 11
-729.1481537258
 21
-782.7131974293
 31
0.0
  0
LINE
  5
1D7
  8
0
  6
HIDDEN
 62
     7
 10
-724.9859731002
 20
987.3661927171
 30
0.0
 11
-724.9859731008
 21
985.9802233848
 31
0.0
  0
LINE
  5
1D8
  8
0
  6
HIDDEN
 62
     7
 10
-724.9859731049
 20
985.9802464005
 30
0.0
 11
-724.9859731048
 21
987.3662723231
 31
0.0
  0
LINE
  5
1D9
  8
0
  6
HIDDEN
 62
     7
 10
-142.9851226307
 20
987.4499331124
 30
0.0
 11
-142.9851226293
 21
986.0081279941
 31
0.0
  0
LINE
  5
1DA
  8
0
  6
HIDDEN
 62
     7
 10
-140.292533699
 20
983.2876571738
 30
0.0
 11
-138.9065077773
 21
983.2876571736
 31
0.0
  0
LINE
  5
1DB
  8
0
  6
HIDDEN
 62
     7
 10
-138.9064106517
 20
-782.7131974342
 30
0.0
 11
-140.2925026035
 21
-782.7131974344
 31
0.0
  0
LINE
  5
1DC
  8
0
  6
HIDDEN
 62
     7
 10
-140.292454223
 20
-782.7131974278
 30
0.0
 11
-138.9062635853
 21
-782.7131974277
 31
0.0
  0
LINE
  5
1DD
  8
0
  6
HIDDEN
 62
     7
 10
-142.9851185021
 20
-785.4336345132
 30
0.0
 11
-142.9851185018
 21
-786.8753742108
 31
0.0
  0
LINE
  5
1DE
  8
0
  6
HIDDEN
 62
     7
 10
-128.8132029661
 20
983.2872308939
 30
0.0
 11
-127.399375492
 21
983.2872308939
 31
0.0
  0
LINE
  5
1DF
  8
0
  6
HIDDEN
 62
     7
 10
-127.3993754866
 20
983.2872308939
 30
0.0
 11
-128.8132029608
 21
983.2872308939
 31
0.0
  0
LINE
  5
1E0
  8
0
  6
HIDDEN
 62
     7
 10
-128.8131977604
 20
-782.7127670124
 30
0.0
 11
-127.3993728867
 21
-782.7127670124
 31
0.0
  0
LINE
  5
1E1
  8
0
  6
HIDDEN
 62
     7
 10
-127.3993728928
 20
-782.7127670124
 30
0.0
 11
-128.8131977671
 21
-782.7127670124
 31
0.0
  0
LINE
  5
1E2
  8
0
  6
HIDDEN
 62
     7
 10
-124.9855468251
 20
985.7018318886
 30
0.0
 11
-124.9855468251
 21
987.116431421
 31
0.0
  0
LINE
  5
1E3
  8
0
  6
HIDDEN
 62
     7
 10
457.0144526015
 20
987.1148873352
 30
0.0
 11
457.0144526015
 21
985.7010598611
 31
0.0
  0
LINE
  5
1E4
  8
0
  6
HIDDEN
 62
     7
 10
457.0144526015
 20
985.7010598557
 30
0.0
 11
457.0144526015
 21
987.1148873299
 31
0.0
  0
LINE
  5
1E5
  8
0
  6
HIDDEN
 62
     7
 10
459.4290533102
 20
983.2872308939
 30
0.0
 11
460.8436528424
 21
983.2872308939
 31
0.0
  0
LINE
  5
1E6
  8
0
  6
HIDDEN
 62
     7
 10
460.8436580699
 20
-782.7127670124
 30
0.0
 11
459.4290559237
 21
-782.7127670124
 31
0.0
  0
LINE
  5
1E7
  8
0
  6
HIDDEN
 62
     7
 10
-124.9855468243
 20
-786.5419727674
 30
0.0
 11
-124.9855468243
 21
-785.1273706212
 31
0.0
  0
LINE
  5
1E8
  8
0
  6
HIDDEN
 62
     7
 10
457.0144526007
 20
-785.1265933806
 30
0.0
 11
457.0144526007
 21
-786.5404182542
 31
0.0
  0
TEXT
  5
1E9
  8
SLD-0
 10
607.5868108331
 20
-927.495376537
 30
0.0
 40
19.05
  1
Rückwandsatz RS/GA  BxH 1200 x 1800
 41
0.64
 11
607.5868108331
 21
-932.9382336798
 31
0.0
 73
     1
  0
LINE
  5
1EA
  8
0
  6
CONTINUOUS
 62
     7
 10
628.0032972794
 20
-691.7127680596
 30
0.0
 11
629.0032972794
 21
-691.7127680596
 31
0.0
  0
LINE
  5
1EB
  8
0
  6
CONTINUOUS
 62
     7
 10
629.0032972794
 20
-683.7127680596
 30
0.0
 11
628.0032972794
 21
-683.7127680596
 31
0.0
  0
LINE
  5
1EC
  8
0
  6
CONTINUOUS
 62
     7
 10
629.0032972794
 20
-691.7127680596
 30
0.0
 11
629.5032972794
 21
-691.2127680596
 31
0.0
  0
LINE
  5
1ED
  8
0
  6
CONTINUOUS
 62
     7
 10
629.5032972794
 20
-684.2127680596
 30
0.0
 11
629.0032972794
 21
-683.7127680596
 31
0.0
  0
LINE
  5
1EE
  8
0
  6
CONTINUOUS
 62
     7
 10
628.0032972794
 20
-787.7127686791
 30
0.0
 11
628.0032972794
 21
-784.7127680596
 31
0.0
  0
LINE
  5
1EF
  8
0
  6
CONTINUOUS
 62
     7
 10
628.0032972794
 20
-787.7127680596
 30
0.0
 11
612.3317244041
 21
-787.7127680596
 31
0.0
  0
ARC
  5
1F0
  8
0
  6
CONTINUOUS
 62
     7
 10
606.1694005991
 20
-786.2127683694
 30
0.0
 40
6.342257926538911
 50
346.3194172987
 51
13.6805827013
  0
LINE
  5
1F1
  8
0
  6
CONTINUOUS
 62
     7
 10
628.0032972794
 20
-784.7127680596
 30
0.0
 11
628.0032972794
 21
985.2872319404
 31
0.0
  0
ARC
  5
1F2
  8
0
  6
CONTINUOUS
 62
     7
 10
609.5032972794
 20
986.2872319404
 30
0.0
 40
2.99999999999999
 50
289.4712206345
 51
340.5287793655
  0
ARC
  5
1F3
  8
0
  6
CONTINUOUS
 62
     7
 10
609.5032972794
 20
-785.7127680596
 30
0.0
 40
3.000000000000021
 50
19.4712206345
 51
70.5287793655
  0
LINE
  5
1F4
  8
0
  6
CONTINUOUS
 62
     7
 10
612.3317244041
 20
-787.7127680596
 30
0.0
 11
612.3317244041
 21
-785.7127680596
 31
0.0
  0
LINE
  5
1F5
  8
0
  6
CONTINUOUS
 62
     7
 10
612.3317244041
 20
988.2872325599
 30
0.0
 11
612.3317244041
 21
986.2872319404
 31
0.0
  0
ARC
  5
1F6
  8
0
  6
CONTINUOUS
 62
     7
 10
606.1694005991
 20
986.7872322501
 30
0.0
 40
6.342257926556665
 50
346.3194172988
 51
13.6805827012
  0
LINE
  5
1F7
  8
0
  6
CONTINUOUS
 62
     7
 10
628.0032972794
 20
985.2872319404
 30
0.0
 11
628.0032972794
 21
988.2872319404
 31
0.0
  0
LINE
  5
1F8
  8
0
  6
CONTINUOUS
 62
     7
 10
628.0032972794
 20
988.2872319404
 30
0.0
 11
612.3317244041
 21
988.2872319404
 31
0.0
  0
ARC
  5
1F9
  8
0
  6
CONTINUOUS
 62
     7
 10
609.0032971768
 20
989.5302364773
 30
0.0
 40
6.253981350336727
 50
256.1224760752
 51
283.8775239248
  0
ARC
  5
1FA
  8
0
  6
CONTINUOUS
 62
     7
 10
609.0032971768
 20
-788.955772588
 30
0.0
 40
6.253981341986254
 50
76.1224760563
 51
103.8775239437
  0
LINE
  5
1FB
  8
0
  6
CONTINUOUS
 62
     7
 10
607.5032972794
 20
983.4588048156
 30
0.0
 11
607.5032972794
 21
-782.8843409349
 31
0.0
  0
LINE
  5
1FC
  8
0
  6
CONTINUOUS
 62
     7
 10
609.5032972794
 20
983.4588048156
 30
0.0
 11
607.5032970743
 21
983.4588048156
 31
0.0
  0
LINE
  5
1FD
  8
0
  6
CONTINUOUS
 62
     7
 10
607.5032972794
 20
-782.8843409349
 30
0.0
 11
609.5032972794
 21
-782.8843409349
 31
0.0
  0
LINE
  5
1FE
  8
0
  6
CONTINUOUS
 62
     7
 10
611.6246176229
 20
-787.7127680596
 30
0.0
 11
611.6246176229
 21
-785.7127680596
 31
0.0
  0
LINE
  5
1FF
  8
0
  6
CONTINUOUS
 62
     7
 10
612.3317244041
 20
-785.7127680596
 30
0.0
 11
611.6246176229
 21
-785.7127680596
 31
0.0
  0
LINE
  5
200
  8
0
  6
CONTINUOUS
 62
     7
 10
612.3317244041
 20
-787.7127680596
 30
0.0
 11
611.6246176229
 21
-787.7127680596
 31
0.0
  0
LINE
  5
201
  8
0
  6
CONTINUOUS
 62
     7
 10
607.5032972794
 20
985.2872319404
 30
0.0
 11
607.5032972794
 21
983.4588048156
 31
0.0
  0
LINE
  5
202
  8
0
  6
CONTINUOUS
 62
     7
 10
609.5032972794
 20
985.2872319404
 30
0.0
 11
607.5032966599
 21
985.2872319404
 31
0.0
  0
LINE
  5
203
  8
0
  6
CONTINUOUS
 62
     7
 10
609.5032972794
 20
985.2872319404
 30
0.0
 11
609.5032972794
 21
983.4588048156
 31
0.0
  0
LINE
  5
204
  8
0
  6
CONTINUOUS
 62
     7
 10
609.5032972794
 20
-784.7127680596
 30
0.0
 11
607.5032966599
 21
-784.7127680596
 31
0.0
  0
LINE
  5
205
  8
0
  6
CONTINUOUS
 62
     7
 10
609.5032972794
 20
-784.7127680596
 30
0.0
 11
609.5032972794
 21
-782.8843409349
 31
0.0
  0
LINE
  5
206
  8
0
  6
CONTINUOUS
 62
     7
 10
607.5032972794
 20
-784.7127680596
 30
0.0
 11
607.5032972794
 21
-782.8843409349
 31
0.0
  0
LINE
  5
207
  8
0
  6
CONTINUOUS
 62
     7
 10
611.6246176229
 20
986.2872319404
 30
0.0
 11
611.6246176229
 21
988.2872319404
 31
0.0
  0
LINE
  5
208
  8
0
  6
CONTINUOUS
 62
     7
 10
612.3317244041
 20
986.2872319404
 30
0.0
 11
611.6246176229
 21
986.2872319404
 31
0.0
  0
LINE
  5
209
  8
0
  6
CONTINUOUS
 62
     7
 10
612.3317244041
 20
988.2872319404
 30
0.0
 11
611.6246176229
 21
988.2872319404
 31
0.0
  0
LINE
  5
20A
  8
0
  6
CONTINUOUS
 62
     7
 10
611.6246176229
 20
986.2872319404
 30
0.0
 11
611.6246176229
 21
988.2872319404
 31
0.0
  0
LINE
  5
20B
  8
0
  6
CONTINUOUS
 62
     7
 10
610.5032972794
 20
986.2872319404
 30
0.0
 11
610.5032972794
 21
988.2872319404
 31
0.0
  0
LINE
  5
20C
  8
0
  6
CONTINUOUS
 62
     7
 10
611.6246176229
 20
988.2872319404
 30
0.0
 11
610.5032972794
 21
988.2872319404
 31
0.0
  0
LINE
  5
20D
  8
0
  6
CONTINUOUS
 62
     7
 10
611.6246176229
 20
986.2872319404
 30
0.0
 11
610.5032972794
 21
986.2872319404
 31
0.0
  0
LINE
  5
20E
  8
0
  6
CONTINUOUS
 62
     7
 10
611.6246176229
 20
-787.7127680596
 30
0.0
 11
611.6246176229
 21
-785.7127680596
 31
0.0
  0
LINE
  5
20F
  8
0
  6
CONTINUOUS
 62
     7
 10
610.5032972794
 20
-785.7127680596
 30
0.0
 11
610.5032972794
 21
-787.7127686791
 31
0.0
  0
LINE
  5
210
  8
0
  6
CONTINUOUS
 62
     7
 10
611.6246176229
 20
-785.7127680596
 30
0.0
 11
610.5032972794
 21
-785.7127680596
 31
0.0
  0
LINE
  5
211
  8
0
  6
CONTINUOUS
 62
     7
 10
611.6246176229
 20
-787.7127680596
 30
0.0
 11
610.5032972794
 21
-787.7127680596
 31
0.0
  0
ARC
  5
212
  8
0
  6
CONTINUOUS
 62
     7
 10
610.5032972794
 20
985.2872319404
 30
0.0
 40
3.000000619493903
 50
90.0
 51
180.0
  0
ARC
  5
213
  8
0
  6
CONTINUOUS
 62
     7
 10
610.5032972794
 20
985.2872319404
 30
0.0
 40
1.000000619493903
 50
90.0
 51
180.0
  0
ARC
  5
214
  8
0
  6
CONTINUOUS
 62
     7
 10
610.5032972794
 20
-784.7127680596
 30
0.0
 40
3.000000619493903
 50
180.0
 51
270.0
  0
ARC
  5
215
  8
0
  6
CONTINUOUS
 62
     7
 10
610.5032972794
 20
-784.7127680596
 30
0.0
 40
1.00000061949379
 50
180.0
 51
270.0
  0
LINE
  5
216
  8
0
  6
CONTINUOUS
 62
     7
 10
628.0032972794
 20
-746.2127680596
 30
0.0
 11
632.5032972794
 21
-746.2127680596
 31
0.0
  0
LINE
  5
217
  8
0
  6
CONTINUOUS
 62
     7
 10
628.0032972794
 20
946.7872319404
 30
0.0
 11
632.5032972794
 21
946.7872319404
 31
0.0
  0
LINE
  5
218
  8
0
  6
CONTINUOUS
 62
     7
 10
632.5032972794
 20
87.7872319404
 30
0.0
 11
632.0032972794
 21
87.7872319404
 31
0.0
  0
LINE
  5
219
  8
0
  6
CONTINUOUS
 62
     7
 10
632.0032972794
 20
87.7872319404
 30
0.0
 11
632.0032972794
 21
96.7872319404
 31
0.0
  0
LINE
  5
21A
  8
0
  6
CONTINUOUS
 62
     7
 10
632.5032972794
 20
96.7872319404
 30
0.0
 11
632.0032972794
 21
96.7872319404
 31
0.0
  0
LINE
  5
21B
  8
0
  6
CONTINUOUS
 62
     7
 10
639.5032972794
 20
98.7872319404
 30
0.0
 11
635.5032972794
 21
98.7872319404
 31
0.0
  0
LINE
  5
21C
  8
0
  6
CONTINUOUS
 62
     7
 10
639.5032972794
 20
85.7872319404
 30
0.0
 11
635.5032972794
 21
85.7872319404
 31
0.0
  0
ARC
  5
21D
  8
0
  6
CONTINUOUS
 62
     7
 10
632.5032972794
 20
85.2247319404
 30
0.0
 40
2.562500000004874
 50
12.6803834918
 51
38.6947399218
  0
ARC
  5
21E
  8
0
  6
CONTINUOUS
 62
     7
 10
632.5032972794
 20
99.3497319404
 30
0.0
 40
2.56250000000499
 50
321.3052600782
 51
347.3196165082
  0
LINE
  5
21F
  8
0
  6
CONTINUOUS
 62
     7
 10
635.5032972794
 20
98.7872319404
 30
0.0
 11
635.0032972794
 21
98.7872319404
 31
0.0
  0
LINE
  5
220
  8
0
  6
CONTINUOUS
 62
     7
 10
635.0032972794
 20
85.7872319404
 30
0.0
 11
635.5032972794
 21
85.7872319404
 31
0.0
  0
LINE
  5
221
  8
0
  6
CONTINUOUS
 62
     7
 10
639.5032972794
 20
85.7872319404
 30
0.0
 11
640.5032972794
 21
85.7872319404
 31
0.0
  0
LINE
  5
222
  8
0
  6
CONTINUOUS
 62
     7
 10
640.5032972794
 20
85.7872319404
 30
0.0
 11
640.5032972794
 21
98.7872319404
 31
0.0
  0
LINE
  5
223
  8
0
  6
CONTINUOUS
 62
     7
 10
640.5032972794
 20
98.7872319404
 30
0.0
 11
639.5032972794
 21
98.7872319404
 31
0.0
  0
LINE
  5
224
  8
0
  6
CONTINUOUS
 62
     7
 10
629.0032972794
 20
-691.7127680596
 30
0.0
 11
629.0032972794
 21
-683.7127680596
 31
0.0
  0
LINE
  5
225
  8
0
  6
CONTINUOUS
 62
     7
 10
629.5032972794
 20
-691.2127680596
 30
0.0
 11
629.5032972794
 21
-684.2127680596
 31
0.0
  0
LINE
  5
226
  8
0
  6
CONTINUOUS
 62
     7
 10
632.5032972794
 20
-746.2127680596
 30
0.0
 11
632.5032972794
 21
946.7872319404
 31
0.0
  0
LINE
  5
227
  8
0
  6
CONTINUOUS
 62
     7
 10
634.5032972794
 20
946.7872319404
 30
0.0
 11
632.5032972794
 21
946.7872319404
 31
0.0
  0
LINE
  5
228
  8
0
  6
CONTINUOUS
 62
     7
 10
634.5032972794
 20
-746.2127680596
 30
0.0
 11
634.5032972794
 21
946.7872319404
 31
0.0
  0
LINE
  5
229
  8
0
  6
CONTINUOUS
 62
     7
 10
634.5032972794
 20
-746.2127680596
 30
0.0
 11
632.5032972794
 21
-746.2127680596
 31
0.0
  0
ARC
  5
22A
  8
0
  6
CONTINUOUS
 62
     7
 10
623.004339127
 20
889.7351415549
 30
0.0
 40
57.97927133237438
 50
79.7396077872
 51
82.5686254089
  0
ARC
  5
22B
  8
0
  6
CONTINUOUS
 62
     7
 10
623.004339127
 20
-689.1606776743
 30
0.0
 40
57.97927133219991
 50
277.4313745911
 51
280.2603922128
  0
ARC
  5
22C
  8
0
  6
CONTINUOUS
 62
     7
 10
626.435939133
 20
-731.0935374963
 30
0.0
 40
16.08224988421991
 50
284.6497645351
 51
289.9284297886
  0
ARC
  5
22D
  8
0
  6
CONTINUOUS
 62
     7
 10
626.435939133
 20
931.6680013771
 30
0.0
 40
16.08224988424264
 50
70.0715702114
 51
75.3502354649
  0
POLYLINE
  5
22E
  8
0
  6
CONTINUOUS
 62
     7
 66
     1
 10
0.0
 20
0.0
 30
0.0
  0
VERTEX
  5
56A
  8
0
  6
CONTINUOUS
 62
     7
 10
630.5032972794
 20
947.2274152172
 30
0.0
  0
VERTEX
  5
56B
  8
0
  6
CONTINUOUS
 62
     7
 10
630.5032972794
 20
947.2274152172
 30
0.0
  0
SEQEND
  5
569
  8
0
  6
CONTINUOUS
 62
     7
  0
POLYLINE
  5
22F
  8
0
  6
CONTINUOUS
 62
     7
 66
     1
 10
0.0
 20
0.0
 30
0.0
  0
VERTEX
  5
56D
  8
0
  6
CONTINUOUS
 62
     7
 10
630.5032972794
 20
-746.6529513364
 30
0.0
  0
VERTEX
  5
56E
  8
0
  6
CONTINUOUS
 62
     7
 10
630.5032972794
 20
-746.6529513364
 30
0.0
  0
SEQEND
  5
56C
  8
0
  6
CONTINUOUS
 62
     7
  0
ARC
  5
230
  8
0
  6
CONTINUOUS
 62
     7
 10
604.0222170101
 20
987.9423173832
 30
0.0
 40
8.538971053760324
 50
334.6562850254
 51
348.6399824534
  0
ARC
  5
231
  8
0
  6
CONTINUOUS
 62
     7
 10
611.8533733148
 20
985.6345612225
 30
0.0
 40
0.6625539305967616
 50
41.0086857941
 51
99.9084060492
  0
LINE
  5
232
  8
0
  6
CONTINUOUS
 62
     7
 10
628.0032957599
 20
947.7776446476
 30
0.0
 11
630.5032972794
 21
947.2274152172
 31
0.0
  0
LINE
  5
233
  8
0
  6
CONTINUOUS
 62
     7
 10
628.0032957599
 20
-747.2031807669
 30
0.0
 11
630.5032972794
 21
-746.6529513364
 31
0.0
  0
ARC
  5
234
  8
0
  6
CONTINUOUS
 62
     7
 10
607.8587059317
 20
991.7347163663
 30
0.0
 40
8.504118039412337
 50
281.3253066878
 51
295.3767048266
  0
POLYLINE
  5
235
  8
0
  6
CONTINUOUS
 62
     7
 66
     1
 10
0.0
 20
0.0
 30
0.0
  0
VERTEX
  5
570
  8
0
  6
CONTINUOUS
 62
     7
 10
607.6508048674
 20
983.6571898639
 30
0.0
  0
VERTEX
  5
571
  8
0
  6
CONTINUOUS
 62
     7
 10
607.5900292963
 20
983.7168340697
 30
0.0
  0
VERTEX
  5
572
  8
0
  6
CONTINUOUS
 62
     7
 10
607.5032970853
 20
984.0511639629
 30
0.0
  0
SEQEND
  5
56F
  8
0
  6
CONTINUOUS
 62
     7
  0
POLYLINE
  5
236
  8
0
  6
CONTINUOUS
 62
     7
 66
     1
 10
0.0
 20
0.0
 30
0.0
  0
VERTEX
  5
574
  8
0
  6
CONTINUOUS
 62
     7
 10
609.6567117607
 20
983.5008341547
 30
0.0
  0
VERTEX
  5
575
  8
0
  6
CONTINUOUS
 62
     7
 10
609.5466631929
 20
983.7168340697
 30
0.0
  0
VERTEX
  5
576
  8
0
  6
CONTINUOUS
 62
     7
 10
609.5032970853
 20
984.0511639629
 30
0.0
  0
SEQEND
  5
573
  8
0
  6
CONTINUOUS
 62
     7
  0
POLYLINE
  5
237
  8
0
  6
CONTINUOUS
 62
     7
 66
     1
 10
0.0
 20
0.0
 30
0.0
  0
VERTEX
  5
578
  8
0
  6
CONTINUOUS
 62
     7
 10
607.5032970853
 20
-783.4767000821
 30
0.0
  0
VERTEX
  5
579
  8
0
  6
CONTINUOUS
 62
     7
 10
607.5900292962
 20
-783.1423701892
 30
0.0
  0
VERTEX
  5
57A
  8
0
  6
CONTINUOUS
 62
     7
 10
607.6508048675
 20
-783.0827259833
 30
0.0
  0
SEQEND
  5
577
  8
0
  6
CONTINUOUS
 62
     7
  0
ARC
  5
238
  8
0
  6
CONTINUOUS
 62
     7
 10
607.8587059317
 20
-791.1602524834
 30
0.0
 40
8.504118037451173
 50
64.6232951669
 51
78.6746933083
  0
ARC
  5
239
  8
0
  6
CONTINUOUS
 62
     7
 10
610.1563867181
 20
-783.3629236144
 30
0.0
 40
0.6629262048292129
 50
131.0351072558
 51
189.8824676584
  0
ARC
  5
23A
  8
0
  6
CONTINUOUS
 62
     7
 10
604.2739599451
 20
-787.2904489704
 30
0.0
 40
8.278410304417754
 50
13.4030956913
 51
25.6053553478
  0
ARC
  5
23B
  8
0
  6
CONTINUOUS
 62
     7
 10
611.8533734986
 20
-785.0600973502
 30
0.0
 40
0.6625539539763661
 50
260.0915781683
 51
318.991058223
  0
LINE
  5
23C
  8
0
  6
CONTINUOUS
 62
     7
 10
607.5032966606
 20
984.2872319404
 30
0.0
 11
607.5799030138
 21
985.0205804252
 31
0.0
  0
ARC
  5
23D
  8
0
  6
CONTINUOUS
 62
     7
 10
611.5032972794
 20
984.2872319404
 30
0.0
 40
2.000000618794161
 50
90.0
 51
180.0
  0
ARC
  5
23E
  8
0
  6
CONTINUOUS
 62
     7
 10
611.5032972794
 20
-783.7127680596
 30
0.0
 40
2.000000618793933
 50
180.0
 51
269.9999999999
  0
POLYLINE
  5
23F
  8
0
  6
HIDDEN
 62
     7
 66
     1
 10
0.0
 20
0.0
 30
0.0
  0
VERTEX
  5
57C
  8
0
  6
HIDDEN
 62
     7
 10
612.3317244041
 20
-784.7127680596
 30
0.0
  0
VERTEX
  5
57D
  8
0
  6
HIDDEN
 62
     7
 10
612.3317244041
 20
-784.7127680596
 30
0.0
  0
SEQEND
  5
57B
  8
0
  6
HIDDEN
 62
     7
  0
POLYLINE
  5
240
  8
0
  6
HIDDEN
 62
     7
 66
     1
 10
0.0
 20
0.0
 30
0.0
  0
VERTEX
  5
57F
  8
0
  6
HIDDEN
 62
     7
 10
612.3317244041
 20
985.2872319404
 30
0.0
  0
VERTEX
  5
580
  8
0
  6
HIDDEN
 62
     7
 10
612.3317244041
 20
985.2872319404
 30
0.0
  0
SEQEND
  5
57E
  8
0
  6
HIDDEN
 62
     7
  0
POLYLINE
  5
241
  8
0
  6
HIDDEN
 62
     7
 66
     1
 10
0.0
 20
0.0
 30
0.0
  0
VERTEX
  5
582
  8
0
  6
HIDDEN
 62
     7
 10
610.5032972794
 20
983.4588048156
 30
0.0
  0
VERTEX
  5
583
  8
0
  6
HIDDEN
 62
     7
 10
610.5032972794
 20
983.4588048156
 30
0.0
  0
SEQEND
  5
581
  8
0
  6
HIDDEN
 62
     7
  0
POLYLINE
  5
242
  8
0
  6
HIDDEN
 62
     7
 66
     1
 10
0.0
 20
0.0
 30
0.0
  0
VERTEX
  5
585
  8
0
  6
HIDDEN
 62
     7
 10
610.5032972794
 20
-782.8843409349
 30
0.0
  0
VERTEX
  5
586
  8
0
  6
HIDDEN
 62
     7
 10
610.5032972794
 20
-782.8843409349
 30
0.0
  0
SEQEND
  5
584
  8
0
  6
HIDDEN
 62
     7
  0
LINE
  5
243
  8
0
  6
HIDDEN
 62
     7
 10
628.0032972794
 20
-785.7127680596
 30
0.0
 11
612.3317244041
 21
-785.7127680596
 31
0.0
  0
LINE
  5
244
  8
0
  6
HIDDEN
 62
     7
 10
609.5032972794
 20
983.4588048156
 30
0.0
 11
609.5032972794
 21
-782.8843409349
 31
0.0
  0
LINE
  5
245
  8
0
  6
HIDDEN
 62
     7
 10
628.0032972794
 20
986.2872319404
 30
0.0
 11
612.3317244041
 21
986.2872319404
 31
0.0
  0
LINE
  5
246
  8
0
  6
HIDDEN
 62
     7
 10
618.7532972794
 20
-785.7127680596
 30
0.0
 11
618.7532972794
 21
-787.7127680596
 31
0.0
  0
LINE
  5
247
  8
0
  6
HIDDEN
 62
     7
 10
618.7532972794
 20
986.2872319404
 30
0.0
 11
618.7532972794
 21
988.2872319404
 31
0.0
  0
LINE
  5
248
  8
0
  6
HIDDEN
 62
     7
 10
618.7532972794
 20
-785.7127680596
 30
0.0
 11
618.7532972794
 21
-787.7127680596
 31
0.0
  0
LINE
  5
249
  8
0
  6
HIDDEN
 62
     7
 10
618.7532972794
 20
986.2872319404
 30
0.0
 11
618.7532972794
 21
988.2872319404
 31
0.0
  0
LINE
  5
24A
  8
0
  6
HIDDEN
 62
     7
 10
612.006830766
 20
892.2872319404
 30
0.0
 11
612.006830766
 21
896.8040709066
 31
0.0
  0
LINE
  5
24B
  8
0
  6
HIDDEN
 62
     7
 10
612.006830766
 20
887.7703929742
 30
0.0
 11
612.006830766
 21
892.2872319404
 31
0.0
  0
LINE
  5
24C
  8
0
  6
HIDDEN
 62
     7
 10
612.006830766
 20
-707.7127680596
 30
0.0
 11
612.006830766
 21
-703.1959290934
 31
0.0
  0
LINE
  5
24D
  8
0
  6
HIDDEN
 62
     7
 10
612.006830766
 20
-712.2296070258
 30
0.0
 11
612.006830766
 21
-707.7127680596
 31
0.0
  0
LINE
  5
24E
  8
0
  6
HIDDEN
 62
     7
 10
612.006830766
 20
92.2872319404
 30
0.0
 11
612.006830766
 21
96.8040709066
 31
0.0
  0
LINE
  5
24F
  8
0
  6
HIDDEN
 62
     7
 10
612.006830766
 20
87.7703929742
 30
0.0
 11
612.006830766
 21
92.2872319404
 31
0.0
  0
LINE
  5
250
  8
0
  6
HIDDEN
 62
     7
 10
610.7032972794
 20
-707.7127680596
 30
0.0
 11
610.7032972794
 21
-704.7127680596
 31
0.0
  0
LINE
  5
251
  8
0
  6
HIDDEN
 62
     7
 10
610.7032972794
 20
-710.7127680596
 30
0.0
 11
610.7032972794
 21
-707.7127680596
 31
0.0
  0
LINE
  5
252
  8
0
  6
HIDDEN
 62
     7
 10
610.7032972794
 20
892.2872319404
 30
0.0
 11
610.7032972794
 21
895.2872319404
 31
0.0
  0
LINE
  5
253
  8
0
  6
HIDDEN
 62
     7
 10
610.7032972794
 20
889.2872319404
 30
0.0
 11
610.7032972794
 21
892.2872319404
 31
0.0
  0
LINE
  5
254
  8
0
  6
HIDDEN
 62
     7
 10
610.7032972794
 20
92.2872319404
 30
0.0
 11
610.7032972794
 21
95.2872319404
 31
0.0
  0
LINE
  5
255
  8
0
  6
HIDDEN
 62
     7
 10
610.7032972794
 20
89.2872319404
 30
0.0
 11
610.7032972794
 21
92.2872319404
 31
0.0
  0
LINE
  5
256
  8
0
  6
HIDDEN
 62
     7
 10
612.0068307659
 20
967.2872319404
 30
0.0
 11
612.0068307659
 21
971.8040709066
 31
0.0
  0
LINE
  5
257
  8
0
  6
HIDDEN
 62
     7
 10
612.0068307659
 20
962.7703929742
 30
0.0
 11
612.0068307659
 21
967.2872319404
 31
0.0
  0
LINE
  5
258
  8
0
  6
HIDDEN
 62
     7
 10
612.0068307659
 20
-766.7127680596
 30
0.0
 11
612.0068307659
 21
-771.2296070258
 31
0.0
  0
LINE
  5
259
  8
0
  6
HIDDEN
 62
     7
 10
612.0068307659
 20
-762.1959290934
 30
0.0
 11
612.0068307659
 21
-766.7127680596
 31
0.0
  0
LINE
  5
25A
  8
0
  6
HIDDEN
 62
     7
 10
610.7032972794
 20
967.2872319404
 30
0.0
 11
610.7032972794
 21
970.2872319404
 31
0.0
  0
LINE
  5
25B
  8
0
  6
HIDDEN
 62
     7
 10
610.7032972794
 20
964.2872319404
 30
0.0
 11
610.7032972794
 21
967.2872319404
 31
0.0
  0
LINE
  5
25C
  8
0
  6
HIDDEN
 62
     7
 10
610.7032972794
 20
-766.7127680596
 30
0.0
 11
610.7032972794
 21
-769.7127680596
 31
0.0
  0
LINE
  5
25D
  8
0
  6
HIDDEN
 62
     7
 10
610.7032972794
 20
-763.7127680596
 30
0.0
 11
610.7032972794
 21
-766.7127680596
 31
0.0
  0
POLYLINE
  5
25E
  8
0
  6
HIDDEN
 62
     7
 66
     1
 10
0.0
 20
0.0
 30
0.0
  0
VERTEX
  5
588
  8
0
  6
HIDDEN
 62
     7
 10
612.3317244041
 20
-784.7127680596
 30
0.0
  0
VERTEX
  5
589
  8
0
  6
HIDDEN
 62
     7
 10
612.3317244041
 20
-784.7127680596
 30
0.0
  0
SEQEND
  5
587
  8
0
  6
HIDDEN
 62
     7
  0
POLYLINE
  5
25F
  8
0
  6
HIDDEN
 62
     7
 66
     1
 10
0.0
 20
0.0
 30
0.0
  0
VERTEX
  5
58B
  8
0
  6
HIDDEN
 62
     7
 10
610.5032972794
 20
-782.8843409349
 30
0.0
  0
VERTEX
  5
58C
  8
0
  6
HIDDEN
 62
     7
 10
610.5032972794
 20
-782.8843409349
 30
0.0
  0
SEQEND
  5
58A
  8
0
  6
HIDDEN
 62
     7
  0
POLYLINE
  5
260
  8
0
  6
HIDDEN
 62
     7
 66
     1
 10
0.0
 20
0.0
 30
0.0
  0
VERTEX
  5
58E
  8
0
  6
HIDDEN
 62
     7
 10
612.3317244041
 20
985.2872319404
 30
0.0
  0
VERTEX
  5
58F
  8
0
  6
HIDDEN
 62
     7
 10
612.3317244041
 20
985.2872319404
 30
0.0
  0
SEQEND
  5
58D
  8
0
  6
HIDDEN
 62
     7
  0
POLYLINE
  5
261
  8
0
  6
HIDDEN
 62
     7
 66
     1
 10
0.0
 20
0.0
 30
0.0
  0
VERTEX
  5
591
  8
0
  6
HIDDEN
 62
     7
 10
610.5032972794
 20
983.4588048156
 30
0.0
  0
VERTEX
  5
592
  8
0
  6
HIDDEN
 62
     7
 10
610.5032972794
 20
983.4588048156
 30
0.0
  0
SEQEND
  5
590
  8
0
  6
HIDDEN
 62
     7
  0
ARC
  5
262
  8
0
  6
HIDDEN
 62
     7
 10
628.0032972794
 20
968.6477640222
 30
0.0
 40
2.0
 50
90.0
 51
147.0647695028
  0
ARC
  5
263
  8
0
  6
HIDDEN
 62
     7
 10
616.2532972794
 20
976.259432696
 30
0.0
 40
12.00000000000003
 50
273.1847385367
 51
327.0647695028
  0
ARC
  5
264
  8
0
  6
HIDDEN
 62
     7
 10
617.2532972794
 20
958.2872319404
 30
0.0
 40
6.0
 50
93.1847385367
 51
180.0
  0
LINE
  5
265
  8
0
  6
HIDDEN
 62
     7
 10
611.2532972794
 20
958.2872319404
 30
0.0
 11
611.2532972794
 21
956.2872319404
 31
0.0
  0
ARC
  5
266
  8
0
  6
HIDDEN
 62
     7
 10
617.2532972794
 20
956.2872319404
 30
0.0
 40
6.0
 50
180.0
 51
257.6311073949
  0
LINE
  5
267
  8
0
  6
HIDDEN
 62
     7
 10
615.9680670735
 20
950.4264996211
 30
0.0
 11
628.0032972794
 21
947.7872319404
 31
0.0
  0
LINE
  5
268
  8
0
  6
HIDDEN
 62
     7
 10
615.9680670735
 20
-749.8520357404
 30
0.0
 11
628.0032972794
 21
-747.2127680596
 31
0.0
  0
ARC
  5
269
  8
0
  6
HIDDEN
 62
     7
 10
617.2532972794
 20
-755.7127680596
 30
0.0
 40
6.0
 50
102.3688926051
 51
180.0
  0
LINE
  5
26A
  8
0
  6
HIDDEN
 62
     7
 10
611.2532972794
 20
-757.7127680596
 30
0.0
 11
611.2532972794
 21
-755.7127680596
 31
0.0
  0
ARC
  5
26B
  8
0
  6
HIDDEN
 62
     7
 10
617.2532972794
 20
-757.7127680596
 30
0.0
 40
6.0
 50
180.0
 51
266.8152614633
  0
ARC
  5
26C
  8
0
  6
HIDDEN
 62
     7
 10
616.2532972794
 20
-775.6849688152
 30
0.0
 40
12.00000000000015
 50
32.9352304972
 51
86.8152614633
  0
ARC
  5
26D
  8
0
  6
HIDDEN
 62
     7
 10
628.0032972794
 20
-768.0733001414
 30
0.0
 40
2.000000000000114
 50
212.9352304972
 51
270.0
  0
LINE
  5
26E
  8
0
  6
HIDDEN
 62
     7
 10
627.0032972794
 20
-746.2127680596
 30
0.0
 11
628.0032972794
 21
-746.2127680596
 31
0.0
  0
LINE
  5
26F
  8
0
  6
HIDDEN
 62
     7
 10
627.0032972794
 20
946.7872319404
 30
0.0
 11
628.0032972794
 21
946.7872319404
 31
0.0
  0
LINE
  5
270
  8
0
  6
HIDDEN
 62
     7
 10
635.0032972794
 20
98.7872319404
 30
0.0
 11
635.0032972794
 21
85.7872319404
 31
0.0
  0
LINE
  5
271
  8
0
  6
HIDDEN
 62
     7
 10
640.0032972794
 20
98.7872319404
 30
0.0
 11
640.0032972794
 21
85.7872319404
 31
0.0
  0
ARC
  5
272
  8
0
  6
HIDDEN
 62
     7
 10
632.5032972794
 20
99.3497319404
 30
0.0
 40
2.562500000017627
 50
305.8288401005
 51
321.3052600781
  0
ARC
  5
273
  8
0
  6
HIDDEN
 62
     7
 10
632.5032972794
 20
85.2247319404
 30
0.0
 40
2.562500000017723
 50
38.6947399219
 51
54.1711598995
  0
ARC
  5
274
  8
0
  6
HIDDEN
 62
     7
 10
632.5032972794
 20
99.3497319403
 30
0.0
 40
2.562499999983856
 50
270.0
 51
281.2518477293
  0
ARC
  5
275
  8
0
  6
HIDDEN
 62
     7
 10
632.5032972794
 20
85.2247319404
 30
0.0
 40
2.562499999983871
 50
78.7481522707
 51
90.0
  0
ARC
  5
276
  8
0
  6
HIDDEN
 62
     7
 10
632.5032972794
 20
99.3497319404
 30
0.0
 40
2.56249999999997
 50
281.2518477293
 51
305.8288401004
  0
ARC
  5
277
  8
0
  6
HIDDEN
 62
     7
 10
632.5032972794
 20
85.2247319404
 30
0.0
 40
2.56249999999997
 50
54.1711598996
 51
78.7481522707
  0
LINE
  5
278
  8
0
  6
HIDDEN
 62
     7
 10
634.5032972794
 20
86.8129913597
 30
0.0
 11
634.2085450184
 21
87.1366757291
 31
0.0
  0
LINE
  5
279
  8
0
  6
HIDDEN
 62
     7
 10
634.5032972794
 20
97.761472521
 30
0.0
 11
634.2085450184
 21
97.4377881517
 31
0.0
  0
ARC
  5
27A
  8
0
  6
HIDDEN
 62
     7
 10
609.5032972794
 20
-755.7127680596
 30
0.0
 40
7.5
 50
270.0
 51
90.0
  0
ARC
  5
27B
  8
0
  6
HIDDEN
 62
     7
 10
609.5032972794
 20
956.2872319404
 30
0.0
 40
7.5
 50
270.0
 51
90.0
  0
LINE
  5
27C
  8
0
  6
HIDDEN
 62
     7
 10
610.5032972794
 20
-692.7127680596
 30
0.0
 11
610.5032972794
 21
-682.7127680596
 31
0.0
  0
LINE
  5
27D
  8
0
  6
HIDDEN
 62
     7
 10
634.5032972794
 20
87.7872319404
 30
0.0
 11
632.5032972794
 21
87.7872319404
 31
0.0
  0
LINE
  5
27E
  8
0
  6
HIDDEN
 62
     7
 10
634.5032972794
 20
96.7872319404
 30
0.0
 11
632.5032972794
 21
96.7872319404
 31
0.0
  0
ARC
  5
27F
  8
0
  6
HIDDEN
 62
     7
 10
616.2532972794
 20
976.259432696
 30
0.0
 40
11.99999999999999
 50
327.0647695028
 51
348.2841476051
  0
POLYLINE
  5
280
  8
0
  6
HIDDEN
 62
     7
 66
     1
 10
0.0
 20
0.0
 30
0.0
  0
VERTEX
  5
594
  8
0
  6
HIDDEN
 62
     7
 10
611.7393652569
 20
988.2872325592
 30
0.0
  0
VERTEX
  5
595
  8
0
  6
HIDDEN
 62
     7
 10
612.0734763356
 20
988.2008760219
 30
0.0
  0
VERTEX
  5
596
  8
0
  6
HIDDEN
 62
     7
 10
612.3121688548
 20
987.9581688526
 30
0.0
  0
VERTEX
  5
597
  8
0
  6
HIDDEN
 62
     7
 10
612.4554428146
 20
987.586613491
 30
0.0
  0
VERTEX
  5
598
  8
0
  6
HIDDEN
 62
     7
 10
612.5032982149
 20
987.1156632523
 30
0.0
  0
VERTEX
  5
599
  8
0
  6
HIDDEN
 62
     7
 10
612.455661629
 20
986.550168448
 30
0.0
  0
VERTEX
  5
59A
  8
0
  6
HIDDEN
 62
     7
 10
612.3938999399
 20
986.2603686385
 30
0.0
  0
SEQEND
  5
593
  8
0
  6
HIDDEN
 62
     7
  0
POLYLINE
  5
281
  8
0
  6
HIDDEN
 62
     7
 66
     1
 10
0.0
 20
0.0
 30
0.0
  0
VERTEX
  5
59C
  8
0
  6
HIDDEN
 62
     7
 10
611.7393652569
 20
984.2872319404
 30
0.0
  0
VERTEX
  5
59D
  8
0
  6
HIDDEN
 62
     7
 10
611.7393652569
 20
984.2872319404
 30
0.0
  0
SEQEND
  5
59B
  8
0
  6
HIDDEN
 62
     7
  0
ARC
  5
282
  8
0
  6
HIDDEN
 62
     7
 10
612.0923002453
 20
985.7484175995
 30
0.0
 40
0.4136620991720981
 50
353.4514156792
 51
50.8720999649
  0
ARC
  5
283
  8
0
  6
HIDDEN
 62
     7
 10
616.2532972794
 20
-775.6849688152
 30
0.0
 40
12.00000000000001
 50
11.7158523949
 51
32.9352304972
  0
LINE
  5
284
  8
0
  6
HIDDEN
 62
     7
 10
615.9636143997
 20
950.427477844
 30
0.0
 11
628.0032957599
 21
947.7776446476
 31
0.0
  0
LINE
  5
285
  8
0
  6
HIDDEN
 62
     7
 10
615.9636143997
 20
-749.8530139633
 30
0.0
 11
628.0032957599
 21
-747.2031807669
 31
0.0
  0
LINE
  5
286
  8
0
  6
HIDDEN
 62
     7
 10
611.5032972794
 20
954.5733182903
 30
0.0
 11
611.111228699
 21
956.2872319404
 31
0.0
  0
POLYLINE
  5
287
  8
0
  6
HIDDEN
 62
     7
 66
     1
 10
0.0
 20
0.0
 30
0.0
  0
VERTEX
  5
59F
  8
0
  6
HIDDEN
 62
     7
 10
611.5032972794
 20
954.5733182903
 30
0.0
  0
VERTEX
  5
5A0
  8
0
  6
HIDDEN
 62
     7
 10
611.5032972794
 20
954.5733182903
 30
0.0
  0
SEQEND
  5
59E
  8
0
  6
HIDDEN
 62
     7
  0
ARC
  5
288
  8
0
  6
HIDDEN
 62
     7
 10
608.8061948021
 20
985.0838902608
 30
0.0
 40
1.835864897924488
 50
230.9982844341
 51
293.1768892642
  0
LINE
  5
289
  8
0
  6
HIDDEN
 62
     7
 10
609.5032972794
 20
984.0511639629
 30
0.0
 11
607.5032970853
 21
984.0511639629
 31
0.0
  0
ARC
  5
28A
  8
0
  6
HIDDEN
 62
     7
 10
610.0376475382
 20
983.7276290032
 30
0.0
 40
0.4433373092962253
 50
210.7679792051
 51
276.6403737429
  0
POLYLINE
  5
28B
  8
0
  6
HIDDEN
 62
     7
 66
     1
 10
0.0
 20
0.0
 30
0.0
  0
VERTEX
  5
5A2
  8
0
  6
HIDDEN
 62
     7
 10
611.5032972794
 20
984.0511639629
 30
0.0
  0
VERTEX
  5
5A3
  8
0
  6
HIDDEN
 62
     7
 10
611.5032972794
 20
984.0511639629
 30
0.0
  0
SEQEND
  5
5A1
  8
0
  6
HIDDEN
 62
     7
  0
LINE
  5
28C
  8
0
  6
HIDDEN
 62
     7
 10
611.111228699
 20
-755.7127680596
 30
0.0
 11
611.5032972794
 21
-753.9988544095
 31
0.0
  0
LINE
  5
28D
  8
0
  6
HIDDEN
 62
     7
 10
611.111228699
 20
-757.7127680596
 30
0.0
 11
611.111228699
 21
-755.7127680596
 31
0.0
  0
LINE
  5
28E
  8
0
  6
HIDDEN
 62
     7
 10
611.5032972794
 20
-759.4266817097
 30
0.0
 11
611.111228699
 21
-757.7127680596
 31
0.0
  0
ARC
  5
28F
  8
0
  6
HIDDEN
 62
     7
 10
608.8236705181
 20
-784.6351669693
 30
0.0
 40
1.945684159727904
 50
68.7538619597
 51
127.0709643546
  0
LINE
  5
290
  8
0
  6
HIDDEN
 62
     7
 10
611.111228699
 20
958.2872319404
 30
0.0
 11
611.5032972794
 21
960.0011455905
 31
0.0
  0
LINE
  5
291
  8
0
  6
HIDDEN
 62
     7
 10
611.111228699
 20
956.2872319404
 30
0.0
 11
611.111228699
 21
958.2872319404
 31
0.0
  0
POLYLINE
  5
292
  8
0
  6
HIDDEN
 62
     7
 66
     1
 10
0.0
 20
0.0
 30
0.0
  0
VERTEX
  5
5A5
  8
0
  6
HIDDEN
 62
     7
 10
611.5032972794
 20
-759.4266817097
 30
0.0
  0
VERTEX
  5
5A6
  8
0
  6
HIDDEN
 62
     7
 10
611.5032972794
 20
-759.4266817097
 30
0.0
  0
SEQEND
  5
5A4
  8
0
  6
HIDDEN
 62
     7
  0
POLYLINE
  5
293
  8
0
  6
HIDDEN
 62
     7
 66
     1
 10
0.0
 20
0.0
 30
0.0
  0
VERTEX
  5
5A8
  8
0
  6
HIDDEN
 62
     7
 10
611.5032972794
 20
-753.9988544095
 30
0.0
  0
VERTEX
  5
5A9
  8
0
  6
HIDDEN
 62
     7
 10
611.5032972794
 20
-753.9988544095
 30
0.0
  0
SEQEND
  5
5A7
  8
0
  6
HIDDEN
 62
     7
  0
POLYLINE
  5
294
  8
0
  6
HIDDEN
 62
     7
 66
     1
 10
0.0
 20
0.0
 30
0.0
  0
VERTEX
  5
5AB
  8
0
  6
HIDDEN
 62
     7
 10
611.5032972794
 20
960.0011455905
 30
0.0
  0
VERTEX
  5
5AC
  8
0
  6
HIDDEN
 62
     7
 10
611.5032972794
 20
960.0011455905
 30
0.0
  0
SEQEND
  5
5AA
  8
0
  6
HIDDEN
 62
     7
  0
POLYLINE
  5
295
  8
0
  6
HIDDEN
 62
     7
 66
     1
 10
0.0
 20
0.0
 30
0.0
  0
VERTEX
  5
5AE
  8
0
  6
HIDDEN
 62
     7
 10
611.5032972794
 20
-783.4767000821
 30
0.0
  0
VERTEX
  5
5AF
  8
0
  6
HIDDEN
 62
     7
 10
611.5032972794
 20
-783.4767000821
 30
0.0
  0
SEQEND
  5
5AD
  8
0
  6
HIDDEN
 62
     7
  0
POLYLINE
  5
296
  8
0
  6
HIDDEN
 62
     7
 66
     1
 10
0.0
 20
0.0
 30
0.0
  0
VERTEX
  5
5B1
  8
0
  6
HIDDEN
 62
     7
 10
609.7211615148
 20
-782.8628734414
 30
0.0
  0
VERTEX
  5
5B2
  8
0
  6
HIDDEN
 62
     7
 10
609.8541215712
 20
-782.7604037102
 30
0.0
  0
VERTEX
  5
5B3
  8
0
  6
HIDDEN
 62
     7
 10
610.0890854546
 20
-782.7127671242
 30
0.0
  0
VERTEX
  5
5B4
  8
0
  6
HIDDEN
 62
     7
 10
610.0889126317
 20
-782.7128021623
 30
0.0
  0
SEQEND
  5
5B0
  8
0
  6
HIDDEN
 62
     7
  0
LINE
  5
297
  8
0
  6
HIDDEN
 62
     7
 10
607.5032972794
 20
-783.4767000821
 30
0.0
 11
609.5032972794
 21
-783.4767000821
 31
0.0
  0
POLYLINE
  5
298
  8
0
  6
HIDDEN
 62
     7
 66
     1
 10
0.0
 20
0.0
 30
0.0
  0
VERTEX
  5
5B6
  8
0
  6
HIDDEN
 62
     7
 10
612.3268941306
 20
-785.3715096352
 30
0.0
  0
VERTEX
  5
5B7
  8
0
  6
HIDDEN
 62
     7
 10
612.455661627
 20
-785.9757124237
 30
0.0
  0
VERTEX
  5
5B8
  8
0
  6
HIDDEN
 62
     7
 10
612.5032982149
 20
-786.5411993715
 30
0.0
  0
VERTEX
  5
5B9
  8
0
  6
HIDDEN
 62
     7
 10
612.4554428146
 20
-787.0121496102
 30
0.0
  0
VERTEX
  5
5BA
  8
0
  6
HIDDEN
 62
     7
 10
612.3121688549
 20
-787.3837049719
 30
0.0
  0
VERTEX
  5
5BB
  8
0
  6
HIDDEN
 62
     7
 10
612.0734763356
 20
-787.6264121412
 30
0.0
  0
VERTEX
  5
5BC
  8
0
  6
HIDDEN
 62
     7
 10
611.7393652569
 20
-787.7127686784
 30
0.0
  0
SEQEND
  5
5B5
  8
0
  6
HIDDEN
 62
     7
  0
POLYLINE
  5
299
  8
0
  6
HIDDEN
 62
     7
 66
     1
 10
0.0
 20
0.0
 30
0.0
  0
VERTEX
  5
5BE
  8
0
  6
HIDDEN
 62
     7
 10
611.7393652569
 20
-783.7127680596
 30
0.0
  0
VERTEX
  5
5BF
  8
0
  6
HIDDEN
 62
     7
 10
611.7393652569
 20
-783.7127680596
 30
0.0
  0
SEQEND
  5
5BD
  8
0
  6
HIDDEN
 62
     7
  0
POLYLINE
  5
29A
  8
0
  6
HIDDEN
 62
     7
 66
     1
 10
0.0
 20
0.0
 30
0.0
  0
VERTEX
  5
5C1
  8
0
  6
HIDDEN
 62
     7
 10
612.5032631753
 20
-785.1267759598
 30
0.0
  0
VERTEX
  5
5C2
  8
0
  6
HIDDEN
 62
     7
 10
612.4554428146
 20
-785.3624590901
 30
0.0
  0
VERTEX
  5
5C3
  8
0
  6
HIDDEN
 62
     7
 10
612.3533414722
 20
-785.4948498859
 30
0.0
  0
SEQEND
  5
5C0
  8
0
  6
HIDDEN
 62
     7
  0
LINE
  5
29B
  8
0
  6
HIDDEN
 62
     7
 10
611.3072629797
 20
-757.7127680596
 30
0.0
 11
611.3072629797
 21
-755.7127680596
 31
0.0
  0
LINE
  5
29C
  8
0
  6
HIDDEN
 62
     7
 10
611.3072629797
 20
956.2872319404
 30
0.0
 11
611.3072629797
 21
958.2872319404
 31
0.0
  0
LINE
  5
29D
  8
0
  6
HIDDEN
 62
     7
 10
609.5032972794
 20
984.2872319404
 30
0.0
 11
607.5032966606
 21
984.2872319404
 31
0.0
  0
LINE
  5
29E
  8
0
  6
HIDDEN
 62
     7
 10
609.5032972794
 20
-783.7127680596
 30
0.0
 11
607.5032966606
 21
-783.7127680596
 31
0.0
  0
ARC
  5
29F
  8
0
  6
HIDDEN
 62
     7
 10
611.4884299528
 20
984.3156774477
 30
0.0
 40
3.971582938920617
 50
89.7855169923
 51
169.7766012397
  0
ARC
  5
2A0
  8
0
  6
HIDDEN
 62
     7
 10
611.5032972794
 20
-783.7127680596
 30
0.0
 40
4.00000061879382
 50
180.0
 51
269.9999999999
  0
POLYLINE
  5
2A1
  8
0
  6
HIDDEN
 62
     7
 66
     1
 10
0.0
 20
0.0
 30
0.0
  0
VERTEX
  5
5C5
  8
0
  6
HIDDEN
 62
     7
 10
611.5032972794
 20
-783.4767000821
 30
0.0
  0
VERTEX
  5
5C6
  8
0
  6
HIDDEN
 62
     7
 10
611.5032972794
 20
-783.4767000821
 30
0.0
  0
SEQEND
  5
5C4
  8
0
  6
HIDDEN
 62
     7
  0
POLYLINE
  5
2A2
  8
0
  6
HIDDEN
 62
     7
 66
     1
 10
0.0
 20
0.0
 30
0.0
  0
VERTEX
  5
5C8
  8
0
  6
HIDDEN
 62
     7
 10
611.7393652569
 20
984.2872319404
 30
0.0
  0
VERTEX
  5
5C9
  8
0
  6
HIDDEN
 62
     7
 10
611.7393652569
 20
984.2872319404
 30
0.0
  0
SEQEND
  5
5C7
  8
0
  6
HIDDEN
 62
     7
  0
POLYLINE
  5
2A3
  8
0
  6
HIDDEN
 62
     7
 66
     1
 10
0.0
 20
0.0
 30
0.0
  0
VERTEX
  5
5CB
  8
0
  6
HIDDEN
 62
     7
 10
611.5032972794
 20
984.0511639629
 30
0.0
  0
VERTEX
  5
5CC
  8
0
  6
HIDDEN
 62
     7
 10
611.5032972794
 20
984.0511639629
 30
0.0
  0
SEQEND
  5
5CA
  8
0
  6
HIDDEN
 62
     7
  0
POLYLINE
  5
2A4
  8
0
  6
HIDDEN
 62
     7
 66
     1
 10
0.0
 20
0.0
 30
0.0
  0
VERTEX
  5
5CE
  8
0
  6
HIDDEN
 62
     7
 10
611.7393652569
 20
-783.7127680596
 30
0.0
  0
VERTEX
  5
5CF
  8
0
  6
HIDDEN
 62
     7
 10
611.7393652569
 20
-783.7127680596
 30
0.0
  0
SEQEND
  5
5CD
  8
0
  6
HIDDEN
 62
     7
  0
LINE
  5
2A5
  8
0
  6
HIDDEN
 62
     7
 10
612.5028679097
 20
-786.8753742102
 30
0.0
 11
612.50286791
 21
-785.4336345129
 31
0.0
  0
LINE
  5
2A6
  8
0
  6
HIDDEN
 62
     7
 10
612.5028720371
 20
986.0081279936
 30
0.0
 11
612.5028720386
 21
987.449933111
 31
0.0
  0
LINE
  5
2A7
  8
0
  6
HIDDEN
 62
     7
 10
608.424257185
 20
983.2876571736
 30
0.0
 11
609.8102831068
 21
983.2876571738
 31
0.0
  0
LINE
  5
2A8
  8
0
  6
HIDDEN
 62
     7
 10
609.8102520114
 20
-782.7131974344
 30
0.0
 11
608.4241600598
 21
-782.7131974342
 31
0.0
  0
ARC
  5
2A9
  8
0
  6
HIDDEN
 62
     7
 10
609.9732972794
 20
99.1713485648
 30
0.0
 40
2.469999999999968
 50
180.0
 51
229.3250604347
  0
ARC
  5
2AA
  8
0
  6
HIDDEN
 62
     7
 10
609.9732972794
 20
85.4031153159
 30
0.0
 40
2.469999999999978
 50
130.6749395653
 51
180.0
  0
ARC
  5
2AB
  8
0
  6
HIDDEN
 62
     7
 10
609.9732972794
 20
-700.8286514352
 30
0.0
 40
2.469999999999968
 50
180.0
 51
229.3250604347
  0
ARC
  5
2AC
  8
0
  6
HIDDEN
 62
     7
 10
609.9732972794
 20
-714.5968846841
 30
0.0
 40
2.470000000000054
 50
130.6749395653
 51
180.0
  0
ARC
  5
2AD
  8
0
  6
HIDDEN
 62
     7
 10
609.9732972794
 20
-700.8286514352
 30
0.0
 40
0.469999999999995
 50
180.0
 51
229.3250604347
  0
ARC
  5
2AE
  8
0
  6
HIDDEN
 62
     7
 10
609.9732972794
 20
-714.5968846841
 30
0.0
 40
0.4700000000000812
 50
130.6749395653
 51
180.0
  0
ARC
  5
2AF
  8
0
  6
HIDDEN
 62
     7
 10
609.9732972794
 20
99.1713485648
 30
0.0
 40
0.469999999999995
 50
180.0
 51
229.3250604347
  0
ARC
  5
2B0
  8
0
  6
HIDDEN
 62
     7
 10
609.9732972794
 20
85.4031153159
 30
0.0
 40
0.469999999999995
 50
130.6749395653
 51
180.0
  0
ARC
  5
2B1
  8
0
  6
HIDDEN
 62
     7
 10
609.9732972794
 20
899.1713485648
 30
0.0
 40
2.469999999999968
 50
180.0
 51
229.3250604347
  0
ARC
  5
2B2
  8
0
  6
HIDDEN
 62
     7
 10
609.9732972794
 20
885.4031153159
 30
0.0
 40
2.469999999999968
 50
130.6749395653
 51
180.0
  0
ARC
  5
2B3
  8
0
  6
HIDDEN
 62
     7
 10
609.9732972794
 20
899.1713485648
 30
0.0
 40
0.469999999999995
 50
180.0
 51
229.3250604347
  0
ARC
  5
2B4
  8
0
  6
HIDDEN
 62
     7
 10
609.9732972794
 20
885.4031153159
 30
0.0
 40
0.4700000000000812
 50
130.6749395653
 51
180.0
  0
LINE
  5
2B5
  8
0
  6
HIDDEN
 62
     7
 10
609.66696691
 20
885.759572473
 30
0.0
 11
612.006830766
 21
887.7703929742
 31
0.0
  0
LINE
  5
2B6
  8
0
  6
HIDDEN
 62
     7
 10
612.006830766
 20
896.8040709066
 30
0.0
 11
609.66696691
 21
898.8148914077
 31
0.0
  0
LINE
  5
2B7
  8
0
  6
HIDDEN
 62
     7
 10
609.66696691
 20
-714.240427527
 30
0.0
 11
612.006830766
 21
-712.2296070258
 31
0.0
  0
LINE
  5
2B8
  8
0
  6
HIDDEN
 62
     7
 10
612.006830766
 20
-703.1959290934
 30
0.0
 11
609.66696691
 21
-701.1851085923
 31
0.0
  0
LINE
  5
2B9
  8
0
  6
HIDDEN
 62
     7
 10
609.66696691
 20
85.759572473
 30
0.0
 11
612.006830766
 21
87.7703929742
 31
0.0
  0
LINE
  5
2BA
  8
0
  6
HIDDEN
 62
     7
 10
612.006830766
 20
96.8040709066
 30
0.0
 11
609.66696691
 21
98.8148914077
 31
0.0
  0
LINE
  5
2BB
  8
0
  6
HIDDEN
 62
     7
 10
608.3634334235
 20
-712.7235885608
 30
0.0
 11
610.7032972794
 21
-710.7127680596
 31
0.0
  0
LINE
  5
2BC
  8
0
  6
HIDDEN
 62
     7
 10
610.7032972794
 20
-704.7127680596
 30
0.0
 11
608.3634334235
 21
-702.7019475585
 31
0.0
  0
LINE
  5
2BD
  8
0
  6
HIDDEN
 62
     7
 10
608.3634334235
 20
887.2764114392
 30
0.0
 11
610.7032972794
 21
889.2872319404
 31
0.0
  0
LINE
  5
2BE
  8
0
  6
HIDDEN
 62
     7
 10
610.7032972794
 20
895.2872319404
 30
0.0
 11
608.3634334235
 21
897.2980524415
 31
0.0
  0
LINE
  5
2BF
  8
0
  6
HIDDEN
 62
     7
 10
608.3634334235
 20
87.2764114392
 30
0.0
 11
610.7032972794
 21
89.2872319404
 31
0.0
  0
LINE
  5
2C0
  8
0
  6
HIDDEN
 62
     7
 10
610.7032972794
 20
95.2872319404
 30
0.0
 11
608.3634334235
 21
97.2980524415
 31
0.0
  0
LINE
  5
2C1
  8
0
  6
HIDDEN
 62
     7
 10
612.006830766
 20
96.8040709066
 30
0.0
 11
610.7032972794
 21
95.2872319404
 31
0.0
  0
LINE
  5
2C2
  8
0
  6
HIDDEN
 62
     7
 10
610.7032972794
 20
89.2872319404
 30
0.0
 11
612.006830766
 21
87.7703929742
 31
0.0
  0
LINE
  5
2C3
  8
0
  6
HIDDEN
 62
     7
 10
612.006830766
 20
896.8040709066
 30
0.0
 11
610.7032972794
 21
895.2872319404
 31
0.0
  0
LINE
  5
2C4
  8
0
  6
HIDDEN
 62
     7
 10
610.7032972794
 20
889.2872319404
 30
0.0
 11
612.006830766
 21
887.7703929742
 31
0.0
  0
LINE
  5
2C5
  8
0
  6
HIDDEN
 62
     7
 10
612.006830766
 20
-703.1959290934
 30
0.0
 11
610.7032972794
 21
-704.7127680596
 31
0.0
  0
LINE
  5
2C6
  8
0
  6
HIDDEN
 62
     7
 10
610.7032972794
 20
-710.7127680596
 30
0.0
 11
612.006830766
 21
-712.2296070258
 31
0.0
  0
ARC
  5
2C7
  8
0
  6
HIDDEN
 62
     7
 10
609.9732972794
 20
974.1713485648
 30
0.0
 40
2.469999999999968
 50
180.0
 51
229.3250604347
  0
ARC
  5
2C8
  8
0
  6
HIDDEN
 62
     7
 10
609.9732972794
 20
960.4031153159
 30
0.0
 40
2.469999999999968
 50
130.6749395653
 51
180.0
  0
ARC
  5
2C9
  8
0
  6
HIDDEN
 62
     7
 10
609.9732972794
 20
-759.8286514352
 30
0.0
 40
2.469999999999968
 50
180.0
 51
229.3250604347
  0
ARC
  5
2CA
  8
0
  6
HIDDEN
 62
     7
 10
609.9732972794
 20
-773.5968846841
 30
0.0
 40
2.469999999999968
 50
130.6749395653
 51
180.0
  0
ARC
  5
2CB
  8
0
  6
HIDDEN
 62
     7
 10
609.9732972794
 20
-759.8286514352
 30
0.0
 40
0.469999999999995
 50
180.0
 51
229.3250604347
  0
ARC
  5
2CC
  8
0
  6
HIDDEN
 62
     7
 10
609.9732972794
 20
-773.5968846841
 30
0.0
 40
0.469999999999995
 50
130.6749395653
 51
180.0
  0
ARC
  5
2CD
  8
0
  6
HIDDEN
 62
     7
 10
609.9732972794
 20
974.1713485648
 30
0.0
 40
0.4700000000000812
 50
180.0
 51
229.3250604347
  0
ARC
  5
2CE
  8
0
  6
HIDDEN
 62
     7
 10
609.9732972794
 20
960.4031153159
 30
0.0
 40
0.469999999999995
 50
130.6749395653
 51
180.0
  0
LINE
  5
2CF
  8
0
  6
HIDDEN
 62
     7
 10
609.66696691
 20
960.759572473
 30
0.0
 11
612.0068307659
 21
962.7703929742
 31
0.0
  0
LINE
  5
2D0
  8
0
  6
HIDDEN
 62
     7
 10
612.0068307659
 20
971.8040709066
 30
0.0
 11
609.66696691
 21
973.8148914077
 31
0.0
  0
LINE
  5
2D1
  8
0
  6
HIDDEN
 62
     7
 10
609.66696691
 20
-773.240427527
 30
0.0
 11
612.0068307659
 21
-771.2296070258
 31
0.0
  0
LINE
  5
2D2
  8
0
  6
HIDDEN
 62
     7
 10
612.0068307659
 20
-762.1959290934
 30
0.0
 11
609.66696691
 21
-760.1851085923
 31
0.0
  0
LINE
  5
2D3
  8
0
  6
HIDDEN
 62
     7
 10
608.3634334235
 20
962.2764114392
 30
0.0
 11
610.7032972794
 21
964.2872319404
 31
0.0
  0
LINE
  5
2D4
  8
0
  6
HIDDEN
 62
     7
 10
610.7032972794
 20
970.2872319404
 30
0.0
 11
608.3634334235
 21
972.2980524415
 31
0.0
  0
LINE
  5
2D5
  8
0
  6
HIDDEN
 62
     7
 10
608.3634334235
 20
-771.7235885608
 30
0.0
 11
610.7032972794
 21
-769.7127680596
 31
0.0
  0
LINE
  5
2D6
  8
0
  6
HIDDEN
 62
     7
 10
610.7032972794
 20
-763.7127680596
 30
0.0
 11
608.3634334235
 21
-761.7019475585
 31
0.0
  0
LINE
  5
2D7
  8
0
  6
HIDDEN
 62
     7
 10
612.0068307659
 20
971.8040709066
 30
0.0
 11
610.7032972794
 21
970.2872319404
 31
0.0
  0
LINE
  5
2D8
  8
0
  6
HIDDEN
 62
     7
 10
610.7032972794
 20
964.2872319404
 30
0.0
 11
612.0068307659
 21
962.7703929742
 31
0.0
  0
LINE
  5
2D9
  8
0
  6
HIDDEN
 62
     7
 10
612.0068307659
 20
-762.1959290934
 30
0.0
 11
610.7032972794
 21
-763.7127680596
 31
0.0
  0
LINE
  5
2DA
  8
0
  6
HIDDEN
 62
     7
 10
610.7032972794
 20
-769.7127680596
 30
0.0
 11
612.0068307659
 21
-771.2296070258
 31
0.0
  0
LINE
  5
2DB
  8
0
  6
HIDDEN
 62
     7
 10
607.5032972794
 20
89.7872319404
 30
0.0
 11
609.5032972794
 21
89.7872319404
 31
0.0
  0
LINE
  5
2DC
  8
0
  6
HIDDEN
 62
     7
 10
609.5032972794
 20
94.7872319404
 30
0.0
 11
607.5032972794
 21
94.7872319404
 31
0.0
  0
LINE
  5
2DD
  8
0
  6
HIDDEN
 62
     7
 10
612.5028679048
 20
-786.791905568
 30
0.0
 11
612.5028679047
 21
-785.4058136153
 31
0.0
  0
LINE
  5
2DE
  8
0
  6
HIDDEN
 62
     7
 10
612.5028679112
 20
-785.4058619958
 30
0.0
 11
612.5028679113
 21
-786.7920526344
 31
0.0
  0
LINE
  5
2DF
  8
0
  6
HIDDEN
 62
     7
 10
609.7824311241
 20
-782.713197429
 30
0.0
 11
608.3406914253
 21
-782.7131974293
 31
0.0
  0
LINE
  5
2E0
  8
0
  6
HIDDEN
 62
     7
 10
612.5028720507
 20
987.3661927178
 30
0.0
 11
612.5028720501
 21
985.980223385
 31
0.0
  0
LINE
  5
2E1
  8
0
  6
HIDDEN
 62
     7
 10
612.5028720459
 20
985.9802464007
 30
0.0
 11
612.5028720461
 21
987.3662723238
 31
0.0
  0
LINE
  5
2E2
  8
0
  6
HIDDEN
 62
     7
 10
608.3405964051
 20
983.2876571811
 30
0.0
 11
609.7824015241
 21
983.2876571826
 31
0.0
  0
LINE
  5
2E3
  8
0
  6
HIDDEN
 62
     7
 10
627.0032972794
 20
946.7872319404
 30
0.0
 11
627.0032972794
 21
-746.2127680596
 31
0.0
  0
LINE
  5
2E4
  8
0
  6
HIDDEN
 62
     7
 10
635.0032972794
 20
89.2872319404
 30
0.0
 11
640.5032972794
 21
89.2872319404
 31
0.0
  0
LINE
  5
2E5
  8
0
  6
HIDDEN
 62
     7
 10
640.5032972794
 20
95.2872319404
 30
0.0
 11
635.0032972794
 21
95.2872319404
 31
0.0
  0
LINE
  5
2E6
  8
0
  6
HIDDEN
 62
     7
 10
617.0032972794
 20
-743.2127680596
 30
0.0
 11
617.0032972794
 21
943.7872319404
 31
0.0
  0
LINE
  5
2E7
  8
0
  6
HIDDEN
 62
     7
 10
617.0032972794
 20
-755.7127680596
 30
0.0
 11
617.0032972794
 21
-743.2127680596
 31
0.0
  0
LINE
  5
2E8
  8
0
  6
HIDDEN
 62
     7
 10
617.0032972794
 20
943.7872319404
 30
0.0
 11
617.0032972794
 21
956.2872319404
 31
0.0
  0
LINE
  5
2E9
  8
0
  6
HIDDEN
 62
     7
 10
609.5032972794
 20
-692.7127680596
 30
0.0
 11
610.5032972794
 21
-692.7127680596
 31
0.0
  0
LINE
  5
2EA
  8
0
  6
HIDDEN
 62
     7
 10
610.5032972794
 20
-682.7127680596
 30
0.0
 11
609.5032972794
 21
-682.7127680596
 31
0.0
  0
LINE
  5
2EB
  8
0
  6
HIDDEN
 62
     7
 10
610.5032972794
 20
-691.7127680596
 30
0.0
 11
628.0032972794
 21
-691.7127680596
 31
0.0
  0
LINE
  5
2EC
  8
0
  6
HIDDEN
 62
     7
 10
628.0032972794
 20
-683.7127680596
 30
0.0
 11
610.5032972794
 21
-683.7127680596
 31
0.0
  0
LINE
  5
2ED
  8
0
  6
HIDDEN
 62
     7
 10
612.5032983258
 20
985.7010598613
 30
0.0
 11
612.5032983258
 21
987.1148873355
 31
0.0
  0
LINE
  5
2EE
  8
0
  6
HIDDEN
 62
     7
 10
608.6740980715
 20
983.2872308939
 30
0.0
 11
610.0886976177
 21
983.2872308939
 31
0.0
  0
LINE
  5
2EF
  8
0
  6
HIDDEN
 62
     7
 10
610.0886950192
 20
-782.7127670124
 30
0.0
 11
608.6740928739
 21
-782.7127670124
 31
0.0
  0
LINE
  5
2F0
  8
0
  6
HIDDEN
 62
     7
 10
612.5032983266
 20
-786.5404182542
 30
0.0
 11
612.5032983266
 21
-785.1265933806
 31
0.0
  0
LINE
  5
2F1
  8
0
  6
HIDDEN
 62
     7
 10
610.0887350192
 20
-782.7127670124
 30
0.0
 11
610.0894722506
 21
-782.7127670124
 31
0.0
  0
LINE
  5
2F2
  8
0
  6
HIDDEN
 62
     7
 10
610.0894722444
 20
-782.7127670124
 30
0.0
 11
610.0887350192
 21
-782.7127670124
 31
0.0
  0
LINE
  5
2F3
  8
0
  6
HIDDEN
 62
     7
 10
612.5032983258
 20
987.1149273355
 30
0.0
 11
612.5032983258
 21
987.116431421
 31
0.0
  0
LINE
  5
2F4
  8
0
  6
HIDDEN
 62
     7
 10
610.0887376177
 20
983.2872308939
 30
0.0
 11
610.0894696303
 21
983.2872308939
 31
0.0
  0
LINE
  5
2F5
  8
0
  6
HIDDEN
 62
     7
 10
610.0894696356
 20
983.2872308939
 30
0.0
 11
610.0887376177
 21
983.2872308939
 31
0.0
  0
LINE
  5
2F6
  8
0
  6
HIDDEN
 62
     7
 10
612.5032983266
 20
-786.5419727671
 30
0.0
 11
612.5032983266
 21
-786.5404582542
 31
0.0
  0
LINE
  5
2F7
  8
0
  6
CONTINUOUS
 62
     7
 10
-633.9855478715
 20
-931.5745701781
 30
0.0
 11
-633.9855478715
 21
-932.5745701781
 31
0.0
  0
LINE
  5
2F8
  8
0
  6
CONTINUOUS
 62
     7
 10
-625.9855478715
 20
-932.5745701781
 30
0.0
 11
-625.9855478715
 21
-931.5745701781
 31
0.0
  0
LINE
  5
2F9
  8
0
  6
CONTINUOUS
 62
     7
 10
-633.9855478715
 20
-932.5745701781
 30
0.0
 11
-633.4855478715
 21
-933.0745701781
 31
0.0
  0
LINE
  5
2FA
  8
0
  6
CONTINUOUS
 62
     7
 10
-626.4855478715
 20
-933.0745701781
 30
0.0
 11
-625.9855478715
 21
-932.5745701781
 31
0.0
  0
LINE
  5
2FB
  8
0
  6
CONTINUOUS
 62
     7
 10
358.0144536479
 20
-931.5745701781
 30
0.0
 11
358.0144536479
 21
-932.5745701781
 31
0.0
  0
LINE
  5
2FC
  8
0
  6
CONTINUOUS
 62
     7
 10
366.0144536479
 20
-932.5745701781
 30
0.0
 11
366.0144536479
 21
-931.5745701781
 31
0.0
  0
LINE
  5
2FD
  8
0
  6
CONTINUOUS
 62
     7
 10
358.0144536479
 20
-932.5745701781
 30
0.0
 11
358.5144536479
 21
-933.0745701781
 31
0.0
  0
LINE
  5
2FE
  8
0
  6
CONTINUOUS
 62
     7
 10
365.5144536479
 20
-933.0745701781
 30
0.0
 11
366.0144536479
 21
-932.5745701781
 31
0.0
  0
ARC
  5
2FF
  8
0
  6
CONTINUOUS
 62
     7
 10
-136.7425416491
 20
-912.5745698683
 30
0.0
 40
6.253983036338571
 50
166.122477936
 51
193.877522064
  0
LINE
  5
300
  8
0
  6
CONTINUOUS
 62
     7
 10
-142.8139749963
 20
-911.0745701781
 30
0.0
 11
-142.8139749963
 21
-913.0745701781
 31
0.0
  0
ARC
  5
301
  8
0
  6
CONTINUOUS
 62
     7
 10
-139.9855478715
 20
-913.0745701781
 30
0.0
 40
3.000000000000024
 50
199.4712206345
 51
225.0
  0
LINE
  5
302
  8
0
  6
CONTINUOUS
 62
     7
 10
-142.1068682151
 20
-915.1958905216
 30
0.0
 11
-149.2355478715
 21
-922.3245701781
 31
0.0
  0
LINE
  5
303
  8
0
  6
CONTINUOUS
 62
     7
 10
-149.2355478715
 20
-922.3245701781
 30
0.0
 11
-158.4855478715
 21
-922.3245701781
 31
0.0
  0
LINE
  5
304
  8
0
  6
CONTINUOUS
 62
     7
 10
-158.4855478715
 20
-922.3245701781
 30
0.0
 11
-158.4855478715
 21
-931.5745701781
 31
0.0
  0
LINE
  5
305
  8
0
  6
CONTINUOUS
 62
     7
 10
-709.4855478715
 20
-931.5745701781
 30
0.0
 11
-158.4855478715
 21
-931.5745701781
 31
0.0
  0
LINE
  5
306
  8
0
  6
CONTINUOUS
 62
     7
 10
-709.4855478715
 20
-931.5745701781
 30
0.0
 11
-709.4855478715
 21
-922.3245701781
 31
0.0
  0
LINE
  5
307
  8
0
  6
CONTINUOUS
 62
     7
 10
-709.4855478715
 20
-922.3245701781
 30
0.0
 11
-718.7355478715
 21
-922.3245701781
 31
0.0
  0
LINE
  5
308
  8
0
  6
CONTINUOUS
 62
     7
 10
-718.7355478715
 20
-922.3245701781
 30
0.0
 11
-725.864227528
 21
-915.1958905216
 31
0.0
  0
ARC
  5
309
  8
0
  6
CONTINUOUS
 62
     7
 10
-727.9855478715
 20
-913.0745701781
 30
0.0
 40
3.000000000000185
 50
315.0
 51
340.5287793655
  0
ARC
  5
30A
  8
0
  6
CONTINUOUS
 62
     7
 10
-731.3194445538
 20
-912.5745698683
 30
0.0
 40
6.342257928489773
 50
346.319417303
 51
13.680582697
  0
LINE
  5
30B
  8
0
  6
CONTINUOUS
 62
     7
 10
-725.1571207468
 20
-911.0745701781
 30
0.0
 11
-142.8139749963
 21
-911.0745701781
 31
0.0
  0
LINE
  5
30C
  8
0
  6
CONTINUOUS
 62
     7
 10
-729.985548491
 20
-931.5745701781
 30
0.0
 11
-726.9855478715
 21
-931.5745701781
 31
0.0
  0
LINE
  5
30D
  8
0
  6
CONTINUOUS
 62
     7
 10
-729.9855478715
 20
-931.5745701781
 30
0.0
 11
-729.9855478715
 21
-915.9029973028
 31
0.0
  0
ARC
  5
30E
  8
0
  6
CONTINUOUS
 62
     7
 10
-728.4855481813
 20
-909.831563953
 30
0.0
 40
6.253983038837256
 50
256.1224779416
 51
283.8775220584
  0
ARC
  5
30F
  8
0
  6
CONTINUOUS
 62
     7
 10
-727.9855478715
 20
-913.0745701781
 30
0.0
 40
3.000000000000105
 50
289.4712206345
 51
315.0
  0
LINE
  5
310
  8
0
  6
CONTINUOUS
 62
     7
 10
-725.864227528
 20
-915.1958905216
 30
0.0
 11
-718.7355478715
 21
-922.3245701781
 31
0.0
  0
LINE
  5
311
  8
0
  6
CONTINUOUS
 62
     7
 10
-718.7355478715
 20
-922.3245701781
 30
0.0
 11
-709.4855478715
 21
-922.3245701781
 31
0.0
  0
LINE
  5
312
  8
0
  6
CONTINUOUS
 62
     7
 10
-709.4855478715
 20
-931.5745701781
 30
0.0
 11
-709.4855478715
 21
-922.3245701781
 31
0.0
  0
LINE
  5
313
  8
0
  6
CONTINUOUS
 62
     7
 10
-726.9855478715
 20
-931.5745701781
 30
0.0
 11
-709.4855478715
 21
-931.5745701781
 31
0.0
  0
LINE
  5
314
  8
0
  6
CONTINUOUS
 62
     7
 10
-729.9855478715
 20
-915.9029973028
 30
0.0
 11
-727.9855478715
 21
-915.9029973028
 31
0.0
  0
ARC
  5
315
  8
0
  6
CONTINUOUS
 62
     7
 10
-139.4855475618
 20
-909.7406734971
 30
0.0
 40
6.342257927250531
 50
256.3194173003
 51
283.6805826997
  0
LINE
  5
316
  8
0
  6
CONTINUOUS
 62
     7
 10
-137.9855478715
 20
-915.9029973028
 30
0.0
 11
-137.9855478715
 21
-931.5745701781
 31
0.0
  0
LINE
  5
317
  8
0
  6
CONTINUOUS
 62
     7
 10
-140.9855478715
 20
-931.5745701781
 30
0.0
 11
-137.985547252
 21
-931.5745701781
 31
0.0
  0
LINE
  5
318
  8
0
  6
CONTINUOUS
 62
     7
 10
-139.9855478715
 20
-915.9029973028
 30
0.0
 11
-137.9855478715
 21
-915.9029973028
 31
0.0
  0
LINE
  5
319
  8
0
  6
CONTINUOUS
 62
     7
 10
-158.4855478715
 20
-931.5745701781
 30
0.0
 11
-140.9855478715
 21
-931.5745701781
 31
0.0
  0
LINE
  5
31A
  8
0
  6
CONTINUOUS
 62
     7
 10
-158.4855478715
 20
-922.3245701781
 30
0.0
 11
-158.4855478715
 21
-931.5745701781
 31
0.0
  0
LINE
  5
31B
  8
0
  6
CONTINUOUS
 62
     7
 10
-158.4855478715
 20
-922.3245701781
 30
0.0
 11
-149.2355478715
 21
-922.3245701781
 31
0.0
  0
LINE
  5
31C
  8
0
  6
CONTINUOUS
 62
     7
 10
-149.2355478715
 20
-922.3245701781
 30
0.0
 11
-142.1068682151
 21
-915.1958905216
 31
0.0
  0
ARC
  5
31D
  8
0
  6
CONTINUOUS
 62
     7
 10
-139.9855478715
 20
-913.0745701781
 30
0.0
 40
3.000000000000105
 50
225.0
 51
250.5287793655
  0
LINE
  5
31E
  8
0
  6
CONTINUOUS
 62
     7
 10
-725.1571207468
 20
-913.0745701781
 30
0.0
 11
-725.1571207468
 21
-911.0745695586
 31
0.0
  0
LINE
  5
31F
  8
0
  6
CONTINUOUS
 62
     7
 10
-140.9855478715
 20
-913.0745701781
 30
0.0
 11
-142.8139749963
 21
-913.0745701781
 31
0.0
  0
LINE
  5
320
  8
0
  6
CONTINUOUS
 62
     7
 10
-140.9855478715
 20
-911.0745701781
 30
0.0
 11
-140.9855478715
 21
-913.0745701781
 31
0.0
  0
LINE
  5
321
  8
0
  6
CONTINUOUS
 62
     7
 10
-140.9855478715
 20
-911.0745701781
 30
0.0
 11
-142.8139749963
 21
-911.0745701781
 31
0.0
  0
LINE
  5
322
  8
0
  6
CONTINUOUS
 62
     7
 10
-139.9855478715
 20
-915.9029973028
 30
0.0
 11
-139.9855478715
 21
-914.0745701781
 31
0.0
  0
LINE
  5
323
  8
0
  6
CONTINUOUS
 62
     7
 10
-137.9855478715
 20
-914.0745701781
 30
0.0
 11
-139.9855478715
 21
-914.0745701781
 31
0.0
  0
LINE
  5
324
  8
0
  6
CONTINUOUS
 62
     7
 10
-137.9855478715
 20
-915.9029973028
 30
0.0
 11
-137.9855478715
 21
-914.0745701781
 31
0.0
  0
LINE
  5
325
  8
0
  6
CONTINUOUS
 62
     7
 10
-727.9855478715
 20
-914.0745701781
 30
0.0
 11
-729.9855480766
 21
-914.0745701781
 31
0.0
  0
LINE
  5
326
  8
0
  6
CONTINUOUS
 62
     7
 10
-729.9855478715
 20
-914.0745701781
 30
0.0
 11
-729.9855478715
 21
-915.9029973028
 31
0.0
  0
LINE
  5
327
  8
0
  6
CONTINUOUS
 62
     7
 10
-727.9855478715
 20
-914.0745701781
 30
0.0
 11
-727.9855478715
 21
-915.9029973028
 31
0.0
  0
LINE
  5
328
  8
0
  6
CONTINUOUS
 62
     7
 10
-726.9855478715
 20
-913.0745701781
 30
0.0
 11
-726.9855478715
 21
-911.074569973
 31
0.0
  0
LINE
  5
329
  8
0
  6
CONTINUOUS
 62
     7
 10
-725.1571207468
 20
-913.0745701781
 30
0.0
 11
-726.9855478715
 21
-913.0745701781
 31
0.0
  0
LINE
  5
32A
  8
0
  6
CONTINUOUS
 62
     7
 10
-725.1571207468
 20
-911.0745701781
 30
0.0
 11
-726.9855478715
 21
-911.0745701781
 31
0.0
  0
ARC
  5
32B
  8
0
  6
CONTINUOUS
 62
     7
 10
-726.9855478715
 20
-914.0745701781
 30
0.0
 40
3.000000205097763
 50
90.0
 51
180.0
  0
ARC
  5
32C
  8
0
  6
CONTINUOUS
 62
     7
 10
-726.9855478715
 20
-914.0745701781
 30
0.0
 40
1.000000205097535
 50
90.0
 51
180.0
  0
ARC
  5
32D
  8
0
  6
CONTINUOUS
 62
     7
 10
-140.9855478715
 20
-914.0745701781
 30
0.0
 40
1.000000205098104
 50
0.0
 51
90.0
  0
ARC
  5
32E
  8
0
  6
CONTINUOUS
 62
     7
 10
-140.9855478715
 20
-914.0745701781
 30
0.0
 40
3.000000205097848
 50
360.0
 51
90.0
  0
LINE
  5
32F
  8
0
  6
CONTINUOUS
 62
     7
 10
-143.4855478715
 20
-936.0745701781
 30
0.0
 11
-132.4855478715
 21
-936.0745701781
 31
0.0
  0
ARC
  5
330
  8
0
  6
CONTINUOUS
 62
     7
 10
-137.9855478715
 20
-936.0745701781
 30
0.0
 40
5.5
 50
0.0
 51
90.0
  0
ARC
  5
331
  8
0
  6
CONTINUOUS
 62
     7
 10
-137.9855478715
 20
-936.0745701781
 30
0.0
 40
5.500000000000005
 50
125.0968012274
 51
180.0
  0
ARC
  5
332
  8
0
  6
CONTINUOUS
 62
     7
 10
-152.9678712297
 20
-937.6508084956
 30
0.0
 40
0.9239307926666082
 50
268.9037503916
 51
332.6999137426
  0
LINE
  5
333
  8
0
  6
CONTINUOUS
 62
     7
 10
-152.9855478715
 20
-938.5745701781
 30
0.0
 11
-153.4855478715
 21
-938.5745701781
 31
0.0
  0
LINE
  5
334
  8
0
  6
CONTINUOUS
 62
     7
 10
-153.4855478715
 20
-938.5745701781
 30
0.0
 11
-154.3515732753
 21
-938.5745701781
 31
0.0
  0
ARC
  5
335
  8
0
  6
CONTINUOUS
 62
     7
 10
-153.4855478715
 20
-939.0745701781
 30
0.0
 40
0.9999999999991275
 50
90.0
 51
150.0
  0
ARC
  5
336
  8
0
  6
CONTINUOUS
 62
     7
 10
-143.0286270015
 20
-937.6714851381
 30
0.0
 40
0.904111940415159
 50
206.4767949502
 51
272.7310636399
  0
ARC
  5
337
  8
0
  6
CONTINUOUS
 62
     7
 10
-142.4855478715
 20
-939.0745701781
 30
0.0
 40
1.000000000000455
 50
30.0
 51
90.0
  0
LINE
  5
338
  8
0
  6
CONTINUOUS
 62
     7
 10
-141.6195224677
 20
-938.5745701781
 30
0.0
 11
-142.4855478715
 21
-938.5745701781
 31
0.0
  0
LINE
  5
339
  8
0
  6
CONTINUOUS
 62
     7
 10
-142.4855478715
 20
-938.5745701781
 30
0.0
 11
-142.9855478715
 21
-938.5745701781
 31
0.0
  0
LINE
  5
33A
  8
0
  6
CONTINUOUS
 62
     7
 10
-152.9855478715
 20
-938.5745701781
 30
0.0
 11
-142.9855478715
 21
-938.5745701781
 31
0.0
  0
LINE
  5
33B
  8
0
  6
CONTINUOUS
 62
     7
 10
-142.4855478715
 20
-944.0745701781
 30
0.0
 11
-153.4855478715
 21
-944.0745701781
 31
0.0
  0
LINE
  5
33C
  8
0
  6
CONTINUOUS
 62
     7
 10
-153.4855478715
 20
-938.5745701781
 30
0.0
 11
-153.4855478715
 21
-943.5745701781
 31
0.0
  0
LINE
  5
33D
  8
0
  6
CONTINUOUS
 62
     7
 10
-142.4855478715
 20
-938.5745701781
 30
0.0
 11
-142.4855478715
 21
-943.5745701781
 31
0.0
  0
ARC
  5
33E
  8
0
  6
CONTINUOUS
 62
     7
 10
-153.4855478715
 20
-939.0745701781
 30
0.0
 40
0.5
 50
90.0
 51
180.0
  0
ARC
  5
33F
  8
0
  6
CONTINUOUS
 62
     7
 10
-153.4855478715
 20
-939.0745701781
 30
0.0
 40
1.0
 50
150.0
 51
180.0
  0
ARC
  5
340
  8
0
  6
CONTINUOUS
 62
     7
 10
-142.4855478715
 20
-939.0745701781
 30
0.0
 40
0.5
 50
0.0
 51
90.0
  0
ARC
  5
341
  8
0
  6
CONTINUOUS
 62
     7
 10
-142.4855478715
 20
-939.0745701781
 30
0.0
 40
1.0
 50
0.0
 51
30.0
  0
LINE
  5
342
  8
0
  6
CONTINUOUS
 62
     7
 10
-141.9855478715
 20
-943.0745701781
 30
0.0
 11
-141.9855478715
 21
-939.0745701781
 31
0.0
  0
LINE
  5
343
  8
0
  6
CONTINUOUS
 62
     7
 10
-141.4855478715
 20
-939.0745701781
 30
0.0
 11
-141.4855478715
 21
-943.0745701781
 31
0.0
  0
LINE
  5
344
  8
0
  6
CONTINUOUS
 62
     7
 10
-154.4855478715
 20
-943.0745701781
 30
0.0
 11
-154.4855478715
 21
-939.0745701781
 31
0.0
  0
LINE
  5
345
  8
0
  6
CONTINUOUS
 62
     7
 10
-153.9855478715
 20
-939.0745701781
 30
0.0
 11
-153.9855478715
 21
-943.0745701781
 31
0.0
  0
ARC
  5
346
  8
0
  6
CONTINUOUS
 62
     7
 10
-142.4855478715
 20
-943.0745701781
 30
0.0
 40
1.0
 50
270.0
 51
0.0
  0
ARC
  5
347
  8
0
  6
CONTINUOUS
 62
     7
 10
-142.4855478715
 20
-943.0745701781
 30
0.0
 40
0.5000000000001137
 50
270.0
 51
0.0
  0
ARC
  5
348
  8
0
  6
CONTINUOUS
 62
     7
 10
-153.4855478715
 20
-943.0745701781
 30
0.0
 40
1.0
 50
180.0
 51
270.0
  0
ARC
  5
349
  8
0
  6
CONTINUOUS
 62
     7
 10
-153.4855478715
 20
-943.0745701781
 30
0.0
 40
0.5000000000001137
 50
180.0
 51
270.0
  0
ARC
  5
34A
  8
0
  6
CONTINUOUS
 62
     7
 10
-142.9855478715
 20
-936.5745701781
 30
0.0
 40
1.000000000000078
 50
119.1647304528
 51
150.0
  0
LINE
  5
34B
  8
0
  6
CONTINUOUS
 62
     7
 10
-154.4855478715
 20
-936.0745701781
 30
0.0
 11
-154.4855478715
 21
-935.5745701781
 31
0.0
  0
LINE
  5
34C
  8
0
  6
CONTINUOUS
 62
     7
 10
-152.9855478715
 20
-935.5745701781
 30
0.0
 11
-154.4855478715
 21
-935.5745701781
 31
0.0
  0
ARC
  5
34D
  8
0
  6
CONTINUOUS
 62
     7
 10
-152.9855478715
 20
-936.5745701781
 30
0.0
 40
1.0
 50
30.0
 51
90.0
  0
LINE
  5
34E
  8
0
  6
CONTINUOUS
 62
     7
 10
-127.9855478715
 20
-915.0745701781
 30
0.0
 11
-127.9855478715
 21
-913.0745701781
 31
0.0
  0
LINE
  5
34F
  8
0
  6
CONTINUOUS
 62
     7
 10
-139.9855478715
 20
-914.0906058046
 30
0.0
 11
-139.9855478715
 21
-913.0745701781
 31
0.0
  0
LINE
  5
350
  8
0
  6
CONTINUOUS
 62
     7
 10
-633.9855478715
 20
-932.5745701781
 30
0.0
 11
-625.9855478715
 21
-932.5745701781
 31
0.0
  0
LINE
  5
351
  8
0
  6
CONTINUOUS
 62
     7
 10
-633.4855478715
 20
-933.0745701781
 30
0.0
 11
-626.4855478715
 21
-933.0745701781
 31
0.0
  0
LINE
  5
352
  8
0
  6
CONTINUOUS
 62
     7
 10
358.0144536479
 20
-932.5745701781
 30
0.0
 11
366.0144536479
 21
-932.5745701781
 31
0.0
  0
LINE
  5
353
  8
0
  6
CONTINUOUS
 62
     7
 10
358.5144536479
 20
-933.0745701781
 30
0.0
 11
365.5144536479
 21
-933.0745701781
 31
0.0
  0
LINE
  5
354
  8
0
  6
CONTINUOUS
 62
     7
 10
-125.864227528
 20
-915.1958905216
 30
0.0
 11
-118.7355478715
 21
-922.3245701781
 31
0.0
  0
LINE
  5
355
  8
0
  6
CONTINUOUS
 62
     7
 10
-118.7355478715
 20
-922.3245701781
 30
0.0
 11
-109.4855478715
 21
-922.3245701781
 31
0.0
  0
LINE
  5
356
  8
0
  6
CONTINUOUS
 62
     7
 10
-109.4855478715
 20
-931.5745701781
 30
0.0
 11
-109.4855478715
 21
-922.3245701781
 31
0.0
  0
LINE
  5
357
  8
0
  6
CONTINUOUS
 62
     7
 10
-109.4855478715
 20
-931.5745701781
 30
0.0
 11
-125.9855478715
 21
-931.5745701781
 31
0.0
  0
ARC
  5
358
  8
0
  6
CONTINUOUS
 62
     7
 10
-127.9855478715
 20
-913.0745701781
 30
0.0
 40
2.999999999999953
 50
311.8103148958
 51
315.0
  0
LINE
  5
359
  8
0
  6
CONTINUOUS
 62
     7
 10
-129.9855484903
 20
-931.5745701781
 30
0.0
 11
-125.9855478715
 21
-931.5745701781
 31
0.0
  0
LINE
  5
35A
  8
0
  6
CONTINUOUS
 62
     7
 10
-129.9855478715
 20
-931.5745701781
 30
0.0
 11
-129.9855478715
 21
-915.3106381556
 31
0.0
  0
POLYLINE
  5
35B
  8
0
  6
CONTINUOUS
 62
     7
 66
     1
 10
0.0
 20
0.0
 30
0.0
  0
VERTEX
  5
5D1
  8
0
  6
CONTINUOUS
 62
     7
 10
-125.9855478715
 20
-915.3106381556
 30
0.0
  0
VERTEX
  5
5D2
  8
0
  6
CONTINUOUS
 62
     7
 10
-126.8122249265
 20
-915.6447492343
 30
0.0
  0
VERTEX
  5
5D3
  8
0
  6
CONTINUOUS
 62
     7
 10
-127.5743295232
 20
-915.8834417535
 30
0.0
  0
VERTEX
  5
5D4
  8
0
  6
CONTINUOUS
 62
     7
 10
-128.2469824458
 20
-916.0267157133
 30
0.0
  0
VERTEX
  5
5D5
  8
0
  6
CONTINUOUS
 62
     7
 10
-128.8139716842
 20
-916.0745711136
 30
0.0
  0
VERTEX
  5
5D6
  8
0
  6
CONTINUOUS
 62
     7
 10
-129.2838994769
 20
-916.0269345277
 30
0.0
  0
VERTEX
  5
5D7
  8
0
  6
CONTINUOUS
 62
     7
 10
-129.6555217463
 20
-915.8837335061
 30
0.0
  0
VERTEX
  5
5D8
  8
0
  6
CONTINUOUS
 62
     7
 10
-129.8988162699
 20
-915.6449680487
 30
0.0
  0
VERTEX
  5
5D9
  8
0
  6
CONTINUOUS
 62
     7
 10
-129.9855484903
 20
-915.3106381556
 30
0.0
  0
SEQEND
  5
5D0
  8
0
  6
CONTINUOUS
 62
     7
  0
ARC
  5
35C
  8
0
  6
CONTINUOUS
 62
     7
 10
460.0144536479
 20
-913.0745701781
 30
0.0
 40
3.000000000000156
 50
221.8103148958
 51
224.9999952942
  0
LINE
  5
35D
  8
0
  6
CONTINUOUS
 62
     7
 10
457.8931331301
 20
-915.1958903474
 30
0.0
 11
450.7644521285
 21
-922.3245701781
 31
0.0
  0
LINE
  5
35E
  8
0
  6
CONTINUOUS
 62
     7
 10
450.7644521285
 20
-922.3245701781
 30
0.0
 11
441.5144521285
 21
-922.3245701781
 31
0.0
  0
LINE
  5
35F
  8
0
  6
CONTINUOUS
 62
     7
 10
441.5144521285
 20
-922.3245701781
 30
0.0
 11
441.5144521285
 21
-931.5745701781
 31
0.0
  0
LINE
  5
360
  8
0
  6
CONTINUOUS
 62
     7
 10
-109.4855478715
 20
-931.5745701781
 30
0.0
 11
441.5144521285
 21
-931.5745701781
 31
0.0
  0
LINE
  5
361
  8
0
  6
CONTINUOUS
 62
     7
 10
-109.4855478715
 20
-931.5745701781
 30
0.0
 11
-109.4855478715
 21
-922.3245701781
 31
0.0
  0
LINE
  5
362
  8
0
  6
CONTINUOUS
 62
     7
 10
-109.4855478715
 20
-922.3245701781
 30
0.0
 11
-118.7355478715
 21
-922.3245701781
 31
0.0
  0
LINE
  5
363
  8
0
  6
CONTINUOUS
 62
     7
 10
-118.7355478715
 20
-922.3245701781
 30
0.0
 11
-125.864227528
 21
-915.1958905216
 31
0.0
  0
ARC
  5
364
  8
0
  6
CONTINUOUS
 62
     7
 10
-127.9855478715
 20
-913.0745701781
 30
0.0
 40
2.999999999999976
 50
315.0
 51
318.1896851042
  0
LINE
  5
365
  8
0
  6
CONTINUOUS
 62
     7
 10
-129.9855478715
 20
-915.3106381556
 30
0.0
 11
-127.9855478715
 21
-915.3106381556
 31
0.0
  0
ARC
  5
366
  8
0
  6
CONTINUOUS
 62
     7
 10
-127.332458875
 20
-915.4244013312
 30
0.0
 40
0.6629239064574725
 50
170.1186638565
 51
228.9834948482
  0
POLYLINE
  5
367
  8
0
  6
CONTINUOUS
 62
     7
 66
     1
 10
0.0
 20
0.0
 30
0.0
  0
VERTEX
  5
5DB
  8
0
  6
CONTINUOUS
 62
     7
 10
457.7783856704
 20
-915.0745701781
 30
0.0
  0
VERTEX
  5
5DC
  8
0
  6
CONTINUOUS
 62
     7
 10
457.4442745918
 20
-914.2478931233
 30
0.0
  0
VERTEX
  5
5DD
  8
0
  6
CONTINUOUS
 62
     7
 10
457.2055820726
 20
-913.4857885266
 30
0.0
  0
VERTEX
  5
5DE
  8
0
  6
CONTINUOUS
 62
     7
 10
457.0623081128
 20
-912.8131356039
 30
0.0
  0
VERTEX
  5
5DF
  8
0
  6
CONTINUOUS
 62
     7
 10
457.0144527125
 20
-912.2461463654
 30
0.0
  0
VERTEX
  5
5E0
  8
0
  6
CONTINUOUS
 62
     7
 10
457.0620892982
 20
-911.7762185728
 30
0.0
  0
VERTEX
  5
5E1
  8
0
  6
CONTINUOUS
 62
     7
 10
457.2052903198
 20
-911.4045963033
 30
0.0
  0
VERTEX
  5
5E2
  8
0
  6
CONTINUOUS
 62
     7
 10
457.4440557772
 20
-911.1613017798
 30
0.0
  0
VERTEX
  5
5E3
  8
0
  6
CONTINUOUS
 62
     7
 10
457.7783856704
 20
-911.0745695593
 30
0.0
  0
SEQEND
  5
5DA
  8
0
  6
CONTINUOUS
 62
     7
  0
LINE
  5
368
  8
0
  6
CONTINUOUS
 62
     7
 10
457.7783856704
 20
-911.0745701781
 30
0.0
 11
457.7783856704
 21
-913.0745701781
 31
0.0
  0
ARC
  5
369
  8
0
  6
CONTINUOUS
 62
     7
 10
457.6646224947
 20
-913.7276591746
 30
0.0
 40
0.6629239064947057
 50
80.1186638555
 51
138.9834948463
  0
POLYLINE
  5
36A
  8
0
  6
CONTINUOUS
 62
     7
 66
     1
 10
0.0
 20
0.0
 30
0.0
  0
VERTEX
  5
5E5
  8
0
  6
CONTINUOUS
 62
     7
 10
-125.749479894
 20
-911.0745695593
 30
0.0
  0
VERTEX
  5
5E6
  8
0
  6
CONTINUOUS
 62
     7
 10
-125.4153688172
 20
-911.1609241507
 30
0.0
  0
VERTEX
  5
5E7
  8
0
  6
CONTINUOUS
 62
     7
 10
-125.1766762986
 20
-911.4036282796
 30
0.0
  0
VERTEX
  5
5E8
  8
0
  6
CONTINUOUS
 62
     7
 10
-125.0334023382
 20
-911.7751833045
 30
0.0
  0
VERTEX
  5
5E9
  8
0
  6
CONTINUOUS
 62
     7
 10
-124.985546936
 20
-912.2461388662
 30
0.0
  0
VERTEX
  5
5EA
  8
0
  6
CONTINUOUS
 62
     7
 10
-125.0331835238
 20
-912.8116258141
 30
0.0
  0
VERTEX
  5
5EB
  8
0
  6
CONTINUOUS
 62
     7
 10
-125.1763845461
 20
-913.483553586
 30
0.0
  0
VERTEX
  5
5EC
  8
0
  6
CONTINUOUS
 62
     7
 10
-125.4151500028
 20
-914.2461072416
 30
0.0
  0
VERTEX
  5
5ED
  8
0
  6
CONTINUOUS
 62
     7
 10
-125.749479894
 20
-915.0745701781
 30
0.0
  0
SEQEND
  5
5E4
  8
0
  6
CONTINUOUS
 62
     7
  0
LINE
  5
36B
  8
0
  6
CONTINUOUS
 62
     7
 10
-125.749479894
 20
-911.0745701781
 30
0.0
 11
457.7783856704
 21
-911.0745701781
 31
0.0
  0
ARC
  5
36C
  8
0
  6
CONTINUOUS
 62
     7
 10
-125.6354559583
 20
-913.727238648
 30
0.0
 40
0.6625544485822565
 50
41.0276352229
 51
99.9097920872
  0
LINE
  5
36D
  8
0
  6
CONTINUOUS
 62
     7
 10
-125.749479894
 20
-913.0745701781
 30
0.0
 11
-125.749479894
 21
-911.0745695593
 31
0.0
  0
POLYLINE
  5
36E
  8
0
  6
CONTINUOUS
 62
     7
 66
     1
 10
0.0
 20
0.0
 30
0.0
  0
VERTEX
  5
5EF
  8
0
  6
CONTINUOUS
 62
     7
 10
462.0144542667
 20
-915.3106381556
 30
0.0
  0
VERTEX
  5
5F0
  8
0
  6
CONTINUOUS
 62
     7
 10
461.9280996753
 20
-915.6447492324
 30
0.0
  0
VERTEX
  5
5F1
  8
0
  6
CONTINUOUS
 62
     7
 10
461.6853955464
 20
-915.883441751
 30
0.0
  0
VERTEX
  5
5F2
  8
0
  6
CONTINUOUS
 62
     7
 10
461.3138405215
 20
-916.0267157114
 30
0.0
  0
VERTEX
  5
5F3
  8
0
  6
CONTINUOUS
 62
     7
 10
460.8428849598
 20
-916.0745711135
 30
0.0
  0
VERTEX
  5
5F4
  8
0
  6
CONTINUOUS
 62
     7
 10
460.2773980122
 20
-916.0269345258
 30
0.0
  0
VERTEX
  5
5F5
  8
0
  6
CONTINUOUS
 62
     7
 10
459.6054702403
 20
-915.8837335035
 30
0.0
  0
VERTEX
  5
5F6
  8
0
  6
CONTINUOUS
 62
     7
 10
458.8429165846
 20
-915.6449680468
 30
0.0
  0
VERTEX
  5
5F7
  8
0
  6
CONTINUOUS
 62
     7
 10
458.0144536479
 20
-915.3106381556
 30
0.0
  0
SEQEND
  5
5EE
  8
0
  6
CONTINUOUS
 62
     7
  0
ARC
  5
36F
  8
0
  6
CONTINUOUS
 62
     7
 10
459.361785178
 20
-915.4246620913
 30
0.0
 40
0.6625544485821059
 50
311.0276352235
 51
9.9097920872
  0
LINE
  5
370
  8
0
  6
CONTINUOUS
 62
     7
 10
460.0144536479
 20
-915.3106381556
 30
0.0
 11
462.0144536479
 21
-915.3106381556
 31
0.0
  0
LINE
  5
371
  8
0
  6
CONTINUOUS
 62
     7
 10
462.0144536479
 20
-915.3106381556
 30
0.0
 11
462.0144536479
 21
-931.5745686586
 31
0.0
  0
LINE
  5
372
  8
0
  6
CONTINUOUS
 62
     7
 10
458.0144536479
 20
-931.5745686586
 30
0.0
 11
462.0144542667
 21
-931.5745686586
 31
0.0
  0
LINE
  5
373
  8
0
  6
CONTINUOUS
 62
     7
 10
441.5144536479
 20
-931.5745686586
 30
0.0
 11
458.0144536479
 21
-931.5745686586
 31
0.0
  0
LINE
  5
374
  8
0
  6
CONTINUOUS
 62
     7
 10
441.5144536479
 20
-922.3245686586
 30
0.0
 11
441.5144536479
 21
-931.5745686586
 31
0.0
  0
LINE
  5
375
  8
0
  6
CONTINUOUS
 62
     7
 10
441.5144536479
 20
-922.3245686586
 30
0.0
 11
450.7644536479
 21
-922.3245686586
 31
0.0
  0
LINE
  5
376
  8
0
  6
CONTINUOUS
 62
     7
 10
450.7644536479
 20
-922.3245686586
 30
0.0
 11
457.8931331301
 21
-915.1958903474
 31
0.0
  0
ARC
  5
377
  8
0
  6
CONTINUOUS
 62
     7
 10
460.0144536479
 20
-913.0745701781
 30
0.0
 40
3.000000000000075
 50
224.9999952942
 51
228.1896851042
  0
LINE
  5
378
  8
0
  6
CONTINUOUS
 62
     7
 10
458.0144536479
 20
-913.0745701781
 30
0.0
 11
457.7783856704
 21
-913.0745701781
 31
0.0
  0
LINE
  5
379
  8
0
  6
CONTINUOUS
 62
     7
 10
458.0144536479
 20
-911.0745701781
 30
0.0
 11
458.0144536479
 21
-913.0745701781
 31
0.0
  0
LINE
  5
37A
  8
0
  6
CONTINUOUS
 62
     7
 10
458.0144536479
 20
-911.0745701781
 30
0.0
 11
457.7783856704
 21
-911.0745701781
 31
0.0
  0
LINE
  5
37B
  8
0
  6
CONTINUOUS
 62
     7
 10
462.0144536479
 20
-915.0745701781
 30
0.0
 11
460.0144536479
 21
-915.0745701781
 31
0.0
  0
LINE
  5
37C
  8
0
  6
CONTINUOUS
 62
     7
 10
462.0144536479
 20
-915.3106381556
 30
0.0
 11
462.0144536479
 21
-915.0745701781
 31
0.0
  0
LINE
  5
37D
  8
0
  6
CONTINUOUS
 62
     7
 10
460.0144536479
 20
-915.3106381556
 30
0.0
 11
460.0144536479
 21
-915.0745701781
 31
0.0
  0
LINE
  5
37E
  8
0
  6
CONTINUOUS
 62
     7
 10
-125.9855478715
 20
-913.0745701781
 30
0.0
 11
-125.9855478715
 21
-911.074569984
 31
0.0
  0
LINE
  5
37F
  8
0
  6
CONTINUOUS
 62
     7
 10
-125.749479894
 20
-913.0745701781
 30
0.0
 11
-125.9855478715
 21
-913.0745701781
 31
0.0
  0
LINE
  5
380
  8
0
  6
CONTINUOUS
 62
     7
 10
-125.749479894
 20
-911.0745701781
 30
0.0
 11
-125.9855478715
 21
-911.0745701781
 31
0.0
  0
LINE
  5
381
  8
0
  6
CONTINUOUS
 62
     7
 10
-127.9855478715
 20
-915.0745701781
 30
0.0
 11
-129.9855480656
 21
-915.0745701781
 31
0.0
  0
LINE
  5
382
  8
0
  6
CONTINUOUS
 62
     7
 10
-129.9855478715
 20
-915.0745701781
 30
0.0
 11
-129.9855478715
 21
-915.3106381556
 31
0.0
  0
LINE
  5
383
  8
0
  6
CONTINUOUS
 62
     7
 10
-127.9855478715
 20
-915.0745701781
 30
0.0
 11
-127.9855478715
 21
-915.3106381556
 31
0.0
  0
ARC
  5
384
  8
0
  6
CONTINUOUS
 62
     7
 10
-125.9855478715
 20
-915.0745701781
 30
0.0
 40
4.000000194073095
 50
90.0
 51
180.0
  0
ARC
  5
385
  8
0
  6
CONTINUOUS
 62
     7
 10
-125.9855478715
 20
-915.0745701781
 30
0.0
 40
2.00000019407301
 50
90.0
 51
180.0
  0
ARC
  5
386
  8
0
  6
CONTINUOUS
 62
     7
 10
458.0144536479
 20
-915.0745701781
 30
0.0
 40
4.000000214723002
 50
0.0
 51
90.0
  0
ARC
  5
387
  8
0
  6
CONTINUOUS
 62
     7
 10
458.0144536479
 20
-915.0745701781
 30
0.0
 40
2.000000214722718
 50
360.0
 51
90.0
  0
LINE
  5
388
  8
0
  6
CONTINUOUS
 62
     7
 10
-127.9855478715
 20
-934.0745701781
 30
0.0
 11
-129.9855478568
 21
-934.0745701781
 31
0.0
  0
LINE
  5
389
  8
0
  6
CONTINUOUS
 62
     7
 10
-129.9855478715
 20
-931.5755751781
 30
0.0
 11
-129.9855478715
 21
-934.0745701781
 31
0.0
  0
LINE
  5
38A
  8
0
  6
CONTINUOUS
 62
     7
 10
-127.9855478715
 20
-934.0745701781
 30
0.0
 11
-127.9855478715
 21
-931.5755751781
 31
0.0
  0
LINE
  5
38B
  8
0
  6
CONTINUOUS
 62
     7
 10
-129.1571207364
 20
-936.9029973132
 30
0.0
 11
-130.5713343024
 21
-935.4887837472
 31
0.0
  0
ARC
  5
38C
  8
0
  6
CONTINUOUS
 62
     7
 10
-131.9855478715
 20
-934.0745701781
 30
0.0
 40
2.00000001469985
 50
314.9999999998
 51
0.0
  0
ARC
  5
38D
  8
0
  6
CONTINUOUS
 62
     7
 10
-131.9855478715
 20
-934.0745701781
 30
0.0
 40
4.000000014699552
 50
314.9999999998
 51
0.0
  0
ARC
  5
38E
  8
0
  6
CONTINUOUS
 62
     7
 10
-131.9855478862
 20
-934.0745701781
 30
0.0
 40
2.000000019897132
 50
270.0000004208
 51
315.0000002976
  0
ARC
  5
38F
  8
0
  6
CONTINUOUS
 62
     7
 10
-131.9855478715
 20
-934.0745701781
 30
0.0
 40
4.000000014699935
 50
269.9999999997
 51
314.9999999998
  0
LINE
  5
390
  8
0
  6
CONTINUOUS
 62
     7
 10
-131.9855478715
 20
-936.0745701928
 30
0.0
 11
-154.9855478715
 21
-936.0745701781
 31
0.0
  0
LINE
  5
391
  8
0
  6
CONTINUOUS
 62
     7
 10
-154.9855478715
 20
-938.0745701781
 30
0.0
 11
-131.9855478715
 21
-938.0745701781
 31
0.0
  0
LINE
  5
392
  8
0
  6
CONTINUOUS
 62
     7
 10
-154.9855478715
 20
-938.0745701781
 30
0.0
 11
-154.9855478715
 21
-936.0745701781
 31
0.0
  0
POLYLINE
  5
393
  8
0
  6
HIDDEN
 62
     7
 66
     1
 10
0.0
 20
0.0
 30
0.0
  0
VERTEX
  5
5F9
  8
0
  6
HIDDEN
 62
     7
 10
-142.8139749963
 20
-914.0745701781
 30
0.0
  0
VERTEX
  5
5FA
  8
0
  6
HIDDEN
 62
     7
 10
-142.8139749963
 20
-914.0745701781
 30
0.0
  0
SEQEND
  5
5F8
  8
0
  6
HIDDEN
 62
     7
  0
POLYLINE
  5
394
  8
0
  6
HIDDEN
 62
     7
 66
     1
 10
0.0
 20
0.0
 30
0.0
  0
VERTEX
  5
5FC
  8
0
  6
HIDDEN
 62
     7
 10
-726.9855478715
 20
-915.9029973028
 30
0.0
  0
VERTEX
  5
5FD
  8
0
  6
HIDDEN
 62
     7
 10
-726.9855478715
 20
-915.9029973028
 30
0.0
  0
SEQEND
  5
5FB
  8
0
  6
HIDDEN
 62
     7
  0
POLYLINE
  5
395
  8
0
  6
HIDDEN
 62
     7
 66
     1
 10
0.0
 20
0.0
 30
0.0
  0
VERTEX
  5
5FF
  8
0
  6
HIDDEN
 62
     7
 10
-140.9855478715
 20
-915.9029973028
 30
0.0
  0
VERTEX
  5
600
  8
0
  6
HIDDEN
 62
     7
 10
-140.9855478715
 20
-915.9029973028
 30
0.0
  0
SEQEND
  5
5FE
  8
0
  6
HIDDEN
 62
     7
  0
POLYLINE
  5
396
  8
0
  6
HIDDEN
 62
     7
 66
     1
 10
0.0
 20
0.0
 30
0.0
  0
VERTEX
  5
602
  8
0
  6
HIDDEN
 62
     7
 10
-725.1571207468
 20
-914.0745701781
 30
0.0
  0
VERTEX
  5
603
  8
0
  6
HIDDEN
 62
     7
 10
-725.1571207468
 20
-914.0745701781
 30
0.0
  0
SEQEND
  5
601
  8
0
  6
HIDDEN
 62
     7
  0
LINE
  5
397
  8
0
  6
HIDDEN
 62
     7
 10
-139.9855478715
 20
-915.9029973028
 30
0.0
 11
-139.9855478715
 21
-931.5745701781
 31
0.0
  0
LINE
  5
398
  8
0
  6
HIDDEN
 62
     7
 10
-725.1571207468
 20
-913.0745701781
 30
0.0
 11
-142.8139749963
 21
-913.0745701781
 31
0.0
  0
LINE
  5
399
  8
0
  6
HIDDEN
 62
     7
 10
-727.9855478715
 20
-931.5745701781
 30
0.0
 11
-727.9855478715
 21
-915.9029973028
 31
0.0
  0
LINE
  5
39A
  8
0
  6
HIDDEN
 62
     7
 10
-222.5023868377
 20
-915.5781036646
 30
0.0
 11
-213.4687089053
 21
-915.5781036646
 31
0.0
  0
LINE
  5
39B
  8
0
  6
HIDDEN
 62
     7
 10
-220.9855478715
 20
-914.2745701781
 30
0.0
 11
-214.9855478715
 21
-914.2745701781
 31
0.0
  0
LINE
  5
39C
  8
0
  6
HIDDEN
 62
     7
 10
-139.9855478715
 20
-914.8245701781
 30
0.0
 11
-137.9855478715
 21
-914.8245701781
 31
0.0
  0
LINE
  5
39D
  8
0
  6
HIDDEN
 62
     7
 10
-713.5023868377
 20
-915.5781036646
 30
0.0
 11
-704.4687089053
 21
-915.5781036646
 31
0.0
  0
LINE
  5
39E
  8
0
  6
HIDDEN
 62
     7
 10
-711.9855478715
 20
-914.2745701781
 30
0.0
 11
-705.9855478715
 21
-914.2745701781
 31
0.0
  0
POLYLINE
  5
39F
  8
0
  6
HIDDEN
 62
     7
 66
     1
 10
0.0
 20
0.0
 30
0.0
  0
VERTEX
  5
605
  8
0
  6
HIDDEN
 62
     7
 10
-726.9855478715
 20
-915.9029973028
 30
0.0
  0
VERTEX
  5
606
  8
0
  6
HIDDEN
 62
     7
 10
-726.9855478715
 20
-915.9029973028
 30
0.0
  0
SEQEND
  5
604
  8
0
  6
HIDDEN
 62
     7
  0
POLYLINE
  5
3A0
  8
0
  6
HIDDEN
 62
     7
 66
     1
 10
0.0
 20
0.0
 30
0.0
  0
VERTEX
  5
608
  8
0
  6
HIDDEN
 62
     7
 10
-142.8139749963
 20
-914.0745701781
 30
0.0
  0
VERTEX
  5
609
  8
0
  6
HIDDEN
 62
     7
 10
-142.8139749963
 20
-914.0745701781
 30
0.0
  0
SEQEND
  5
607
  8
0
  6
HIDDEN
 62
     7
  0
POLYLINE
  5
3A1
  8
0
  6
HIDDEN
 62
     7
 66
     1
 10
0.0
 20
0.0
 30
0.0
  0
VERTEX
  5
60B
  8
0
  6
HIDDEN
 62
     7
 10
-140.9855478715
 20
-915.9029973028
 30
0.0
  0
VERTEX
  5
60C
  8
0
  6
HIDDEN
 62
     7
 10
-140.9855478715
 20
-915.9029973028
 30
0.0
  0
SEQEND
  5
60A
  8
0
  6
HIDDEN
 62
     7
  0
POLYLINE
  5
3A2
  8
0
  6
HIDDEN
 62
     7
 66
     1
 10
0.0
 20
0.0
 30
0.0
  0
VERTEX
  5
60E
  8
0
  6
HIDDEN
 62
     7
 10
-725.1571207468
 20
-914.0745701781
 30
0.0
  0
VERTEX
  5
60F
  8
0
  6
HIDDEN
 62
     7
 10
-725.1571207468
 20
-914.0745701781
 30
0.0
  0
SEQEND
  5
60D
  8
0
  6
HIDDEN
 62
     7
  0
ARC
  5
3A3
  8
0
  6
HIDDEN
 62
     7
 10
-137.9855478715
 20
-936.0745701781
 30
0.0
 40
5.500000000000005
 50
90.0
 51
125.0968012274
  0
POLYLINE
  5
3A4
  8
0
  6
HIDDEN
 62
     7
 66
     1
 10
0.0
 20
0.0
 30
0.0
  0
VERTEX
  5
611
  8
0
  6
HIDDEN
 62
     7
 10
-151.9855478715
 20
-937.5745701781
 30
0.0
  0
VERTEX
  5
612
  8
0
  6
HIDDEN
 62
     7
 10
-152.0591528436
 20
-937.9511232983
 30
0.0
  0
VERTEX
  5
613
  8
0
  6
HIDDEN
 62
     7
 10
-152.1468510435
 20
-938.0745701781
 30
0.0
  0
SEQEND
  5
610
  8
0
  6
HIDDEN
 62
     7
  0
ARC
  5
3A5
  8
0
  6
HIDDEN
 62
     7
 10
-152.9855478715
 20
-937.5745701781
 30
0.0
 40
0.4999999999997158
 50
270.0
 51
0.0
  0
LINE
  5
3A6
  8
0
  6
HIDDEN
 62
     7
 10
-152.4855478715
 20
-936.5745701781
 30
0.0
 11
-152.4855478715
 21
-937.5745701781
 31
0.0
  0
ARC
  5
3A7
  8
0
  6
HIDDEN
 62
     7
 10
-152.9855478715
 20
-936.5745701781
 30
0.0
 40
0.5000000000003411
 50
0.0
 51
90.0
  0
POLYLINE
  5
3A8
  8
0
  6
HIDDEN
 62
     7
 66
     1
 10
0.0
 20
0.0
 30
0.0
  0
VERTEX
  5
615
  8
0
  6
HIDDEN
 62
     7
 10
-152.1195224677
 20
-936.0745701781
 30
0.0
  0
VERTEX
  5
616
  8
0
  6
HIDDEN
 62
     7
 10
-152.0064327926
 20
-936.3712633603
 30
0.0
  0
VERTEX
  5
617
  8
0
  6
HIDDEN
 62
     7
 10
-151.9855478715
 20
-936.5745701781
 30
0.0
  0
SEQEND
  5
614
  8
0
  6
HIDDEN
 62
     7
  0
LINE
  5
3A9
  8
0
  6
HIDDEN
 62
     7
 10
-151.9855478715
 20
-937.5745701781
 30
0.0
 11
-151.9855478715
 21
-936.5745701781
 31
0.0
  0
POLYLINE
  5
3AA
  8
0
  6
HIDDEN
 62
     7
 66
     1
 10
0.0
 20
0.0
 30
0.0
  0
VERTEX
  5
619
  8
0
  6
HIDDEN
 62
     7
 10
-143.8379111613
 20
-938.0745701781
 30
0.0
  0
VERTEX
  5
61A
  8
0
  6
HIDDEN
 62
     7
 10
-143.9650415946
 20
-937.7760448575
 30
0.0
  0
VERTEX
  5
61B
  8
0
  6
HIDDEN
 62
     7
 10
-143.9855478715
 20
-937.5745701781
 30
0.0
  0
SEQEND
  5
618
  8
0
  6
HIDDEN
 62
     7
  0
LINE
  5
3AB
  8
0
  6
HIDDEN
 62
     7
 10
-143.9855478715
 20
-936.5745701781
 30
0.0
 11
-143.9855478715
 21
-937.5745701781
 31
0.0
  0
POLYLINE
  5
3AC
  8
0
  6
HIDDEN
 62
     7
 66
     1
 10
0.0
 20
0.0
 30
0.0
  0
VERTEX
  5
61D
  8
0
  6
HIDDEN
 62
     7
 10
-143.9855478715
 20
-936.5745701781
 30
0.0
  0
VERTEX
  5
61E
  8
0
  6
HIDDEN
 62
     7
 10
-143.9358861597
 20
-936.2633513837
 30
0.0
  0
VERTEX
  5
61F
  8
0
  6
HIDDEN
 62
     7
 10
-143.8515732753
 20
-936.0745701781
 30
0.0
  0
SEQEND
  5
61C
  8
0
  6
HIDDEN
 62
     7
  0
ARC
  5
3AD
  8
0
  6
HIDDEN
 62
     7
 10
-142.9855478715
 20
-936.5745701781
 30
0.0
 40
0.5000000000002558
 50
90.0
 51
180.0
  0
LINE
  5
3AE
  8
0
  6
HIDDEN
 62
     7
 10
-143.4855478715
 20
-937.5745701781
 30
0.0
 11
-143.4855478715
 21
-936.5745701781
 31
0.0
  0
ARC
  5
3AF
  8
0
  6
HIDDEN
 62
     7
 10
-142.9855478715
 20
-937.5745701781
 30
0.0
 40
0.4999999999998863
 50
180.0
 51
270.0
  0
LINE
  5
3B0
  8
0
  6
HIDDEN
 62
     7
 10
-141.4855478715
 20
-936.0745701781
 30
0.0
 11
-141.4855478715
 21
-935.5745701781
 31
0.0
  0
LINE
  5
3B1
  8
0
  6
HIDDEN
 62
     7
 10
-141.4855478715
 20
-935.5745701781
 30
0.0
 11
-142.9855478715
 21
-935.5745701781
 31
0.0
  0
ARC
  5
3B2
  8
0
  6
HIDDEN
 62
     7
 10
-142.9855478715
 20
-936.5745701781
 30
0.0
 40
1.000000000000078
 50
90.0
 51
119.1647304528
  0
ARC
  5
3B3
  8
0
  6
HIDDEN
 62
     7
 10
424.0144521285
 20
-913.0745701781
 30
0.0
 40
7.500000000000057
 50
180.0
 51
0.0
  0
LINE
  5
3B4
  8
0
  6
HIDDEN
 62
     7
 10
-125.9855497253
 20
-913.0745701781
 30
0.0
 11
-127.9855478715
 21
-913.0745701781
 31
0.0
  0
LINE
  5
3B5
  8
0
  6
HIDDEN
 62
     7
 10
-140.9855462367
 20
-913.0745701781
 30
0.0
 11
-139.9855478715
 21
-913.0745701781
 31
0.0
  0
ARC
  5
3B6
  8
0
  6
HIDDEN
 62
     7
 10
-691.9855478715
 20
-913.0745701781
 30
0.0
 40
7.500000000000114
 50
180.0
 51
0.0
  0
LINE
  5
3B7
  8
0
  6
HIDDEN
 62
     7
 10
-634.9855478715
 20
-914.0745701781
 30
0.0
 11
-624.9855478715
 21
-914.0745701781
 31
0.0
  0
LINE
  5
3B8
  8
0
  6
HIDDEN
 62
     7
 10
357.0144536479
 20
-914.0745701781
 30
0.0
 11
367.0144536479
 21
-914.0745701781
 31
0.0
  0
POLYLINE
  5
3B9
  8
0
  6
HIDDEN
 62
     7
 66
     1
 10
0.0
 20
0.0
 30
0.0
  0
VERTEX
  5
621
  8
0
  6
HIDDEN
 62
     7
 10
-127.3999316693
 20
-916.0745363086
 30
0.0
  0
VERTEX
  5
622
  8
0
  6
HIDDEN
 62
     7
 10
-127.6347239293
 20
-916.0269345277
 30
0.0
  0
VERTEX
  5
623
  8
0
  6
HIDDEN
 62
     7
 10
-127.7675201967
 20
-915.9245910474
 30
0.0
  0
SEQEND
  5
620
  8
0
  6
HIDDEN
 62
     7
  0
POLYLINE
  5
3BA
  8
0
  6
HIDDEN
 62
     7
 66
     1
 10
0.0
 20
0.0
 30
0.0
  0
VERTEX
  5
625
  8
0
  6
HIDDEN
 62
     7
 10
-125.9855478715
 20
-915.3106381556
 30
0.0
  0
VERTEX
  5
626
  8
0
  6
HIDDEN
 62
     7
 10
-125.9855478715
 20
-915.3106381556
 30
0.0
  0
SEQEND
  5
624
  8
0
  6
HIDDEN
 62
     7
  0
POLYLINE
  5
3BB
  8
0
  6
HIDDEN
 62
     7
 66
     1
 10
0.0
 20
0.0
 30
0.0
  0
VERTEX
  5
628
  8
0
  6
HIDDEN
 62
     7
 10
457.0144875174
 20
-913.6601863802
 30
0.0
  0
VERTEX
  5
629
  8
0
  6
HIDDEN
 62
     7
 10
457.0620892982
 20
-913.4253941203
 30
0.0
  0
VERTEX
  5
62A
  8
0
  6
HIDDEN
 62
     7
 10
457.1644327786
 20
-913.2925978529
 30
0.0
  0
SEQEND
  5
627
  8
0
  6
HIDDEN
 62
     7
  0
POLYLINE
  5
3BC
  8
0
  6
HIDDEN
 62
     7
 66
     1
 10
0.0
 20
0.0
 30
0.0
  0
VERTEX
  5
62C
  8
0
  6
HIDDEN
 62
     7
 10
457.7783856704
 20
-915.0745701781
 30
0.0
  0
VERTEX
  5
62D
  8
0
  6
HIDDEN
 62
     7
 10
457.7783856704
 20
-915.0745701781
 30
0.0
  0
SEQEND
  5
62B
  8
0
  6
HIDDEN
 62
     7
  0
POLYLINE
  5
3BD
  8
0
  6
HIDDEN
 62
     7
 66
     1
 10
0.0
 20
0.0
 30
0.0
  0
VERTEX
  5
62F
  8
0
  6
HIDDEN
 62
     7
 10
-125.749479894
 20
-915.0745701781
 30
0.0
  0
VERTEX
  5
630
  8
0
  6
HIDDEN
 62
     7
 10
-125.749479894
 20
-915.0745701781
 30
0.0
  0
SEQEND
  5
62E
  8
0
  6
HIDDEN
 62
     7
  0
ARC
  5
3BE
  8
0
  6
HIDDEN
 62
     7
 10
-125.3967141723
 20
-913.6133975159
 30
0.0
 40
0.4138287804352369
 50
353.455877168
 51
50.8834256242
  0
ARC
  5
3BF
  8
0
  6
HIDDEN
 62
     7
 10
459.4756263102
 20
-915.6634038773
 30
0.0
 40
0.4138287803843466
 50
263.4558771639
 51
320.8834256289
  0
POLYLINE
  5
3C0
  8
0
  6
HIDDEN
 62
     7
 66
     1
 10
0.0
 20
0.0
 30
0.0
  0
VERTEX
  5
632
  8
0
  6
HIDDEN
 62
     7
 10
458.0144536479
 20
-915.3106381556
 30
0.0
  0
VERTEX
  5
633
  8
0
  6
HIDDEN
 62
     7
 10
458.0144536479
 20
-915.3106381556
 30
0.0
  0
SEQEND
  5
631
  8
0
  6
HIDDEN
 62
     7
  0
LINE
  5
3C1
  8
0
  6
HIDDEN
 62
     7
 10
-125.749479894
 20
-913.0745701781
 30
0.0
 11
457.7783856704
 21
-913.0745701781
 31
0.0
  0
LINE
  5
3C2
  8
0
  6
HIDDEN
 62
     7
 10
-127.9855478715
 20
-931.5745701781
 30
0.0
 11
-127.9855478715
 21
-915.3106381556
 31
0.0
  0
LINE
  5
3C3
  8
0
  6
HIDDEN
 62
     7
 10
460.0144536479
 20
-915.3106381556
 30
0.0
 11
460.0144536479
 21
-931.5745686586
 31
0.0
  0
LINE
  5
3C4
  8
0
  6
HIDDEN
 62
     7
 10
-54.5023868377
 20
-915.5781036646
 30
0.0
 11
-45.4687089053
 21
-915.5781036646
 31
0.0
  0
LINE
  5
3C5
  8
0
  6
HIDDEN
 62
     7
 10
-52.9855478715
 20
-914.2745701781
 30
0.0
 11
-46.9855478715
 21
-914.2745701781
 31
0.0
  0
LINE
  5
3C6
  8
0
  6
HIDDEN
 62
     7
 10
-127.975917518
 20
-914.8785358784
 30
0.0
 11
-129.9662869713
 21
-914.6825015977
 31
0.0
  0
LINE
  5
3C7
  8
0
  6
HIDDEN
 62
     7
 10
436.4976131623
 20
-915.5781036646
 30
0.0
 11
445.5312910947
 21
-915.5781036646
 31
0.0
  0
LINE
  5
3C8
  8
0
  6
HIDDEN
 62
     7
 10
438.0144521285
 20
-914.2745701781
 30
0.0
 11
444.0144521285
 21
-914.2745701781
 31
0.0
  0
LINE
  5
3C9
  8
0
  6
HIDDEN
 62
     7
 10
-143.4855478715
 20
-938.0745701781
 30
0.0
 11
-143.4855478715
 21
-937.5745701781
 31
0.0
  0
LINE
  5
3CA
  8
0
  6
HIDDEN
 62
     7
 10
-143.4855478715
 20
-936.5745701781
 30
0.0
 11
-143.4855478715
 21
-936.0745701781
 31
0.0
  0
LINE
  5
3CB
  8
0
  6
HIDDEN
 62
     7
 10
-152.4855478715
 20
-938.0745701781
 30
0.0
 11
-152.4855478715
 21
-937.5745701781
 31
0.0
  0
LINE
  5
3CC
  8
0
  6
HIDDEN
 62
     7
 10
-152.4855478715
 20
-936.5745701781
 30
0.0
 11
-152.4855478715
 21
-936.0745701781
 31
0.0
  0
LINE
  5
3CD
  8
0
  6
HIDDEN
 62
     7
 10
460.4416878442
 20
-916.0407742917
 30
0.0
 11
460.8420354884
 21
-916.0744995541
 31
0.0
  0
POLYLINE
  5
3CE
  8
0
  6
HIDDEN
 62
     7
 66
     1
 10
0.0
 20
0.0
 30
0.0
  0
VERTEX
  5
635
  8
0
  6
HIDDEN
 62
     7
 10
458.0144536479
 20
-915.3106381556
 30
0.0
  0
VERTEX
  5
636
  8
0
  6
HIDDEN
 62
     7
 10
458.0144536479
 20
-915.3106381556
 30
0.0
  0
SEQEND
  5
634
  8
0
  6
HIDDEN
 62
     7
  0
ARC
  5
3CF
  8
0
  6
HIDDEN
 62
     7
 10
-132.580009115
 20
-911.7123582987
 30
0.0
 40
7.613185808849717
 50
333.7920668341
 51
355.9731341985
  0
POLYLINE
  5
3D0
  8
0
  6
HIDDEN
 62
     7
 66
     1
 10
0.0
 20
0.0
 30
0.0
  0
VERTEX
  5
638
  8
0
  6
HIDDEN
 62
     7
 10
457.7783856704
 20
-915.0745701781
 30
0.0
  0
VERTEX
  5
639
  8
0
  6
HIDDEN
 62
     7
 10
457.7783856704
 20
-915.0745701781
 30
0.0
  0
SEQEND
  5
637
  8
0
  6
HIDDEN
 62
     7
  0
POLYLINE
  5
3D1
  8
0
  6
HIDDEN
 62
     7
 66
     1
 10
0.0
 20
0.0
 30
0.0
  0
VERTEX
  5
63B
  8
0
  6
HIDDEN
 62
     7
 10
-129.9855484903
 20
-915.3106381556
 30
0.0
  0
VERTEX
  5
63C
  8
0
  6
HIDDEN
 62
     7
 10
-129.8988142965
 20
-915.6449680467
 30
0.0
  0
VERTEX
  5
63D
  8
0
  6
HIDDEN
 62
     7
 10
-129.6555166934
 20
-915.8837335035
 30
0.0
  0
VERTEX
  5
63E
  8
0
  6
HIDDEN
 62
     7
 10
-129.2838940868
 20
-916.0269345257
 30
0.0
  0
VERTEX
  5
63F
  8
0
  6
HIDDEN
 62
     7
 10
-128.8146775916
 20
-916.0744995549
 30
0.0
  0
SEQEND
  5
63A
  8
0
  6
HIDDEN
 62
     7
  0
POLYLINE
  5
3D2
  8
0
  6
HIDDEN
 62
     7
 66
     1
 10
0.0
 20
0.0
 30
0.0
  0
VERTEX
  5
641
  8
0
  6
HIDDEN
 62
     7
 10
-125.9855478715
 20
-915.3106381556
 30
0.0
  0
VERTEX
  5
642
  8
0
  6
HIDDEN
 62
     7
 10
-125.9855478715
 20
-915.3106381556
 30
0.0
  0
SEQEND
  5
640
  8
0
  6
HIDDEN
 62
     7
  0
POLYLINE
  5
3D3
  8
0
  6
HIDDEN
 62
     7
 66
     1
 10
0.0
 20
0.0
 30
0.0
  0
VERTEX
  5
644
  8
0
  6
HIDDEN
 62
     7
 10
-127.9855484903
 20
-915.3106381556
 30
0.0
  0
VERTEX
  5
645
  8
0
  6
HIDDEN
 62
     7
 10
-127.9421813867
 20
-915.6449680467
 30
0.0
  0
VERTEX
  5
646
  8
0
  6
HIDDEN
 62
     7
 10
-127.8205325663
 20
-915.8837335035
 30
0.0
  0
VERTEX
  5
647
  8
0
  6
HIDDEN
 62
     7
 10
-127.6347212343
 20
-916.0269345257
 30
0.0
  0
VERTEX
  5
648
  8
0
  6
HIDDEN
 62
     7
 10
-127.3997599966
 20
-916.0745711135
 30
0.0
  0
VERTEX
  5
649
  8
0
  6
HIDDEN
 62
     7
 10
-127.39993282
 20
-916.0745360749
 30
0.0
  0
SEQEND
  5
643
  8
0
  6
HIDDEN
 62
     7
  0
POLYLINE
  5
3D4
  8
0
  6
HIDDEN
 62
     7
 66
     1
 10
0.0
 20
0.0
 30
0.0
  0
VERTEX
  5
64B
  8
0
  6
HIDDEN
 62
     7
 10
-125.749479894
 20
-915.0745701781
 30
0.0
  0
VERTEX
  5
64C
  8
0
  6
HIDDEN
 62
     7
 10
-125.749479894
 20
-915.0745701781
 30
0.0
  0
SEQEND
  5
64A
  8
0
  6
HIDDEN
 62
     7
  0
LINE
  5
3D5
  8
0
  6
HIDDEN
 62
     7
 10
-142.9851226382
 20
-911.9955297957
 30
0.0
 11
-142.9851226381
 21
-913.381555718
 31
0.0
  0
LINE
  5
3D6
  8
0
  6
HIDDEN
 62
     7
 10
-729.0645882554
 20
-916.0741449448
 30
0.0
 11
-727.6785623321
 21
-916.0741449446
 31
0.0
  0
LINE
  5
3D7
  8
0
  6
HIDDEN
 62
     7
 10
-140.2646518181
 20
-916.0741449358
 30
0.0
 11
-138.8228467004
 21
-916.0741449373
 31
0.0
  0
LINE
  5
3D8
  8
0
  6
HIDDEN
 62
     7
 10
-724.9859731138
 20
-913.3536741245
 30
0.0
 11
-724.9859731123
 21
-911.9118690063
 31
0.0
  0
ARC
  5
3D9
  8
0
  6
HIDDEN
 62
     7
 10
-211.1014312471
 20
-913.5445701781
 30
0.0
 40
2.469999999999989
 50
90.0
 51
139.3250604347
  0
ARC
  5
3DA
  8
0
  6
HIDDEN
 62
     7
 10
-224.869664496
 20
-913.5445701781
 30
0.0
 40
2.469999999999989
 50
40.6749395653
 51
90.0
  0
ARC
  5
3DB
  8
0
  6
HIDDEN
 62
     7
 10
-211.1014312471
 20
-913.5445701781
 30
0.0
 40
0.4700000000000381
 50
90.0
 51
139.3250604347
  0
ARC
  5
3DC
  8
0
  6
HIDDEN
 62
     7
 10
-224.869664496
 20
-913.5445701781
 30
0.0
 40
0.4700000000000381
 50
40.6749395653
 51
90.0
  0
LINE
  5
3DD
  8
0
  6
HIDDEN
 62
     7
 10
-224.5132073389
 20
-913.2382398087
 30
0.0
 11
-222.5023868377
 21
-915.5781036646
 31
0.0
  0
LINE
  5
3DE
  8
0
  6
HIDDEN
 62
     7
 10
-213.4687089053
 20
-915.5781036646
 30
0.0
 11
-211.4578884041
 21
-913.2382398087
 31
0.0
  0
LINE
  5
3DF
  8
0
  6
HIDDEN
 62
     7
 10
-222.9963683727
 20
-911.9347063221
 30
0.0
 11
-220.9855478715
 21
-914.2745701781
 31
0.0
  0
LINE
  5
3E0
  8
0
  6
HIDDEN
 62
     7
 10
-214.9855478715
 20
-914.2745701781
 30
0.0
 11
-212.9747273703
 21
-911.9347063221
 31
0.0
  0
LINE
  5
3E1
  8
0
  6
HIDDEN
 62
     7
 10
-213.4687089053
 20
-915.5781036646
 30
0.0
 11
-214.9855478715
 21
-914.2745701781
 31
0.0
  0
LINE
  5
3E2
  8
0
  6
HIDDEN
 62
     7
 10
-220.9855478715
 20
-914.2745701781
 30
0.0
 11
-222.5023868377
 21
-915.5781036646
 31
0.0
  0
ARC
  5
3E3
  8
0
  6
HIDDEN
 62
     7
 10
-702.1014312471
 20
-913.5445701781
 30
0.0
 40
0.469999999999995
 50
90.0
 51
139.3250604347
  0
ARC
  5
3E4
  8
0
  6
HIDDEN
 62
     7
 10
-715.869664496
 20
-913.5445701781
 30
0.0
 40
0.469999999999995
 50
40.6749395653
 51
90.0
  0
ARC
  5
3E5
  8
0
  6
HIDDEN
 62
     7
 10
-702.1014312471
 20
-913.5445701781
 30
0.0
 40
2.470000000000042
 50
90.0
 51
139.3250604347
  0
ARC
  5
3E6
  8
0
  6
HIDDEN
 62
     7
 10
-715.869664496
 20
-913.5445701781
 30
0.0
 40
2.470000000000141
 50
40.6749395653
 51
90.0
  0
LINE
  5
3E7
  8
0
  6
HIDDEN
 62
     7
 10
-715.5132073389
 20
-913.2382398087
 30
0.0
 11
-713.5023868377
 21
-915.5781036646
 31
0.0
  0
LINE
  5
3E8
  8
0
  6
HIDDEN
 62
     7
 10
-704.4687089053
 20
-915.5781036646
 30
0.0
 11
-702.4578884041
 21
-913.2382398087
 31
0.0
  0
LINE
  5
3E9
  8
0
  6
HIDDEN
 62
     7
 10
-713.9963683727
 20
-911.9347063221
 30
0.0
 11
-711.9855478715
 21
-914.2745701781
 31
0.0
  0
LINE
  5
3EA
  8
0
  6
HIDDEN
 62
     7
 10
-705.9855478715
 20
-914.2745701781
 30
0.0
 11
-703.9747273703
 21
-911.9347063221
 31
0.0
  0
LINE
  5
3EB
  8
0
  6
HIDDEN
 62
     7
 10
-704.4687089053
 20
-915.5781036646
 30
0.0
 11
-705.9855478715
 21
-914.2745701781
 31
0.0
  0
LINE
  5
3EC
  8
0
  6
HIDDEN
 62
     7
 10
-711.9855478715
 20
-914.2745701781
 30
0.0
 11
-713.5023868377
 21
-915.5781036646
 31
0.0
  0
LINE
  5
3ED
  8
0
  6
HIDDEN
 62
     7
 10
-151.4855478715
 20
-911.0745701781
 30
0.0
 11
-151.4855478715
 21
-913.0745701781
 31
0.0
  0
LINE
  5
3EE
  8
0
  6
HIDDEN
 62
     7
 10
-146.4855478715
 20
-913.0745701781
 30
0.0
 11
-146.4855478715
 21
-911.0745701781
 31
0.0
  0
LINE
  5
3EF
  8
0
  6
HIDDEN
 62
     7
 10
-729.0646853809
 20
-916.0741408034
 30
0.0
 11
-727.6785934276
 21
-916.0741408033
 31
0.0
  0
LINE
  5
3F0
  8
0
  6
HIDDEN
 62
     7
 10
-727.678641808
 20
-916.0741408099
 30
0.0
 11
-729.0648324473
 21
-916.07414081
 31
0.0
  0
LINE
  5
3F1
  8
0
  6
HIDDEN
 62
     7
 10
-142.9851184969
 20
-911.9954326694
 30
0.0
 11
-142.9851184968
 21
-913.3815246223
 31
0.0
  0
LINE
  5
3F2
  8
0
  6
HIDDEN
 62
     7
 10
-142.9851185033
 20
-913.3814762418
 30
0.0
 11
-142.9851185034
 21
-911.995285603
 31
0.0
  0
LINE
  5
3F3
  8
0
  6
HIDDEN
 62
     7
 10
-140.2646814179
 20
-916.0741408087
 30
0.0
 11
-138.82294172
 21
-916.0741408084
 31
0.0
  0
LINE
  5
3F4
  8
0
  6
HIDDEN
 62
     7
 10
-724.9859772409
 20
-913.3537037242
 30
0.0
 11
-724.9859772412
 21
-911.9119640258
 31
0.0
  0
LINE
  5
3F5
  8
0
  6
HIDDEN
 62
     7
 10
-150.9855478715
 20
-938.5745701781
 30
0.0
 11
-150.9855478715
 21
-944.0745701781
 31
0.0
  0
LINE
  5
3F6
  8
0
  6
HIDDEN
 62
     7
 10
-144.9855478715
 20
-944.0745701781
 30
0.0
 11
-144.9855478715
 21
-938.5745701781
 31
0.0
  0
LINE
  5
3F7
  8
0
  6
HIDDEN
 62
     7
 10
411.5144521285
 20
-920.5745701781
 30
0.0
 11
424.0144521285
 21
-920.5745701781
 31
0.0
  0
LINE
  5
3F8
  8
0
  6
HIDDEN
 62
     7
 10
-127.9855478715
 20
-920.5745701781
 30
0.0
 11
411.5144521285
 21
-920.5745701781
 31
0.0
  0
LINE
  5
3F9
  8
0
  6
HIDDEN
 62
     7
 10
-679.4855478715
 20
-920.5745701781
 30
0.0
 11
-139.9855478715
 21
-920.5745701781
 31
0.0
  0
LINE
  5
3FA
  8
0
  6
HIDDEN
 62
     7
 10
-691.9855478715
 20
-920.5745701781
 30
0.0
 11
-679.4855478715
 21
-920.5745701781
 31
0.0
  0
LINE
  5
3FB
  8
0
  6
HIDDEN
 62
     7
 10
-634.9855478715
 20
-913.0745701781
 30
0.0
 11
-634.9855478715
 21
-914.0745701781
 31
0.0
  0
LINE
  5
3FC
  8
0
  6
HIDDEN
 62
     7
 10
-624.9855478715
 20
-914.0745701781
 30
0.0
 11
-624.9855478715
 21
-913.0745701781
 31
0.0
  0
LINE
  5
3FD
  8
0
  6
HIDDEN
 62
     7
 10
-633.9855478715
 20
-914.0745701781
 30
0.0
 11
-633.9855478715
 21
-931.5745701781
 31
0.0
  0
LINE
  5
3FE
  8
0
  6
HIDDEN
 62
     7
 10
-625.9855478715
 20
-931.5745701781
 30
0.0
 11
-625.9855478715
 21
-914.0745701781
 31
0.0
  0
LINE
  5
3FF
  8
0
  6
HIDDEN
 62
     7
 10
357.0144536479
 20
-913.0745701781
 30
0.0
 11
357.0144536479
 21
-914.0745701781
 31
0.0
  0
LINE
  5
400
  8
0
  6
HIDDEN
 62
     7
 10
367.0144536479
 20
-914.0745701781
 30
0.0
 11
367.0144536479
 21
-913.0745701781
 31
0.0
  0
LINE
  5
401
  8
0
  6
HIDDEN
 62
     7
 10
358.0144536479
 20
-914.0745701781
 30
0.0
 11
358.0144536479
 21
-931.5745701781
 31
0.0
  0
LINE
  5
402
  8
0
  6
HIDDEN
 62
     7
 10
366.0144536479
 20
-931.5745701781
 30
0.0
 11
366.0144536479
 21
-914.0745701781
 31
0.0
  0
LINE
  5
403
  8
0
  6
HIDDEN
 62
     7
 10
-128.8147473795
 20
-916.0745712245
 30
0.0
 11
-127.4001478335
 21
-916.0745712245
 31
0.0
  0
LINE
  5
404
  8
0
  6
HIDDEN
 62
     7
 10
457.0144526015
 20
-912.2453706698
 30
0.0
 11
457.0144526015
 21
-913.659970216
 31
0.0
  0
LINE
  5
405
  8
0
  6
HIDDEN
 62
     7
 10
-124.9855468251
 20
-913.6607422435
 30
0.0
 11
-124.9855468251
 21
-912.2469147555
 31
0.0
  0
LINE
  5
406
  8
0
  6
HIDDEN
 62
     7
 10
459.4282815825
 20
-916.0745712245
 30
0.0
 11
460.8421090705
 21
-916.0745712245
 31
0.0
  0
ARC
  5
407
  8
0
  6
HIDDEN
 62
     7
 10
-43.1014312471
 20
-913.5445701781
 30
0.0
 40
0.4700000000000058
 50
90.0
 51
139.3250604347
  0
ARC
  5
408
  8
0
  6
HIDDEN
 62
     7
 10
-56.869664496
 20
-913.5445701781
 30
0.0
 40
0.4700000000000058
 50
40.6749395653
 51
90.0
  0
ARC
  5
409
  8
0
  6
HIDDEN
 62
     7
 10
-43.1014312471
 20
-913.5445701781
 30
0.0
 40
2.469999999999962
 50
90.0
 51
139.3250604347
  0
ARC
  5
40A
  8
0
  6
HIDDEN
 62
     7
 10
-56.869664496
 20
-913.5445701781
 30
0.0
 40
2.469999999999962
 50
40.6749395653
 51
90.0
  0
LINE
  5
40B
  8
0
  6
HIDDEN
 62
     7
 10
-56.5132073389
 20
-913.2382398087
 30
0.0
 11
-54.5023868377
 21
-915.5781036646
 31
0.0
  0
LINE
  5
40C
  8
0
  6
HIDDEN
 62
     7
 10
-45.4687089053
 20
-915.5781036646
 30
0.0
 11
-43.4578884041
 21
-913.2382398087
 31
0.0
  0
LINE
  5
40D
  8
0
  6
HIDDEN
 62
     7
 10
-54.9963683727
 20
-911.9347063221
 30
0.0
 11
-52.9855478715
 21
-914.2745701781
 31
0.0
  0
LINE
  5
40E
  8
0
  6
HIDDEN
 62
     7
 10
-46.9855478715
 20
-914.2745701781
 30
0.0
 11
-44.9747273703
 21
-911.9347063221
 31
0.0
  0
LINE
  5
40F
  8
0
  6
HIDDEN
 62
     7
 10
-45.4687089053
 20
-915.5781036646
 30
0.0
 11
-46.9855478715
 21
-914.2745701781
 31
0.0
  0
LINE
  5
410
  8
0
  6
HIDDEN
 62
     7
 10
-52.9855478715
 20
-914.2745701781
 30
0.0
 11
-54.5023868377
 21
-915.5781036646
 31
0.0
  0
ARC
  5
411
  8
0
  6
HIDDEN
 62
     7
 10
447.8985687529
 20
-913.5445701781
 30
0.0
 40
2.469999999999968
 50
90.0
 51
139.3250604347
  0
ARC
  5
412
  8
0
  6
HIDDEN
 62
     7
 10
434.130335504
 20
-913.5445701781
 30
0.0
 40
2.470000000000027
 50
40.6749395653
 51
90.0
  0
ARC
  5
413
  8
0
  6
HIDDEN
 62
     7
 10
447.8985687529
 20
-913.5445701781
 30
0.0
 40
0.4699999999999088
 50
90.0
 51
139.3250604347
  0
ARC
  5
414
  8
0
  6
HIDDEN
 62
     7
 10
434.130335504
 20
-913.5445701781
 30
0.0
 40
0.4700000000000381
 50
40.6749395653
 51
90.0
  0
LINE
  5
415
  8
0
  6
HIDDEN
 62
     7
 10
434.4867926611
 20
-913.2382398087
 30
0.0
 11
436.4976131623
 21
-915.5781036646
 31
0.0
  0
LINE
  5
416
  8
0
  6
HIDDEN
 62
     7
 10
445.5312910947
 20
-915.5781036646
 30
0.0
 11
447.5421115959
 21
-913.2382398087
 31
0.0
  0
LINE
  5
417
  8
0
  6
HIDDEN
 62
     7
 10
436.0036316273
 20
-911.9347063221
 30
0.0
 11
438.0144521285
 21
-914.2745701781
 31
0.0
  0
LINE
  5
418
  8
0
  6
HIDDEN
 62
     7
 10
444.0144521285
 20
-914.2745701781
 30
0.0
 11
446.0252726297
 21
-911.9347063221
 31
0.0
  0
LINE
  5
419
  8
0
  6
HIDDEN
 62
     7
 10
445.5312910947
 20
-915.5781036646
 30
0.0
 11
444.0144521285
 21
-914.2745701781
 31
0.0
  0
LINE
  5
41A
  8
0
  6
HIDDEN
 62
     7
 10
438.0144521285
 20
-914.2745701781
 30
0.0
 11
436.4976131623
 21
-915.5781036646
 31
0.0
  0
ENDSEC
  0
EOF
