  0
SECTION
  2
HEADER
  9
$ACADVER
  1
AC1009
  9
$DWGCODEPAGE
  3
ansi_1252
  9
$INSBASE
 10
0.0
 20
0.0
 30
0.0
  9
$EXTMIN
 10
0.0
 20
0.0
 30
0.0
  9
$EXTMAX
 10
297.0
 20
210.0
 30
0.0
  9
$LIMMIN
 10
0.0
 20
0.0
  9
$LIMMAX
 10
0.0
 20
0.0
  9
$ORTHOMODE
 70
     0
  9
$REGENMODE
 70
     1
  9
$FILLMODE
 70
     1
  9
$QTEXTMODE
 70
     0
  9
$MIRRTEXT
 70
     1
  9
$DRAGMODE
 70
     2
  9
$LTSCALE
 40
1.0
  9
$OSMODE
 70
    37
  9
$ATTMODE
 70
     1
  9
$TEXTSIZE
 40
3.5277777778
  9
$TRACEWID
 40
1.0
  9
$TEXTSTYLE
  7
STANDARD
  9
$CLAYER
  8
0
  9
$CELTYPE
  6
BYLAYER
  9
$CECOLOR
 62
   256
  9
$DIMSCALE
 40
1.0
  9
$DIMASZ
 40
1.8
  9
$DIMEXO
 40
0.7
  9
$DIMDLI
 40
3.75
  9
$DIMRND
 40
0.0
  9
$DIMDLE
 40
0.0
  9
$DIMEXE
 40
0.5
  9
$DIMTP
 40
0.0
  9
$DIMTM
 40
0.0
  9
$DIMTXT
 40
2.4694444444
  9
$DIMCEN
 40
2.5
  9
$DIMTSZ
 40
0.0
  9
$DIMTOL
 70
     0
  9
$DIMLIM
 70
     0
  9
$DIMTIH
 70
     1
  9
$DIMTOH
 70
     1
  9
$DIMSE1
 70
     0
  9
$DIMSE2
 70
     0
  9
$DIMTAD
 70
     1
  9
$DIMZIN
 70
     0
  9
$DIMBLK
  1

  9
$DIMASO
 70
     1
  9
$DIMSHO
 70
     1
  9
$DIMPOST
  1

  9
$DIMAPOST
  1

  9
$DIMALT
 70
     0
  9
$DIMALTD
 70
     3
  9
$DIMALTF
 40
0.0393700787
  9
$DIMLFAC
 40
1.0
  9
$DIMTOFL
 70
     1
  9
$DIMTVP
 40
0.0
  9
$DIMTIX
 70
     0
  9
$DIMSOXD
 70
     0
  9
$DIMSAH
 70
     0
  9
$DIMBLK1
  1

  9
$DIMBLK2
  1

  9
$DIMSTYLE
  2
ISO-25
  9
$DIMCLRD
 70
     0
  9
$DIMCLRE
 70
     0
  9
$DIMCLRT
 70
     0
  9
$DIMTFAC
 40
1.0
  9
$DIMGAP
 40
2.0
  9
$LUNITS
 70
     2
  9
$LUPREC
 70
     2
  9
$SKETCHINC
 40
1.0
  9
$FILLETRAD
 40
10.0
  9
$AUNITS
 70
     0
  9
$AUPREC
 70
     0
  9
$MENU
  1
.
  9
$ELEVATION
 40
0.0
  9
$PELEVATION
 40
0.0
  9
$THICKNESS
 40
0.0
  9
$LIMCHECK
 70
     0
  9
$CHAMFERA
 40
10.0
  9
$CHAMFERB
 40
10.0
  9
$SKPOLY
 70
     0
  9
$TDCREATE
 40
2455110.500770752
  9
$TDUPDATE
 40
2455110.500770764
  9
$TDINDWG
 40
0.0000000116
  9
$TDUSRTIMER
 40
0.0000000116
  9
$USRTIMER
 70
     1
  9
$ANGBASE
 50
0.0
  9
$ANGDIR
 70
     0
  9
$PDMODE
 70
     0
  9
$PDSIZE
 40
-1.0
  9
$PLINEWID
 40
0.0
  9
$COORDS
 70
     1
  9
$SPLFRAME
 70
     0
  9
$SPLINETYPE
 70
     6
  9
$SPLINESEGS
 70
     8
  9
$ATTDIA
 70
     0
  9
$ATTREQ
 70
     1
  9
$HANDLING
 70
     1
  9
$HANDSEED
  5
38B
  9
$SURFTAB1
 70
     6
  9
$SURFTAB2
 70
     6
  9
$SURFTYPE
 70
     6
  9
$SURFU
 70
     6
  9
$SURFV
 70
     6
  9
$UCSNAME
  2

  9
$UCSORG
 10
0.0
 20
0.0
 30
0.0
  9
$UCSXDIR
 10
1.0
 20
0.0
 30
0.0
  9
$UCSYDIR
 10
0.0
 20
1.0
 30
0.0
  9
$PUCSNAME
  2

  9
$PUCSORG
 10
0.0
 20
0.0
 30
0.0
  9
$PUCSXDIR
 10
1.0
 20
0.0
 30
0.0
  9
$PUCSYDIR
 10
0.0
 20
1.0
 30
0.0
  9
$USERI1
 70
     0
  9
$USERI2
 70
     0
  9
$USERI3
 70
     0
  9
$USERI4
 70
     0
  9
$USERI5
 70
     0
  9
$USERR1
 40
0.0
  9
$USERR2
 40
0.0
  9
$USERR3
 40
0.0
  9
$USERR4
 40
0.0
  9
$USERR5
 40
0.0
  9
$WORLDVIEW
 70
     1
  9
$SHADEDGE
 70
     3
  9
$SHADEDIF
 70
    70
  9
$TILEMODE
 70
     1
  9
$MAXACTVP
 70
    64
  9
$PLIMCHECK
 70
     0
  9
$PEXTMIN
 10
1.0000000000E+20
 20
1.0000000000E+20
 30
1.0000000000E+20
  9
$PEXTMAX
 10
-1.0000000000E+20
 20
-1.0000000000E+20
 30
-1.0000000000E+20
  9
$PLIMMIN
 10
0.0
 20
0.0
  9
$PLIMMAX
 10
420.0
 20
297.0
  9
$UNITMODE
 70
     0
  9
$VISRETAIN
 70
     1
  9
$PLINEGEN
 70
     0
  9
$PSLTSCALE
 70
     1
  0
ENDSEC
  0
SECTION
  2
TABLES
  0
TABLE
  2
VPORT
 70
     1
  0
VPORT
  2
*ACTIVE
 70
     0
 10
0.0
 20
0.0
 11
1.0
 21
1.0
 12
148.5
 22
105.0
 13
0.0
 23
0.0
 14
10.0
 24
10.0
 15
10.0
 25
10.0
 16
0.0
 26
0.0
 36
1.0
 17
0.0
 27
0.0
 37
0.0
 40
210.0
 41
1.4142857143
 42
50.0
 43
0.0
 44
0.0
 50
0.0
 51
0.0
 71
     0
 72
  2000
 73
     1
 74
     3
 75
     0
 76
     0
 77
     0
 78
     0
  0
ENDTAB
  0
TABLE
  2
LTYPE
 70
     6
  0
LTYPE
  2
CONTINUOUS
 70
     0
  3
Solid line
 72
    65
 73
     0
 40
0.0
  0
LTYPE
  2
HIDDEN
 70
     0
  3
Hidden __ __ __ __ __ __ __ __ __ __ __ __ __ __
 72
    65
 73
     2
 40
1.905
 49
1.27
 49
-0.635
  0
LTYPE
  2
PHANTOM
 70
     0
  3
Phantom ______  __  __  ______  __  __  ______
 72
    65
 73
     6
 40
12.7
 49
6.35
 49
-1.27
 49
1.27
 49
-1.27
 49
1.27
 49
-1.27
  0
LTYPE
  2
CENTER
 70
     0
  3
Center ____ _ ____ _ ____ _ ____ _ ____ _ ____
 72
    65
 73
     4
 40
10.16
 49
6.35
 49
-1.27
 49
1.27
 49
-1.27
  0
LTYPE
  2
CENTERX2
 70
     0
  3
Center (2x) ________  __  ________  __  _____
 72
    65
 73
     4
 40
20.32
 49
12.7
 49
-2.54
 49
2.54
 49
-2.54
  0
LTYPE
  2
DOT2
 70
     0
  3
Dot (.5x) ........................................
 72
    65
 73
     2
 40
0.635
 49
0.0
 49
-0.635
  0
ENDTAB
  0
TABLE
  2
LAYER
 70
     5
  0
LAYER
  2
0
 70
     0
 62
     7
  6
CONTINUOUS
  0
LAYER
  2
SLD-0
 70
     0
 62
     7
  6
CONTINUOUS
  0
LAYER
  2
AM_BOR
 70
     0
 62
     7
  6
CONTINUOUS
  0
LAYER
  2
BIEGLINIE__ZU_
 70
     0
 62
     8
  6
CONTINUOUS
  0
LAYER
  2
BIEGELINIE__WEG_
 70
     0
 62
     8
  6
HIDDEN
  0
ENDTAB
  0
TABLE
  2
STYLE
 70
     1
  0
STYLE
  2
STANDARD
 70
     0
 40
0.0
 41
1.0
 50
0.0
 71
     0
 42
2.5
  3
txt
  4

  0
ENDTAB
  0
TABLE
  2
VIEW
 70
     0
  0
ENDTAB
  0
TABLE
  2
UCS
 70
     0
  0
ENDTAB
  0
TABLE
  2
APPID
 70
     1
  0
APPID
  2
ACAD
 70
     0
  0
ENDTAB
  0
TABLE
  2
DIMSTYLE
 70
     1
  0
DIMSTYLE
  2
ISO-25
 70
     0
  3

  4

  5

  6

  7

 40
1.0
 41
2.5
 42
0.625
 43
3.75
 44
1.25
 45
0.0
 46
0.0
 47
0.0
 48
0.0
140
2.5
141
2.5
142
0.0
143
0.0393700787
144
1.0
145
0.0
146
1.0
147
0.625
 71
     0
 72
     0
 73
     0
 74
     0
 75
     0
 76
     0
 77
     1
 78
     8
170
     0
171
     3
172
     1
173
     0
174
     0
175
     0
176
     0
177
     0
178
     0
  0
ENDTAB
  0
ENDSEC
  0
SECTION
  2
BLOCKS
  0
BLOCK
  8
0
  2
$MODEL_SPACE
 70
     0
 10
0.0
 20
0.0
 30
0.0
  3
$MODEL_SPACE
  1

  0
ENDBLK
  5
21
  8
0
  0
BLOCK
 67
     1
  8
0
  2
$PAPER_SPACE
 70
     0
 10
0.0
 20
0.0
 30
0.0
  3
$PAPER_SPACE
  1

  0
ENDBLK
  5
1D
 67
     1
  8
0
  0
ENDSEC
  0
SECTION
  2
ENTITIES
  0
TEXT
  5
33
  8
SLD-0
 10
678.8099189259
 20
-1041.8263905891
 30
0.0
 40
19.05
  1
RS/GL  BxH 800 x 2000
 41
0.6166666667
 11
678.8099189259
 21
-1047.2692477319
 31
0.0
 73
     1
  0
ARC
  5
34
  8
0
  6
CONTINUOUS
 62
     7
 10
489.7958232352
 20
1036.6074407051
 30
0.0
 40
20.00000000000006
 50
360.0
 51
90.0
  0
ARC
  5
35
  8
0
  6
CONTINUOUS
 62
     7
 10
489.7958232352
 20
1036.6074407051
 30
0.0
 40
5.0
 50
360.0
 51
90.0
  0
LINE
  5
36
  8
0
  6
CONTINUOUS
 62
     7
 10
-199.2041767648
 20
1056.6074407051
 30
0.0
 11
489.7958232352
 21
1056.6074407051
 31
0.0
  0
LINE
  5
37
  8
0
  6
CONTINUOUS
 62
     7
 10
-199.2041767648
 20
1041.6074407051
 30
0.0
 11
489.7958232352
 21
1041.6074407051
 31
0.0
  0
LINE
  5
38
  8
0
  6
CONTINUOUS
 62
     7
 10
489.7958232352
 20
-868.3925592949
 30
0.0
 11
-199.2041767648
 21
-868.3925592949
 31
0.0
  0
LINE
  5
39
  8
0
  6
CONTINUOUS
 62
     7
 10
489.7958232352
 20
-853.3925592949
 30
0.0
 11
-199.2041767648
 21
-853.3925592949
 31
0.0
  0
ARC
  5
3A
  8
0
  6
CONTINUOUS
 62
     7
 10
-199.2041767648
 20
-848.3925592949
 30
0.0
 40
19.99999999999989
 50
180.0
 51
270.0
  0
ARC
  5
3B
  8
0
  6
CONTINUOUS
 62
     7
 10
-199.2041767648
 20
-848.3925592949
 30
0.0
 40
4.999999999999773
 50
180.0
 51
270.0
  0
LINE
  5
3C
  8
0
  6
CONTINUOUS
 62
     7
 10
509.7958232352
 20
1036.6074407051
 30
0.0
 11
509.7958232352
 21
-848.3925592949
 31
0.0
  0
LINE
  5
3D
  8
0
  6
CONTINUOUS
 62
     7
 10
494.7958232352
 20
1036.6074407051
 30
0.0
 11
494.7958232352
 21
-848.3925592949
 31
0.0
  0
LINE
  5
3E
  8
0
  6
CONTINUOUS
 62
     7
 10
-204.2041767648
 20
1036.6074407051
 30
0.0
 11
-204.2041767648
 21
-848.3925592949
 31
0.0
  0
LINE
  5
3F
  8
0
  6
CONTINUOUS
 62
     7
 10
-219.2041767648
 20
1036.6074407051
 30
0.0
 11
-219.2041767648
 21
-848.3925592949
 31
0.0
  0
ARC
  5
40
  8
0
  6
CONTINUOUS
 62
     7
 10
-199.2041767648
 20
1036.6074407051
 30
0.0
 40
20.00000000000017
 50
90.0
 51
180.0
  0
ARC
  5
41
  8
0
  6
CONTINUOUS
 62
     7
 10
-199.2041767648
 20
1036.6074407051
 30
0.0
 40
5.000000000000227
 50
90.0
 51
180.0
  0
ARC
  5
42
  8
0
  6
CONTINUOUS
 62
     7
 10
489.7958232352
 20
-848.3925592949
 30
0.0
 40
19.99999999999989
 50
270.0
 51
360.0
  0
ARC
  5
43
  8
0
  6
CONTINUOUS
 62
     7
 10
489.7958232352
 20
-848.3925592949
 30
0.0
 40
4.999999999999829
 50
270.0
 51
360.0
  0
ARC
  5
44
  8
0
  6
CONTINUOUS
 62
     7
 10
-246.704176076
 20
-889.8925592949
 30
0.0
 40
2.000000688793193
 50
180.0
 51
269.9999802675
  0
ARC
  5
45
  8
0
  6
CONTINUOUS
 62
     7
 10
-246.7041767648
 20
-889.8925592949
 30
0.0
 40
4.0
 50
180.0
 51
270.0
  0
LINE
  5
46
  8
0
  6
CONTINUOUS
 62
     7
 10
-248.7041774536
 20
1078.1074407051
 30
0.0
 11
-248.7041767648
 21
-889.8925592949
 31
0.0
  0
LINE
  5
47
  8
0
  6
CONTINUOUS
 62
     7
 10
-250.7041767648
 20
1078.1074407051
 30
0.0
 11
-250.7041767648
 21
-889.8925592949
 31
0.0
  0
LINE
  5
48
  8
0
  6
CONTINUOUS
 62
     7
 10
-230.2041767648
 20
-891.8925592949
 30
0.0
 11
-230.2041767648
 21
-893.8925592949
 31
0.0
  0
LINE
  5
49
  8
0
  6
CONTINUOUS
 62
     7
 10
-246.7041767648
 20
-891.8925592949
 30
0.0
 11
-230.2041767648
 21
-891.8925592949
 31
0.0
  0
LINE
  5
4A
  8
0
  6
CONTINUOUS
 62
     7
 10
-246.7041767648
 20
-893.8925592949
 30
0.0
 11
-230.2041767648
 21
-893.8925592949
 31
0.0
  0
ARC
  5
4B
  8
0
  6
CONTINUOUS
 62
     7
 10
537.2958225464
 20
1078.1074407051
 30
0.0
 40
2.000001377586273
 50
0.0
 51
89.9999802675
  0
ARC
  5
4C
  8
0
  6
CONTINUOUS
 62
     7
 10
537.2958232352
 20
1078.1074407051
 30
0.0
 40
4.000000688793079
 50
0.0
 51
90.0
  0
LINE
  5
4D
  8
0
  6
CONTINUOUS
 62
     7
 10
520.7958232352
 20
1082.1074407051
 30
0.0
 11
520.7958232352
 21
1080.1074407051
 31
0.0
  0
LINE
  5
4E
  8
0
  6
CONTINUOUS
 62
     7
 10
-230.2041767648
 20
1082.1074407051
 30
0.0
 11
-230.2041767648
 21
1080.1074407051
 31
0.0
  0
LINE
  5
4F
  8
0
  6
CONTINUOUS
 62
     7
 10
520.7958232352
 20
1080.1074407051
 30
0.0
 11
-230.2041767648
 21
1080.1074407051
 31
0.0
  0
LINE
  5
50
  8
0
  6
CONTINUOUS
 62
     7
 10
520.7958232352
 20
1082.1074407051
 30
0.0
 11
-230.2041767648
 21
1082.1074407051
 31
0.0
  0
ARC
  5
51
  8
0
  6
CONTINUOUS
 62
     7
 10
-246.7041767648
 20
1078.1074407051
 30
0.0
 40
4.000000000000227
 50
90.0
 51
180.0
  0
ARC
  5
52
  8
0
  6
CONTINUOUS
 62
     7
 10
-246.704176076
 20
1078.1074407051
 30
0.0
 40
2.000001377586329
 50
90.0000197325
 51
180.0
  0
LINE
  5
53
  8
0
  6
CONTINUOUS
 62
     7
 10
-230.2041767648
 20
1080.1074407051
 30
0.0
 11
-230.2041767648
 21
1082.1074407051
 31
0.0
  0
LINE
  5
54
  8
0
  6
CONTINUOUS
 62
     7
 10
-230.2041767648
 20
1082.1074407051
 30
0.0
 11
-246.7041767648
 21
1082.1074407051
 31
0.0
  0
LINE
  5
55
  8
0
  6
CONTINUOUS
 62
     7
 10
-230.2041767648
 20
1080.1074407051
 30
0.0
 11
-246.7041767648
 21
1080.1074413939
 31
0.0
  0
LINE
  5
56
  8
0
  6
CONTINUOUS
 62
     7
 10
539.2958235796
 20
-889.8925592949
 30
0.0
 11
539.295823924
 21
1078.1074407051
 31
0.0
  0
LINE
  5
57
  8
0
  6
CONTINUOUS
 62
     7
 10
541.2958232352
 20
-889.8925592949
 30
0.0
 11
541.295823924
 21
1078.1074407051
 31
0.0
  0
LINE
  5
58
  8
0
  6
CONTINUOUS
 62
     7
 10
520.7958232352
 20
1080.1074407051
 30
0.0
 11
520.7958232352
 21
1082.1074407051
 31
0.0
  0
LINE
  5
59
  8
0
  6
CONTINUOUS
 62
     7
 10
537.2958232352
 20
1080.1074407051
 30
0.0
 11
520.7958232352
 21
1080.1074407051
 31
0.0
  0
LINE
  5
5A
  8
0
  6
CONTINUOUS
 62
     7
 10
537.2958232352
 20
1082.1074407051
 30
0.0
 11
520.7958232352
 21
1082.1074407051
 31
0.0
  0
LINE
  5
5B
  8
0
  6
CONTINUOUS
 62
     7
 10
520.7958232352
 20
-893.8925592949
 30
0.0
 11
520.7958232352
 21
-891.8925592949
 31
0.0
  0
LINE
  5
5C
  8
0
  6
CONTINUOUS
 62
     7
 10
-230.2041767648
 20
-893.8925592949
 30
0.0
 11
-230.2041767648
 21
-891.8925592948
 31
0.0
  0
LINE
  5
5D
  8
0
  6
CONTINUOUS
 62
     7
 10
-230.2041767648
 20
-891.8925592948
 30
0.0
 11
520.7958232352
 21
-891.8925592949
 31
0.0
  0
LINE
  5
5E
  8
0
  6
CONTINUOUS
 62
     7
 10
-230.2041767648
 20
-893.8925592949
 30
0.0
 11
520.7958232352
 21
-893.8925592949
 31
0.0
  0
LINE
  5
5F
  8
0
  6
CONTINUOUS
 62
     7
 10
520.7958232352
 20
-891.8925592949
 30
0.0
 11
520.7958232352
 21
-893.8925592949
 31
0.0
  0
LINE
  5
60
  8
0
  6
CONTINUOUS
 62
     7
 10
520.7958232352
 20
-893.8925592949
 30
0.0
 11
537.2958232352
 21
-893.8925592949
 31
0.0
  0
LINE
  5
61
  8
0
  6
CONTINUOUS
 62
     7
 10
520.7958232352
 20
-891.8925592949
 30
0.0
 11
537.2958232352
 21
-891.8925599837
 31
0.0
  0
ARC
  5
62
  8
0
  6
CONTINUOUS
 62
     7
 10
537.2958225464
 20
-889.8925592949
 30
0.0
 40
2.00000103318996
 50
270.0000197325
 51
0.0
  0
ARC
  5
63
  8
0
  6
CONTINUOUS
 62
     7
 10
537.2958232352
 20
-889.8925592949
 30
0.0
 40
4.0
 50
270.0
 51
0.0
  0
CIRCLE
  5
64
  8
0
  6
CONTINUOUS
 62
     7
 10
-229.7041767648
 20
-813.8925592949
 30
0.0
 40
4.516838966197469
  0
CIRCLE
  5
65
  8
0
  6
CONTINUOUS
 62
     7
 10
-229.7041767648
 20
-813.8925592949
 30
0.0
 40
3.000000000000028
  0
CIRCLE
  5
66
  8
0
  6
CONTINUOUS
 62
     7
 10
-229.7041767648
 20
986.1074407051
 30
0.0
 40
4.516838966197469
  0
CIRCLE
  5
67
  8
0
  6
CONTINUOUS
 62
     7
 10
-229.7041767648
 20
86.1074407051
 30
0.0
 40
4.516838966197469
  0
CIRCLE
  5
68
  8
0
  6
CONTINUOUS
 62
     7
 10
-229.7041767648
 20
86.1074407051
 30
0.0
 40
3.000000000000028
  0
CIRCLE
  5
69
  8
0
  6
CONTINUOUS
 62
     7
 10
-229.7041767648
 20
986.1074407051
 30
0.0
 40
3.000000000000028
  0
CIRCLE
  5
6A
  8
0
  6
CONTINUOUS
 62
     7
 10
520.2958232352
 20
86.1074407051
 30
0.0
 40
4.516838966197497
  0
CIRCLE
  5
6B
  8
0
  6
CONTINUOUS
 62
     7
 10
520.2958232352
 20
-813.8925592949
 30
0.0
 40
4.516838966197497
  0
CIRCLE
  5
6C
  8
0
  6
CONTINUOUS
 62
     7
 10
520.2958232352
 20
-813.8925592949
 30
0.0
 40
3.0
  0
CIRCLE
  5
6D
  8
0
  6
CONTINUOUS
 62
     7
 10
520.2958232352
 20
86.1074407051
 30
0.0
 40
3.0
  0
CIRCLE
  5
6E
  8
0
  6
CONTINUOUS
 62
     7
 10
520.2958232352
 20
986.1074407051
 30
0.0
 40
4.516838966197497
  0
CIRCLE
  5
6F
  8
0
  6
CONTINUOUS
 62
     7
 10
520.2958232352
 20
986.1074407051
 30
0.0
 40
3.0
  0
POLYLINE
  5
70
  8
0
  6
CONTINUOUS
 62
     7
 66
     1
 10
0.0
 20
0.0
 30
0.0
  0
VERTEX
  5
204
  8
0
  6
CONTINUOUS
 62
     7
 10
537.0597552577
 20
1078.1074407051
 30
0.0
  0
VERTEX
  5
205
  8
0
  6
CONTINUOUS
 62
     7
 10
536.7212011966
 20
1078.5126407528
 30
0.0
  0
VERTEX
  5
206
  8
0
  6
CONTINUOUS
 62
     7
 10
536.4821864738
 20
1078.8816543092
 30
0.0
  0
VERTEX
  5
207
  8
0
  6
CONTINUOUS
 62
     7
 10
536.3427110895
 20
1079.2042215423
 30
0.0
  0
VERTEX
  5
208
  8
0
  6
CONTINUOUS
 62
     7
 10
536.298522232
 20
1079.4963063796
 30
0.0
  0
VERTEX
  5
209
  8
0
  6
CONTINUOUS
 62
     7
 10
536.3468462962
 20
1079.7518711796
 30
0.0
  0
VERTEX
  5
20A
  8
0
  6
CONTINUOUS
 62
     7
 10
536.4898264886
 20
1079.945049117
 30
0.0
  0
VERTEX
  5
20B
  8
0
  6
CONTINUOUS
 62
     7
 10
536.7274628091
 20
1080.0660010861
 30
0.0
  0
VERTEX
  5
20C
  8
0
  6
CONTINUOUS
 62
     7
 10
537.0597552577
 20
1080.1074413939
 30
0.0
  0
SEQEND
  5
203
  8
0
  6
CONTINUOUS
 62
     7
  0
ARC
  5
71
  8
0
  6
CONTINUOUS
 62
     7
 10
543.9832816304
 20
1081.5496880455
 30
0.0
 40
7.732029758392911
 50
192.5340362765
 51
206.4357025395
  0
ARC
  5
72
  8
0
  6
CONTINUOUS
 62
     7
 10
-253.3916351424
 20
1081.5496880395
 30
0.0
 40
7.732029740087287
 50
333.564297443
 51
347.4659637388
  0
POLYLINE
  5
73
  8
0
  6
CONTINUOUS
 62
     7
 66
     1
 10
0.0
 20
0.0
 30
0.0
  0
VERTEX
  5
20E
  8
0
  6
CONTINUOUS
 62
     7
 10
-248.7041770392
 20
-889.6564913174
 30
0.0
  0
VERTEX
  5
20F
  8
0
  6
CONTINUOUS
 62
     7
 10
-248.6627002124
 20
-889.3179372608
 30
0.0
  0
VERTEX
  5
210
  8
0
  6
CONTINUOUS
 62
     7
 10
-248.5482468996
 20
-889.0789225395
 30
0.0
  0
VERTEX
  5
211
  8
0
  6
CONTINUOUS
 62
     7
 10
-248.3766221049
 20
-888.9394471533
 30
0.0
  0
VERTEX
  5
212
  8
0
  6
CONTINUOUS
 62
     7
 10
-248.1432924827
 20
-888.8952582912
 30
0.0
  0
VERTEX
  5
213
  8
0
  6
CONTINUOUS
 62
     7
 10
-247.8425311197
 20
-888.9435823523
 30
0.0
  0
VERTEX
  5
214
  8
0
  6
CONTINUOUS
 62
     7
 10
-247.493605559
 20
-889.0865625437
 30
0.0
  0
VERTEX
  5
215
  8
0
  6
CONTINUOUS
 62
     7
 10
-247.1092001227
 20
-889.3241988653
 30
0.0
  0
VERTEX
  5
216
  8
0
  6
CONTINUOUS
 62
     7
 10
-246.7041767648
 20
-889.6564913174
 30
0.0
  0
SEQEND
  5
20D
  8
0
  6
CONTINUOUS
 62
     7
  0
ARC
  5
74
  8
0
  6
CONTINUOUS
 62
     7
 10
-250.0432013244
 20
-896.4846766853
 30
0.0
 40
7.600868399687306
 50
63.9410829549
 51
78.3039463556
  0
ARC
  5
75
  8
0
  6
CONTINUOUS
 62
     7
 10
540.6348477934
 20
1084.6995580945
 30
0.0
 40
7.600868398037678
 50
243.9410829616
 51
258.3039463686
  0
ARC
  5
76
  8
0
  6
CONTINUOUS
 62
     7
 10
540.6348477997
 20
-896.4846767051
 30
0.0
 40
7.600868419586333
 50
101.6960536454
 51
116.058917012
  0
ARC
  5
77
  8
0
  6
CONTINUOUS
 62
     7
 10
-250.043201332
 20
1084.6995581229
 30
0.0
 40
7.600868427551783
 50
281.6960536554
 51
296.058917006
  0
POLYLINE
  5
78
  8
0
  6
CONTINUOUS
 62
     7
 66
     1
 10
0.0
 20
0.0
 30
0.0
  0
VERTEX
  5
218
  8
0
  6
CONTINUOUS
 62
     7
 10
-246.7041767648
 20
1077.8713727276
 30
0.0
  0
VERTEX
  5
219
  8
0
  6
CONTINUOUS
 62
     7
 10
-247.1092001231
 20
1077.5390802758
 30
0.0
  0
VERTEX
  5
21A
  8
0
  6
CONTINUOUS
 62
     7
 10
-247.4936055595
 20
1077.3014439542
 30
0.0
  0
VERTEX
  5
21B
  8
0
  6
CONTINUOUS
 62
     7
 10
-247.8425311202
 20
1077.1584637628
 30
0.0
  0
VERTEX
  5
21C
  8
0
  6
CONTINUOUS
 62
     7
 10
-248.1432924829
 20
1077.1101397016
 30
0.0
  0
VERTEX
  5
21D
  8
0
  6
CONTINUOUS
 62
     7
 10
-248.3766221049
 20
1077.1543285635
 30
0.0
  0
VERTEX
  5
21E
  8
0
  6
CONTINUOUS
 62
     7
 10
-248.5482468997
 20
1077.2938039497
 30
0.0
  0
VERTEX
  5
21F
  8
0
  6
CONTINUOUS
 62
     7
 10
-248.6627002125
 20
1077.532818671
 30
0.0
  0
VERTEX
  5
220
  8
0
  6
CONTINUOUS
 62
     7
 10
-248.7041770392
 20
1077.8713727276
 30
0.0
  0
SEQEND
  5
217
  8
0
  6
CONTINUOUS
 62
     7
  0
POLYLINE
  5
79
  8
0
  6
CONTINUOUS
 62
     7
 66
     1
 10
0.0
 20
0.0
 30
0.0
  0
VERTEX
  5
222
  8
0
  6
CONTINUOUS
 62
     7
 10
539.2958235096
 20
1077.8713727276
 30
0.0
  0
VERTEX
  5
223
  8
0
  6
CONTINUOUS
 62
     7
 10
539.2543466829
 20
1077.5328186708
 30
0.0
  0
VERTEX
  5
224
  8
0
  6
CONTINUOUS
 62
     7
 10
539.1398933699
 20
1077.2938039493
 30
0.0
  0
VERTEX
  5
225
  8
0
  6
CONTINUOUS
 62
     7
 10
538.9682685753
 20
1077.1543285634
 30
0.0
  0
VERTEX
  5
226
  8
0
  6
CONTINUOUS
 62
     7
 10
538.7349389531
 20
1077.1101397017
 30
0.0
  0
VERTEX
  5
227
  8
0
  6
CONTINUOUS
 62
     7
 10
538.4341775898
 20
1077.158463763
 30
0.0
  0
VERTEX
  5
228
  8
0
  6
CONTINUOUS
 62
     7
 10
538.085252029
 20
1077.3014439544
 30
0.0
  0
VERTEX
  5
229
  8
0
  6
CONTINUOUS
 62
     7
 10
537.7008465929
 20
1077.539080276
 30
0.0
  0
VERTEX
  5
22A
  8
0
  6
CONTINUOUS
 62
     7
 10
537.2958232352
 20
1077.8713727276
 30
0.0
  0
SEQEND
  5
221
  8
0
  6
CONTINUOUS
 62
     7
  0
POLYLINE
  5
7A
  8
0
  6
CONTINUOUS
 62
     7
 66
     1
 10
0.0
 20
0.0
 30
0.0
  0
VERTEX
  5
22C
  8
0
  6
CONTINUOUS
 62
     7
 10
537.2958232352
 20
-889.6564913174
 30
0.0
  0
VERTEX
  5
22D
  8
0
  6
CONTINUOUS
 62
     7
 10
537.7008465933
 20
-889.3241988657
 30
0.0
  0
VERTEX
  5
22E
  8
0
  6
CONTINUOUS
 62
     7
 10
538.0852520296
 20
-889.0865625441
 30
0.0
  0
VERTEX
  5
22F
  8
0
  6
CONTINUOUS
 62
     7
 10
538.4341775903
 20
-888.9435823527
 30
0.0
  0
VERTEX
  5
230
  8
0
  6
CONTINUOUS
 62
     7
 10
538.7349389533
 20
-888.8952582914
 30
0.0
  0
VERTEX
  5
231
  8
0
  6
CONTINUOUS
 62
     7
 10
538.9682685753
 20
-888.9394471531
 30
0.0
  0
VERTEX
  5
232
  8
0
  6
CONTINUOUS
 62
     7
 10
539.13989337
 20
-889.0789225392
 30
0.0
  0
VERTEX
  5
233
  8
0
  6
CONTINUOUS
 62
     7
 10
539.2543466829
 20
-889.3179372606
 30
0.0
  0
VERTEX
  5
234
  8
0
  6
CONTINUOUS
 62
     7
 10
539.2958235096
 20
-889.6564913174
 30
0.0
  0
SEQEND
  5
22B
  8
0
  6
CONTINUOUS
 62
     7
  0
POLYLINE
  5
7B
  8
0
  6
CONTINUOUS
 62
     7
 66
     1
 10
0.0
 20
0.0
 30
0.0
  0
VERTEX
  5
236
  8
0
  6
CONTINUOUS
 62
     7
 10
537.0597552577
 20
-891.8925599837
 30
0.0
  0
VERTEX
  5
237
  8
0
  6
CONTINUOUS
 62
     7
 10
536.7274628091
 20
-891.8511196758
 30
0.0
  0
VERTEX
  5
238
  8
0
  6
CONTINUOUS
 62
     7
 10
536.4898264887
 20
-891.7301677067
 30
0.0
  0
VERTEX
  5
239
  8
0
  6
CONTINUOUS
 62
     7
 10
536.3468462963
 20
-891.5369897693
 30
0.0
  0
VERTEX
  5
23A
  8
0
  6
CONTINUOUS
 62
     7
 10
536.2985222321
 20
-891.2814249693
 30
0.0
  0
VERTEX
  5
23B
  8
0
  6
CONTINUOUS
 62
     7
 10
536.342711346
 20
-890.9893385527
 30
0.0
  0
VERTEX
  5
23C
  8
0
  6
CONTINUOUS
 62
     7
 10
536.4821870439
 20
-890.6667690293
 30
0.0
  0
VERTEX
  5
23D
  8
0
  6
CONTINUOUS
 62
     7
 10
536.7212016811
 20
-890.2977558493
 30
0.0
  0
VERTEX
  5
23E
  8
0
  6
CONTINUOUS
 62
     7
 10
537.0597552577
 20
-889.8925592949
 30
0.0
  0
SEQEND
  5
235
  8
0
  6
CONTINUOUS
 62
     7
  0
ARC
  5
7C
  8
0
  6
CONTINUOUS
 62
     7
 10
543.9830993637
 20
-893.3347459201
 30
0.0
 40
7.731839520607474
 50
153.5640990301
 51
167.466104261
  0
POLYLINE
  5
7D
  8
0
  6
CONTINUOUS
 62
     7
 66
     1
 10
0.0
 20
0.0
 30
0.0
  0
VERTEX
  5
240
  8
0
  6
CONTINUOUS
 62
     7
 10
-246.4681087873
 20
-889.8925592949
 30
0.0
  0
VERTEX
  5
241
  8
0
  6
CONTINUOUS
 62
     7
 10
-246.1295552106
 20
-890.2977558493
 30
0.0
  0
VERTEX
  5
242
  8
0
  6
CONTINUOUS
 62
     7
 10
-245.8905405734
 20
-890.6667690293
 30
0.0
  0
VERTEX
  5
243
  8
0
  6
CONTINUOUS
 62
     7
 10
-245.7510648755
 20
-890.9893385528
 30
0.0
  0
VERTEX
  5
244
  8
0
  6
CONTINUOUS
 62
     7
 10
-245.7068757616
 20
-891.2814249694
 30
0.0
  0
VERTEX
  5
245
  8
0
  6
CONTINUOUS
 62
     7
 10
-245.7551998258
 20
-891.5369897694
 30
0.0
  0
VERTEX
  5
246
  8
0
  6
CONTINUOUS
 62
     7
 10
-245.8981800182
 20
-891.7301677067
 30
0.0
  0
VERTEX
  5
247
  8
0
  6
CONTINUOUS
 62
     7
 10
-246.1358163387
 20
-891.8511196758
 30
0.0
  0
VERTEX
  5
248
  8
0
  6
CONTINUOUS
 62
     7
 10
-246.4681087873
 20
-891.8925599837
 30
0.0
  0
SEQEND
  5
23F
  8
0
  6
CONTINUOUS
 62
     7
  0
ARC
  5
7E
  8
0
  6
CONTINUOUS
 62
     7
 10
-253.3914528931
 20
-893.33474592
 30
0.0
 40
7.731839520444217
 50
12.5338957386
 51
26.4359009703
  0
POLYLINE
  5
7F
  8
0
  6
CONTINUOUS
 62
     7
 66
     1
 10
0.0
 20
0.0
 30
0.0
  0
VERTEX
  5
24A
  8
0
  6
CONTINUOUS
 62
     7
 10
-246.4681087873
 20
1080.1074413939
 30
0.0
  0
VERTEX
  5
24B
  8
0
  6
CONTINUOUS
 62
     7
 10
-246.1358163385
 20
1080.066001086
 30
0.0
  0
VERTEX
  5
24C
  8
0
  6
CONTINUOUS
 62
     7
 10
-245.898180018
 20
1079.9450491169
 30
0.0
  0
VERTEX
  5
24D
  8
0
  6
CONTINUOUS
 62
     7
 10
-245.7551998256
 20
1079.7518711795
 30
0.0
  0
VERTEX
  5
24E
  8
0
  6
CONTINUOUS
 62
     7
 10
-245.7068757615
 20
1079.4963063795
 30
0.0
  0
VERTEX
  5
24F
  8
0
  6
CONTINUOUS
 62
     7
 10
-245.7510646191
 20
1079.2042215421
 30
0.0
  0
VERTEX
  5
250
  8
0
  6
CONTINUOUS
 62
     7
 10
-245.8905400035
 20
1078.8816543087
 30
0.0
  0
VERTEX
  5
251
  8
0
  6
CONTINUOUS
 62
     7
 10
-246.1295547262
 20
1078.5126407524
 30
0.0
  0
VERTEX
  5
252
  8
0
  6
CONTINUOUS
 62
     7
 10
-246.4681087873
 20
1078.1074407051
 30
0.0
  0
SEQEND
  5
249
  8
0
  6
CONTINUOUS
 62
     7
  0
ARC
  5
80
  8
0
  6
CONTINUOUS
 62
     7
 10
-248.7041767648
 20
-891.8925592949
 30
0.0
 40
2.999999999999966
 50
41.8103148958
 51
48.1896851042
  0
ARC
  5
81
  8
0
  6
CONTINUOUS
 62
     7
 10
-248.7041767648
 20
1080.1074407051
 30
0.0
 40
2.99999999999999
 50
311.8103148958
 51
318.1896851042
  0
ARC
  5
82
  8
0
  6
CONTINUOUS
 62
     7
 10
539.2958232352
 20
1080.1074407051
 30
0.0
 40
2.999999999999944
 50
221.8103148958
 51
228.1896851042
  0
ARC
  5
83
  8
0
  6
CONTINUOUS
 62
     7
 10
539.2958232352
 20
-891.8925592949
 30
0.0
 40
2.999999999999962
 50
131.8103148958
 51
138.1896851042
  0
CIRCLE
  5
84
  8
0
  6
CONTINUOUS
 62
     7
 10
441.2958232352
 20
-793.8925592949
 30
0.0
 40
3.500000000000051
  0
CIRCLE
  5
85
  8
0
  6
CONTINUOUS
 62
     7
 10
441.2958232352
 20
-793.8925592949
 30
0.0
 40
3.999999999999928
  0
CIRCLE
  5
86
  8
0
  6
CONTINUOUS
 62
     7
 10
441.2958232352
 20
-793.8925592949
 30
0.0
 40
4.99999999999991
  0
LINE
  5
87
  8
0
  6
HIDDEN
 62
     7
 10
-239.4541767648
 20
-893.8925592949
 30
0.0
 11
-239.4541767648
 21
-891.8925592948
 31
0.0
  0
LINE
  5
88
  8
0
  6
HIDDEN
 62
     7
 10
-239.4541767648
 20
1082.1074407051
 30
0.0
 11
-239.4541767648
 21
1080.1074407051
 31
0.0
  0
LINE
  5
89
  8
0
  6
HIDDEN
 62
     7
 10
530.0458232352
 20
1082.1074407051
 30
0.0
 11
530.0458232352
 21
1080.1074407051
 31
0.0
  0
LINE
  5
8A
  8
0
  6
HIDDEN
 62
     7
 10
537.1745028917
 20
1082.1074407051
 30
0.0
 11
537.1745028917
 21
1080.1074407051
 31
0.0
  0
LINE
  5
8B
  8
0
  6
HIDDEN
 62
     7
 10
-246.5828564212
 20
1080.1074407051
 30
0.0
 11
-246.5828564212
 21
1082.1074407051
 31
0.0
  0
LINE
  5
8C
  8
0
  6
HIDDEN
 62
     7
 10
-239.4541767648
 20
1082.1074407051
 30
0.0
 11
-239.4541767648
 21
1080.1074407051
 31
0.0
  0
LINE
  5
8D
  8
0
  6
HIDDEN
 62
     7
 10
530.0458232352
 20
1082.1074407051
 30
0.0
 11
530.0458232352
 21
1080.1074407051
 31
0.0
  0
LINE
  5
8E
  8
0
  6
HIDDEN
 62
     7
 10
-239.4541767648
 20
-893.8925592949
 30
0.0
 11
-239.4541767648
 21
-891.8925592948
 31
0.0
  0
LINE
  5
8F
  8
0
  6
HIDDEN
 62
     7
 10
-246.5828564212
 20
-893.8925592949
 30
0.0
 11
-246.5828564212
 21
-891.8925592949
 31
0.0
  0
LINE
  5
90
  8
0
  6
HIDDEN
 62
     7
 10
530.0458232352
 20
-893.8925592949
 30
0.0
 11
530.0458232352
 21
-891.8925592948
 31
0.0
  0
LINE
  5
91
  8
0
  6
HIDDEN
 62
     7
 10
537.1745028917
 20
-891.8925592948
 30
0.0
 11
537.1745028917
 21
-893.8925592949
 31
0.0
  0
LINE
  5
92
  8
0
  6
HIDDEN
 62
     7
 10
530.0458232352
 20
-893.8925592949
 30
0.0
 11
530.0458232352
 21
-891.8925592948
 31
0.0
  0
LINE
  5
93
  8
0
  6
HIDDEN
 62
     7
 10
-250.7041767648
 20
-889.8925592949
 30
0.0
 11
-248.7041774536
 21
-889.8925592949
 31
0.0
  0
LINE
  5
94
  8
0
  6
HIDDEN
 62
     7
 10
-246.7041767648
 20
-893.8925592949
 30
0.0
 11
-246.7041767648
 21
-891.8925599837
 31
0.0
  0
LINE
  5
95
  8
0
  6
HIDDEN
 62
     7
 10
-246.5828564212
 20
-893.8925592949
 30
0.0
 11
-246.5828564212
 21
-891.8925592949
 31
0.0
  0
LINE
  5
96
  8
0
  6
HIDDEN
 62
     7
 10
539.2958232352
 20
1078.1074407051
 30
0.0
 11
541.2958232352
 21
1078.1074407051
 31
0.0
  0
LINE
  5
97
  8
0
  6
HIDDEN
 62
     7
 10
-246.7041767648
 20
1082.1074407051
 30
0.0
 11
-246.7041767648
 21
1080.1074407051
 31
0.0
  0
LINE
  5
98
  8
0
  6
HIDDEN
 62
     7
 10
-246.5828564212
 20
1080.1074407051
 30
0.0
 11
-246.5828564212
 21
1082.1074407051
 31
0.0
  0
LINE
  5
99
  8
0
  6
HIDDEN
 62
     7
 10
537.2958232352
 20
1080.1074413939
 30
0.0
 11
537.2958232352
 21
1082.1074407051
 31
0.0
  0
LINE
  5
9A
  8
0
  6
HIDDEN
 62
     7
 10
537.1745028917
 20
1082.1074407051
 30
0.0
 11
537.1745028917
 21
1080.1074407051
 31
0.0
  0
LINE
  5
9B
  8
0
  6
HIDDEN
 62
     7
 10
-250.7041767648
 20
1078.1074407051
 30
0.0
 11
-248.7041767648
 21
1078.1074407051
 31
0.0
  0
LINE
  5
9C
  8
0
  6
HIDDEN
 62
     7
 10
539.295823924
 20
-889.8925592949
 30
0.0
 11
541.2958232352
 21
-889.8925592949
 31
0.0
  0
LINE
  5
9D
  8
0
  6
HIDDEN
 62
     7
 10
537.2958232352
 20
-891.8925592949
 30
0.0
 11
537.2958232352
 21
-893.8925592949
 31
0.0
  0
LINE
  5
9E
  8
0
  6
HIDDEN
 62
     7
 10
537.1745028917
 20
-891.8925592949
 30
0.0
 11
537.1745028917
 21
-893.8925592949
 31
0.0
  0
POLYLINE
  5
9F
  8
0
  6
HIDDEN
 62
     7
 66
     1
 10
0.0
 20
0.0
 30
0.0
  0
VERTEX
  5
254
  8
0
  6
HIDDEN
 62
     7
 10
536.4355273271
 20
1079.8716865075
 30
0.0
  0
VERTEX
  5
255
  8
0
  6
HIDDEN
 62
     7
 10
536.3427110895
 20
1080.3010020017
 30
0.0
  0
VERTEX
  5
256
  8
0
  6
HIDDEN
 62
     7
 10
536.298522232
 20
1080.8851715758
 30
0.0
  0
VERTEX
  5
257
  8
0
  6
HIDDEN
 62
     7
 10
536.3468462962
 20
1081.3963010878
 30
0.0
  0
VERTEX
  5
258
  8
0
  6
HIDDEN
 62
     7
 10
536.4898264886
 20
1081.782656896
 30
0.0
  0
VERTEX
  5
259
  8
0
  6
HIDDEN
 62
     7
 10
536.7274628091
 20
1082.0245607925
 30
0.0
  0
VERTEX
  5
25A
  8
0
  6
HIDDEN
 62
     7
 10
537.0597552577
 20
1082.1074413939
 30
0.0
  0
SEQEND
  5
253
  8
0
  6
HIDDEN
 62
     7
  0
POLYLINE
  5
A0
  8
0
  6
HIDDEN
 62
     7
 66
     1
 10
0.0
 20
0.0
 30
0.0
  0
VERTEX
  5
25C
  8
0
  6
HIDDEN
 62
     7
 10
537.0597552577
 20
1078.1074407051
 30
0.0
  0
VERTEX
  5
25D
  8
0
  6
HIDDEN
 62
     7
 10
537.0597552577
 20
1078.1074407051
 30
0.0
  0
SEQEND
  5
25B
  8
0
  6
HIDDEN
 62
     7
  0
LINE
  5
A1
  8
0
  6
HIDDEN
 62
     7
 10
537.0597552577
 20
1082.1074407051
 30
0.0
 11
537.0597552577
 21
1080.1074407051
 31
0.0
  0
POLYLINE
  5
A2
  8
0
  6
HIDDEN
 62
     7
 66
     1
 10
0.0
 20
0.0
 30
0.0
  0
VERTEX
  5
25F
  8
0
  6
HIDDEN
 62
     7
 10
-246.4681087873
 20
1082.1074413939
 30
0.0
  0
VERTEX
  5
260
  8
0
  6
HIDDEN
 62
     7
 10
-246.1358163385
 20
1082.0245607924
 30
0.0
  0
VERTEX
  5
261
  8
0
  6
HIDDEN
 62
     7
 10
-245.898180018
 20
1081.7826568957
 30
0.0
  0
VERTEX
  5
262
  8
0
  6
HIDDEN
 62
     7
 10
-245.7551998256
 20
1081.3963010874
 30
0.0
  0
VERTEX
  5
263
  8
0
  6
HIDDEN
 62
     7
 10
-245.7068757615
 20
1080.8851715756
 30
0.0
  0
VERTEX
  5
264
  8
0
  6
HIDDEN
 62
     7
 10
-245.7510646191
 20
1080.3010020012
 30
0.0
  0
VERTEX
  5
265
  8
0
  6
HIDDEN
 62
     7
 10
-245.8438808566
 20
1079.8716865074
 30
0.0
  0
SEQEND
  5
25E
  8
0
  6
HIDDEN
 62
     7
  0
POLYLINE
  5
A3
  8
0
  6
HIDDEN
 62
     7
 66
     1
 10
0.0
 20
0.0
 30
0.0
  0
VERTEX
  5
267
  8
0
  6
HIDDEN
 62
     7
 10
-246.7041767648
 20
-889.6564913174
 30
0.0
  0
VERTEX
  5
268
  8
0
  6
HIDDEN
 62
     7
 10
-246.7041767648
 20
-889.6564913174
 30
0.0
  0
SEQEND
  5
266
  8
0
  6
HIDDEN
 62
     7
  0
POLYLINE
  5
A4
  8
0
  6
HIDDEN
 62
     7
 66
     1
 10
0.0
 20
0.0
 30
0.0
  0
VERTEX
  5
26A
  8
0
  6
HIDDEN
 62
     7
 10
-250.7041770392
 20
-889.6564913174
 30
0.0
  0
VERTEX
  5
26B
  8
0
  6
HIDDEN
 62
     7
 10
-250.6212233914
 20
-889.3179372608
 30
0.0
  0
VERTEX
  5
26C
  8
0
  6
HIDDEN
 62
     7
 10
-250.3923167815
 20
-889.0789225395
 30
0.0
  0
VERTEX
  5
26D
  8
0
  6
HIDDEN
 62
     7
 10
-250.0490672156
 20
-888.9394471533
 30
0.0
  0
VERTEX
  5
26E
  8
0
  6
HIDDEN
 62
     7
 10
-249.5824080033
 20
-888.8952582912
 30
0.0
  0
VERTEX
  5
26F
  8
0
  6
HIDDEN
 62
     7
 10
-248.9808853185
 20
-888.9435823523
 30
0.0
  0
VERTEX
  5
270
  8
0
  6
HIDDEN
 62
     7
 10
-248.5023544298
 20
-889.0416268214
 30
0.0
  0
SEQEND
  5
269
  8
0
  6
HIDDEN
 62
     7
  0
LINE
  5
A5
  8
0
  6
HIDDEN
 62
     7
 10
-250.7041767648
 20
-889.6564913174
 30
0.0
 11
-248.7041770392
 21
-889.6564913174
 31
0.0
  0
POLYLINE
  5
A6
  8
0
  6
HIDDEN
 62
     7
 66
     1
 10
0.0
 20
0.0
 30
0.0
  0
VERTEX
  5
272
  8
0
  6
HIDDEN
 62
     7
 10
541.2958235096
 20
1077.8713727276
 30
0.0
  0
VERTEX
  5
273
  8
0
  6
HIDDEN
 62
     7
 10
541.2128698618
 20
1077.5328186708
 30
0.0
  0
VERTEX
  5
274
  8
0
  6
HIDDEN
 62
     7
 10
540.9839632517
 20
1077.2938039493
 30
0.0
  0
VERTEX
  5
275
  8
0
  6
HIDDEN
 62
     7
 10
540.6407136859
 20
1077.1543285634
 30
0.0
  0
VERTEX
  5
276
  8
0
  6
HIDDEN
 62
     7
 10
540.1740544734
 20
1077.1101397017
 30
0.0
  0
VERTEX
  5
277
  8
0
  6
HIDDEN
 62
     7
 10
539.5725317882
 20
1077.158463763
 30
0.0
  0
VERTEX
  5
278
  8
0
  6
HIDDEN
 62
     7
 10
539.0940009008
 20
1077.2565082319
 30
0.0
  0
SEQEND
  5
271
  8
0
  6
HIDDEN
 62
     7
  0
POLYLINE
  5
A7
  8
0
  6
HIDDEN
 62
     7
 66
     1
 10
0.0
 20
0.0
 30
0.0
  0
VERTEX
  5
27A
  8
0
  6
HIDDEN
 62
     7
 10
539.0940009009
 20
-889.0416268218
 30
0.0
  0
VERTEX
  5
27B
  8
0
  6
HIDDEN
 62
     7
 10
539.5725317892
 20
-888.9435823527
 30
0.0
  0
VERTEX
  5
27C
  8
0
  6
HIDDEN
 62
     7
 10
540.1740544738
 20
-888.8952582914
 30
0.0
  0
VERTEX
  5
27D
  8
0
  6
HIDDEN
 62
     7
 10
540.640713686
 20
-888.9394471531
 30
0.0
  0
VERTEX
  5
27E
  8
0
  6
HIDDEN
 62
     7
 10
540.9839632517
 20
-889.0789225392
 30
0.0
  0
VERTEX
  5
27F
  8
0
  6
HIDDEN
 62
     7
 10
541.2128698618
 20
-889.3179372606
 30
0.0
  0
VERTEX
  5
280
  8
0
  6
HIDDEN
 62
     7
 10
541.2958235096
 20
-889.6564913174
 30
0.0
  0
SEQEND
  5
279
  8
0
  6
HIDDEN
 62
     7
  0
POLYLINE
  5
A8
  8
0
  6
HIDDEN
 62
     7
 66
     1
 10
0.0
 20
0.0
 30
0.0
  0
VERTEX
  5
282
  8
0
  6
HIDDEN
 62
     7
 10
-248.5023544303
 20
1077.256508232
 30
0.0
  0
VERTEX
  5
283
  8
0
  6
HIDDEN
 62
     7
 10
-248.9808853194
 20
1077.1584637628
 30
0.0
  0
VERTEX
  5
284
  8
0
  6
HIDDEN
 62
     7
 10
-249.5824080036
 20
1077.1101397016
 30
0.0
  0
VERTEX
  5
285
  8
0
  6
HIDDEN
 62
     7
 10
-250.0490672157
 20
1077.1543285635
 30
0.0
  0
VERTEX
  5
286
  8
0
  6
HIDDEN
 62
     7
 10
-250.3923167816
 20
1077.2938039497
 30
0.0
  0
VERTEX
  5
287
  8
0
  6
HIDDEN
 62
     7
 10
-250.6212233915
 20
1077.532818671
 30
0.0
  0
VERTEX
  5
288
  8
0
  6
HIDDEN
 62
     7
 10
-250.7041770392
 20
1077.8713727276
 30
0.0
  0
SEQEND
  5
281
  8
0
  6
HIDDEN
 62
     7
  0
POLYLINE
  5
A9
  8
0
  6
HIDDEN
 62
     7
 66
     1
 10
0.0
 20
0.0
 30
0.0
  0
VERTEX
  5
28A
  8
0
  6
HIDDEN
 62
     7
 10
-246.7041767648
 20
1077.8713727276
 30
0.0
  0
VERTEX
  5
28B
  8
0
  6
HIDDEN
 62
     7
 10
-246.7041767648
 20
1077.8713727276
 30
0.0
  0
SEQEND
  5
289
  8
0
  6
HIDDEN
 62
     7
  0
LINE
  5
AA
  8
0
  6
HIDDEN
 62
     7
 10
-248.7041767648
 20
1077.8713727276
 30
0.0
 11
-250.7041767648
 21
1077.8713727276
 31
0.0
  0
POLYLINE
  5
AB
  8
0
  6
HIDDEN
 62
     7
 66
     1
 10
0.0
 20
0.0
 30
0.0
  0
VERTEX
  5
28D
  8
0
  6
HIDDEN
 62
     7
 10
537.2958232352
 20
1077.8713727276
 30
0.0
  0
VERTEX
  5
28E
  8
0
  6
HIDDEN
 62
     7
 10
537.2958232352
 20
1077.8713727276
 30
0.0
  0
SEQEND
  5
28C
  8
0
  6
HIDDEN
 62
     7
  0
LINE
  5
AC
  8
0
  6
HIDDEN
 62
     7
 10
539.2958235096
 20
1077.8713727276
 30
0.0
 11
541.2958232352
 21
1077.8713727276
 31
0.0
  0
POLYLINE
  5
AD
  8
0
  6
HIDDEN
 62
     7
 66
     1
 10
0.0
 20
0.0
 30
0.0
  0
VERTEX
  5
290
  8
0
  6
HIDDEN
 62
     7
 10
537.2958232352
 20
-889.6564913174
 30
0.0
  0
VERTEX
  5
291
  8
0
  6
HIDDEN
 62
     7
 10
537.2958232352
 20
-889.6564913174
 30
0.0
  0
SEQEND
  5
28F
  8
0
  6
HIDDEN
 62
     7
  0
LINE
  5
AE
  8
0
  6
HIDDEN
 62
     7
 10
541.2958232352
 20
-889.6564913174
 30
0.0
 11
539.2958232352
 21
-889.6564913174
 31
0.0
  0
POLYLINE
  5
AF
  8
0
  6
HIDDEN
 62
     7
 66
     1
 10
0.0
 20
0.0
 30
0.0
  0
VERTEX
  5
293
  8
0
  6
HIDDEN
 62
     7
 10
537.0597552577
 20
-889.8925592949
 30
0.0
  0
VERTEX
  5
294
  8
0
  6
HIDDEN
 62
     7
 10
537.0597552577
 20
-889.8925592949
 30
0.0
  0
SEQEND
  5
292
  8
0
  6
HIDDEN
 62
     7
  0
POLYLINE
  5
B0
  8
0
  6
HIDDEN
 62
     7
 66
     1
 10
0.0
 20
0.0
 30
0.0
  0
VERTEX
  5
296
  8
0
  6
HIDDEN
 62
     7
 10
537.0597552577
 20
-893.8925599837
 30
0.0
  0
VERTEX
  5
297
  8
0
  6
HIDDEN
 62
     7
 10
536.7274628091
 20
-893.8096793822
 30
0.0
  0
VERTEX
  5
298
  8
0
  6
HIDDEN
 62
     7
 10
536.4898264887
 20
-893.5677754856
 30
0.0
  0
VERTEX
  5
299
  8
0
  6
HIDDEN
 62
     7
 10
536.3468462963
 20
-893.1814196774
 30
0.0
  0
VERTEX
  5
29A
  8
0
  6
HIDDEN
 62
     7
 10
536.2985222321
 20
-892.6702901655
 30
0.0
  0
VERTEX
  5
29B
  8
0
  6
HIDDEN
 62
     7
 10
536.342711346
 20
-892.0861174329
 30
0.0
  0
VERTEX
  5
29C
  8
0
  6
HIDDEN
 62
     7
 10
536.4355266486
 20
-891.6568041803
 30
0.0
  0
SEQEND
  5
295
  8
0
  6
HIDDEN
 62
     7
  0
LINE
  5
B1
  8
0
  6
HIDDEN
 62
     7
 10
537.0597552577
 20
-893.8925592949
 30
0.0
 11
537.0597552577
 21
-891.8925599837
 31
0.0
  0
POLYLINE
  5
B2
  8
0
  6
HIDDEN
 62
     7
 66
     1
 10
0.0
 20
0.0
 30
0.0
  0
VERTEX
  5
29E
  8
0
  6
HIDDEN
 62
     7
 10
-246.4681087873
 20
-889.8925592949
 30
0.0
  0
VERTEX
  5
29F
  8
0
  6
HIDDEN
 62
     7
 10
-246.4681087873
 20
-889.8925592949
 30
0.0
  0
SEQEND
  5
29D
  8
0
  6
HIDDEN
 62
     7
  0
POLYLINE
  5
B3
  8
0
  6
HIDDEN
 62
     7
 66
     1
 10
0.0
 20
0.0
 30
0.0
  0
VERTEX
  5
2A1
  8
0
  6
HIDDEN
 62
     7
 10
-245.8438801781
 20
-891.6568041804
 30
0.0
  0
VERTEX
  5
2A2
  8
0
  6
HIDDEN
 62
     7
 10
-245.7510648755
 20
-892.0861174329
 30
0.0
  0
VERTEX
  5
2A3
  8
0
  6
HIDDEN
 62
     7
 10
-245.7068757616
 20
-892.6702901656
 30
0.0
  0
VERTEX
  5
2A4
  8
0
  6
HIDDEN
 62
     7
 10
-245.7551998258
 20
-893.1814196776
 30
0.0
  0
VERTEX
  5
2A5
  8
0
  6
HIDDEN
 62
     7
 10
-245.8981800182
 20
-893.5677754858
 30
0.0
  0
VERTEX
  5
2A6
  8
0
  6
HIDDEN
 62
     7
 10
-246.1358163387
 20
-893.8096793822
 30
0.0
  0
VERTEX
  5
2A7
  8
0
  6
HIDDEN
 62
     7
 10
-246.4681087873
 20
-893.8925599837
 30
0.0
  0
SEQEND
  5
2A0
  8
0
  6
HIDDEN
 62
     7
  0
LINE
  5
B4
  8
0
  6
HIDDEN
 62
     7
 10
-246.4681087873
 20
-891.8925592949
 30
0.0
 11
-246.4681087873
 21
-893.8925592949
 31
0.0
  0
POLYLINE
  5
B5
  8
0
  6
HIDDEN
 62
     7
 66
     1
 10
0.0
 20
0.0
 30
0.0
  0
VERTEX
  5
2A9
  8
0
  6
HIDDEN
 62
     7
 10
-246.4681087873
 20
1078.1074407051
 30
0.0
  0
VERTEX
  5
2AA
  8
0
  6
HIDDEN
 62
     7
 10
-246.4681087873
 20
1078.1074407051
 30
0.0
  0
SEQEND
  5
2A8
  8
0
  6
HIDDEN
 62
     7
  0
LINE
  5
B6
  8
0
  6
HIDDEN
 62
     7
 10
-246.4681087873
 20
1080.1074413939
 30
0.0
 11
-246.4681087873
 21
1082.1074407051
 31
0.0
  0
LINE
  5
B7
  8
0
  6
HIDDEN
 62
     7
 10
536.2985169919
 20
1080.8792114352
 30
0.0
 11
536.2985169919
 21
1079.4933265005
 31
0.0
  0
LINE
  5
B8
  8
0
  6
HIDDEN
 62
     7
 10
-248.1461620431
 20
-888.8952530512
 30
0.0
 11
-249.5881479605
 21
-888.8952530512
 31
0.0
  0
LINE
  5
B9
  8
0
  6
HIDDEN
 62
     7
 10
-249.5881479618
 20
1077.1101344616
 30
0.0
 11
-248.1461620438
 21
1077.1101344616
 31
0.0
  0
LINE
  5
BA
  8
0
  6
HIDDEN
 62
     7
 10
538.7378085144
 20
1077.1101344617
 30
0.0
 11
540.1797944325
 21
1077.1101344617
 31
0.0
  0
LINE
  5
BB
  8
0
  6
HIDDEN
 62
     7
 10
540.1797944328
 20
-888.8952530514
 30
0.0
 11
538.7378085145
 21
-888.8952530514
 31
0.0
  0
LINE
  5
BC
  8
0
  6
HIDDEN
 62
     7
 10
536.298516992
 20
-891.27844509
 30
0.0
 11
536.298516992
 21
-892.6643300244
 31
0.0
  0
LINE
  5
BD
  8
0
  6
HIDDEN
 62
     7
 10
536.298516992
 20
-892.6643297163
 30
0.0
 11
536.298516992
 21
-891.2784447677
 31
0.0
  0
LINE
  5
BE
  8
0
  6
HIDDEN
 62
     7
 10
-245.7068705215
 20
-892.6643300246
 30
0.0
 11
-245.7068705215
 21
-891.2784450901
 31
0.0
  0
LINE
  5
BF
  8
0
  6
HIDDEN
 62
     7
 10
-245.7068705214
 20
1079.4933265006
 30
0.0
 11
-245.7068705214
 21
1080.8792114354
 31
0.0
  0
LINE
  5
C0
  8
0
  6
HIDDEN
 62
     7
 10
-245.7068705214
 20
1080.8792111273
 30
0.0
 11
-245.7068705214
 21
1079.4933261784
 31
0.0
  0
LINE
  5
C1
  8
0
  6
CONTINUOUS
 62
     7
 10
437.2958232352
 20
-1048.3325597833
 30
0.0
 11
437.2958232352
 21
-1049.3325597833
 31
0.0
  0
LINE
  5
C2
  8
0
  6
CONTINUOUS
 62
     7
 10
445.2958232352
 20
-1049.3325597833
 30
0.0
 11
445.2958232352
 21
-1048.3325597833
 31
0.0
  0
LINE
  5
C3
  8
0
  6
CONTINUOUS
 62
     7
 10
437.2958232352
 20
-1049.3325597833
 30
0.0
 11
437.7958232352
 21
-1049.8325597833
 31
0.0
  0
LINE
  5
C4
  8
0
  6
CONTINUOUS
 62
     7
 10
444.7958232352
 20
-1049.8325597833
 30
0.0
 11
445.2958232352
 21
-1049.3325597833
 31
0.0
  0
LINE
  5
C5
  8
0
  6
CONTINUOUS
 62
     7
 10
520.7958232352
 20
-1048.3325597833
 30
0.0
 11
520.7958232352
 21
-1039.0825597833
 31
0.0
  0
LINE
  5
C6
  8
0
  6
CONTINUOUS
 62
     7
 10
520.7958232352
 20
-1039.0825597833
 30
0.0
 11
530.0458232352
 21
-1039.0825597833
 31
0.0
  0
LINE
  5
C7
  8
0
  6
CONTINUOUS
 62
     7
 10
530.0458232352
 20
-1039.0825597833
 30
0.0
 11
537.1745028917
 21
-1031.9538801268
 31
0.0
  0
ARC
  5
C8
  8
0
  6
CONTINUOUS
 62
     7
 10
539.2958232352
 20
-1029.8325597833
 30
0.0
 40
3.000000000000105
 50
225.0
 51
228.1896851042
  0
LINE
  5
C9
  8
0
  6
CONTINUOUS
 62
     7
 10
537.2958232352
 20
-1048.3325597833
 30
0.0
 11
520.7958232352
 21
-1048.3325597833
 31
0.0
  0
POLYLINE
  5
CA
  8
0
  6
CONTINUOUS
 62
     7
 66
     1
 10
0.0
 20
0.0
 30
0.0
  0
VERTEX
  5
2AC
  8
0
  6
CONTINUOUS
 62
     7
 10
537.2958232352
 20
-1032.0686277608
 30
0.0
  0
VERTEX
  5
2AD
  8
0
  6
CONTINUOUS
 62
     7
 10
538.1062231911
 20
-1032.4071818219
 30
0.0
  0
VERTEX
  5
2AE
  8
0
  6
CONTINUOUS
 62
     7
 10
538.8442501766
 20
-1032.6461965447
 30
0.0
  0
VERTEX
  5
2AF
  8
0
  6
CONTINUOUS
 62
     7
 10
539.4893845318
 20
-1032.785671929
 30
0.0
  0
VERTEX
  5
2B0
  8
0
  6
CONTINUOUS
 62
     7
 10
540.0735541062
 20
-1032.8298607865
 30
0.0
  0
VERTEX
  5
2B1
  8
0
  6
CONTINUOUS
 62
     7
 10
540.5846836183
 20
-1032.7815367223
 30
0.0
  0
VERTEX
  5
2B2
  8
0
  6
CONTINUOUS
 62
     7
 10
540.9710394263
 20
-1032.63855653
 30
0.0
  0
VERTEX
  5
2B3
  8
0
  6
CONTINUOUS
 62
     7
 10
541.2129433227
 20
-1032.4009202095
 30
0.0
  0
VERTEX
  5
2B4
  8
0
  6
CONTINUOUS
 62
     7
 10
541.295823924
 20
-1032.0686277608
 30
0.0
  0
SEQEND
  5
2AB
  8
0
  6
CONTINUOUS
 62
     7
  0
LINE
  5
CB
  8
0
  6
CONTINUOUS
 62
     7
 10
541.2958232352
 20
-1048.3325597833
 30
0.0
 11
541.2958232352
 21
-1032.0686277608
 31
0.0
  0
LINE
  5
CC
  8
0
  6
CONTINUOUS
 62
     7
 10
541.295823924
 20
-1048.3325597833
 30
0.0
 11
537.2958232352
 21
-1048.3325597833
 31
0.0
  0
LINE
  5
CD
  8
0
  6
CONTINUOUS
 62
     7
 10
537.1745028917
 20
-1031.9538801268
 30
0.0
 11
530.0458232352
 21
-1039.0825597833
 31
0.0
  0
LINE
  5
CE
  8
0
  6
CONTINUOUS
 62
     7
 10
530.0458232352
 20
-1039.0825597833
 30
0.0
 11
520.7958232352
 21
-1039.0825597833
 31
0.0
  0
LINE
  5
CF
  8
0
  6
CONTINUOUS
 62
     7
 10
520.7958232352
 20
-1039.0825597833
 30
0.0
 11
520.7958232352
 21
-1048.3325597833
 31
0.0
  0
LINE
  5
D0
  8
0
  6
CONTINUOUS
 62
     7
 10
520.7958232352
 20
-1048.3325597833
 30
0.0
 11
-230.2041767648
 21
-1048.3325597833
 31
0.0
  0
LINE
  5
D1
  8
0
  6
CONTINUOUS
 62
     7
 10
-230.2041767648
 20
-1039.0825597833
 30
0.0
 11
-230.2041767648
 21
-1048.3325597833
 31
0.0
  0
LINE
  5
D2
  8
0
  6
CONTINUOUS
 62
     7
 10
-239.4541767648
 20
-1039.0825597833
 30
0.0
 11
-230.2041767648
 21
-1039.0825597833
 31
0.0
  0
LINE
  5
D3
  8
0
  6
CONTINUOUS
 62
     7
 10
-246.5828564212
 20
-1031.9538801268
 30
0.0
 11
-239.4541767648
 21
-1039.0825597833
 31
0.0
  0
ARC
  5
D4
  8
0
  6
CONTINUOUS
 62
     7
 10
-248.7041767648
 20
-1029.8325597833
 30
0.0
 40
3.00000000000005
 50
315.0
 51
318.1896851042
  0
ARC
  5
D5
  8
0
  6
CONTINUOUS
 62
     7
 10
539.2958232352
 20
-1029.8325597833
 30
0.0
 40
3.000000000000105
 50
221.8103148958
 51
225.0
  0
POLYLINE
  5
D6
  8
0
  6
CONTINUOUS
 62
     7
 66
     1
 10
0.0
 20
0.0
 30
0.0
  0
VERTEX
  5
2B6
  8
0
  6
CONTINUOUS
 62
     7
 10
-246.4681087873
 20
-1031.8325597833
 30
0.0
  0
VERTEX
  5
2B7
  8
0
  6
CONTINUOUS
 62
     7
 10
-246.1358163385
 20
-1031.0225130362
 30
0.0
  0
VERTEX
  5
2B8
  8
0
  6
CONTINUOUS
 62
     7
 10
-245.898180018
 20
-1030.2537021383
 30
0.0
  0
VERTEX
  5
2B9
  8
0
  6
CONTINUOUS
 62
     7
 10
-245.7551998256
 20
-1029.5558509973
 30
0.0
  0
VERTEX
  5
2BA
  8
0
  6
CONTINUOUS
 62
     7
 10
-245.7068757615
 20
-1028.9543282565
 30
0.0
  0
VERTEX
  5
2BB
  8
0
  6
CONTINUOUS
 62
     7
 10
-245.7510646191
 20
-1028.4876690002
 30
0.0
  0
VERTEX
  5
2BC
  8
0
  6
CONTINUOUS
 62
     7
 10
-245.8905400035
 20
-1028.1444193954
 30
0.0
  0
VERTEX
  5
2BD
  8
0
  6
CONTINUOUS
 62
     7
 10
-246.1295547262
 20
-1027.9155127548
 30
0.0
  0
VERTEX
  5
2BE
  8
0
  6
CONTINUOUS
 62
     7
 10
-246.4681087873
 20
-1027.8325590945
 30
0.0
  0
SEQEND
  5
2B5
  8
0
  6
CONTINUOUS
 62
     7
  0
LINE
  5
D7
  8
0
  6
CONTINUOUS
 62
     7
 10
537.0597552577
 20
-1027.8325597833
 30
0.0
 11
-246.4681087873
 21
-1027.8325597833
 31
0.0
  0
POLYLINE
  5
D8
  8
0
  6
CONTINUOUS
 62
     7
 66
     1
 10
0.0
 20
0.0
 30
0.0
  0
VERTEX
  5
2C0
  8
0
  6
CONTINUOUS
 62
     7
 10
537.0597552577
 20
-1027.8325590945
 30
0.0
  0
VERTEX
  5
2C1
  8
0
  6
CONTINUOUS
 62
     7
 10
536.7212011966
 20
-1027.915512755
 30
0.0
  0
VERTEX
  5
2C2
  8
0
  6
CONTINUOUS
 62
     7
 10
536.4821864738
 20
-1028.1444193958
 30
0.0
  0
VERTEX
  5
2C3
  8
0
  6
CONTINUOUS
 62
     7
 10
536.3427110895
 20
-1028.4876690005
 30
0.0
  0
VERTEX
  5
2C4
  8
0
  6
CONTINUOUS
 62
     7
 10
536.298522232
 20
-1028.9543282567
 30
0.0
  0
VERTEX
  5
2C5
  8
0
  6
CONTINUOUS
 62
     7
 10
536.3468462962
 20
-1029.5558509978
 30
0.0
  0
VERTEX
  5
2C6
  8
0
  6
CONTINUOUS
 62
     7
 10
536.4898264886
 20
-1030.2537021389
 30
0.0
  0
VERTEX
  5
2C7
  8
0
  6
CONTINUOUS
 62
     7
 10
536.7274628091
 20
-1031.0225130367
 30
0.0
  0
VERTEX
  5
2C8
  8
0
  6
CONTINUOUS
 62
     7
 10
537.0597552577
 20
-1031.8325597833
 30
0.0
  0
SEQEND
  5
2BF
  8
0
  6
CONTINUOUS
 62
     7
  0
ARC
  5
D9
  8
0
  6
CONTINUOUS
 62
     7
 10
538.6627580818
 20
-1032.1861682755
 30
0.0
 40
0.6438851863667894
 50
308.1012095371
 51
10.5182597487
  0
LINE
  5
DA
  8
0
  6
CONTINUOUS
 62
     7
 10
539.2958232352
 20
-1032.0686277608
 30
0.0
 11
541.2958232352
 21
-1032.0686277608
 31
0.0
  0
ARC
  5
DB
  8
0
  6
CONTINUOUS
 62
     7
 10
536.9403520708
 20
-1030.5063119279
 30
0.0
 40
0.6842514169404272
 50
79.95032568
 51
136.393408878
  0
LINE
  5
DC
  8
0
  6
CONTINUOUS
 62
     7
 10
537.0597552577
 20
-1027.8325597833
 30
0.0
 11
537.0597552577
 21
-1029.8325590945
 31
0.0
  0
LINE
  5
DD
  8
0
  6
CONTINUOUS
 62
     7
 10
-239.4541767648
 20
-1039.0825597833
 30
0.0
 11
-246.5828564212
 21
-1031.9538801268
 31
0.0
  0
LINE
  5
DE
  8
0
  6
CONTINUOUS
 62
     7
 10
-230.2041767648
 20
-1039.0825597833
 30
0.0
 11
-239.4541767648
 21
-1039.0825597833
 31
0.0
  0
LINE
  5
DF
  8
0
  6
CONTINUOUS
 62
     7
 10
-230.2041767648
 20
-1039.0825597833
 30
0.0
 11
-230.2041767648
 21
-1048.3325597833
 31
0.0
  0
LINE
  5
E0
  8
0
  6
CONTINUOUS
 62
     7
 10
-230.2041767648
 20
-1048.3325597833
 30
0.0
 11
-246.7041767648
 21
-1048.3325597833
 31
0.0
  0
ARC
  5
E1
  8
0
  6
CONTINUOUS
 62
     7
 10
-248.7041767648
 20
-1029.8325597833
 30
0.0
 40
3.000000000000024
 50
311.8103148958
 51
315.0
  0
ARC
  5
E2
  8
0
  6
CONTINUOUS
 62
     7
 10
-246.3487056002
 20
-1030.5063119276
 30
0.0
 40
0.6842514166501344
 50
43.6065911012
 51
100.0496743328
  0
LINE
  5
E3
  8
0
  6
CONTINUOUS
 62
     7
 10
-246.4681087873
 20
-1029.8325597833
 30
0.0
 11
-246.4681087873
 21
-1027.8325597833
 31
0.0
  0
LINE
  5
E4
  8
0
  6
CONTINUOUS
 62
     7
 10
-246.7041767648
 20
-1048.3325597833
 30
0.0
 11
-250.7041767648
 21
-1048.3325597833
 31
0.0
  0
LINE
  5
E5
  8
0
  6
CONTINUOUS
 62
     7
 10
-250.7041767648
 20
-1032.0686277608
 30
0.0
 11
-250.7041767648
 21
-1048.3325597833
 31
0.0
  0
POLYLINE
  5
E6
  8
0
  6
CONTINUOUS
 62
     7
 66
     1
 10
0.0
 20
0.0
 30
0.0
  0
VERTEX
  5
2CA
  8
0
  6
CONTINUOUS
 62
     7
 10
-250.7041774536
 20
-1032.0686277608
 30
0.0
  0
VERTEX
  5
2CB
  8
0
  6
CONTINUOUS
 62
     7
 10
-250.6212968522
 20
-1032.4009202095
 30
0.0
  0
VERTEX
  5
2CC
  8
0
  6
CONTINUOUS
 62
     7
 10
-250.3793929557
 20
-1032.6385565301
 30
0.0
  0
VERTEX
  5
2CD
  8
0
  6
CONTINUOUS
 62
     7
 10
-249.9930371476
 20
-1032.7815367224
 30
0.0
  0
VERTEX
  5
2CE
  8
0
  6
CONTINUOUS
 62
     7
 10
-249.4819076356
 20
-1032.8298607865
 30
0.0
  0
VERTEX
  5
2CF
  8
0
  6
CONTINUOUS
 62
     7
 10
-248.8977380612
 20
-1032.785671929
 30
0.0
  0
VERTEX
  5
2D0
  8
0
  6
CONTINUOUS
 62
     7
 10
-248.252603706
 20
-1032.6461965446
 30
0.0
  0
VERTEX
  5
2D1
  8
0
  6
CONTINUOUS
 62
     7
 10
-247.5145767205
 20
-1032.4071818219
 30
0.0
  0
VERTEX
  5
2D2
  8
0
  6
CONTINUOUS
 62
     7
 10
-246.7041767648
 20
-1032.0686277608
 30
0.0
  0
SEQEND
  5
2C9
  8
0
  6
CONTINUOUS
 62
     7
  0
ARC
  5
E7
  8
0
  6
CONTINUOUS
 62
     7
 10
-248.0711116113
 20
-1032.1861682755
 30
0.0
 40
0.6438851864207668
 50
169.4817402531
 51
231.8987904595
  0
LINE
  5
E8
  8
0
  6
CONTINUOUS
 62
     7
 10
-250.7041767648
 20
-1032.0686277608
 30
0.0
 11
-248.7041767648
 21
-1032.0686277608
 31
0.0
  0
LINE
  5
E9
  8
0
  6
CONTINUOUS
 62
     7
 10
539.2958232352
 20
-1031.8325597833
 30
0.0
 11
539.2958232352
 21
-1032.0686277608
 31
0.0
  0
LINE
  5
EA
  8
0
  6
CONTINUOUS
 62
     7
 10
539.2958235096
 20
-1031.8325597833
 30
0.0
 11
541.2958232352
 21
-1031.8325597833
 31
0.0
  0
LINE
  5
EB
  8
0
  6
CONTINUOUS
 62
     7
 10
541.2958232352
 20
-1031.8325597833
 30
0.0
 11
541.2958232352
 21
-1032.0686277608
 31
0.0
  0
LINE
  5
EC
  8
0
  6
CONTINUOUS
 62
     7
 10
-250.7041767648
 20
-1031.8325597833
 30
0.0
 11
-250.7041767648
 21
-1032.0686277608
 31
0.0
  0
LINE
  5
ED
  8
0
  6
CONTINUOUS
 62
     7
 10
-248.7041767648
 20
-1031.8325597833
 30
0.0
 11
-250.7041767648
 21
-1031.8325597833
 31
0.0
  0
LINE
  5
EE
  8
0
  6
CONTINUOUS
 62
     7
 10
-248.7041767648
 20
-1031.8325597833
 30
0.0
 11
-248.7041767648
 21
-1032.0686277608
 31
0.0
  0
LINE
  5
EF
  8
0
  6
CONTINUOUS
 62
     7
 10
-246.4681087873
 20
-1029.8325597833
 30
0.0
 11
-246.7041767648
 21
-1029.8325597833
 31
0.0
  0
LINE
  5
F0
  8
0
  6
CONTINUOUS
 62
     7
 10
-246.7041767648
 20
-1029.8325597833
 30
0.0
 11
-246.7041767648
 21
-1027.8325597833
 31
0.0
  0
LINE
  5
F1
  8
0
  6
CONTINUOUS
 62
     7
 10
-246.4681087873
 20
-1027.8325597833
 30
0.0
 11
-246.7041767648
 21
-1027.8325597833
 31
0.0
  0
LINE
  5
F2
  8
0
  6
CONTINUOUS
 62
     7
 10
537.2958232352
 20
-1029.8325597833
 30
0.0
 11
537.2958232352
 21
-1027.8325597833
 31
0.0
  0
LINE
  5
F3
  8
0
  6
CONTINUOUS
 62
     7
 10
537.0597552577
 20
-1029.8325597833
 30
0.0
 11
537.2958232352
 21
-1029.8325597833
 31
0.0
  0
LINE
  5
F4
  8
0
  6
CONTINUOUS
 62
     7
 10
537.0597552577
 20
-1027.8325597833
 30
0.0
 11
537.2958232352
 21
-1027.8325597833
 31
0.0
  0
ARC
  5
F5
  8
0
  6
CONTINUOUS
 62
     7
 10
-246.7041767648
 20
-1031.8325597833
 30
0.0
 40
4.000000274397308
 50
90.0
 51
180.0
  0
ARC
  5
F6
  8
0
  6
CONTINUOUS
 62
     7
 10
-246.7041767648
 20
-1031.8325597833
 30
0.0
 40
2.000000274397337
 50
90.0
 51
180.0
  0
ARC
  5
F7
  8
0
  6
CONTINUOUS
 62
     7
 10
537.2958232352
 20
-1031.8325597833
 30
0.0
 40
2.000000274397053
 50
360.0
 51
90.0
  0
ARC
  5
F8
  8
0
  6
CONTINUOUS
 62
     7
 10
537.2958232352
 20
-1031.8325597833
 30
0.0
 40
4.000000274396939
 50
360.0
 51
90.0
  0
LINE
  5
F9
  8
0
  6
CONTINUOUS
 62
     7
 10
441.2944287901
 20
-1049.3325597833
 30
0.0
 11
445.2958232352
 21
-1049.3325597833
 31
0.0
  0
LINE
  5
FA
  8
0
  6
CONTINUOUS
 62
     7
 10
437.2958232352
 20
-1049.3325597833
 30
0.0
 11
441.2944287901
 21
-1049.3325597833
 31
0.0
  0
LINE
  5
FB
  8
0
  6
CONTINUOUS
 62
     7
 10
441.2946030958
 20
-1049.8325597833
 30
0.0
 11
444.7958232352
 21
-1049.8325597833
 31
0.0
  0
LINE
  5
FC
  8
0
  6
CONTINUOUS
 62
     7
 10
437.7958232352
 20
-1049.8325597833
 30
0.0
 11
441.2946030958
 21
-1049.8325597833
 31
0.0
  0
ARC
  5
FD
  8
0
  6
HIDDEN
 62
     7
 10
-211.7041767648
 20
-1029.3325597833
 30
0.0
 40
7.516648189186454
 50
183.8140748343
 51
356.1859251657
  0
ARC
  5
FE
  8
0
  6
HIDDEN
 62
     7
 10
502.2958232352
 20
-1029.3325597833
 30
0.0
 40
7.516648189186511
 50
183.8140748343
 51
356.1859251657
  0
POLYLINE
  5
FF
  8
0
  6
HIDDEN
 62
     7
 66
     1
 10
0.0
 20
0.0
 30
0.0
  0
VERTEX
  5
2D4
  8
0
  6
HIDDEN
 62
     7
 10
537.2958232352
 20
-1032.0686277608
 30
0.0
  0
VERTEX
  5
2D5
  8
0
  6
HIDDEN
 62
     7
 10
537.2958232352
 20
-1032.0686277608
 30
0.0
  0
SEQEND
  5
2D3
  8
0
  6
HIDDEN
 62
     7
  0
ARC
  5
100
  8
0
  6
HIDDEN
 62
     7
 10
538.7386491046
 20
-1032.3948239826
 30
0.0
 40
0.4383305521651662
 50
262.7196673788
 51
317.1622516231
  0
POLYLINE
  5
101
  8
0
  6
HIDDEN
 62
     7
 66
     1
 10
0.0
 20
0.0
 30
0.0
  0
VERTEX
  5
2D7
  8
0
  6
HIDDEN
 62
     7
 10
536.4448907345
 20
-1030.0343817785
 30
0.0
  0
VERTEX
  5
2D8
  8
0
  6
HIDDEN
 62
     7
 10
536.3427110895
 20
-1030.1601141039
 30
0.0
  0
VERTEX
  5
2D9
  8
0
  6
HIDDEN
 62
     7
 10
536.298762279
 20
-1030.3921762564
 30
0.0
  0
SEQEND
  5
2D6
  8
0
  6
HIDDEN
 62
     7
  0
POLYLINE
  5
102
  8
0
  6
HIDDEN
 62
     7
 66
     1
 10
0.0
 20
0.0
 30
0.0
  0
VERTEX
  5
2DB
  8
0
  6
HIDDEN
 62
     7
 10
537.0597552577
 20
-1031.8325597833
 30
0.0
  0
VERTEX
  5
2DC
  8
0
  6
HIDDEN
 62
     7
 10
537.0597552577
 20
-1031.8325597833
 30
0.0
  0
SEQEND
  5
2DA
  8
0
  6
HIDDEN
 62
     7
  0
POLYLINE
  5
103
  8
0
  6
HIDDEN
 62
     7
 66
     1
 10
0.0
 20
0.0
 30
0.0
  0
VERTEX
  5
2DE
  8
0
  6
HIDDEN
 62
     7
 10
-246.4681087873
 20
-1031.8325597833
 30
0.0
  0
VERTEX
  5
2DF
  8
0
  6
HIDDEN
 62
     7
 10
-246.4681087873
 20
-1031.8325597833
 30
0.0
  0
SEQEND
  5
2DD
  8
0
  6
HIDDEN
 62
     7
  0
POLYLINE
  5
104
  8
0
  6
HIDDEN
 62
     7
 66
     1
 10
0.0
 20
0.0
 30
0.0
  0
VERTEX
  5
2E1
  8
0
  6
HIDDEN
 62
     7
 10
-245.7071158084
 20
-1030.3921762564
 30
0.0
  0
VERTEX
  5
2E2
  8
0
  6
HIDDEN
 62
     7
 10
-245.7510646191
 20
-1030.1601141038
 30
0.0
  0
VERTEX
  5
2E3
  8
0
  6
HIDDEN
 62
     7
 10
-245.853244264
 20
-1030.0343817786
 30
0.0
  0
SEQEND
  5
2E0
  8
0
  6
HIDDEN
 62
     7
  0
ARC
  5
105
  8
0
  6
HIDDEN
 62
     7
 10
-248.1470026341
 20
-1032.3948239827
 30
0.0
 40
0.4383305521221115
 50
222.8377483682
 51
277.280332618
  0
POLYLINE
  5
106
  8
0
  6
HIDDEN
 62
     7
 66
     1
 10
0.0
 20
0.0
 30
0.0
  0
VERTEX
  5
2E5
  8
0
  6
HIDDEN
 62
     7
 10
-246.7041767648
 20
-1032.0686277608
 30
0.0
  0
VERTEX
  5
2E6
  8
0
  6
HIDDEN
 62
     7
 10
-246.7041767648
 20
-1032.0686277608
 30
0.0
  0
SEQEND
  5
2E4
  8
0
  6
HIDDEN
 62
     7
  0
LINE
  5
107
  8
0
  6
HIDDEN
 62
     7
 10
539.2958232352
 20
-1048.3325597833
 30
0.0
 11
539.2958232352
 21
-1032.0686277608
 31
0.0
  0
LINE
  5
108
  8
0
  6
HIDDEN
 62
     7
 10
537.0597552577
 20
-1029.8325597833
 30
0.0
 11
-246.4681087873
 21
-1029.8325597833
 31
0.0
  0
LINE
  5
109
  8
0
  6
HIDDEN
 62
     7
 10
-248.7041767648
 20
-1032.0686277608
 30
0.0
 11
-248.7041767648
 21
-1048.3325597833
 31
0.0
  0
LINE
  5
10A
  8
0
  6
HIDDEN
 62
     7
 10
-225.1873377986
 20
-1032.3360932699
 30
0.0
 11
-234.221015731
 21
-1032.3360932699
 31
0.0
  0
LINE
  5
10B
  8
0
  6
HIDDEN
 62
     7
 10
515.778984269
 20
-1032.3360932699
 30
0.0
 11
524.8126622014
 21
-1032.3360932699
 31
0.0
  0
LINE
  5
10C
  8
0
  6
HIDDEN
 62
     7
 10
517.2958232352
 20
-1031.0325597833
 30
0.0
 11
523.2958232352
 21
-1031.0325597833
 31
0.0
  0
LINE
  5
10D
  8
0
  6
HIDDEN
 62
     7
 10
-226.7041767648
 20
-1031.0325597833
 30
0.0
 11
-232.7041767648
 21
-1031.0325597833
 31
0.0
  0
POLYLINE
  5
10E
  8
0
  6
HIDDEN
 62
     7
 66
     1
 10
0.0
 20
0.0
 30
0.0
  0
VERTEX
  5
2E8
  8
0
  6
HIDDEN
 62
     7
 10
-246.7041767648
 20
-1032.0686277608
 30
0.0
  0
VERTEX
  5
2E9
  8
0
  6
HIDDEN
 62
     7
 10
-246.7041767648
 20
-1032.0686277608
 30
0.0
  0
SEQEND
  5
2E7
  8
0
  6
HIDDEN
 62
     7
  0
POLYLINE
  5
10F
  8
0
  6
HIDDEN
 62
     7
 66
     1
 10
0.0
 20
0.0
 30
0.0
  0
VERTEX
  5
2EB
  8
0
  6
HIDDEN
 62
     7
 10
537.0597552577
 20
-1031.8325597833
 30
0.0
  0
VERTEX
  5
2EC
  8
0
  6
HIDDEN
 62
     7
 10
537.0597552577
 20
-1031.8325597833
 30
0.0
  0
SEQEND
  5
2EA
  8
0
  6
HIDDEN
 62
     7
  0
POLYLINE
  5
110
  8
0
  6
HIDDEN
 62
     7
 66
     1
 10
0.0
 20
0.0
 30
0.0
  0
VERTEX
  5
2EE
  8
0
  6
HIDDEN
 62
     7
 10
-246.4681087873
 20
-1031.8325597833
 30
0.0
  0
VERTEX
  5
2EF
  8
0
  6
HIDDEN
 62
     7
 10
-246.4681087873
 20
-1031.8325597833
 30
0.0
  0
SEQEND
  5
2ED
  8
0
  6
HIDDEN
 62
     7
  0
POLYLINE
  5
111
  8
0
  6
HIDDEN
 62
     7
 66
     1
 10
0.0
 20
0.0
 30
0.0
  0
VERTEX
  5
2F1
  8
0
  6
HIDDEN
 62
     7
 10
537.2958232352
 20
-1032.0686277608
 30
0.0
  0
VERTEX
  5
2F2
  8
0
  6
HIDDEN
 62
     7
 10
537.2958232352
 20
-1032.0686277608
 30
0.0
  0
SEQEND
  5
2F0
  8
0
  6
HIDDEN
 62
     7
  0
LINE
  5
112
  8
0
  6
HIDDEN
 62
     7
 10
441.2940801788
 20
-1030.8325597833
 30
0.0
 11
446.2958232352
 21
-1030.8325597833
 31
0.0
  0
LINE
  5
113
  8
0
  6
HIDDEN
 62
     7
 10
436.2958232352
 20
-1030.8325597833
 30
0.0
 11
441.2940801788
 21
-1030.8325597833
 31
0.0
  0
LINE
  5
114
  8
0
  6
HIDDEN
 62
     7
 10
-211.7041767648
 20
-1036.8492079725
 30
0.0
 11
-199.2041767648
 21
-1036.8492079725
 31
0.0
  0
LINE
  5
115
  8
0
  6
HIDDEN
 62
     7
 10
-199.2041767648
 20
-1036.8492079725
 30
0.0
 11
489.7958232352
 21
-1036.8492079725
 31
0.0
  0
LINE
  5
116
  8
0
  6
HIDDEN
 62
     7
 10
489.7958232352
 20
-1036.8492079725
 30
0.0
 11
502.2958232352
 21
-1036.8492079725
 31
0.0
  0
LINE
  5
117
  8
0
  6
HIDDEN
 62
     7
 10
538.6817090308
 20
-1032.8298660266
 30
0.0
 11
540.0675939657
 21
-1032.8298660266
 31
0.0
  0
LINE
  5
118
  8
0
  6
HIDDEN
 62
     7
 10
536.2985169919
 20
-1028.9485882746
 30
0.0
 11
536.2985169919
 21
-1030.390574199
 31
0.0
  0
LINE
  5
119
  8
0
  6
HIDDEN
 62
     7
 10
-245.7068705214
 20
-1030.3905741992
 30
0.0
 11
-245.7068705214
 21
-1028.9485882748
 31
0.0
  0
LINE
  5
11A
  8
0
  6
HIDDEN
 62
     7
 10
-249.4759474954
 20
-1032.8298660266
 30
0.0
 11
-248.0900625604
 21
-1032.8298660266
 31
0.0
  0
ARC
  5
11B
  8
0
  6
HIDDEN
 62
     7
 10
-222.8200601403
 20
-1030.3025597833
 30
0.0
 40
0.470000000028449
 50
90.0
 51
139.3250604347
  0
ARC
  5
11C
  8
0
  6
HIDDEN
 62
     7
 10
-236.5882933892
 20
-1030.3025597833
 30
0.0
 40
0.470000000028449
 50
40.6749395653
 51
90.0
  0
ARC
  5
11D
  8
0
  6
HIDDEN
 62
     7
 10
527.1799398597
 20
-1030.3025597833
 30
0.0
 40
0.470000000028449
 50
90.0
 51
139.3250604347
  0
ARC
  5
11E
  8
0
  6
HIDDEN
 62
     7
 10
513.4117066108
 20
-1030.3025597833
 30
0.0
 40
0.470000000028449
 50
40.6749395653
 51
90.0
  0
ARC
  5
11F
  8
0
  6
HIDDEN
 62
     7
 10
527.1799398597
 20
-1030.3025597833
 30
0.0
 40
2.470000000000027
 50
90.0
 51
139.3250604347
  0
ARC
  5
120
  8
0
  6
HIDDEN
 62
     7
 10
513.4117066108
 20
-1030.3025597833
 30
0.0
 40
2.470000000000054
 50
40.6749395653
 51
90.0
  0
ARC
  5
121
  8
0
  6
HIDDEN
 62
     7
 10
-222.8200601403
 20
-1030.3025597833
 30
0.0
 40
2.470000000000027
 50
90.0
 51
139.3250604347
  0
ARC
  5
122
  8
0
  6
HIDDEN
 62
     7
 10
-236.5882933892
 20
-1030.3025597833
 30
0.0
 40
2.470000000000027
 50
40.6749395653
 51
90.0
  0
LINE
  5
123
  8
0
  6
HIDDEN
 62
     7
 10
-236.2318362321
 20
-1029.996229414
 30
0.0
 11
-234.221015731
 21
-1032.3360932699
 31
0.0
  0
LINE
  5
124
  8
0
  6
HIDDEN
 62
     7
 10
-225.1873377986
 20
-1032.3360932699
 30
0.0
 11
-223.1765172974
 21
-1029.996229414
 31
0.0
  0
LINE
  5
125
  8
0
  6
HIDDEN
 62
     7
 10
513.7681637679
 20
-1029.996229414
 30
0.0
 11
515.778984269
 21
-1032.3360932699
 31
0.0
  0
LINE
  5
126
  8
0
  6
HIDDEN
 62
     7
 10
524.8126622014
 20
-1032.3360932699
 30
0.0
 11
526.8234827026
 21
-1029.996229414
 31
0.0
  0
LINE
  5
127
  8
0
  6
HIDDEN
 62
     7
 10
515.2850027341
 20
-1028.6926959274
 30
0.0
 11
517.2958232352
 21
-1031.0325597833
 31
0.0
  0
LINE
  5
128
  8
0
  6
HIDDEN
 62
     7
 10
523.2958232352
 20
-1031.0325597833
 30
0.0
 11
525.3066437364
 21
-1028.6926959274
 31
0.0
  0
LINE
  5
129
  8
0
  6
HIDDEN
 62
     7
 10
-234.7149972659
 20
-1028.6926959274
 30
0.0
 11
-232.7041767648
 21
-1031.0325597833
 31
0.0
  0
LINE
  5
12A
  8
0
  6
HIDDEN
 62
     7
 10
-226.7041767648
 20
-1031.0325597833
 30
0.0
 11
-224.6933562636
 21
-1028.6926959274
 31
0.0
  0
LINE
  5
12B
  8
0
  6
HIDDEN
 62
     7
 10
-225.1873377986
 20
-1032.3360932699
 30
0.0
 11
-226.7041767648
 21
-1031.0325597833
 31
0.0
  0
LINE
  5
12C
  8
0
  6
HIDDEN
 62
     7
 10
-232.7041767648
 20
-1031.0325597833
 30
0.0
 11
-234.221015731
 21
-1032.3360932699
 31
0.0
  0
LINE
  5
12D
  8
0
  6
HIDDEN
 62
     7
 10
524.8126622014
 20
-1032.3360932699
 30
0.0
 11
523.2958232352
 21
-1031.0325597833
 31
0.0
  0
LINE
  5
12E
  8
0
  6
HIDDEN
 62
     7
 10
517.2958232352
 20
-1031.0325597833
 30
0.0
 11
515.778984269
 21
-1032.3360932699
 31
0.0
  0
LINE
  5
12F
  8
0
  6
HIDDEN
 62
     7
 10
436.2958232352
 20
-1029.8325597833
 30
0.0
 11
436.2958232352
 21
-1030.8325597833
 31
0.0
  0
LINE
  5
130
  8
0
  6
HIDDEN
 62
     7
 10
446.2958232352
 20
-1030.8325597833
 30
0.0
 11
446.2958232352
 21
-1029.8325597833
 31
0.0
  0
LINE
  5
131
  8
0
  6
HIDDEN
 62
     7
 10
437.2958232352
 20
-1030.8325597833
 30
0.0
 11
437.2958232352
 21
-1048.3325597833
 31
0.0
  0
LINE
  5
132
  8
0
  6
HIDDEN
 62
     7
 10
445.2958232352
 20
-1048.3325597833
 30
0.0
 11
445.2958232352
 21
-1030.8325597833
 31
0.0
  0
LINE
  5
133
  8
0
  6
CONTINUOUS
 62
     7
 10
696.3479672741
 20
-797.8925592949
 30
0.0
 11
697.3479672741
 21
-797.8925592949
 31
0.0
  0
LINE
  5
134
  8
0
  6
CONTINUOUS
 62
     7
 10
697.3479672741
 20
-789.8925592949
 30
0.0
 11
696.3479672741
 21
-789.8925592949
 31
0.0
  0
LINE
  5
135
  8
0
  6
CONTINUOUS
 62
     7
 10
697.3479672741
 20
-797.8925592949
 30
0.0
 11
697.8479672741
 21
-797.3925592949
 31
0.0
  0
LINE
  5
136
  8
0
  6
CONTINUOUS
 62
     7
 10
697.8479672741
 20
-790.3925592949
 30
0.0
 11
697.3479672741
 21
-789.8925592949
 31
0.0
  0
LINE
  5
137
  8
0
  6
CONTINUOUS
 62
     7
 10
696.3479672741
 20
1078.1074407051
 30
0.0
 11
696.3479672741
 21
-889.8925592949
 31
0.0
  0
ARC
  5
138
  8
0
  6
CONTINUOUS
 62
     7
 10
677.8479672741
 20
-891.8925592949
 30
0.0
 40
3.000000000000029
 50
41.8103148958
 51
48.1896851042
  0
ARC
  5
139
  8
0
  6
CONTINUOUS
 62
     7
 10
677.8479672741
 20
1080.1074407051
 30
0.0
 40
3.000000000000029
 50
311.8103148958
 51
318.1896851042
  0
LINE
  5
13A
  8
0
  6
CONTINUOUS
 62
     7
 10
696.3479672741
 20
1082.1074407051
 30
0.0
 11
696.3479672741
 21
1078.1074407051
 31
0.0
  0
POLYLINE
  5
13B
  8
0
  6
CONTINUOUS
 62
     7
 66
     1
 10
0.0
 20
0.0
 30
0.0
  0
VERTEX
  5
2F4
  8
0
  6
CONTINUOUS
 62
     7
 10
680.0840352516
 20
1078.1074407051
 30
0.0
  0
VERTEX
  5
2F5
  8
0
  6
CONTINUOUS
 62
     7
 10
680.4163277003
 20
1078.9174874515
 30
0.0
  0
VERTEX
  5
2F6
  8
0
  6
CONTINUOUS
 62
     7
 10
680.6539640209
 20
1079.6862983492
 30
0.0
  0
VERTEX
  5
2F7
  8
0
  6
CONTINUOUS
 62
     7
 10
680.7969442132
 20
1080.3841494904
 30
0.0
  0
VERTEX
  5
2F8
  8
0
  6
CONTINUOUS
 62
     7
 10
680.8452682773
 20
1080.9856722316
 30
0.0
  0
VERTEX
  5
2F9
  8
0
  6
CONTINUOUS
 62
     7
 10
680.8010794198
 20
1081.452331488
 30
0.0
  0
VERTEX
  5
2FA
  8
0
  6
CONTINUOUS
 62
     7
 10
680.6616040354
 20
1081.7955810926
 30
0.0
  0
VERTEX
  5
2FB
  8
0
  6
CONTINUOUS
 62
     7
 10
680.4225893127
 20
1082.0244877335
 30
0.0
  0
VERTEX
  5
2FC
  8
0
  6
CONTINUOUS
 62
     7
 10
680.0840352516
 20
1082.1074413939
 30
0.0
  0
SEQEND
  5
2F3
  8
0
  6
CONTINUOUS
 62
     7
  0
LINE
  5
13C
  8
0
  6
CONTINUOUS
 62
     7
 10
680.0840352516
 20
1082.1074407051
 30
0.0
 11
696.3479672741
 21
1082.1074407051
 31
0.0
  0
POLYLINE
  5
13D
  8
0
  6
CONTINUOUS
 62
     7
 66
     1
 10
0.0
 20
0.0
 30
0.0
  0
VERTEX
  5
2FE
  8
0
  6
CONTINUOUS
 62
     7
 10
675.8479669997
 20
1077.8713727276
 30
0.0
  0
VERTEX
  5
2FF
  8
0
  6
CONTINUOUS
 62
     7
 10
675.9308475923
 20
1077.5390802758
 30
0.0
  0
VERTEX
  5
300
  8
0
  6
CONTINUOUS
 62
     7
 10
676.1727514642
 20
1077.3014439542
 30
0.0
  0
VERTEX
  5
301
  8
0
  6
CONTINUOUS
 62
     7
 10
676.5591072356
 20
1077.1584637628
 30
0.0
  0
VERTEX
  5
302
  8
0
  6
CONTINUOUS
 62
     7
 10
677.0702367021
 20
1077.1101397016
 30
0.0
  0
VERTEX
  5
303
  8
0
  6
CONTINUOUS
 62
     7
 10
677.6544062272
 20
1077.1543285635
 30
0.0
  0
VERTEX
  5
304
  8
0
  6
CONTINUOUS
 62
     7
 10
678.2995405204
 20
1077.2938039497
 30
0.0
  0
VERTEX
  5
305
  8
0
  6
CONTINUOUS
 62
     7
 10
679.0375674225
 20
1077.532818671
 30
0.0
  0
VERTEX
  5
306
  8
0
  6
CONTINUOUS
 62
     7
 10
679.8479672741
 20
1077.8713727276
 30
0.0
  0
SEQEND
  5
2FD
  8
0
  6
CONTINUOUS
 62
     7
  0
POLYLINE
  5
13E
  8
0
  6
CONTINUOUS
 62
     7
 66
     1
 10
0.0
 20
0.0
 30
0.0
  0
VERTEX
  5
308
  8
0
  6
CONTINUOUS
 62
     7
 10
679.8479672741
 20
-889.6564913174
 30
0.0
  0
VERTEX
  5
309
  8
0
  6
CONTINUOUS
 62
     7
 10
679.0375674224
 20
-889.3179372608
 30
0.0
  0
VERTEX
  5
30A
  8
0
  6
CONTINUOUS
 62
     7
 10
678.2995405203
 20
-889.0789225395
 30
0.0
  0
VERTEX
  5
30B
  8
0
  6
CONTINUOUS
 62
     7
 10
677.6544062271
 20
-888.9394471533
 30
0.0
  0
VERTEX
  5
30C
  8
0
  6
CONTINUOUS
 62
     7
 10
677.0702367017
 20
-888.8952582912
 30
0.0
  0
VERTEX
  5
30D
  8
0
  6
CONTINUOUS
 62
     7
 10
676.559107235
 20
-888.9435823523
 30
0.0
  0
VERTEX
  5
30E
  8
0
  6
CONTINUOUS
 62
     7
 10
676.1727514638
 20
-889.0865625437
 30
0.0
  0
VERTEX
  5
30F
  8
0
  6
CONTINUOUS
 62
     7
 10
675.9308475921
 20
-889.3241988653
 30
0.0
  0
VERTEX
  5
310
  8
0
  6
CONTINUOUS
 62
     7
 10
675.8479669997
 20
-889.6564913174
 30
0.0
  0
SEQEND
  5
307
  8
0
  6
CONTINUOUS
 62
     7
  0
LINE
  5
13F
  8
0
  6
CONTINUOUS
 62
     7
 10
675.8479672741
 20
-889.6564913174
 30
0.0
 11
675.8479672741
 21
1077.8713727276
 31
0.0
  0
ARC
  5
140
  8
0
  6
CONTINUOUS
 62
     7
 10
680.2034384385
 20
1079.4336885606
 30
0.0
 40
0.6842514168498726
 50
43.6065910789
 51
100.0496743176
  0
LINE
  5
141
  8
0
  6
CONTINUOUS
 62
     7
 10
680.0840352516
 20
1082.1074407051
 30
0.0
 11
680.0840352516
 21
1080.1074407051
 31
0.0
  0
LINE
  5
142
  8
0
  6
CONTINUOUS
 62
     7
 10
677.8479672741
 20
1077.8713727276
 30
0.0
 11
675.8479672741
 21
1077.8713727276
 31
0.0
  0
ARC
  5
143
  8
0
  6
CONTINUOUS
 62
     7
 10
678.4810328812
 20
1077.7538321924
 30
0.0
 40
0.6438852286857963
 50
169.4817390957
 51
231.8987784233
  0
ARC
  5
144
  8
0
  6
CONTINUOUS
 62
     7
 10
678.4810328812
 20
-889.5389507818
 30
0.0
 40
0.6438852287685196
 50
128.1012216318
 51
190.5182609338
  0
LINE
  5
145
  8
0
  6
CONTINUOUS
 62
     7
 10
675.8479672741
 20
-889.6564913174
 30
0.0
 11
677.8479669997
 21
-889.6564913174
 31
0.0
  0
ARC
  5
146
  8
0
  6
CONTINUOUS
 62
     7
 10
680.2034383227
 20
-891.218807483
 30
0.0
 40
0.6842510691065089
 50
259.9503303727
 51
316.3936506584
  0
POLYLINE
  5
147
  8
0
  6
CONTINUOUS
 62
     7
 66
     1
 10
0.0
 20
0.0
 30
0.0
  0
VERTEX
  5
312
  8
0
  6
CONTINUOUS
 62
     7
 10
680.0840352516
 20
-893.8925599837
 30
0.0
  0
VERTEX
  5
313
  8
0
  6
CONTINUOUS
 62
     7
 10
680.4225893128
 20
-893.8096063232
 30
0.0
  0
VERTEX
  5
314
  8
0
  6
CONTINUOUS
 62
     7
 10
680.6616040355
 20
-893.5806996823
 30
0.0
  0
VERTEX
  5
315
  8
0
  6
CONTINUOUS
 62
     7
 10
680.8010794198
 20
-893.2374500777
 30
0.0
  0
VERTEX
  5
316
  8
0
  6
CONTINUOUS
 62
     7
 10
680.845268529
 20
-892.7707882473
 30
0.0
  0
VERTEX
  5
317
  8
0
  6
CONTINUOUS
 62
     7
 10
680.7969447323
 20
-892.1692617944
 30
0.0
  0
VERTEX
  5
318
  8
0
  6
CONTINUOUS
 62
     7
 10
680.6539645872
 20
-891.4714092763
 30
0.0
  0
VERTEX
  5
319
  8
0
  6
CONTINUOUS
 62
     7
 10
680.4163280936
 20
-890.7026003697
 30
0.0
  0
VERTEX
  5
31A
  8
0
  6
CONTINUOUS
 62
     7
 10
680.0840352516
 20
-889.8925592949
 30
0.0
  0
SEQEND
  5
311
  8
0
  6
CONTINUOUS
 62
     7
  0
LINE
  5
148
  8
0
  6
CONTINUOUS
 62
     7
 10
680.0840352516
 20
-893.8925592949
 30
0.0
 11
680.0840352516
 21
-891.8925599837
 31
0.0
  0
LINE
  5
149
  8
0
  6
CONTINUOUS
 62
     7
 10
696.3479672741
 20
-889.8925592949
 30
0.0
 11
696.3479672741
 21
-893.8925592949
 31
0.0
  0
LINE
  5
14A
  8
0
  6
CONTINUOUS
 62
     7
 10
680.0840352516
 20
-893.8925592949
 30
0.0
 11
696.3479672741
 21
-893.8925592949
 31
0.0
  0
LINE
  5
14B
  8
0
  6
CONTINUOUS
 62
     7
 10
679.9692876176
 20
1080.1074407051
 30
0.0
 11
679.9692876176
 21
1082.1074407051
 31
0.0
  0
LINE
  5
14C
  8
0
  6
CONTINUOUS
 62
     7
 10
680.0840352516
 20
1082.1074407051
 30
0.0
 11
679.9692876176
 21
1082.1074407051
 31
0.0
  0
LINE
  5
14D
  8
0
  6
CONTINUOUS
 62
     7
 10
680.0840352516
 20
1080.1074407051
 30
0.0
 11
679.9692876176
 21
1080.1074407051
 31
0.0
  0
LINE
  5
14E
  8
0
  6
CONTINUOUS
 62
     7
 10
677.8479672741
 20
1078.1074407051
 30
0.0
 11
675.8479672741
 21
1078.1074407051
 31
0.0
  0
LINE
  5
14F
  8
0
  6
CONTINUOUS
 62
     7
 10
675.8479672741
 20
1078.1074407051
 30
0.0
 11
675.8479672741
 21
1077.8713727276
 31
0.0
  0
LINE
  5
150
  8
0
  6
CONTINUOUS
 62
     7
 10
677.8479672741
 20
1078.1074407051
 30
0.0
 11
677.8479672741
 21
1077.8713727276
 31
0.0
  0
LINE
  5
151
  8
0
  6
CONTINUOUS
 62
     7
 10
677.8479672741
 20
-889.8925592949
 30
0.0
 11
675.8479672741
 21
-889.8925592949
 31
0.0
  0
LINE
  5
152
  8
0
  6
CONTINUOUS
 62
     7
 10
675.8479672741
 20
-889.8925592949
 30
0.0
 11
675.8479672741
 21
-889.6564913174
 31
0.0
  0
LINE
  5
153
  8
0
  6
CONTINUOUS
 62
     7
 10
677.8479672741
 20
-889.8925592949
 30
0.0
 11
677.8479672741
 21
-889.6564913174
 31
0.0
  0
LINE
  5
154
  8
0
  6
CONTINUOUS
 62
     7
 10
679.9692876176
 20
-893.8925592949
 30
0.0
 11
679.9692876176
 21
-891.8925592949
 31
0.0
  0
LINE
  5
155
  8
0
  6
CONTINUOUS
 62
     7
 10
680.0840352516
 20
-891.8925592949
 30
0.0
 11
679.9692876176
 21
-891.8925592949
 31
0.0
  0
LINE
  5
156
  8
0
  6
CONTINUOUS
 62
     7
 10
680.0840352516
 20
-893.8925592949
 30
0.0
 11
679.9692876176
 21
-893.8925592949
 31
0.0
  0
LINE
  5
157
  8
0
  6
CONTINUOUS
 62
     7
 10
679.9692876176
 20
1082.1074407051
 30
0.0
 11
679.8479672741
 21
1082.1074407051
 31
0.0
  0
LINE
  5
158
  8
0
  6
CONTINUOUS
 62
     7
 10
679.9692876176
 20
1080.1074407051
 30
0.0
 11
679.9692876176
 21
1082.1074407051
 31
0.0
  0
LINE
  5
159
  8
0
  6
CONTINUOUS
 62
     7
 10
679.9692876176
 20
1080.1074407051
 30
0.0
 11
679.8479672741
 21
1080.1074407051
 31
0.0
  0
LINE
  5
15A
  8
0
  6
CONTINUOUS
 62
     7
 10
679.8479672741
 20
1080.1074413939
 30
0.0
 11
679.8479672741
 21
1082.1074407051
 31
0.0
  0
LINE
  5
15B
  8
0
  6
CONTINUOUS
 62
     7
 10
679.9692876176
 20
-893.8925592949
 30
0.0
 11
679.9692876176
 21
-891.8925592949
 31
0.0
  0
LINE
  5
15C
  8
0
  6
CONTINUOUS
 62
     7
 10
679.9692876176
 20
-893.8925592949
 30
0.0
 11
679.8479672741
 21
-893.8925592949
 31
0.0
  0
LINE
  5
15D
  8
0
  6
CONTINUOUS
 62
     7
 10
679.8479672741
 20
-891.8925592949
 30
0.0
 11
679.8479672741
 21
-893.8925592949
 31
0.0
  0
LINE
  5
15E
  8
0
  6
CONTINUOUS
 62
     7
 10
679.9692876176
 20
-891.8925592949
 30
0.0
 11
679.8479672741
 21
-891.8925592949
 31
0.0
  0
ARC
  5
15F
  8
0
  6
CONTINUOUS
 62
     7
 10
679.8479672741
 20
1078.1074407051
 30
0.0
 40
2.000000688793421
 50
90.0
 51
180.0
  0
ARC
  5
160
  8
0
  6
CONTINUOUS
 62
     7
 10
679.8479672741
 20
1078.1074407051
 30
0.0
 40
4.000000688793534
 50
90.0
 51
180.0
  0
ARC
  5
161
  8
0
  6
CONTINUOUS
 62
     7
 10
679.8479672741
 20
-889.8925592949
 30
0.0
 40
4.000000688793079
 50
180.0
 51
270.0
  0
ARC
  5
162
  8
0
  6
CONTINUOUS
 62
     7
 10
679.8479672741
 20
-889.8925592949
 30
0.0
 40
2.000000688793421
 50
180.0
 51
270.0
  0
LINE
  5
163
  8
0
  6
CONTINUOUS
 62
     7
 10
697.3479672741
 20
-797.8925592949
 30
0.0
 11
697.3479672741
 21
-789.8925595379
 31
0.0
  0
LINE
  5
164
  8
0
  6
CONTINUOUS
 62
     7
 10
697.8479672741
 20
-797.3925592949
 30
0.0
 11
697.8479672741
 21
-790.3925595075
 31
0.0
  0
ARC
  5
165
  8
0
  6
HIDDEN
 62
     7
 10
677.3479672741
 20
-860.8925592949
 30
0.0
 40
7.51664818918656
 50
273.8140748343
 51
86.1859251657
  0
ARC
  5
166
  8
0
  6
HIDDEN
 62
     7
 10
677.3479672741
 20
1049.1074407051
 30
0.0
 40
7.516648189186447
 50
273.8140748343
 51
86.1859251657
  0
POLYLINE
  5
167
  8
0
  6
HIDDEN
 62
     7
 66
     1
 10
0.0
 20
0.0
 30
0.0
  0
VERTEX
  5
31C
  8
0
  6
HIDDEN
 62
     7
 10
680.8450282304
 20
1079.5478242319
 30
0.0
  0
VERTEX
  5
31D
  8
0
  6
HIDDEN
 62
     7
 10
680.8010794198
 20
1079.7798863845
 30
0.0
  0
VERTEX
  5
31E
  8
0
  6
HIDDEN
 62
     7
 10
680.698899775
 20
1079.9056187095
 30
0.0
  0
SEQEND
  5
31B
  8
0
  6
HIDDEN
 62
     7
  0
POLYLINE
  5
168
  8
0
  6
HIDDEN
 62
     7
 66
     1
 10
0.0
 20
0.0
 30
0.0
  0
VERTEX
  5
320
  8
0
  6
HIDDEN
 62
     7
 10
680.0840352516
 20
1078.1074407051
 30
0.0
  0
VERTEX
  5
321
  8
0
  6
HIDDEN
 62
     7
 10
680.0840352516
 20
1078.1074407051
 30
0.0
  0
SEQEND
  5
31F
  8
0
  6
HIDDEN
 62
     7
  0
ARC
  5
169
  8
0
  6
HIDDEN
 62
     7
 10
678.4051417076
 20
1077.5451764008
 30
0.0
 40
0.4383304471630168
 50
222.837737086
 51
277.2803322374
  0
POLYLINE
  5
16A
  8
0
  6
HIDDEN
 62
     7
 66
     1
 10
0.0
 20
0.0
 30
0.0
  0
VERTEX
  5
323
  8
0
  6
HIDDEN
 62
     7
 10
679.8479672741
 20
1077.8713727276
 30
0.0
  0
VERTEX
  5
324
  8
0
  6
HIDDEN
 62
     7
 10
679.8479672741
 20
1077.8713727276
 30
0.0
  0
SEQEND
  5
322
  8
0
  6
HIDDEN
 62
     7
  0
ARC
  5
16B
  8
0
  6
HIDDEN
 62
     7
 10
678.4051417071
 20
-889.3302949903
 30
0.0
 40
0.4383304470558723
 50
82.7196677561
 51
137.1622629405
  0
POLYLINE
  5
16C
  8
0
  6
HIDDEN
 62
     7
 66
     1
 10
0.0
 20
0.0
 30
0.0
  0
VERTEX
  5
326
  8
0
  6
HIDDEN
 62
     7
 10
679.8479672741
 20
-889.6564913174
 30
0.0
  0
VERTEX
  5
327
  8
0
  6
HIDDEN
 62
     7
 10
679.8479672741
 20
-889.6564913174
 30
0.0
  0
SEQEND
  5
325
  8
0
  6
HIDDEN
 62
     7
  0
POLYLINE
  5
16D
  8
0
  6
HIDDEN
 62
     7
 66
     1
 10
0.0
 20
0.0
 30
0.0
  0
VERTEX
  5
329
  8
0
  6
HIDDEN
 62
     7
 10
680.6989013985
 20
-891.6907353016
 30
0.0
  0
VERTEX
  5
32A
  8
0
  6
HIDDEN
 62
     7
 10
680.8010794198
 20
-891.5650049743
 30
0.0
  0
VERTEX
  5
32B
  8
0
  6
HIDDEN
 62
     7
 10
680.8450285718
 20
-891.332941061
 30
0.0
  0
SEQEND
  5
328
  8
0
  6
HIDDEN
 62
     7
  0
POLYLINE
  5
16E
  8
0
  6
HIDDEN
 62
     7
 66
     1
 10
0.0
 20
0.0
 30
0.0
  0
VERTEX
  5
32D
  8
0
  6
HIDDEN
 62
     7
 10
680.0840352516
 20
-889.8925592949
 30
0.0
  0
VERTEX
  5
32E
  8
0
  6
HIDDEN
 62
     7
 10
680.0840352516
 20
-889.8925592949
 30
0.0
  0
SEQEND
  5
32C
  8
0
  6
HIDDEN
 62
     7
  0
LINE
  5
16F
  8
0
  6
HIDDEN
 62
     7
 10
680.0840352516
 20
-891.8925592949
 30
0.0
 11
696.3479672741
 21
-891.8925592949
 31
0.0
  0
LINE
  5
170
  8
0
  6
HIDDEN
 62
     7
 10
677.8479672741
 20
-889.6564913174
 30
0.0
 11
677.8479672741
 21
1077.8713727276
 31
0.0
  0
LINE
  5
171
  8
0
  6
HIDDEN
 62
     7
 10
680.0840352516
 20
1080.1074407051
 30
0.0
 11
696.3479672741
 21
1080.1074407051
 31
0.0
  0
LINE
  5
172
  8
0
  6
HIDDEN
 62
     7
 10
687.0979672741
 20
1082.1074407051
 30
0.0
 11
687.0979672741
 21
1080.1074407051
 31
0.0
  0
LINE
  5
173
  8
0
  6
HIDDEN
 62
     7
 10
687.0979672741
 20
-893.8925592949
 30
0.0
 11
687.0979672741
 21
-891.8925592948
 31
0.0
  0
LINE
  5
174
  8
0
  6
HIDDEN
 62
     7
 10
687.0979672741
 20
1082.1074407051
 30
0.0
 11
687.0979672741
 21
1080.1074407051
 31
0.0
  0
LINE
  5
175
  8
0
  6
HIDDEN
 62
     7
 10
687.0979672741
 20
-893.8925592949
 30
0.0
 11
687.0979672741
 21
-891.8925592948
 31
0.0
  0
LINE
  5
176
  8
0
  6
HIDDEN
 62
     7
 10
680.3515007607
 20
86.1074407051
 30
0.0
 11
680.3515007607
 21
81.5906017389
 31
0.0
  0
LINE
  5
177
  8
0
  6
HIDDEN
 62
     7
 10
680.3515007607
 20
90.6242796713
 30
0.0
 11
680.3515007607
 21
86.1074407051
 31
0.0
  0
LINE
  5
178
  8
0
  6
HIDDEN
 62
     7
 10
680.3515007607
 20
986.1074407051
 30
0.0
 11
680.3515007607
 21
981.5906017389
 31
0.0
  0
LINE
  5
179
  8
0
  6
HIDDEN
 62
     7
 10
680.3515007607
 20
990.6242796713
 30
0.0
 11
680.3515007607
 21
986.1074407051
 31
0.0
  0
LINE
  5
17A
  8
0
  6
HIDDEN
 62
     7
 10
680.3515007607
 20
-813.8925592949
 30
0.0
 11
680.3515007607
 21
-818.4093982611
 31
0.0
  0
LINE
  5
17B
  8
0
  6
HIDDEN
 62
     7
 10
680.3515007607
 20
-809.3757203287
 30
0.0
 11
680.3515007607
 21
-813.8925592949
 31
0.0
  0
LINE
  5
17C
  8
0
  6
HIDDEN
 62
     7
 10
679.0479672741
 20
89.1074407051
 30
0.0
 11
679.0479672741
 21
83.1074407051
 31
0.0
  0
LINE
  5
17D
  8
0
  6
HIDDEN
 62
     7
 10
679.0479672741
 20
989.1074407051
 30
0.0
 11
679.0479672741
 21
983.1074407051
 31
0.0
  0
LINE
  5
17E
  8
0
  6
HIDDEN
 62
     7
 10
679.0479672741
 20
-810.8925592949
 30
0.0
 11
679.0479672741
 21
-816.8925592949
 31
0.0
  0
POLYLINE
  5
17F
  8
0
  6
HIDDEN
 62
     7
 66
     1
 10
0.0
 20
0.0
 30
0.0
  0
VERTEX
  5
330
  8
0
  6
HIDDEN
 62
     7
 10
680.0840352516
 20
1078.1074407051
 30
0.0
  0
VERTEX
  5
331
  8
0
  6
HIDDEN
 62
     7
 10
680.0840352516
 20
1078.1074407051
 30
0.0
  0
SEQEND
  5
32F
  8
0
  6
HIDDEN
 62
     7
  0
POLYLINE
  5
180
  8
0
  6
HIDDEN
 62
     7
 66
     1
 10
0.0
 20
0.0
 30
0.0
  0
VERTEX
  5
333
  8
0
  6
HIDDEN
 62
     7
 10
679.8479672741
 20
1077.8713727276
 30
0.0
  0
VERTEX
  5
334
  8
0
  6
HIDDEN
 62
     7
 10
679.8479672741
 20
1077.8713727276
 30
0.0
  0
SEQEND
  5
332
  8
0
  6
HIDDEN
 62
     7
  0
POLYLINE
  5
181
  8
0
  6
HIDDEN
 62
     7
 66
     1
 10
0.0
 20
0.0
 30
0.0
  0
VERTEX
  5
336
  8
0
  6
HIDDEN
 62
     7
 10
679.8479672741
 20
-889.6564913174
 30
0.0
  0
VERTEX
  5
337
  8
0
  6
HIDDEN
 62
     7
 10
679.8479672741
 20
-889.6564913174
 30
0.0
  0
SEQEND
  5
335
  8
0
  6
HIDDEN
 62
     7
  0
POLYLINE
  5
182
  8
0
  6
HIDDEN
 62
     7
 66
     1
 10
0.0
 20
0.0
 30
0.0
  0
VERTEX
  5
339
  8
0
  6
HIDDEN
 62
     7
 10
680.0840352516
 20
-889.8925592949
 30
0.0
  0
VERTEX
  5
33A
  8
0
  6
HIDDEN
 62
     7
 10
680.0840352516
 20
-889.8925592949
 30
0.0
  0
SEQEND
  5
338
  8
0
  6
HIDDEN
 62
     7
  0
LINE
  5
183
  8
0
  6
HIDDEN
 62
     7
 10
678.8479672741
 20
-798.8925592949
 30
0.0
 11
678.8479672741
 21
-788.8925595987
 31
0.0
  0
LINE
  5
184
  8
0
  6
HIDDEN
 62
     7
 10
684.8646154633
 20
-860.8925592949
 30
0.0
 11
684.8646154633
 21
-848.3925592949
 31
0.0
  0
LINE
  5
185
  8
0
  6
HIDDEN
 62
     7
 10
684.8646154633
 20
-848.3925592949
 30
0.0
 11
684.8646154633
 21
1036.6074407051
 31
0.0
  0
LINE
  5
186
  8
0
  6
HIDDEN
 62
     7
 10
684.8646154633
 20
1036.6074407051
 30
0.0
 11
684.8646154633
 21
1049.1074407051
 31
0.0
  0
LINE
  5
187
  8
0
  6
HIDDEN
 62
     7
 10
680.8452735175
 20
1079.5494262891
 30
0.0
 11
680.8452735175
 21
1080.9914122133
 31
0.0
  0
LINE
  5
188
  8
0
  6
HIDDEN
 62
     7
 10
677.0761968178
 20
1077.1101344616
 30
0.0
 11
678.4620817591
 21
1077.1101344616
 31
0.0
  0
LINE
  5
189
  8
0
  6
HIDDEN
 62
     7
 10
678.4620817585
 20
-888.8952530512
 30
0.0
 11
677.0761968165
 21
-888.8952530512
 31
0.0
  0
LINE
  5
18A
  8
0
  6
HIDDEN
 62
     7
 10
680.8452737652
 20
-892.7765260887
 30
0.0
 11
680.8452737652
 21
-891.334542522
 31
0.0
  0
ARC
  5
18B
  8
0
  6
HIDDEN
 62
     7
 10
678.3179672741
 20
992.9915573296
 30
0.0
 40
0.470000000028449
 50
180.0
 51
229.3250604347
  0
ARC
  5
18C
  8
0
  6
HIDDEN
 62
     7
 10
678.3179672741
 20
979.2233240807
 30
0.0
 40
0.470000000028449
 50
130.6749395653
 51
180.0
  0
ARC
  5
18D
  8
0
  6
HIDDEN
 62
     7
 10
678.3179672741
 20
-807.0084426704
 30
0.0
 40
0.470000000028449
 50
180.0
 51
229.3250604347
  0
ARC
  5
18E
  8
0
  6
HIDDEN
 62
     7
 10
678.3179672741
 20
-820.7766759193
 30
0.0
 40
0.470000000028449
 50
130.6749395653
 51
180.0
  0
ARC
  5
18F
  8
0
  6
HIDDEN
 62
     7
 10
678.3179672741
 20
992.9915573296
 30
0.0
 40
2.470000000000042
 50
180.0
 51
229.3250604347
  0
ARC
  5
190
  8
0
  6
HIDDEN
 62
     7
 10
678.3179672741
 20
979.2233240807
 30
0.0
 40
2.470000000000128
 50
130.6749395653
 51
180.0
  0
ARC
  5
191
  8
0
  6
HIDDEN
 62
     7
 10
678.3179672741
 20
92.9915573296
 30
0.0
 40
2.470000000000053
 50
180.0
 51
229.3250604347
  0
ARC
  5
192
  8
0
  6
HIDDEN
 62
     7
 10
678.3179672741
 20
79.2233240807
 30
0.0
 40
2.470000000000042
 50
130.6749395653
 51
180.0
  0
ARC
  5
193
  8
0
  6
HIDDEN
 62
     7
 10
678.3179672741
 20
92.9915573296
 30
0.0
 40
0.470000000028449
 50
180.0
 51
229.3250604347
  0
ARC
  5
194
  8
0
  6
HIDDEN
 62
     7
 10
678.3179672741
 20
79.2233240807
 30
0.0
 40
0.470000000028449
 50
130.6749395653
 51
180.0
  0
ARC
  5
195
  8
0
  6
HIDDEN
 62
     7
 10
678.3179672741
 20
-807.0084426704
 30
0.0
 40
2.470000000000042
 50
180.0
 51
229.3250604347
  0
ARC
  5
196
  8
0
  6
HIDDEN
 62
     7
 10
678.3179672741
 20
-820.7766759193
 30
0.0
 40
2.470000000000042
 50
130.6749395653
 51
180.0
  0
LINE
  5
197
  8
0
  6
HIDDEN
 62
     7
 10
678.0116369048
 20
79.5797812378
 30
0.0
 11
680.3515007607
 21
81.5906017389
 31
0.0
  0
LINE
  5
198
  8
0
  6
HIDDEN
 62
     7
 10
680.3515007607
 20
90.6242796713
 30
0.0
 11
678.0116369048
 21
92.6351001725
 31
0.0
  0
LINE
  5
199
  8
0
  6
HIDDEN
 62
     7
 10
678.0116369048
 20
979.5797812378
 30
0.0
 11
680.3515007607
 21
981.5906017389
 31
0.0
  0
LINE
  5
19A
  8
0
  6
HIDDEN
 62
     7
 10
680.3515007607
 20
990.6242796713
 30
0.0
 11
678.0116369048
 21
992.6351001725
 31
0.0
  0
LINE
  5
19B
  8
0
  6
HIDDEN
 62
     7
 10
678.0116369048
 20
-820.4202187622
 30
0.0
 11
680.3515007607
 21
-818.4093982611
 31
0.0
  0
LINE
  5
19C
  8
0
  6
HIDDEN
 62
     7
 10
680.3515007607
 20
-809.3757203287
 30
0.0
 11
678.0116369048
 21
-807.3648998275
 31
0.0
  0
LINE
  5
19D
  8
0
  6
HIDDEN
 62
     7
 10
676.7081034182
 20
81.096620204
 30
0.0
 11
679.0479672741
 21
83.1074407051
 31
0.0
  0
LINE
  5
19E
  8
0
  6
HIDDEN
 62
     7
 10
679.0479672741
 20
89.1074407051
 30
0.0
 11
676.7081034182
 21
91.1182612063
 31
0.0
  0
LINE
  5
19F
  8
0
  6
HIDDEN
 62
     7
 10
676.7081034182
 20
981.096620204
 30
0.0
 11
679.0479672741
 21
983.1074407051
 31
0.0
  0
LINE
  5
1A0
  8
0
  6
HIDDEN
 62
     7
 10
679.0479672741
 20
989.1074407051
 30
0.0
 11
676.7081034182
 21
991.1182612063
 31
0.0
  0
LINE
  5
1A1
  8
0
  6
HIDDEN
 62
     7
 10
676.7081034182
 20
-818.903379796
 30
0.0
 11
679.0479672741
 21
-816.8925592949
 31
0.0
  0
LINE
  5
1A2
  8
0
  6
HIDDEN
 62
     7
 10
679.0479672741
 20
-810.8925592949
 30
0.0
 11
676.7081034182
 21
-808.8817387937
 31
0.0
  0
LINE
  5
1A3
  8
0
  6
HIDDEN
 62
     7
 10
680.3515007607
 20
-809.3757203287
 30
0.0
 11
679.0479672741
 21
-810.8925592949
 31
0.0
  0
LINE
  5
1A4
  8
0
  6
HIDDEN
 62
     7
 10
679.0479672741
 20
-816.8925592949
 30
0.0
 11
680.3515007607
 21
-818.4093982611
 31
0.0
  0
LINE
  5
1A5
  8
0
  6
HIDDEN
 62
     7
 10
680.3515007607
 20
90.6242796713
 30
0.0
 11
679.0479672741
 21
89.1074407051
 31
0.0
  0
LINE
  5
1A6
  8
0
  6
HIDDEN
 62
     7
 10
679.0479672741
 20
83.1074407051
 30
0.0
 11
680.3515007607
 21
81.5906017389
 31
0.0
  0
LINE
  5
1A7
  8
0
  6
HIDDEN
 62
     7
 10
680.3515007607
 20
990.6242796713
 30
0.0
 11
679.0479672741
 21
989.1074407051
 31
0.0
  0
LINE
  5
1A8
  8
0
  6
HIDDEN
 62
     7
 10
679.0479672741
 20
983.1074407051
 30
0.0
 11
680.3515007607
 21
981.5906017389
 31
0.0
  0
LINE
  5
1A9
  8
0
  6
HIDDEN
 62
     7
 10
677.8479672741
 20
-798.8925592949
 30
0.0
 11
678.8479672741
 21
-798.8925592949
 31
0.0
  0
LINE
  5
1AA
  8
0
  6
HIDDEN
 62
     7
 10
678.8479672741
 20
-788.8925592949
 30
0.0
 11
677.8479672741
 21
-788.8925592949
 31
0.0
  0
LINE
  5
1AB
  8
0
  6
HIDDEN
 62
     7
 10
678.8479672741
 20
-797.8925592949
 30
0.0
 11
696.3479672741
 21
-797.8925592949
 31
0.0
  0
LINE
  5
1AC
  8
0
  6
HIDDEN
 62
     7
 10
696.3479672741
 20
-789.8925592949
 30
0.0
 11
678.8479672741
 21
-789.8925592949
 31
0.0
  0
ARC
  5
1AD
  8
0
  6
CONTINUOUS
 62
     7
 10
827.1427717224
 20
1080.1074407051
 30
0.0
 40
3.000000000000114
 50
311.8103148958
 51
318.1896851042
  0
ARC
  5
1AE
  8
0
  6
CONTINUOUS
 62
     7
 10
1615.1427717224
 20
1080.1074407051
 30
0.0
 40
2.999999999999944
 50
221.8103148958
 51
228.1896851042
  0
ARC
  5
1AF
  8
0
  6
CONTINUOUS
 62
     7
 10
1615.1427717224
 20
-891.8925592949
 30
0.0
 40
2.999999999999944
 50
131.8103148958
 51
138.1896851042
  0
ARC
  5
1B0
  8
0
  6
CONTINUOUS
 62
     7
 10
827.1427717224
 20
-891.8925592949
 30
0.0
 40
3.000000000000038
 50
41.8103148958
 51
48.1896851042
  0
ARC
  5
1B1
  8
0
  6
CONTINUOUS
 62
     7
 10
829.4963802145
 20
1079.4743755517
 30
0.0
 40
0.6438851863529466
 50
38.1012095223
 51
100.5182597357
  0
LINE
  5
1B2
  8
0
  6
CONTINUOUS
 62
     7
 10
829.3788396999
 20
1082.1074407051
 30
0.0
 11
829.3788396999
 21
1080.1074407051
 31
0.0
  0
POLYLINE
  5
1B3
  8
0
  6
CONTINUOUS
 62
     7
 66
     1
 10
0.0
 20
0.0
 30
0.0
  0
VERTEX
  5
33C
  8
0
  6
CONTINUOUS
 62
     7
 10
829.3788396999
 20
1078.1074407051
 30
0.0
  0
VERTEX
  5
33D
  8
0
  6
CONTINUOUS
 62
     7
 10
829.7173937611
 20
1078.917840661
 30
0.0
  0
VERTEX
  5
33E
  8
0
  6
CONTINUOUS
 62
     7
 10
829.9564084838
 20
1079.6558676466
 30
0.0
  0
VERTEX
  5
33F
  8
0
  6
CONTINUOUS
 62
     7
 10
830.0958838681
 20
1080.3010020017
 30
0.0
  0
VERTEX
  5
340
  8
0
  6
CONTINUOUS
 62
     7
 10
830.1400727256
 20
1080.8851715758
 30
0.0
  0
VERTEX
  5
341
  8
0
  6
CONTINUOUS
 62
     7
 10
830.0917486614
 20
1081.3963010878
 30
0.0
  0
VERTEX
  5
342
  8
0
  6
CONTINUOUS
 62
     7
 10
829.9487684691
 20
1081.782656896
 30
0.0
  0
VERTEX
  5
343
  8
0
  6
CONTINUOUS
 62
     7
 10
829.7111321486
 20
1082.0245607925
 30
0.0
  0
VERTEX
  5
344
  8
0
  6
CONTINUOUS
 62
     7
 10
829.3788396999
 20
1082.1074413939
 30
0.0
  0
SEQEND
  5
33B
  8
0
  6
CONTINUOUS
 62
     7
  0
POLYLINE
  5
1B4
  8
0
  6
CONTINUOUS
 62
     7
 66
     1
 10
0.0
 20
0.0
 30
0.0
  0
VERTEX
  5
346
  8
0
  6
CONTINUOUS
 62
     7
 10
1612.9067037449
 20
1082.1074413939
 30
0.0
  0
VERTEX
  5
347
  8
0
  6
CONTINUOUS
 62
     7
 10
1612.5744112962
 20
1082.0245607924
 30
0.0
  0
VERTEX
  5
348
  8
0
  6
CONTINUOUS
 62
     7
 10
1612.3367749756
 20
1081.7826568957
 30
0.0
  0
VERTEX
  5
349
  8
0
  6
CONTINUOUS
 62
     7
 10
1612.1937947833
 20
1081.3963010874
 30
0.0
  0
VERTEX
  5
34A
  8
0
  6
CONTINUOUS
 62
     7
 10
1612.1454707191
 20
1080.8851715756
 30
0.0
  0
VERTEX
  5
34B
  8
0
  6
CONTINUOUS
 62
     7
 10
1612.1896595768
 20
1080.3010020012
 30
0.0
  0
VERTEX
  5
34C
  8
0
  6
CONTINUOUS
 62
     7
 10
1612.3291349612
 20
1079.6558676455
 30
0.0
  0
VERTEX
  5
34D
  8
0
  6
CONTINUOUS
 62
     7
 10
1612.5681496839
 20
1078.9178406601
 30
0.0
  0
VERTEX
  5
34E
  8
0
  6
CONTINUOUS
 62
     7
 10
1612.9067037449
 20
1078.1074407051
 30
0.0
  0
SEQEND
  5
345
  8
0
  6
CONTINUOUS
 62
     7
  0
LINE
  5
1B5
  8
0
  6
CONTINUOUS
 62
     7
 10
829.3788396999
 20
1082.1074407051
 30
0.0
 11
1612.9067037449
 21
1082.1074407051
 31
0.0
  0
ARC
  5
1B6
  8
0
  6
CONTINUOUS
 62
     7
 10
827.8165243509
 20
-889.5370881176
 30
0.0
 40
0.684251487599528
 50
133.6066022359
 51
190.049674358
  0
LINE
  5
1B7
  8
0
  6
CONTINUOUS
 62
     7
 10
825.1427717224
 20
-889.6564913174
 30
0.0
 11
827.1427717224
 21
-889.6564913174
 31
0.0
  0
POLYLINE
  5
1B8
  8
0
  6
CONTINUOUS
 62
     7
 66
     1
 10
0.0
 20
0.0
 30
0.0
  0
VERTEX
  5
350
  8
0
  6
CONTINUOUS
 62
     7
 10
829.1427717224
 20
-889.6564913174
 30
0.0
  0
VERTEX
  5
351
  8
0
  6
CONTINUOUS
 62
     7
 10
828.3327250618
 20
-889.3241988657
 30
0.0
  0
VERTEX
  5
352
  8
0
  6
CONTINUOUS
 62
     7
 10
827.563914242
 20
-889.0865625441
 30
0.0
  0
VERTEX
  5
353
  8
0
  6
CONTINUOUS
 62
     7
 10
826.8660631685
 20
-888.9435823527
 30
0.0
  0
VERTEX
  5
354
  8
0
  6
CONTINUOUS
 62
     7
 10
826.2645404838
 20
-888.8952582914
 30
0.0
  0
VERTEX
  5
355
  8
0
  6
CONTINUOUS
 62
     7
 10
825.7978812717
 20
-888.9394471531
 30
0.0
  0
VERTEX
  5
356
  8
0
  6
CONTINUOUS
 62
     7
 10
825.4546317059
 20
-889.0789225392
 30
0.0
  0
VERTEX
  5
357
  8
0
  6
CONTINUOUS
 62
     7
 10
825.2257250959
 20
-889.3179372606
 30
0.0
  0
VERTEX
  5
358
  8
0
  6
CONTINUOUS
 62
     7
 10
825.142771448
 20
-889.6564913174
 30
0.0
  0
SEQEND
  5
34F
  8
0
  6
CONTINUOUS
 62
     7
  0
POLYLINE
  5
1B9
  8
0
  6
CONTINUOUS
 62
     7
 66
     1
 10
0.0
 20
0.0
 30
0.0
  0
VERTEX
  5
35A
  8
0
  6
CONTINUOUS
 62
     7
 10
825.142771448
 20
1077.8713727276
 30
0.0
  0
VERTEX
  5
35B
  8
0
  6
CONTINUOUS
 62
     7
 10
825.2257250959
 20
1077.5328186708
 30
0.0
  0
VERTEX
  5
35C
  8
0
  6
CONTINUOUS
 62
     7
 10
825.454631706
 20
1077.2938039493
 30
0.0
  0
VERTEX
  5
35D
  8
0
  6
CONTINUOUS
 62
     7
 10
825.7978812717
 20
1077.1543285634
 30
0.0
  0
VERTEX
  5
35E
  8
0
  6
CONTINUOUS
 62
     7
 10
826.2645404842
 20
1077.1101397017
 30
0.0
  0
VERTEX
  5
35F
  8
0
  6
CONTINUOUS
 62
     7
 10
826.8660631695
 20
1077.158463763
 30
0.0
  0
VERTEX
  5
360
  8
0
  6
CONTINUOUS
 62
     7
 10
827.5639142432
 20
1077.3014439544
 30
0.0
  0
VERTEX
  5
361
  8
0
  6
CONTINUOUS
 62
     7
 10
828.3327250627
 20
1077.539080276
 30
0.0
  0
VERTEX
  5
362
  8
0
  6
CONTINUOUS
 62
     7
 10
829.1427717224
 20
1077.8713727276
 30
0.0
  0
SEQEND
  5
359
  8
0
  6
CONTINUOUS
 62
     7
  0
LINE
  5
1BA
  8
0
  6
CONTINUOUS
 62
     7
 10
825.1427717224
 20
-889.6564913174
 30
0.0
 11
825.1427717224
 21
1077.8713727276
 31
0.0
  0
LINE
  5
1BB
  8
0
  6
CONTINUOUS
 62
     7
 10
827.142771448
 20
1077.8713727276
 30
0.0
 11
825.1427717224
 21
1077.8713727276
 31
0.0
  0
ARC
  5
1BC
  8
0
  6
CONTINUOUS
 62
     7
 10
827.8165243509
 20
1077.7519695279
 30
0.0
 40
0.6842514876002282
 50
169.9503256395
 51
226.3933977809
  0
POLYLINE
  5
1BD
  8
0
  6
CONTINUOUS
 62
     7
 66
     1
 10
0.0
 20
0.0
 30
0.0
  0
VERTEX
  5
364
  8
0
  6
CONTINUOUS
 62
     7
 10
1612.9067037449
 20
-889.8925592949
 30
0.0
  0
VERTEX
  5
365
  8
0
  6
CONTINUOUS
 62
     7
 10
1612.5681501683
 20
-890.7029522642
 30
0.0
  0
VERTEX
  5
366
  8
0
  6
CONTINUOUS
 62
     7
 10
1612.329135531
 20
-891.4409784972
 30
0.0
  0
VERTEX
  5
367
  8
0
  6
CONTINUOUS
 62
     7
 10
1612.1896598332
 20
-892.0861174329
 30
0.0
  0
VERTEX
  5
368
  8
0
  6
CONTINUOUS
 62
     7
 10
1612.1454707192
 20
-892.6702901656
 30
0.0
  0
VERTEX
  5
369
  8
0
  6
CONTINUOUS
 62
     7
 10
1612.1937947835
 20
-893.1814196776
 30
0.0
  0
VERTEX
  5
36A
  8
0
  6
CONTINUOUS
 62
     7
 10
1612.3367749758
 20
-893.5677754858
 30
0.0
  0
VERTEX
  5
36B
  8
0
  6
CONTINUOUS
 62
     7
 10
1612.5744112963
 20
-893.8096793822
 30
0.0
  0
VERTEX
  5
36C
  8
0
  6
CONTINUOUS
 62
     7
 10
1612.9067037449
 20
-893.8925599837
 30
0.0
  0
SEQEND
  5
363
  8
0
  6
CONTINUOUS
 62
     7
  0
LINE
  5
1BE
  8
0
  6
CONTINUOUS
 62
     7
 10
829.3788396999
 20
-893.8925592949
 30
0.0
 11
1612.9067037449
 21
-893.8925592949
 31
0.0
  0
POLYLINE
  5
1BF
  8
0
  6
CONTINUOUS
 62
     7
 66
     1
 10
0.0
 20
0.0
 30
0.0
  0
VERTEX
  5
36E
  8
0
  6
CONTINUOUS
 62
     7
 10
829.3788396999
 20
-893.8925599837
 30
0.0
  0
VERTEX
  5
36F
  8
0
  6
CONTINUOUS
 62
     7
 10
829.7111321485
 20
-893.8096793822
 30
0.0
  0
VERTEX
  5
370
  8
0
  6
CONTINUOUS
 62
     7
 10
829.948768469
 20
-893.5677754856
 30
0.0
  0
VERTEX
  5
371
  8
0
  6
CONTINUOUS
 62
     7
 10
830.0917486613
 20
-893.1814196774
 30
0.0
  0
VERTEX
  5
372
  8
0
  6
CONTINUOUS
 62
     7
 10
830.1400727256
 20
-892.6702901655
 30
0.0
  0
VERTEX
  5
373
  8
0
  6
CONTINUOUS
 62
     7
 10
830.0958836116
 20
-892.0861174329
 30
0.0
  0
VERTEX
  5
374
  8
0
  6
CONTINUOUS
 62
     7
 10
829.9564079138
 20
-891.4409784972
 30
0.0
  0
VERTEX
  5
375
  8
0
  6
CONTINUOUS
 62
     7
 10
829.7173932765
 20
-890.7029522642
 30
0.0
  0
VERTEX
  5
376
  8
0
  6
CONTINUOUS
 62
     7
 10
829.3788396999
 20
-889.8925592949
 30
0.0
  0
SEQEND
  5
36D
  8
0
  6
CONTINUOUS
 62
     7
  0
ARC
  5
1C0
  8
0
  6
CONTINUOUS
 62
     7
 10
829.496380123
 20
-891.2594939861
 30
0.0
 40
0.6438853223538717
 50
259.4817507921
 51
321.8988860833
  0
LINE
  5
1C1
  8
0
  6
CONTINUOUS
 62
     7
 10
829.3788396999
 20
-893.8925592949
 30
0.0
 11
829.3788396999
 21
-891.8925599837
 31
0.0
  0
ARC
  5
1C2
  8
0
  6
CONTINUOUS
 62
     7
 10
1612.7891633217
 20
-891.2594939861
 30
0.0
 40
0.6438853223469418
 50
218.1011139221
 51
280.5182492139
  0
LINE
  5
1C3
  8
0
  6
CONTINUOUS
 62
     7
 10
1612.9067037449
 20
-891.8925592949
 30
0.0
 11
1612.9067037449
 21
-893.8925592949
 31
0.0
  0
LINE
  5
1C4
  8
0
  6
CONTINUOUS
 62
     7
 10
1612.9067037449
 20
1080.1074413939
 30
0.0
 11
1612.9067037449
 21
1082.1074407051
 31
0.0
  0
ARC
  5
1C5
  8
0
  6
CONTINUOUS
 62
     7
 10
1612.7891632303
 20
1079.4743755516
 30
0.0
 40
0.6438851864379718
 50
79.4817402688
 51
141.8987904767
  0
ARC
  5
1C6
  8
0
  6
CONTINUOUS
 62
     7
 10
1614.4690190941
 20
1077.7519695279
 30
0.0
 40
0.6842514874122829
 50
313.6066022137
 51
10.0496743588
  0
LINE
  5
1C7
  8
0
  6
CONTINUOUS
 62
     7
 10
1615.1427717224
 20
1077.8713727276
 30
0.0
 11
1617.1427717224
 21
1077.8713727276
 31
0.0
  0
POLYLINE
  5
1C8
  8
0
  6
CONTINUOUS
 62
     7
 66
     1
 10
0.0
 20
0.0
 30
0.0
  0
VERTEX
  5
378
  8
0
  6
CONTINUOUS
 62
     7
 10
1613.1427717224
 20
1077.8713727276
 30
0.0
  0
VERTEX
  5
379
  8
0
  6
CONTINUOUS
 62
     7
 10
1613.9528183836
 20
1077.5390802758
 30
0.0
  0
VERTEX
  5
37A
  8
0
  6
CONTINUOUS
 62
     7
 10
1614.7216292037
 20
1077.3014439542
 30
0.0
  0
VERTEX
  5
37B
  8
0
  6
CONTINUOUS
 62
     7
 10
1615.419480277
 20
1077.1584637628
 30
0.0
  0
VERTEX
  5
37C
  8
0
  6
CONTINUOUS
 62
     7
 10
1616.0210029613
 20
1077.1101397016
 30
0.0
  0
VERTEX
  5
37D
  8
0
  6
CONTINUOUS
 62
     7
 10
1616.4876621733
 20
1077.1543285635
 30
0.0
  0
VERTEX
  5
37E
  8
0
  6
CONTINUOUS
 62
     7
 10
1616.8309117392
 20
1077.2938039497
 30
0.0
  0
VERTEX
  5
37F
  8
0
  6
CONTINUOUS
 62
     7
 10
1617.0598183491
 20
1077.532818671
 30
0.0
  0
VERTEX
  5
380
  8
0
  6
CONTINUOUS
 62
     7
 10
1617.1427719968
 20
1077.8713727276
 30
0.0
  0
SEQEND
  5
377
  8
0
  6
CONTINUOUS
 62
     7
  0
LINE
  5
1C9
  8
0
  6
CONTINUOUS
 62
     7
 10
1617.1427717224
 20
-889.6564913174
 30
0.0
 11
1617.1427717224
 21
1077.8713727276
 31
0.0
  0
POLYLINE
  5
1CA
  8
0
  6
CONTINUOUS
 62
     7
 66
     1
 10
0.0
 20
0.0
 30
0.0
  0
VERTEX
  5
382
  8
0
  6
CONTINUOUS
 62
     7
 10
1617.1427719968
 20
-889.6564913174
 30
0.0
  0
VERTEX
  5
383
  8
0
  6
CONTINUOUS
 62
     7
 10
1617.0598183491
 20
-889.3179372608
 30
0.0
  0
VERTEX
  5
384
  8
0
  6
CONTINUOUS
 62
     7
 10
1616.8309117392
 20
-889.0789225395
 30
0.0
  0
VERTEX
  5
385
  8
0
  6
CONTINUOUS
 62
     7
 10
1616.4876621733
 20
-888.9394471533
 30
0.0
  0
VERTEX
  5
386
  8
0
  6
CONTINUOUS
 62
     7
 10
1616.0210029609
 20
-888.8952582912
 30
0.0
  0
VERTEX
  5
387
  8
0
  6
CONTINUOUS
 62
     7
 10
1615.4194802761
 20
-888.9435823523
 30
0.0
  0
VERTEX
  5
388
  8
0
  6
CONTINUOUS
 62
     7
 10
1614.7216292026
 20
-889.0865625437
 30
0.0
  0
VERTEX
  5
389
  8
0
  6
CONTINUOUS
 62
     7
 10
1613.9528183828
 20
-889.3241988653
 30
0.0
  0
VERTEX
  5
38A
  8
0
  6
CONTINUOUS
 62
     7
 10
1613.1427717224
 20
-889.6564913174
 30
0.0
  0
SEQEND
  5
381
  8
0
  6
CONTINUOUS
 62
     7
  0
ARC
  5
1CB
  8
0
  6
CONTINUOUS
 62
     7
 10
1614.4690190941
 20
-889.5370881178
 30
0.0
 40
0.6842514873991211
 50
349.9503256522
 51
46.3933978423
  0
LINE
  5
1CC
  8
0
  6
CONTINUOUS
 62
     7
 10
1617.1427717224
 20
-889.6564913174
 30
0.0
 11
1615.1427719968
 21
-889.6564913174
 31
0.0
  0
CIRCLE
  5
1CD
  8
0
  6
CONTINUOUS
 62
     7
 10
846.1427717224
 20
986.1074407051
 30
0.0
 40
3.000000000000114
  0
CIRCLE
  5
1CE
  8
0
  6
CONTINUOUS
 62
     7
 10
846.1427717224
 20
-813.8925592949
 30
0.0
 40
3.000000000000114
  0
CIRCLE
  5
1CF
  8
0
  6
CONTINUOUS
 62
     7
 10
846.1427717224
 20
86.1074407051
 30
0.0
 40
3.000000000000114
  0
CIRCLE
  5
1D0
  8
0
  6
CONTINUOUS
 62
     7
 10
1596.1427717224
 20
986.1074407051
 30
0.0
 40
3.0
  0
CIRCLE
  5
1D1
  8
0
  6
CONTINUOUS
 62
     7
 10
1596.1427717224
 20
-813.8925592949
 30
0.0
 40
3.0
  0
CIRCLE
  5
1D2
  8
0
  6
CONTINUOUS
 62
     7
 10
1596.1427717224
 20
86.1074407051
 30
0.0
 40
3.0
  0
LINE
  5
1D3
  8
0
  6
CONTINUOUS
 62
     7
 10
827.1427717224
 20
-889.6564913174
 30
0.0
 11
827.1427717224
 21
-889.8925592949
 31
0.0
  0
LINE
  5
1D4
  8
0
  6
CONTINUOUS
 62
     7
 10
827.1427710336
 20
-889.8925592949
 30
0.0
 11
825.1427717224
 21
-889.8925592949
 31
0.0
  0
LINE
  5
1D5
  8
0
  6
CONTINUOUS
 62
     7
 10
825.1427717224
 20
-889.6564913174
 30
0.0
 11
825.1427717224
 21
-889.8925592949
 31
0.0
  0
LINE
  5
1D6
  8
0
  6
CONTINUOUS
 62
     7
 10
825.1427717224
 20
1077.8713727276
 30
0.0
 11
825.1427717224
 21
1078.1074407051
 31
0.0
  0
LINE
  5
1D7
  8
0
  6
CONTINUOUS
 62
     7
 10
827.1427717224
 20
1078.1074407051
 30
0.0
 11
825.1427717224
 21
1078.1074407051
 31
0.0
  0
LINE
  5
1D8
  8
0
  6
CONTINUOUS
 62
     7
 10
827.1427717224
 20
1077.8713727276
 30
0.0
 11
827.1427717224
 21
1078.1074407051
 31
0.0
  0
LINE
  5
1D9
  8
0
  6
CONTINUOUS
 62
     7
 10
829.264092066
 20
1080.1074407051
 30
0.0
 11
829.3788396999
 21
1080.1074407051
 31
0.0
  0
LINE
  5
1DA
  8
0
  6
CONTINUOUS
 62
     7
 10
829.264092066
 20
1082.1074407051
 30
0.0
 11
829.264092066
 21
1080.1074407051
 31
0.0
  0
LINE
  5
1DB
  8
0
  6
CONTINUOUS
 62
     7
 10
829.264092066
 20
1082.1074407051
 30
0.0
 11
829.3788396999
 21
1082.1074407051
 31
0.0
  0
LINE
  5
1DC
  8
0
  6
CONTINUOUS
 62
     7
 10
829.264092066
 20
-891.8925592948
 30
0.0
 11
829.264092066
 21
-893.8925592949
 31
0.0
  0
LINE
  5
1DD
  8
0
  6
CONTINUOUS
 62
     7
 10
829.264092066
 20
-891.8925592949
 30
0.0
 11
829.3788396999
 21
-891.8925592949
 31
0.0
  0
LINE
  5
1DE
  8
0
  6
CONTINUOUS
 62
     7
 10
829.264092066
 20
-893.8925592949
 30
0.0
 11
829.3788396999
 21
-893.8925592949
 31
0.0
  0
LINE
  5
1DF
  8
0
  6
CONTINUOUS
 62
     7
 10
1617.1427717224
 20
1078.1074407051
 30
0.0
 11
1615.1427717224
 21
1078.1074407051
 31
0.0
  0
LINE
  5
1E0
  8
0
  6
CONTINUOUS
 62
     7
 10
1617.1427717224
 20
1077.8713727276
 30
0.0
 11
1617.1427717224
 21
1078.1074407051
 31
0.0
  0
LINE
  5
1E1
  8
0
  6
CONTINUOUS
 62
     7
 10
1615.1427717224
 20
1077.8713727276
 30
0.0
 11
1615.1427717224
 21
1078.1074407051
 31
0.0
  0
LINE
  5
1E2
  8
0
  6
CONTINUOUS
 62
     7
 10
1613.0214513788
 20
-893.8925592949
 30
0.0
 11
1613.0214513788
 21
-891.8925592949
 31
0.0
  0
LINE
  5
1E3
  8
0
  6
CONTINUOUS
 62
     7
 10
1613.0214513788
 20
-891.8925592949
 30
0.0
 11
1612.9067037449
 21
-891.8925592949
 31
0.0
  0
LINE
  5
1E4
  8
0
  6
CONTINUOUS
 62
     7
 10
1613.0214513788
 20
-893.8925592949
 30
0.0
 11
1612.9067037449
 21
-893.8925592949
 31
0.0
  0
LINE
  5
1E5
  8
0
  6
CONTINUOUS
 62
     7
 10
1613.0214513788
 20
1080.1074407051
 30
0.0
 11
1613.0214513788
 21
1082.1074407051
 31
0.0
  0
LINE
  5
1E6
  8
0
  6
CONTINUOUS
 62
     7
 10
1613.0214513788
 20
1080.1074407051
 30
0.0
 11
1612.9067037449
 21
1080.1074407051
 31
0.0
  0
LINE
  5
1E7
  8
0
  6
CONTINUOUS
 62
     7
 10
1613.0214513788
 20
1082.1074407051
 30
0.0
 11
1612.9067037449
 21
1082.1074407051
 31
0.0
  0
LINE
  5
1E8
  8
0
  6
CONTINUOUS
 62
     7
 10
1617.1427717224
 20
-889.8925592949
 30
0.0
 11
1615.1427724112
 21
-889.8925592949
 31
0.0
  0
LINE
  5
1E9
  8
0
  6
CONTINUOUS
 62
     7
 10
1617.1427717224
 20
-889.6564913174
 30
0.0
 11
1617.1427717224
 21
-889.8925592949
 31
0.0
  0
LINE
  5
1EA
  8
0
  6
CONTINUOUS
 62
     7
 10
1615.1427717224
 20
-889.6564913174
 30
0.0
 11
1615.1427717224
 21
-889.8925592949
 31
0.0
  0
LINE
  5
1EB
  8
0
  6
CONTINUOUS
 62
     7
 10
829.264092066
 20
-891.8925592949
 30
0.0
 11
829.264092066
 21
-893.8925592949
 31
0.0
  0
LINE
  5
1EC
  8
0
  6
CONTINUOUS
 62
     7
 10
829.1427717224
 20
-893.8925592949
 30
0.0
 11
829.264092066
 21
-893.8925592949
 31
0.0
  0
LINE
  5
1ED
  8
0
  6
CONTINUOUS
 62
     7
 10
829.1427717224
 20
-891.8925592949
 30
0.0
 11
829.1427717224
 21
-893.8925592949
 31
0.0
  0
LINE
  5
1EE
  8
0
  6
CONTINUOUS
 62
     7
 10
829.1427717224
 20
-891.8925592949
 30
0.0
 11
829.264092066
 21
-891.8925592949
 31
0.0
  0
LINE
  5
1EF
  8
0
  6
CONTINUOUS
 62
     7
 10
829.264092066
 20
1082.1074407051
 30
0.0
 11
829.264092066
 21
1080.1074407051
 31
0.0
  0
LINE
  5
1F0
  8
0
  6
CONTINUOUS
 62
     7
 10
829.1427717224
 20
1080.1074407051
 30
0.0
 11
829.264092066
 21
1080.1074407051
 31
0.0
  0
LINE
  5
1F1
  8
0
  6
CONTINUOUS
 62
     7
 10
829.1427717224
 20
1080.1074413939
 30
0.0
 11
829.1427717224
 21
1082.1074407051
 31
0.0
  0
LINE
  5
1F2
  8
0
  6
CONTINUOUS
 62
     7
 10
829.1427717224
 20
1082.1074407051
 30
0.0
 11
829.264092066
 21
1082.1074407051
 31
0.0
  0
LINE
  5
1F3
  8
0
  6
CONTINUOUS
 62
     7
 10
1613.0214513788
 20
1080.1074407051
 30
0.0
 11
1613.0214513788
 21
1082.1074407051
 31
0.0
  0
LINE
  5
1F4
  8
0
  6
CONTINUOUS
 62
     7
 10
1613.1427717224
 20
1082.1074407051
 30
0.0
 11
1613.1427717224
 21
1080.1074407051
 31
0.0
  0
LINE
  5
1F5
  8
0
  6
CONTINUOUS
 62
     7
 10
1613.1427717224
 20
1080.1074407051
 30
0.0
 11
1613.0214513788
 21
1080.1074407051
 31
0.0
  0
LINE
  5
1F6
  8
0
  6
CONTINUOUS
 62
     7
 10
1613.1427717224
 20
1082.1074407051
 30
0.0
 11
1613.0214513788
 21
1082.1074407051
 31
0.0
  0
LINE
  5
1F7
  8
0
  6
CONTINUOUS
 62
     7
 10
1613.0214513788
 20
-893.8925592949
 30
0.0
 11
1613.0214513788
 21
-891.8925592949
 31
0.0
  0
LINE
  5
1F8
  8
0
  6
CONTINUOUS
 62
     7
 10
1613.1427717224
 20
-893.8925592949
 30
0.0
 11
1613.1427717224
 21
-891.8925599837
 31
0.0
  0
LINE
  5
1F9
  8
0
  6
CONTINUOUS
 62
     7
 10
1613.1427717224
 20
-891.8925592949
 30
0.0
 11
1613.0214513788
 21
-891.8925592949
 31
0.0
  0
LINE
  5
1FA
  8
0
  6
CONTINUOUS
 62
     7
 10
1613.1427717224
 20
-893.8925592949
 30
0.0
 11
1613.0214513788
 21
-893.8925592949
 31
0.0
  0
ARC
  5
1FB
  8
0
  6
CONTINUOUS
 62
     7
 10
829.1427717224
 20
-889.8925592949
 30
0.0
 40
2.000000688793193
 50
180.0
 51
270.0
  0
ARC
  5
1FC
  8
0
  6
CONTINUOUS
 62
     7
 10
829.1427717224
 20
-889.8925592949
 30
0.0
 40
4.000000688793193
 50
180.0
 51
270.0
  0
ARC
  5
1FD
  8
0
  6
CONTINUOUS
 62
     7
 10
829.1427717224
 20
1078.1074407051
 30
0.0
 40
2.000000688793079
 50
90.0
 51
180.0
  0
ARC
  5
1FE
  8
0
  6
CONTINUOUS
 62
     7
 10
829.1427717224
 20
1078.1074407051
 30
0.0
 40
4.000000688793421
 50
90.0
 51
180.0
  0
ARC
  5
1FF
  8
0
  6
CONTINUOUS
 62
     7
 10
1613.1427717224
 20
1078.1074407051
 30
0.0
 40
4.000000688793762
 50
0.0
 51
90.0
  0
ARC
  5
200
  8
0
  6
CONTINUOUS
 62
     7
 10
1613.1427717224
 20
1078.1074407051
 30
0.0
 40
2.000000688793079
 50
0.0
 51
90.0
  0
ARC
  5
201
  8
0
  6
CONTINUOUS
 62
     7
 10
1613.1427717224
 20
-889.8925592949
 30
0.0
 40
2.000000688793307
 50
270.0
 51
0.0
  0
ARC
  5
202
  8
0
  6
CONTINUOUS
 62
     7
 10
1613.1427717224
 20
-889.8925592949
 30
0.0
 40
4.000000688793307
 50
270.0
 51
0.0
  0
ENDSEC
  0
EOF
