  0
SECTION
  2
HEADER
  9
$ACADVER
  1
AC1009
  9
$DWGCODEPAGE
  3
ansi_1252
  9
$INSBASE
 10
0.0
 20
0.0
 30
0.0
  9
$EXTMIN
 10
0.0
 20
0.0
 30
0.0
  9
$EXTMAX
 10
297.0
 20
210.0
 30
0.0
  9
$LIMMIN
 10
0.0
 20
0.0
  9
$LIMMAX
 10
0.0
 20
0.0
  9
$ORTHOMODE
 70
     0
  9
$REGENMODE
 70
     1
  9
$FILLMODE
 70
     1
  9
$QTEXTMODE
 70
     0
  9
$MIRRTEXT
 70
     1
  9
$DRAGMODE
 70
     2
  9
$LTSCALE
 40
1.0
  9
$OSMODE
 70
    37
  9
$ATTMODE
 70
     1
  9
$TEXTSIZE
 40
3.5277777778
  9
$TRACEWID
 40
1.0
  9
$TEXTSTYLE
  7
STANDARD
  9
$CLAYER
  8
0
  9
$CELTYPE
  6
BYLAYER
  9
$CECOLOR
 62
   256
  9
$DIMSCALE
 40
1.0
  9
$DIMASZ
 40
1.8
  9
$DIMEXO
 40
0.7
  9
$DIMDLI
 40
3.75
  9
$DIMRND
 40
0.0
  9
$DIMDLE
 40
0.0
  9
$DIMEXE
 40
0.5
  9
$DIMTP
 40
0.0
  9
$DIMTM
 40
0.0
  9
$DIMTXT
 40
2.4694444444
  9
$DIMCEN
 40
2.5
  9
$DIMTSZ
 40
0.0
  9
$DIMTOL
 70
     0
  9
$DIMLIM
 70
     0
  9
$DIMTIH
 70
     1
  9
$DIMTOH
 70
     1
  9
$DIMSE1
 70
     0
  9
$DIMSE2
 70
     0
  9
$DIMTAD
 70
     1
  9
$DIMZIN
 70
     0
  9
$DIMBLK
  1

  9
$DIMASO
 70
     1
  9
$DIMSHO
 70
     1
  9
$DIMPOST
  1

  9
$DIMAPOST
  1

  9
$DIMALT
 70
     0
  9
$DIMALTD
 70
     3
  9
$DIMALTF
 40
0.0393700787
  9
$DIMLFAC
 40
1.0
  9
$DIMTOFL
 70
     1
  9
$DIMTVP
 40
0.0
  9
$DIMTIX
 70
     0
  9
$DIMSOXD
 70
     0
  9
$DIMSAH
 70
     0
  9
$DIMBLK1
  1

  9
$DIMBLK2
  1

  9
$DIMSTYLE
  2
ISO-25
  9
$DIMCLRD
 70
     0
  9
$DIMCLRE
 70
     0
  9
$DIMCLRT
 70
     0
  9
$DIMTFAC
 40
1.0
  9
$DIMGAP
 40
2.0
  9
$LUNITS
 70
     2
  9
$LUPREC
 70
     2
  9
$SKETCHINC
 40
1.0
  9
$FILLETRAD
 40
10.0
  9
$AUNITS
 70
     0
  9
$AUPREC
 70
     0
  9
$MENU
  1
.
  9
$ELEVATION
 40
0.0
  9
$PELEVATION
 40
0.0
  9
$THICKNESS
 40
0.0
  9
$LIMCHECK
 70
     0
  9
$CHAMFERA
 40
10.0
  9
$CHAMFERB
 40
10.0
  9
$SKPOLY
 70
     0
  9
$TDCREATE
 40
2455110.51776963
  9
$TDUPDATE
 40
2455110.517769641
  9
$TDINDWG
 40
0.0000000116
  9
$TDUSRTIMER
 40
0.0000000116
  9
$USRTIMER
 70
     1
  9
$ANGBASE
 50
0.0
  9
$ANGDIR
 70
     0
  9
$PDMODE
 70
     0
  9
$PDSIZE
 40
-1.0
  9
$PLINEWID
 40
0.0
  9
$COORDS
 70
     1
  9
$SPLFRAME
 70
     0
  9
$SPLINETYPE
 70
     6
  9
$SPLINESEGS
 70
     8
  9
$ATTDIA
 70
     0
  9
$ATTREQ
 70
     1
  9
$HANDLING
 70
     1
  9
$HANDSEED
  5
38F
  9
$SURFTAB1
 70
     6
  9
$SURFTAB2
 70
     6
  9
$SURFTYPE
 70
     6
  9
$SURFU
 70
     6
  9
$SURFV
 70
     6
  9
$UCSNAME
  2

  9
$UCSORG
 10
0.0
 20
0.0
 30
0.0
  9
$UCSXDIR
 10
1.0
 20
0.0
 30
0.0
  9
$UCSYDIR
 10
0.0
 20
1.0
 30
0.0
  9
$PUCSNAME
  2

  9
$PUCSORG
 10
0.0
 20
0.0
 30
0.0
  9
$PUCSXDIR
 10
1.0
 20
0.0
 30
0.0
  9
$PUCSYDIR
 10
0.0
 20
1.0
 30
0.0
  9
$USERI1
 70
     0
  9
$USERI2
 70
     0
  9
$USERI3
 70
     0
  9
$USERI4
 70
     0
  9
$USERI5
 70
     0
  9
$USERR1
 40
0.0
  9
$USERR2
 40
0.0
  9
$USERR3
 40
0.0
  9
$USERR4
 40
0.0
  9
$USERR5
 40
0.0
  9
$WORLDVIEW
 70
     1
  9
$SHADEDGE
 70
     3
  9
$SHADEDIF
 70
    70
  9
$TILEMODE
 70
     1
  9
$MAXACTVP
 70
    64
  9
$PLIMCHECK
 70
     0
  9
$PEXTMIN
 10
1.0000000000E+20
 20
1.0000000000E+20
 30
1.0000000000E+20
  9
$PEXTMAX
 10
-1.0000000000E+20
 20
-1.0000000000E+20
 30
-1.0000000000E+20
  9
$PLIMMIN
 10
0.0
 20
0.0
  9
$PLIMMAX
 10
420.0
 20
297.0
  9
$UNITMODE
 70
     0
  9
$VISRETAIN
 70
     1
  9
$PLINEGEN
 70
     0
  9
$PSLTSCALE
 70
     1
  0
ENDSEC
  0
SECTION
  2
TABLES
  0
TABLE
  2
VPORT
 70
     1
  0
VPORT
  2
*ACTIVE
 70
     0
 10
0.0
 20
0.0
 11
1.0
 21
1.0
 12
148.5
 22
105.0
 13
0.0
 23
0.0
 14
10.0
 24
10.0
 15
10.0
 25
10.0
 16
0.0
 26
0.0
 36
1.0
 17
0.0
 27
0.0
 37
0.0
 40
210.0
 41
1.4142857143
 42
50.0
 43
0.0
 44
0.0
 50
0.0
 51
0.0
 71
     0
 72
  2000
 73
     1
 74
     3
 75
     0
 76
     0
 77
     0
 78
     0
  0
ENDTAB
  0
TABLE
  2
LTYPE
 70
     6
  0
LTYPE
  2
CONTINUOUS
 70
     0
  3
Solid line
 72
    65
 73
     0
 40
0.0
  0
LTYPE
  2
HIDDEN
 70
     0
  3
Hidden __ __ __ __ __ __ __ __ __ __ __ __ __ __
 72
    65
 73
     2
 40
1.905
 49
1.27
 49
-0.635
  0
LTYPE
  2
PHANTOM
 70
     0
  3
Phantom ______  __  __  ______  __  __  ______
 72
    65
 73
     6
 40
12.7
 49
6.35
 49
-1.27
 49
1.27
 49
-1.27
 49
1.27
 49
-1.27
  0
LTYPE
  2
CENTER
 70
     0
  3
Center ____ _ ____ _ ____ _ ____ _ ____ _ ____
 72
    65
 73
     4
 40
10.16
 49
6.35
 49
-1.27
 49
1.27
 49
-1.27
  0
LTYPE
  2
CENTERX2
 70
     0
  3
Center (2x) ________  __  ________  __  _____
 72
    65
 73
     4
 40
20.32
 49
12.7
 49
-2.54
 49
2.54
 49
-2.54
  0
LTYPE
  2
DOT2
 70
     0
  3
Dot (.5x) ........................................
 72
    65
 73
     2
 40
0.635
 49
0.0
 49
-0.635
  0
ENDTAB
  0
TABLE
  2
LAYER
 70
     5
  0
LAYER
  2
0
 70
     0
 62
     7
  6
CONTINUOUS
  0
LAYER
  2
SLD-0
 70
     0
 62
     7
  6
CONTINUOUS
  0
LAYER
  2
AM_BOR
 70
     0
 62
     7
  6
CONTINUOUS
  0
LAYER
  2
BIEGLINIE__ZU_
 70
     0
 62
     8
  6
CONTINUOUS
  0
LAYER
  2
BIEGELINIE__WEG_
 70
     0
 62
     8
  6
HIDDEN
  0
ENDTAB
  0
TABLE
  2
STYLE
 70
     1
  0
STYLE
  2
STANDARD
 70
     0
 40
0.0
 41
1.0
 50
0.0
 71
     0
 42
2.5
  3
txt
  4

  0
ENDTAB
  0
TABLE
  2
VIEW
 70
     0
  0
ENDTAB
  0
TABLE
  2
UCS
 70
     0
  0
ENDTAB
  0
TABLE
  2
APPID
 70
     1
  0
APPID
  2
ACAD
 70
     0
  0
ENDTAB
  0
TABLE
  2
DIMSTYLE
 70
     1
  0
DIMSTYLE
  2
ISO-25
 70
     0
  3

  4

  5

  6

  7

 40
1.0
 41
2.5
 42
0.625
 43
3.75
 44
1.25
 45
0.0
 46
0.0
 47
0.0
 48
0.0
140
2.5
141
2.5
142
0.0
143
0.0393700787
144
1.0
145
0.0
146
1.0
147
0.625
 71
     0
 72
     0
 73
     0
 74
     0
 75
     0
 76
     0
 77
     1
 78
     8
170
     0
171
     3
172
     1
173
     0
174
     0
175
     0
176
     0
177
     0
178
     0
  0
ENDTAB
  0
ENDSEC
  0
SECTION
  2
BLOCKS
  0
BLOCK
  8
0
  2
$MODEL_SPACE
 70
     0
 10
0.0
 20
0.0
 30
0.0
  3
$MODEL_SPACE
  1

  0
ENDBLK
  5
21
  8
0
  0
BLOCK
 67
     1
  8
0
  2
$PAPER_SPACE
 70
     0
 10
0.0
 20
0.0
 30
0.0
  3
$PAPER_SPACE
  1

  0
ENDBLK
  5
1D
 67
     1
  8
0
  0
ENDSEC
  0
SECTION
  2
ENTITIES
  0
TEXT
  5
33
  8
SLD-0
 10
782.2094704864
 20
-1041.8263905891
 30
0.0
 40
19.05
  1
RS/GL  BxH 1000 x 2000
 41
0.6204545455
 11
782.2094704864
 21
-1047.2692477319
 31
0.0
 73
     1
  0
ARC
  5
34
  8
0
  6
CONTINUOUS
 62
     7
 10
589.7958232352
 20
1036.6074407051
 30
0.0
 40
20.00000000000045
 50
0.0
 51
90.0
  0
ARC
  5
35
  8
0
  6
CONTINUOUS
 62
     7
 10
589.7958232352
 20
1036.6074407051
 30
0.0
 40
5.000000000000455
 50
0.0
 51
90.0
  0
LINE
  5
36
  8
0
  6
CONTINUOUS
 62
     7
 10
-299.2041767648
 20
1056.6074407051
 30
0.0
 11
589.7958232352
 21
1056.6074407051
 31
0.0
  0
LINE
  5
37
  8
0
  6
CONTINUOUS
 62
     7
 10
-299.2041767648
 20
1041.6074407051
 30
0.0
 11
589.7958232352
 21
1041.6074407051
 31
0.0
  0
LINE
  5
38
  8
0
  6
CONTINUOUS
 62
     7
 10
589.7958232352
 20
-868.3925592949
 30
0.0
 11
-299.2041767648
 21
-868.3925592949
 31
0.0
  0
LINE
  5
39
  8
0
  6
CONTINUOUS
 62
     7
 10
589.7958232352
 20
-853.3925592949
 30
0.0
 11
-299.2041767648
 21
-853.3925592949
 31
0.0
  0
ARC
  5
3A
  8
0
  6
CONTINUOUS
 62
     7
 10
-299.2041767648
 20
-848.3925592949
 30
0.0
 40
20.00000000000023
 50
180.0
 51
270.0
  0
ARC
  5
3B
  8
0
  6
CONTINUOUS
 62
     7
 10
-299.2041767648
 20
-848.3925592949
 30
0.0
 40
5.000000000000114
 50
180.0
 51
270.0
  0
LINE
  5
3C
  8
0
  6
CONTINUOUS
 62
     7
 10
609.7958232352
 20
1036.6074407051
 30
0.0
 11
609.7958232352
 21
-848.3925592949
 31
0.0
  0
LINE
  5
3D
  8
0
  6
CONTINUOUS
 62
     7
 10
594.7958232352
 20
1036.6074407051
 30
0.0
 11
594.7958232352
 21
-848.3925592949
 31
0.0
  0
LINE
  5
3E
  8
0
  6
CONTINUOUS
 62
     7
 10
-304.2041767648
 20
1036.6074407051
 30
0.0
 11
-304.2041767648
 21
-848.3925592949
 31
0.0
  0
LINE
  5
3F
  8
0
  6
CONTINUOUS
 62
     7
 10
-319.2041767648
 20
1036.6074407051
 30
0.0
 11
-319.2041767648
 21
-848.3925592949
 31
0.0
  0
ARC
  5
40
  8
0
  6
CONTINUOUS
 62
     7
 10
-299.2041767648
 20
1036.6074407051
 30
0.0
 40
20.00000000000023
 50
90.0
 51
180.0
  0
ARC
  5
41
  8
0
  6
CONTINUOUS
 62
     7
 10
-299.2041767648
 20
1036.6074407051
 30
0.0
 40
5.000000000000455
 50
90.0
 51
180.0
  0
ARC
  5
42
  8
0
  6
CONTINUOUS
 62
     7
 10
589.7958232352
 20
-848.3925592949
 30
0.0
 40
20.00000000000023
 50
270.0
 51
0.0
  0
ARC
  5
43
  8
0
  6
CONTINUOUS
 62
     7
 10
589.7958232352
 20
-848.3925592949
 30
0.0
 40
5.000000000000114
 50
270.0
 51
0.0
  0
ARC
  5
44
  8
0
  6
CONTINUOUS
 62
     7
 10
-346.704176076
 20
-889.8925592949
 30
0.0
 40
2.000000688793136
 50
180.0
 51
269.9999802675
  0
ARC
  5
45
  8
0
  6
CONTINUOUS
 62
     7
 10
-346.7041767648
 20
-889.8925592949
 30
0.0
 40
4.0
 50
180.0
 51
270.0
  0
LINE
  5
46
  8
0
  6
CONTINUOUS
 62
     7
 10
-330.2041767648
 20
-891.8925592949
 30
0.0
 11
-330.2041767648
 21
-893.8925592949
 31
0.0
  0
LINE
  5
47
  8
0
  6
CONTINUOUS
 62
     7
 10
-346.7041767648
 20
-891.8925592949
 30
0.0
 11
-330.2041767648
 21
-891.8925592949
 31
0.0
  0
LINE
  5
48
  8
0
  6
CONTINUOUS
 62
     7
 10
-346.7041767648
 20
-893.8925592949
 30
0.0
 11
-330.2041767648
 21
-893.8925592949
 31
0.0
  0
LINE
  5
49
  8
0
  6
CONTINUOUS
 62
     7
 10
-348.7041774536
 20
1078.1074407051
 30
0.0
 11
-348.7041767648
 21
-889.8925592949
 31
0.0
  0
LINE
  5
4A
  8
0
  6
CONTINUOUS
 62
     7
 10
-350.7041767648
 20
1078.1074407051
 30
0.0
 11
-350.7041767648
 21
-889.8925592949
 31
0.0
  0
LINE
  5
4B
  8
0
  6
CONTINUOUS
 62
     7
 10
620.7958232352
 20
1080.1074407051
 30
0.0
 11
-330.2041767648
 21
1080.1074407051
 31
0.0
  0
LINE
  5
4C
  8
0
  6
CONTINUOUS
 62
     7
 10
620.7958232352
 20
1082.1074407051
 30
0.0
 11
620.7958232352
 21
1080.1074407051
 31
0.0
  0
LINE
  5
4D
  8
0
  6
CONTINUOUS
 62
     7
 10
620.7958232352
 20
1082.1074407051
 30
0.0
 11
-330.2041767648
 21
1082.1074407051
 31
0.0
  0
LINE
  5
4E
  8
0
  6
CONTINUOUS
 62
     7
 10
-330.2041767648
 20
1082.1074407051
 30
0.0
 11
-330.2041767648
 21
1080.1074407051
 31
0.0
  0
ARC
  5
4F
  8
0
  6
CONTINUOUS
 62
     7
 10
637.2958225464
 20
1078.1074407051
 30
0.0
 40
2.000001377586273
 50
0.0
 51
89.9999802675
  0
ARC
  5
50
  8
0
  6
CONTINUOUS
 62
     7
 10
637.2958232352
 20
1078.1074407051
 30
0.0
 40
4.000000688793193
 50
0.0
 51
90.0
  0
LINE
  5
51
  8
0
  6
CONTINUOUS
 62
     7
 10
-330.2041767648
 20
1080.1074407051
 30
0.0
 11
-330.2041767648
 21
1082.1074407051
 31
0.0
  0
LINE
  5
52
  8
0
  6
CONTINUOUS
 62
     7
 10
-330.2041767648
 20
1080.1074407051
 30
0.0
 11
-346.7041767648
 21
1080.1074413939
 31
0.0
  0
LINE
  5
53
  8
0
  6
CONTINUOUS
 62
     7
 10
-330.2041767648
 20
1082.1074407051
 30
0.0
 11
-346.7041767648
 21
1082.1074407051
 31
0.0
  0
LINE
  5
54
  8
0
  6
CONTINUOUS
 62
     7
 10
620.7958232352
 20
1080.1074407051
 30
0.0
 11
620.7958232352
 21
1082.1074407051
 31
0.0
  0
LINE
  5
55
  8
0
  6
CONTINUOUS
 62
     7
 10
637.2958232352
 20
1080.1074407051
 30
0.0
 11
620.7958232352
 21
1080.1074407051
 31
0.0
  0
LINE
  5
56
  8
0
  6
CONTINUOUS
 62
     7
 10
637.2958232352
 20
1082.1074407051
 30
0.0
 11
620.7958232352
 21
1082.1074407051
 31
0.0
  0
LINE
  5
57
  8
0
  6
CONTINUOUS
 62
     7
 10
639.2958235796
 20
-889.8925592949
 30
0.0
 11
639.295823924
 21
1078.1074407051
 31
0.0
  0
LINE
  5
58
  8
0
  6
CONTINUOUS
 62
     7
 10
641.2958232352
 20
-889.8925592949
 30
0.0
 11
641.295823924
 21
1078.1074407051
 31
0.0
  0
ARC
  5
59
  8
0
  6
CONTINUOUS
 62
     7
 10
-346.704176076
 20
1078.1074407051
 30
0.0
 40
2.000001377586329
 50
90.0000197325
 51
180.0
  0
ARC
  5
5A
  8
0
  6
CONTINUOUS
 62
     7
 10
-346.7041767648
 20
1078.1074407051
 30
0.0
 40
4.000000000000227
 50
90.0
 51
180.0
  0
LINE
  5
5B
  8
0
  6
CONTINUOUS
 62
     7
 10
620.7958232352
 20
-893.8925592949
 30
0.0
 11
620.7958232352
 21
-891.8925592949
 31
0.0
  0
LINE
  5
5C
  8
0
  6
CONTINUOUS
 62
     7
 10
-330.2041767648
 20
-891.8925592948
 30
0.0
 11
620.7958232352
 21
-891.8925592949
 31
0.0
  0
LINE
  5
5D
  8
0
  6
CONTINUOUS
 62
     7
 10
-330.2041767648
 20
-893.8925592949
 30
0.0
 11
-330.2041767648
 21
-891.8925592948
 31
0.0
  0
LINE
  5
5E
  8
0
  6
CONTINUOUS
 62
     7
 10
-330.2041767648
 20
-893.8925592949
 30
0.0
 11
620.7958232352
 21
-893.8925592949
 31
0.0
  0
LINE
  5
5F
  8
0
  6
CONTINUOUS
 62
     7
 10
620.7958232352
 20
-891.8925592949
 30
0.0
 11
620.7958232352
 21
-893.8925592949
 31
0.0
  0
LINE
  5
60
  8
0
  6
CONTINUOUS
 62
     7
 10
620.7958232352
 20
-893.8925592949
 30
0.0
 11
637.2958232352
 21
-893.8925592949
 31
0.0
  0
LINE
  5
61
  8
0
  6
CONTINUOUS
 62
     7
 10
620.7958232352
 20
-891.8925592949
 30
0.0
 11
637.2958232352
 21
-891.8925599837
 31
0.0
  0
ARC
  5
62
  8
0
  6
CONTINUOUS
 62
     7
 10
637.2958225464
 20
-889.8925592949
 30
0.0
 40
2.000001033189733
 50
270.0000197325
 51
0.0
  0
ARC
  5
63
  8
0
  6
CONTINUOUS
 62
     7
 10
637.2958232352
 20
-889.8925592949
 30
0.0
 40
4.0
 50
270.0
 51
0.0
  0
CIRCLE
  5
64
  8
0
  6
CONTINUOUS
 62
     7
 10
-329.7041767648
 20
-813.8925592949
 30
0.0
 40
4.516838966197497
  0
CIRCLE
  5
65
  8
0
  6
CONTINUOUS
 62
     7
 10
-329.7041767648
 20
-813.8925592949
 30
0.0
 40
3.0
  0
CIRCLE
  5
66
  8
0
  6
CONTINUOUS
 62
     7
 10
-329.7041767648
 20
986.1074407051
 30
0.0
 40
4.516838966197497
  0
CIRCLE
  5
67
  8
0
  6
CONTINUOUS
 62
     7
 10
-329.7041767648
 20
86.1074407051
 30
0.0
 40
4.516838966197497
  0
CIRCLE
  5
68
  8
0
  6
CONTINUOUS
 62
     7
 10
-329.7041767648
 20
86.1074407051
 30
0.0
 40
3.0
  0
CIRCLE
  5
69
  8
0
  6
CONTINUOUS
 62
     7
 10
-329.7041767648
 20
986.1074407051
 30
0.0
 40
3.0
  0
CIRCLE
  5
6A
  8
0
  6
CONTINUOUS
 62
     7
 10
620.2958232352
 20
86.1074407051
 30
0.0
 40
4.516838966197497
  0
CIRCLE
  5
6B
  8
0
  6
CONTINUOUS
 62
     7
 10
620.2958232352
 20
-813.8925592949
 30
0.0
 40
4.516838966197497
  0
CIRCLE
  5
6C
  8
0
  6
CONTINUOUS
 62
     7
 10
620.2958232352
 20
-813.8925592949
 30
0.0
 40
3.0
  0
CIRCLE
  5
6D
  8
0
  6
CONTINUOUS
 62
     7
 10
620.2958232352
 20
86.1074407051
 30
0.0
 40
3.0
  0
CIRCLE
  5
6E
  8
0
  6
CONTINUOUS
 62
     7
 10
620.2958232352
 20
986.1074407051
 30
0.0
 40
4.516838966197497
  0
CIRCLE
  5
6F
  8
0
  6
CONTINUOUS
 62
     7
 10
620.2958232352
 20
986.1074407051
 30
0.0
 40
3.0
  0
POLYLINE
  5
70
  8
0
  6
CONTINUOUS
 62
     7
 66
     1
 10
0.0
 20
0.0
 30
0.0
  0
VERTEX
  5
208
  8
0
  6
CONTINUOUS
 62
     7
 10
637.0597552577
 20
1078.1074407051
 30
0.0
  0
VERTEX
  5
209
  8
0
  6
CONTINUOUS
 62
     7
 10
636.7212011965
 20
1078.5126407529
 30
0.0
  0
VERTEX
  5
20A
  8
0
  6
CONTINUOUS
 62
     7
 10
636.4821864738
 20
1078.8816543092
 30
0.0
  0
VERTEX
  5
20B
  8
0
  6
CONTINUOUS
 62
     7
 10
636.3427110895
 20
1079.2042215423
 30
0.0
  0
VERTEX
  5
20C
  8
0
  6
CONTINUOUS
 62
     7
 10
636.2985222321
 20
1079.4963063797
 30
0.0
  0
VERTEX
  5
20D
  8
0
  6
CONTINUOUS
 62
     7
 10
636.3468462963
 20
1079.7518711797
 30
0.0
  0
VERTEX
  5
20E
  8
0
  6
CONTINUOUS
 62
     7
 10
636.4898264886
 20
1079.945049117
 30
0.0
  0
VERTEX
  5
20F
  8
0
  6
CONTINUOUS
 62
     7
 10
636.7274628091
 20
1080.0660010861
 30
0.0
  0
VERTEX
  5
210
  8
0
  6
CONTINUOUS
 62
     7
 10
637.0597552577
 20
1080.1074413939
 30
0.0
  0
SEQEND
  5
207
  8
0
  6
CONTINUOUS
 62
     7
  0
ARC
  5
71
  8
0
  6
CONTINUOUS
 62
     7
 10
643.9832816298
 20
1081.5496880454
 30
0.0
 40
7.732029757899073
 50
192.5340362772
 51
206.4357025407
  0
ARC
  5
72
  8
0
  6
CONTINUOUS
 62
     7
 10
-353.39163514
 20
1081.549688039
 30
0.0
 40
7.732029737675614
 50
333.5642974378
 51
347.4659637363
  0
POLYLINE
  5
73
  8
0
  6
CONTINUOUS
 62
     7
 66
     1
 10
0.0
 20
0.0
 30
0.0
  0
VERTEX
  5
212
  8
0
  6
CONTINUOUS
 62
     7
 10
-348.7041771092
 20
-889.6564913174
 30
0.0
  0
VERTEX
  5
213
  8
0
  6
CONTINUOUS
 62
     7
 10
-348.6627002806
 20
-889.3179372598
 30
0.0
  0
VERTEX
  5
214
  8
0
  6
CONTINUOUS
 62
     7
 10
-348.5482469632
 20
-889.0789225382
 30
0.0
  0
VERTEX
  5
215
  8
0
  6
CONTINUOUS
 62
     7
 10
-348.3766221622
 20
-888.9394471525
 30
0.0
  0
VERTEX
  5
216
  8
0
  6
CONTINUOUS
 62
     7
 10
-348.1432925321
 20
-888.8952582914
 30
0.0
  0
VERTEX
  5
217
  8
0
  6
CONTINUOUS
 62
     7
 10
-347.8425311588
 20
-888.9435823531
 30
0.0
  0
VERTEX
  5
218
  8
0
  6
CONTINUOUS
 62
     7
 10
-347.4936055862
 20
-889.0865625447
 30
0.0
  0
VERTEX
  5
219
  8
0
  6
CONTINUOUS
 62
     7
 10
-347.1092001367
 20
-889.3241988661
 30
0.0
  0
VERTEX
  5
21A
  8
0
  6
CONTINUOUS
 62
     7
 10
-346.7041767648
 20
-889.6564913174
 30
0.0
  0
SEQEND
  5
211
  8
0
  6
CONTINUOUS
 62
     7
  0
ARC
  5
74
  8
0
  6
CONTINUOUS
 62
     7
 10
-350.0432013947
 20
-896.4846769798
 30
0.0
 40
7.60086869515379
 50
63.9410834538
 51
78.3039467187
  0
ARC
  5
75
  8
0
  6
CONTINUOUS
 62
     7
 10
640.6348478624
 20
1084.6995583804
 30
0.0
 40
7.600868685211661
 50
243.9410834408
 51
258.3039467239
  0
ARC
  5
76
  8
0
  6
CONTINUOUS
 62
     7
 10
640.6348478722
 20
-896.4846770041
 30
0.0
 40
7.600868719990377
 50
101.6960532938
 51
116.0589165131
  0
ARC
  5
77
  8
0
  6
CONTINUOUS
 62
     7
 10
-350.0432014007
 20
1084.6995584107
 30
0.0
 40
7.600868716251173
 50
281.6960532919
 51
296.0589165181
  0
POLYLINE
  5
78
  8
0
  6
CONTINUOUS
 62
     7
 66
     1
 10
0.0
 20
0.0
 30
0.0
  0
VERTEX
  5
21C
  8
0
  6
CONTINUOUS
 62
     7
 10
-346.7041767648
 20
1077.8713727276
 30
0.0
  0
VERTEX
  5
21D
  8
0
  6
CONTINUOUS
 62
     7
 10
-347.1092001371
 20
1077.5390802765
 30
0.0
  0
VERTEX
  5
21E
  8
0
  6
CONTINUOUS
 62
     7
 10
-347.4936055867
 20
1077.3014439551
 30
0.0
  0
VERTEX
  5
21F
  8
0
  6
CONTINUOUS
 62
     7
 10
-347.8425311592
 20
1077.1584637635
 30
0.0
  0
VERTEX
  5
220
  8
0
  6
CONTINUOUS
 62
     7
 10
-348.1432925322
 20
1077.1101397017
 30
0.0
  0
VERTEX
  5
221
  8
0
  6
CONTINUOUS
 62
     7
 10
-348.3766221622
 20
1077.1543285627
 30
0.0
  0
VERTEX
  5
222
  8
0
  6
CONTINUOUS
 62
     7
 10
-348.5482469632
 20
1077.2938039485
 30
0.0
  0
VERTEX
  5
223
  8
0
  6
CONTINUOUS
 62
     7
 10
-348.6627002806
 20
1077.5328186701
 30
0.0
  0
VERTEX
  5
224
  8
0
  6
CONTINUOUS
 62
     7
 10
-348.7041771092
 20
1077.8713727276
 30
0.0
  0
SEQEND
  5
21B
  8
0
  6
CONTINUOUS
 62
     7
  0
POLYLINE
  5
79
  8
0
  6
CONTINUOUS
 62
     7
 66
     1
 10
0.0
 20
0.0
 30
0.0
  0
VERTEX
  5
226
  8
0
  6
CONTINUOUS
 62
     7
 10
639.2958235796
 20
1077.8713727276
 30
0.0
  0
VERTEX
  5
227
  8
0
  6
CONTINUOUS
 62
     7
 10
639.2543467511
 20
1077.5328186701
 30
0.0
  0
VERTEX
  5
228
  8
0
  6
CONTINUOUS
 62
     7
 10
639.1398934337
 20
1077.2938039485
 30
0.0
  0
VERTEX
  5
229
  8
0
  6
CONTINUOUS
 62
     7
 10
638.9682686327
 20
1077.1543285627
 30
0.0
  0
VERTEX
  5
22A
  8
0
  6
CONTINUOUS
 62
     7
 10
638.7349390025
 20
1077.1101397017
 30
0.0
  0
VERTEX
  5
22B
  8
0
  6
CONTINUOUS
 62
     7
 10
638.4341776291
 20
1077.1584637634
 30
0.0
  0
VERTEX
  5
22C
  8
0
  6
CONTINUOUS
 62
     7
 10
638.0852520564
 20
1077.301443955
 30
0.0
  0
VERTEX
  5
22D
  8
0
  6
CONTINUOUS
 62
     7
 10
637.7008466071
 20
1077.5390802764
 30
0.0
  0
VERTEX
  5
22E
  8
0
  6
CONTINUOUS
 62
     7
 10
637.2958232352
 20
1077.8713727276
 30
0.0
  0
SEQEND
  5
225
  8
0
  6
CONTINUOUS
 62
     7
  0
POLYLINE
  5
7A
  8
0
  6
CONTINUOUS
 62
     7
 66
     1
 10
0.0
 20
0.0
 30
0.0
  0
VERTEX
  5
230
  8
0
  6
CONTINUOUS
 62
     7
 10
637.2958232352
 20
-889.6564913174
 30
0.0
  0
VERTEX
  5
231
  8
0
  6
CONTINUOUS
 62
     7
 10
637.7008466077
 20
-889.3241988662
 30
0.0
  0
VERTEX
  5
232
  8
0
  6
CONTINUOUS
 62
     7
 10
638.0852520572
 20
-889.0865625448
 30
0.0
  0
VERTEX
  5
233
  8
0
  6
CONTINUOUS
 62
     7
 10
638.4341776298
 20
-888.9435823532
 30
0.0
  0
VERTEX
  5
234
  8
0
  6
CONTINUOUS
 62
     7
 10
638.7349390028
 20
-888.8952582915
 30
0.0
  0
VERTEX
  5
235
  8
0
  6
CONTINUOUS
 62
     7
 10
638.9682686327
 20
-888.9394471525
 30
0.0
  0
VERTEX
  5
236
  8
0
  6
CONTINUOUS
 62
     7
 10
639.1398934337
 20
-889.0789225382
 30
0.0
  0
VERTEX
  5
237
  8
0
  6
CONTINUOUS
 62
     7
 10
639.2543467511
 20
-889.3179372598
 30
0.0
  0
VERTEX
  5
238
  8
0
  6
CONTINUOUS
 62
     7
 10
639.2958235796
 20
-889.6564913174
 30
0.0
  0
SEQEND
  5
22F
  8
0
  6
CONTINUOUS
 62
     7
  0
POLYLINE
  5
7B
  8
0
  6
CONTINUOUS
 62
     7
 66
     1
 10
0.0
 20
0.0
 30
0.0
  0
VERTEX
  5
23A
  8
0
  6
CONTINUOUS
 62
     7
 10
637.0597552577
 20
-891.8925599837
 30
0.0
  0
VERTEX
  5
23B
  8
0
  6
CONTINUOUS
 62
     7
 10
636.7274628091
 20
-891.8511196758
 30
0.0
  0
VERTEX
  5
23C
  8
0
  6
CONTINUOUS
 62
     7
 10
636.4898264887
 20
-891.7301677067
 30
0.0
  0
VERTEX
  5
23D
  8
0
  6
CONTINUOUS
 62
     7
 10
636.3468462963
 20
-891.5369897693
 30
0.0
  0
VERTEX
  5
23E
  8
0
  6
CONTINUOUS
 62
     7
 10
636.2985222321
 20
-891.2814249693
 30
0.0
  0
VERTEX
  5
23F
  8
0
  6
CONTINUOUS
 62
     7
 10
636.342711346
 20
-890.9893385527
 30
0.0
  0
VERTEX
  5
240
  8
0
  6
CONTINUOUS
 62
     7
 10
636.4821870439
 20
-890.6667690293
 30
0.0
  0
VERTEX
  5
241
  8
0
  6
CONTINUOUS
 62
     7
 10
636.7212016811
 20
-890.2977558493
 30
0.0
  0
VERTEX
  5
242
  8
0
  6
CONTINUOUS
 62
     7
 10
637.0597552577
 20
-889.8925592949
 30
0.0
  0
SEQEND
  5
239
  8
0
  6
CONTINUOUS
 62
     7
  0
ARC
  5
7C
  8
0
  6
CONTINUOUS
 62
     7
 10
643.9830993638
 20
-893.3347459201
 30
0.0
 40
7.731839520667947
 50
153.5640990301
 51
167.4661042609
  0
POLYLINE
  5
7D
  8
0
  6
CONTINUOUS
 62
     7
 66
     1
 10
0.0
 20
0.0
 30
0.0
  0
VERTEX
  5
244
  8
0
  6
CONTINUOUS
 62
     7
 10
-346.4681087873
 20
-889.8925592949
 30
0.0
  0
VERTEX
  5
245
  8
0
  6
CONTINUOUS
 62
     7
 10
-346.1295552107
 20
-890.2977558493
 30
0.0
  0
VERTEX
  5
246
  8
0
  6
CONTINUOUS
 62
     7
 10
-345.8905405734
 20
-890.6667690293
 30
0.0
  0
VERTEX
  5
247
  8
0
  6
CONTINUOUS
 62
     7
 10
-345.7510648756
 20
-890.9893385527
 30
0.0
  0
VERTEX
  5
248
  8
0
  6
CONTINUOUS
 62
     7
 10
-345.7068757616
 20
-891.2814249694
 30
0.0
  0
VERTEX
  5
249
  8
0
  6
CONTINUOUS
 62
     7
 10
-345.7551998258
 20
-891.5369897694
 30
0.0
  0
VERTEX
  5
24A
  8
0
  6
CONTINUOUS
 62
     7
 10
-345.8981800181
 20
-891.7301677067
 30
0.0
  0
VERTEX
  5
24B
  8
0
  6
CONTINUOUS
 62
     7
 10
-346.1358163386
 20
-891.8511196758
 30
0.0
  0
VERTEX
  5
24C
  8
0
  6
CONTINUOUS
 62
     7
 10
-346.4681087873
 20
-891.8925599837
 30
0.0
  0
SEQEND
  5
243
  8
0
  6
CONTINUOUS
 62
     7
  0
ARC
  5
7E
  8
0
  6
CONTINUOUS
 62
     7
 10
-353.3914528937
 20
-893.3347459201
 30
0.0
 40
7.731839521050845
 50
12.533895738
 51
26.435900969
  0
POLYLINE
  5
7F
  8
0
  6
CONTINUOUS
 62
     7
 66
     1
 10
0.0
 20
0.0
 30
0.0
  0
VERTEX
  5
24E
  8
0
  6
CONTINUOUS
 62
     7
 10
-346.4681087873
 20
1080.1074413939
 30
0.0
  0
VERTEX
  5
24F
  8
0
  6
CONTINUOUS
 62
     7
 10
-346.1358163387
 20
1080.0660010861
 30
0.0
  0
VERTEX
  5
250
  8
0
  6
CONTINUOUS
 62
     7
 10
-345.8981800182
 20
1079.945049117
 30
0.0
  0
VERTEX
  5
251
  8
0
  6
CONTINUOUS
 62
     7
 10
-345.7551998259
 20
1079.7518711796
 30
0.0
  0
VERTEX
  5
252
  8
0
  6
CONTINUOUS
 62
     7
 10
-345.7068757616
 20
1079.4963063796
 30
0.0
  0
VERTEX
  5
253
  8
0
  6
CONTINUOUS
 62
     7
 10
-345.751064619
 20
1079.2042215421
 30
0.0
  0
VERTEX
  5
254
  8
0
  6
CONTINUOUS
 62
     7
 10
-345.8905400033
 20
1078.8816543089
 30
0.0
  0
VERTEX
  5
255
  8
0
  6
CONTINUOUS
 62
     7
 10
-346.1295547261
 20
1078.5126407526
 30
0.0
  0
VERTEX
  5
256
  8
0
  6
CONTINUOUS
 62
     7
 10
-346.4681087873
 20
1078.1074407051
 30
0.0
  0
SEQEND
  5
24D
  8
0
  6
CONTINUOUS
 62
     7
  0
ARC
  5
80
  8
0
  6
CONTINUOUS
 62
     7
 10
-348.7041767648
 20
-891.8925592949
 30
0.0
 40
2.999999999999987
 50
41.8103148958
 51
48.1896851042
  0
ARC
  5
81
  8
0
  6
CONTINUOUS
 62
     7
 10
-348.7041767648
 20
1080.1074407051
 30
0.0
 40
3.000000000000011
 50
311.8103148958
 51
318.1896851042
  0
ARC
  5
82
  8
0
  6
CONTINUOUS
 62
     7
 10
639.2958232352
 20
1080.1074407051
 30
0.0
 40
3.000000000000029
 50
221.8103148958
 51
228.1896851042
  0
ARC
  5
83
  8
0
  6
CONTINUOUS
 62
     7
 10
639.2958232352
 20
-891.8925592949
 30
0.0
 40
3.000000000000029
 50
131.8103148958
 51
138.1896851042
  0
CIRCLE
  5
84
  8
0
  6
CONTINUOUS
 62
     7
 10
541.2958232352
 20
-793.8925592949
 30
0.0
 40
3.500000000000051
  0
CIRCLE
  5
85
  8
0
  6
CONTINUOUS
 62
     7
 10
541.2958232352
 20
-793.8925592949
 30
0.0
 40
3.999999999999928
  0
CIRCLE
  5
86
  8
0
  6
CONTINUOUS
 62
     7
 10
541.2958232352
 20
-793.8925592949
 30
0.0
 40
4.99999999999991
  0
LINE
  5
87
  8
0
  6
HIDDEN
 62
     7
 10
-339.4541767648
 20
-893.8925592949
 30
0.0
 11
-339.4541767648
 21
-891.8925592948
 31
0.0
  0
LINE
  5
88
  8
0
  6
HIDDEN
 62
     7
 10
-339.4541767648
 20
1082.1074407051
 30
0.0
 11
-339.4541767648
 21
1080.1074407051
 31
0.0
  0
LINE
  5
89
  8
0
  6
HIDDEN
 62
     7
 10
630.0458232352
 20
1082.1074407051
 30
0.0
 11
630.0458232352
 21
1080.1074407051
 31
0.0
  0
LINE
  5
8A
  8
0
  6
HIDDEN
 62
     7
 10
637.1745028917
 20
1082.1074407051
 30
0.0
 11
637.1745028917
 21
1080.1074407051
 31
0.0
  0
LINE
  5
8B
  8
0
  6
HIDDEN
 62
     7
 10
-346.5828564212
 20
1080.1074407051
 30
0.0
 11
-346.5828564212
 21
1082.1074407051
 31
0.0
  0
LINE
  5
8C
  8
0
  6
HIDDEN
 62
     7
 10
-339.4541767648
 20
1082.1074407051
 30
0.0
 11
-339.4541767648
 21
1080.1074407051
 31
0.0
  0
LINE
  5
8D
  8
0
  6
HIDDEN
 62
     7
 10
630.0458232352
 20
1082.1074407051
 30
0.0
 11
630.0458232352
 21
1080.1074407051
 31
0.0
  0
LINE
  5
8E
  8
0
  6
HIDDEN
 62
     7
 10
-339.4541767648
 20
-893.8925592949
 30
0.0
 11
-339.4541767648
 21
-891.8925592948
 31
0.0
  0
LINE
  5
8F
  8
0
  6
HIDDEN
 62
     7
 10
-346.5828564212
 20
-893.8925592949
 30
0.0
 11
-346.5828564212
 21
-891.8925592949
 31
0.0
  0
LINE
  5
90
  8
0
  6
HIDDEN
 62
     7
 10
630.0458232352
 20
-893.8925592949
 30
0.0
 11
630.0458232352
 21
-891.8925592948
 31
0.0
  0
LINE
  5
91
  8
0
  6
HIDDEN
 62
     7
 10
637.1745028917
 20
-891.8925592948
 30
0.0
 11
637.1745028917
 21
-893.8925592949
 31
0.0
  0
LINE
  5
92
  8
0
  6
HIDDEN
 62
     7
 10
630.0458232352
 20
-893.8925592949
 30
0.0
 11
630.0458232352
 21
-891.8925592948
 31
0.0
  0
LINE
  5
93
  8
0
  6
HIDDEN
 62
     7
 10
-350.7041767648
 20
-889.8925592949
 30
0.0
 11
-348.7041774536
 21
-889.8925592949
 31
0.0
  0
LINE
  5
94
  8
0
  6
HIDDEN
 62
     7
 10
-346.7041767648
 20
-893.8925592949
 30
0.0
 11
-346.7041767648
 21
-891.8925599837
 31
0.0
  0
LINE
  5
95
  8
0
  6
HIDDEN
 62
     7
 10
-346.5828564212
 20
-893.8925592949
 30
0.0
 11
-346.5828564212
 21
-891.8925592949
 31
0.0
  0
LINE
  5
96
  8
0
  6
HIDDEN
 62
     7
 10
639.2958232352
 20
1078.1074407051
 30
0.0
 11
641.2958232352
 21
1078.1074407051
 31
0.0
  0
LINE
  5
97
  8
0
  6
HIDDEN
 62
     7
 10
-346.7041767648
 20
1082.1074407051
 30
0.0
 11
-346.7041767648
 21
1080.1074407051
 31
0.0
  0
LINE
  5
98
  8
0
  6
HIDDEN
 62
     7
 10
-346.5828564212
 20
1080.1074407051
 30
0.0
 11
-346.5828564212
 21
1082.1074407051
 31
0.0
  0
LINE
  5
99
  8
0
  6
HIDDEN
 62
     7
 10
637.2958232352
 20
1080.1074413939
 30
0.0
 11
637.2958232352
 21
1082.1074407051
 31
0.0
  0
LINE
  5
9A
  8
0
  6
HIDDEN
 62
     7
 10
637.1745028917
 20
1082.1074407051
 30
0.0
 11
637.1745028917
 21
1080.1074407051
 31
0.0
  0
LINE
  5
9B
  8
0
  6
HIDDEN
 62
     7
 10
-350.7041767648
 20
1078.1074407051
 30
0.0
 11
-348.7041767648
 21
1078.1074407051
 31
0.0
  0
LINE
  5
9C
  8
0
  6
HIDDEN
 62
     7
 10
639.295823924
 20
-889.8925592949
 30
0.0
 11
641.2958232352
 21
-889.8925592949
 31
0.0
  0
LINE
  5
9D
  8
0
  6
HIDDEN
 62
     7
 10
637.2958232352
 20
-891.8925592949
 30
0.0
 11
637.2958232352
 21
-893.8925592949
 31
0.0
  0
LINE
  5
9E
  8
0
  6
HIDDEN
 62
     7
 10
637.1745028917
 20
-891.8925592949
 30
0.0
 11
637.1745028917
 21
-893.8925592949
 31
0.0
  0
POLYLINE
  5
9F
  8
0
  6
HIDDEN
 62
     7
 66
     1
 10
0.0
 20
0.0
 30
0.0
  0
VERTEX
  5
258
  8
0
  6
HIDDEN
 62
     7
 10
636.435527327
 20
1079.8716865074
 30
0.0
  0
VERTEX
  5
259
  8
0
  6
HIDDEN
 62
     7
 10
636.3427110895
 20
1080.3010020017
 30
0.0
  0
VERTEX
  5
25A
  8
0
  6
HIDDEN
 62
     7
 10
636.2985222321
 20
1080.8851715759
 30
0.0
  0
VERTEX
  5
25B
  8
0
  6
HIDDEN
 62
     7
 10
636.3468462963
 20
1081.3963010878
 30
0.0
  0
VERTEX
  5
25C
  8
0
  6
HIDDEN
 62
     7
 10
636.4898264886
 20
1081.782656896
 30
0.0
  0
VERTEX
  5
25D
  8
0
  6
HIDDEN
 62
     7
 10
636.7274628091
 20
1082.0245607925
 30
0.0
  0
VERTEX
  5
25E
  8
0
  6
HIDDEN
 62
     7
 10
637.0597552577
 20
1082.1074413939
 30
0.0
  0
SEQEND
  5
257
  8
0
  6
HIDDEN
 62
     7
  0
POLYLINE
  5
A0
  8
0
  6
HIDDEN
 62
     7
 66
     1
 10
0.0
 20
0.0
 30
0.0
  0
VERTEX
  5
260
  8
0
  6
HIDDEN
 62
     7
 10
637.0597552577
 20
1078.1074407051
 30
0.0
  0
VERTEX
  5
261
  8
0
  6
HIDDEN
 62
     7
 10
637.0597552577
 20
1078.1074407051
 30
0.0
  0
SEQEND
  5
25F
  8
0
  6
HIDDEN
 62
     7
  0
LINE
  5
A1
  8
0
  6
HIDDEN
 62
     7
 10
637.0597552577
 20
1082.1074407051
 30
0.0
 11
637.0597552577
 21
1080.1074407051
 31
0.0
  0
POLYLINE
  5
A2
  8
0
  6
HIDDEN
 62
     7
 66
     1
 10
0.0
 20
0.0
 30
0.0
  0
VERTEX
  5
263
  8
0
  6
HIDDEN
 62
     7
 10
-346.4681087873
 20
1082.1074413939
 30
0.0
  0
VERTEX
  5
264
  8
0
  6
HIDDEN
 62
     7
 10
-346.1358163387
 20
1082.0245607925
 30
0.0
  0
VERTEX
  5
265
  8
0
  6
HIDDEN
 62
     7
 10
-345.8981800182
 20
1081.7826568959
 30
0.0
  0
VERTEX
  5
266
  8
0
  6
HIDDEN
 62
     7
 10
-345.7551998259
 20
1081.3963010877
 30
0.0
  0
VERTEX
  5
267
  8
0
  6
HIDDEN
 62
     7
 10
-345.7068757616
 20
1080.8851715758
 30
0.0
  0
VERTEX
  5
268
  8
0
  6
HIDDEN
 62
     7
 10
-345.751064619
 20
1080.3010020014
 30
0.0
  0
VERTEX
  5
269
  8
0
  6
HIDDEN
 62
     7
 10
-345.8438808565
 20
1079.8716865072
 30
0.0
  0
SEQEND
  5
262
  8
0
  6
HIDDEN
 62
     7
  0
POLYLINE
  5
A3
  8
0
  6
HIDDEN
 62
     7
 66
     1
 10
0.0
 20
0.0
 30
0.0
  0
VERTEX
  5
26B
  8
0
  6
HIDDEN
 62
     7
 10
-346.7041767648
 20
-889.6564913174
 30
0.0
  0
VERTEX
  5
26C
  8
0
  6
HIDDEN
 62
     7
 10
-346.7041767648
 20
-889.6564913174
 30
0.0
  0
SEQEND
  5
26A
  8
0
  6
HIDDEN
 62
     7
  0
POLYLINE
  5
A4
  8
0
  6
HIDDEN
 62
     7
 66
     1
 10
0.0
 20
0.0
 30
0.0
  0
VERTEX
  5
26E
  8
0
  6
HIDDEN
 62
     7
 10
-350.7041771092
 20
-889.6564913174
 30
0.0
  0
VERTEX
  5
26F
  8
0
  6
HIDDEN
 62
     7
 10
-350.6212234592
 20
-889.3179372598
 30
0.0
  0
VERTEX
  5
270
  8
0
  6
HIDDEN
 62
     7
 10
-350.392316844
 20
-889.0789225382
 30
0.0
  0
VERTEX
  5
271
  8
0
  6
HIDDEN
 62
     7
 10
-350.0490672717
 20
-888.9394471525
 30
0.0
  0
VERTEX
  5
272
  8
0
  6
HIDDEN
 62
     7
 10
-349.5824080516
 20
-888.8952582914
 30
0.0
  0
VERTEX
  5
273
  8
0
  6
HIDDEN
 62
     7
 10
-348.9808853568
 20
-888.9435823531
 30
0.0
  0
VERTEX
  5
274
  8
0
  6
HIDDEN
 62
     7
 10
-348.5023544874
 20
-889.0416268168
 30
0.0
  0
SEQEND
  5
26D
  8
0
  6
HIDDEN
 62
     7
  0
LINE
  5
A5
  8
0
  6
HIDDEN
 62
     7
 10
-350.7041767648
 20
-889.6564913174
 30
0.0
 11
-348.7041771092
 21
-889.6564913174
 31
0.0
  0
POLYLINE
  5
A6
  8
0
  6
HIDDEN
 62
     7
 66
     1
 10
0.0
 20
0.0
 30
0.0
  0
VERTEX
  5
276
  8
0
  6
HIDDEN
 62
     7
 10
641.2958235796
 20
1077.8713727276
 30
0.0
  0
VERTEX
  5
277
  8
0
  6
HIDDEN
 62
     7
 10
641.2128699297
 20
1077.5328186701
 30
0.0
  0
VERTEX
  5
278
  8
0
  6
HIDDEN
 62
     7
 10
640.9839633145
 20
1077.2938039485
 30
0.0
  0
VERTEX
  5
279
  8
0
  6
HIDDEN
 62
     7
 10
640.6407137421
 20
1077.1543285627
 30
0.0
  0
VERTEX
  5
27A
  8
0
  6
HIDDEN
 62
     7
 10
640.1740545219
 20
1077.1101397017
 30
0.0
  0
VERTEX
  5
27B
  8
0
  6
HIDDEN
 62
     7
 10
639.5725318269
 20
1077.1584637634
 30
0.0
  0
VERTEX
  5
27C
  8
0
  6
HIDDEN
 62
     7
 10
639.0940009578
 20
1077.256508227
 30
0.0
  0
SEQEND
  5
275
  8
0
  6
HIDDEN
 62
     7
  0
POLYLINE
  5
A7
  8
0
  6
HIDDEN
 62
     7
 66
     1
 10
0.0
 20
0.0
 30
0.0
  0
VERTEX
  5
27E
  8
0
  6
HIDDEN
 62
     7
 10
639.0940009582
 20
-889.0416268171
 30
0.0
  0
VERTEX
  5
27F
  8
0
  6
HIDDEN
 62
     7
 10
639.5725318282
 20
-888.9435823532
 30
0.0
  0
VERTEX
  5
280
  8
0
  6
HIDDEN
 62
     7
 10
640.1740545225
 20
-888.8952582915
 30
0.0
  0
VERTEX
  5
281
  8
0
  6
HIDDEN
 62
     7
 10
640.6407137421
 20
-888.9394471525
 30
0.0
  0
VERTEX
  5
282
  8
0
  6
HIDDEN
 62
     7
 10
640.9839633145
 20
-889.0789225382
 30
0.0
  0
VERTEX
  5
283
  8
0
  6
HIDDEN
 62
     7
 10
641.2128699297
 20
-889.3179372598
 30
0.0
  0
VERTEX
  5
284
  8
0
  6
HIDDEN
 62
     7
 10
641.2958235796
 20
-889.6564913174
 30
0.0
  0
SEQEND
  5
27D
  8
0
  6
HIDDEN
 62
     7
  0
POLYLINE
  5
A8
  8
0
  6
HIDDEN
 62
     7
 66
     1
 10
0.0
 20
0.0
 30
0.0
  0
VERTEX
  5
286
  8
0
  6
HIDDEN
 62
     7
 10
-348.5023544877
 20
1077.2565082273
 30
0.0
  0
VERTEX
  5
287
  8
0
  6
HIDDEN
 62
     7
 10
-348.9808853576
 20
1077.1584637635
 30
0.0
  0
VERTEX
  5
288
  8
0
  6
HIDDEN
 62
     7
 10
-349.5824080519
 20
1077.1101397017
 30
0.0
  0
VERTEX
  5
289
  8
0
  6
HIDDEN
 62
     7
 10
-350.0490672716
 20
1077.1543285627
 30
0.0
  0
VERTEX
  5
28A
  8
0
  6
HIDDEN
 62
     7
 10
-350.392316844
 20
1077.2938039485
 30
0.0
  0
VERTEX
  5
28B
  8
0
  6
HIDDEN
 62
     7
 10
-350.6212234592
 20
1077.5328186701
 30
0.0
  0
VERTEX
  5
28C
  8
0
  6
HIDDEN
 62
     7
 10
-350.7041771092
 20
1077.8713727276
 30
0.0
  0
SEQEND
  5
285
  8
0
  6
HIDDEN
 62
     7
  0
POLYLINE
  5
A9
  8
0
  6
HIDDEN
 62
     7
 66
     1
 10
0.0
 20
0.0
 30
0.0
  0
VERTEX
  5
28E
  8
0
  6
HIDDEN
 62
     7
 10
-346.7041767648
 20
1077.8713727276
 30
0.0
  0
VERTEX
  5
28F
  8
0
  6
HIDDEN
 62
     7
 10
-346.7041767648
 20
1077.8713727276
 30
0.0
  0
SEQEND
  5
28D
  8
0
  6
HIDDEN
 62
     7
  0
LINE
  5
AA
  8
0
  6
HIDDEN
 62
     7
 10
-348.7041767648
 20
1077.8713727276
 30
0.0
 11
-350.7041767648
 21
1077.8713727276
 31
0.0
  0
POLYLINE
  5
AB
  8
0
  6
HIDDEN
 62
     7
 66
     1
 10
0.0
 20
0.0
 30
0.0
  0
VERTEX
  5
291
  8
0
  6
HIDDEN
 62
     7
 10
637.2958232352
 20
1077.8713727276
 30
0.0
  0
VERTEX
  5
292
  8
0
  6
HIDDEN
 62
     7
 10
637.2958232352
 20
1077.8713727276
 30
0.0
  0
SEQEND
  5
290
  8
0
  6
HIDDEN
 62
     7
  0
LINE
  5
AC
  8
0
  6
HIDDEN
 62
     7
 10
639.2958235796
 20
1077.8713727276
 30
0.0
 11
641.2958232352
 21
1077.8713727276
 31
0.0
  0
POLYLINE
  5
AD
  8
0
  6
HIDDEN
 62
     7
 66
     1
 10
0.0
 20
0.0
 30
0.0
  0
VERTEX
  5
294
  8
0
  6
HIDDEN
 62
     7
 10
637.2958232352
 20
-889.6564913174
 30
0.0
  0
VERTEX
  5
295
  8
0
  6
HIDDEN
 62
     7
 10
637.2958232352
 20
-889.6564913174
 30
0.0
  0
SEQEND
  5
293
  8
0
  6
HIDDEN
 62
     7
  0
LINE
  5
AE
  8
0
  6
HIDDEN
 62
     7
 10
641.2958232352
 20
-889.6564913174
 30
0.0
 11
639.2958232352
 21
-889.6564913174
 31
0.0
  0
POLYLINE
  5
AF
  8
0
  6
HIDDEN
 62
     7
 66
     1
 10
0.0
 20
0.0
 30
0.0
  0
VERTEX
  5
297
  8
0
  6
HIDDEN
 62
     7
 10
637.0597552577
 20
-889.8925592949
 30
0.0
  0
VERTEX
  5
298
  8
0
  6
HIDDEN
 62
     7
 10
637.0597552577
 20
-889.8925592949
 30
0.0
  0
SEQEND
  5
296
  8
0
  6
HIDDEN
 62
     7
  0
POLYLINE
  5
B0
  8
0
  6
HIDDEN
 62
     7
 66
     1
 10
0.0
 20
0.0
 30
0.0
  0
VERTEX
  5
29A
  8
0
  6
HIDDEN
 62
     7
 10
637.0597552577
 20
-893.8925599837
 30
0.0
  0
VERTEX
  5
29B
  8
0
  6
HIDDEN
 62
     7
 10
636.7274628091
 20
-893.8096793822
 30
0.0
  0
VERTEX
  5
29C
  8
0
  6
HIDDEN
 62
     7
 10
636.4898264887
 20
-893.5677754856
 30
0.0
  0
VERTEX
  5
29D
  8
0
  6
HIDDEN
 62
     7
 10
636.3468462963
 20
-893.1814196774
 30
0.0
  0
VERTEX
  5
29E
  8
0
  6
HIDDEN
 62
     7
 10
636.2985222321
 20
-892.6702901655
 30
0.0
  0
VERTEX
  5
29F
  8
0
  6
HIDDEN
 62
     7
 10
636.342711346
 20
-892.0861174329
 30
0.0
  0
VERTEX
  5
2A0
  8
0
  6
HIDDEN
 62
     7
 10
636.4355266486
 20
-891.6568041803
 30
0.0
  0
SEQEND
  5
299
  8
0
  6
HIDDEN
 62
     7
  0
LINE
  5
B1
  8
0
  6
HIDDEN
 62
     7
 10
637.0597552577
 20
-893.8925592949
 30
0.0
 11
637.0597552577
 21
-891.8925599837
 31
0.0
  0
POLYLINE
  5
B2
  8
0
  6
HIDDEN
 62
     7
 66
     1
 10
0.0
 20
0.0
 30
0.0
  0
VERTEX
  5
2A2
  8
0
  6
HIDDEN
 62
     7
 10
-346.4681087873
 20
-889.8925592949
 30
0.0
  0
VERTEX
  5
2A3
  8
0
  6
HIDDEN
 62
     7
 10
-346.4681087873
 20
-889.8925592949
 30
0.0
  0
SEQEND
  5
2A1
  8
0
  6
HIDDEN
 62
     7
  0
POLYLINE
  5
B3
  8
0
  6
HIDDEN
 62
     7
 66
     1
 10
0.0
 20
0.0
 30
0.0
  0
VERTEX
  5
2A5
  8
0
  6
HIDDEN
 62
     7
 10
-345.8438801781
 20
-891.6568041804
 30
0.0
  0
VERTEX
  5
2A6
  8
0
  6
HIDDEN
 62
     7
 10
-345.7510648756
 20
-892.0861174329
 30
0.0
  0
VERTEX
  5
2A7
  8
0
  6
HIDDEN
 62
     7
 10
-345.7068757616
 20
-892.6702901656
 30
0.0
  0
VERTEX
  5
2A8
  8
0
  6
HIDDEN
 62
     7
 10
-345.7551998258
 20
-893.1814196775
 30
0.0
  0
VERTEX
  5
2A9
  8
0
  6
HIDDEN
 62
     7
 10
-345.8981800181
 20
-893.5677754857
 30
0.0
  0
VERTEX
  5
2AA
  8
0
  6
HIDDEN
 62
     7
 10
-346.1358163386
 20
-893.8096793822
 30
0.0
  0
VERTEX
  5
2AB
  8
0
  6
HIDDEN
 62
     7
 10
-346.4681087873
 20
-893.8925599837
 30
0.0
  0
SEQEND
  5
2A4
  8
0
  6
HIDDEN
 62
     7
  0
LINE
  5
B4
  8
0
  6
HIDDEN
 62
     7
 10
-346.4681087873
 20
-891.8925592949
 30
0.0
 11
-346.4681087873
 21
-893.8925592949
 31
0.0
  0
POLYLINE
  5
B5
  8
0
  6
HIDDEN
 62
     7
 66
     1
 10
0.0
 20
0.0
 30
0.0
  0
VERTEX
  5
2AD
  8
0
  6
HIDDEN
 62
     7
 10
-346.4681087873
 20
1078.1074407051
 30
0.0
  0
VERTEX
  5
2AE
  8
0
  6
HIDDEN
 62
     7
 10
-346.4681087873
 20
1078.1074407051
 30
0.0
  0
SEQEND
  5
2AC
  8
0
  6
HIDDEN
 62
     7
  0
LINE
  5
B6
  8
0
  6
HIDDEN
 62
     7
 10
-346.4681087873
 20
1080.1074413939
 30
0.0
 11
-346.4681087873
 21
1082.1074407051
 31
0.0
  0
LINE
  5
B7
  8
0
  6
HIDDEN
 62
     7
 10
636.298516992
 20
1080.879211435
 30
0.0
 11
636.298516992
 21
1079.4933265004
 31
0.0
  0
LINE
  5
B8
  8
0
  6
HIDDEN
 62
     7
 10
-348.1461620952
 20
-888.8952530514
 30
0.0
 11
-349.5881480142
 21
-888.8952530514
 31
0.0
  0
LINE
  5
B9
  8
0
  6
HIDDEN
 62
     7
 10
-349.5881480148
 20
1077.1101344617
 30
0.0
 11
-348.1461620955
 21
1077.1101344617
 31
0.0
  0
LINE
  5
BA
  8
0
  6
HIDDEN
 62
     7
 10
638.7378085655
 20
1077.1101344616
 30
0.0
 11
640.1797944844
 21
1077.1101344616
 31
0.0
  0
LINE
  5
BB
  8
0
  6
HIDDEN
 62
     7
 10
640.1797944854
 20
-888.8952530514
 30
0.0
 11
638.737808566
 21
-888.8952530514
 31
0.0
  0
LINE
  5
BC
  8
0
  6
HIDDEN
 62
     7
 10
636.298516992
 20
-891.27844509
 30
0.0
 11
636.298516992
 21
-892.6643300244
 31
0.0
  0
LINE
  5
BD
  8
0
  6
HIDDEN
 62
     7
 10
636.298516992
 20
-892.6643297163
 30
0.0
 11
636.298516992
 21
-891.2784447677
 31
0.0
  0
LINE
  5
BE
  8
0
  6
HIDDEN
 62
     7
 10
-345.7068705215
 20
-892.6643300248
 30
0.0
 11
-345.7068705215
 21
-891.2784450902
 31
0.0
  0
LINE
  5
BF
  8
0
  6
HIDDEN
 62
     7
 10
-345.7068705215
 20
1079.4933265002
 30
0.0
 11
-345.7068705215
 21
1080.8792114346
 31
0.0
  0
LINE
  5
C0
  8
0
  6
HIDDEN
 62
     7
 10
-345.7068705215
 20
1080.8792111265
 30
0.0
 11
-345.7068705215
 21
1079.493326178
 31
0.0
  0
LINE
  5
C1
  8
0
  6
CONTINUOUS
 62
     7
 10
537.2958232352
 20
-1048.3325597833
 30
0.0
 11
537.2958232352
 21
-1049.3325597833
 31
0.0
  0
LINE
  5
C2
  8
0
  6
CONTINUOUS
 62
     7
 10
545.2958232352
 20
-1049.3325597833
 30
0.0
 11
545.2958232352
 21
-1048.3325597833
 31
0.0
  0
LINE
  5
C3
  8
0
  6
CONTINUOUS
 62
     7
 10
537.2958232352
 20
-1049.3325597833
 30
0.0
 11
537.7958232352
 21
-1049.8325597833
 31
0.0
  0
LINE
  5
C4
  8
0
  6
CONTINUOUS
 62
     7
 10
544.7958232352
 20
-1049.8325597833
 30
0.0
 11
545.2958232352
 21
-1049.3325597833
 31
0.0
  0
LINE
  5
C5
  8
0
  6
CONTINUOUS
 62
     7
 10
620.7958232352
 20
-1048.3325597833
 30
0.0
 11
620.7958232352
 21
-1039.0825597833
 31
0.0
  0
LINE
  5
C6
  8
0
  6
CONTINUOUS
 62
     7
 10
620.7958232352
 20
-1039.0825597833
 30
0.0
 11
630.0458232352
 21
-1039.0825597833
 31
0.0
  0
LINE
  5
C7
  8
0
  6
CONTINUOUS
 62
     7
 10
630.0458232352
 20
-1039.0825597833
 30
0.0
 11
637.1745028917
 21
-1031.9538801268
 31
0.0
  0
ARC
  5
C8
  8
0
  6
CONTINUOUS
 62
     7
 10
639.2958232352
 20
-1029.8325597833
 30
0.0
 40
3.000000000000105
 50
225.0
 51
228.1896851042
  0
LINE
  5
C9
  8
0
  6
CONTINUOUS
 62
     7
 10
637.2958232352
 20
-1048.3325597833
 30
0.0
 11
620.7958232352
 21
-1048.3325597833
 31
0.0
  0
POLYLINE
  5
CA
  8
0
  6
CONTINUOUS
 62
     7
 66
     1
 10
0.0
 20
0.0
 30
0.0
  0
VERTEX
  5
2B0
  8
0
  6
CONTINUOUS
 62
     7
 10
637.2958232352
 20
-1032.0686277608
 30
0.0
  0
VERTEX
  5
2B1
  8
0
  6
CONTINUOUS
 62
     7
 10
638.106223191
 20
-1032.4071818219
 30
0.0
  0
VERTEX
  5
2B2
  8
0
  6
CONTINUOUS
 62
     7
 10
638.8442501765
 20
-1032.6461965446
 30
0.0
  0
VERTEX
  5
2B3
  8
0
  6
CONTINUOUS
 62
     7
 10
639.4893845317
 20
-1032.785671929
 30
0.0
  0
VERTEX
  5
2B4
  8
0
  6
CONTINUOUS
 62
     7
 10
640.0735541061
 20
-1032.8298607865
 30
0.0
  0
VERTEX
  5
2B5
  8
0
  6
CONTINUOUS
 62
     7
 10
640.5846836181
 20
-1032.7815367224
 30
0.0
  0
VERTEX
  5
2B6
  8
0
  6
CONTINUOUS
 62
     7
 10
640.9710394262
 20
-1032.63855653
 30
0.0
  0
VERTEX
  5
2B7
  8
0
  6
CONTINUOUS
 62
     7
 10
641.2129433226
 20
-1032.4009202095
 30
0.0
  0
VERTEX
  5
2B8
  8
0
  6
CONTINUOUS
 62
     7
 10
641.295823924
 20
-1032.0686277608
 30
0.0
  0
SEQEND
  5
2AF
  8
0
  6
CONTINUOUS
 62
     7
  0
LINE
  5
CB
  8
0
  6
CONTINUOUS
 62
     7
 10
641.2958232352
 20
-1048.3325597833
 30
0.0
 11
641.2958232352
 21
-1032.0686277608
 31
0.0
  0
LINE
  5
CC
  8
0
  6
CONTINUOUS
 62
     7
 10
641.295823924
 20
-1048.3325597833
 30
0.0
 11
637.2958232352
 21
-1048.3325597833
 31
0.0
  0
LINE
  5
CD
  8
0
  6
CONTINUOUS
 62
     7
 10
637.1745028917
 20
-1031.9538801268
 30
0.0
 11
630.0458232352
 21
-1039.0825597833
 31
0.0
  0
LINE
  5
CE
  8
0
  6
CONTINUOUS
 62
     7
 10
630.0458232352
 20
-1039.0825597833
 30
0.0
 11
620.7958232352
 21
-1039.0825597833
 31
0.0
  0
LINE
  5
CF
  8
0
  6
CONTINUOUS
 62
     7
 10
620.7958232352
 20
-1039.0825597833
 30
0.0
 11
620.7958232352
 21
-1048.3325597833
 31
0.0
  0
LINE
  5
D0
  8
0
  6
CONTINUOUS
 62
     7
 10
620.7958232352
 20
-1048.3325597833
 30
0.0
 11
-330.2041767648
 21
-1048.3325597833
 31
0.0
  0
LINE
  5
D1
  8
0
  6
CONTINUOUS
 62
     7
 10
-330.2041767648
 20
-1039.0825597833
 30
0.0
 11
-330.2041767648
 21
-1048.3325597833
 31
0.0
  0
LINE
  5
D2
  8
0
  6
CONTINUOUS
 62
     7
 10
-339.4541767648
 20
-1039.0825597833
 30
0.0
 11
-330.2041767648
 21
-1039.0825597833
 31
0.0
  0
LINE
  5
D3
  8
0
  6
CONTINUOUS
 62
     7
 10
-346.5828564212
 20
-1031.9538801268
 30
0.0
 11
-339.4541767648
 21
-1039.0825597833
 31
0.0
  0
ARC
  5
D4
  8
0
  6
CONTINUOUS
 62
     7
 10
-348.7041767648
 20
-1029.8325597833
 30
0.0
 40
3.000000000000029
 50
315.0
 51
318.1896851042
  0
ARC
  5
D5
  8
0
  6
CONTINUOUS
 62
     7
 10
639.2958232352
 20
-1029.8325597833
 30
0.0
 40
3.000000000000185
 50
221.8103148958
 51
225.0
  0
POLYLINE
  5
D6
  8
0
  6
CONTINUOUS
 62
     7
 66
     1
 10
0.0
 20
0.0
 30
0.0
  0
VERTEX
  5
2BA
  8
0
  6
CONTINUOUS
 62
     7
 10
-346.4681087873
 20
-1031.8325597833
 30
0.0
  0
VERTEX
  5
2BB
  8
0
  6
CONTINUOUS
 62
     7
 10
-346.1358163387
 20
-1031.0225130366
 30
0.0
  0
VERTEX
  5
2BC
  8
0
  6
CONTINUOUS
 62
     7
 10
-345.8981800182
 20
-1030.2537021388
 30
0.0
  0
VERTEX
  5
2BD
  8
0
  6
CONTINUOUS
 62
     7
 10
-345.7551998259
 20
-1029.5558509977
 30
0.0
  0
VERTEX
  5
2BE
  8
0
  6
CONTINUOUS
 62
     7
 10
-345.7068757616
 20
-1028.9543282567
 30
0.0
  0
VERTEX
  5
2BF
  8
0
  6
CONTINUOUS
 62
     7
 10
-345.751064619
 20
-1028.4876690003
 30
0.0
  0
VERTEX
  5
2C0
  8
0
  6
CONTINUOUS
 62
     7
 10
-345.8905400033
 20
-1028.1444193956
 30
0.0
  0
VERTEX
  5
2C1
  8
0
  6
CONTINUOUS
 62
     7
 10
-346.1295547261
 20
-1027.9155127549
 30
0.0
  0
VERTEX
  5
2C2
  8
0
  6
CONTINUOUS
 62
     7
 10
-346.4681087873
 20
-1027.8325590945
 30
0.0
  0
SEQEND
  5
2B9
  8
0
  6
CONTINUOUS
 62
     7
  0
LINE
  5
D7
  8
0
  6
CONTINUOUS
 62
     7
 10
637.0597552577
 20
-1027.8325597833
 30
0.0
 11
-346.4681087873
 21
-1027.8325597833
 31
0.0
  0
POLYLINE
  5
D8
  8
0
  6
CONTINUOUS
 62
     7
 66
     1
 10
0.0
 20
0.0
 30
0.0
  0
VERTEX
  5
2C4
  8
0
  6
CONTINUOUS
 62
     7
 10
637.0597552577
 20
-1027.8325590945
 30
0.0
  0
VERTEX
  5
2C5
  8
0
  6
CONTINUOUS
 62
     7
 10
636.7212011965
 20
-1027.915512755
 30
0.0
  0
VERTEX
  5
2C6
  8
0
  6
CONTINUOUS
 62
     7
 10
636.4821864738
 20
-1028.1444193959
 30
0.0
  0
VERTEX
  5
2C7
  8
0
  6
CONTINUOUS
 62
     7
 10
636.3427110895
 20
-1028.4876690005
 30
0.0
  0
VERTEX
  5
2C8
  8
0
  6
CONTINUOUS
 62
     7
 10
636.2985222321
 20
-1028.9543282568
 30
0.0
  0
VERTEX
  5
2C9
  8
0
  6
CONTINUOUS
 62
     7
 10
636.3468462963
 20
-1029.5558509979
 30
0.0
  0
VERTEX
  5
2CA
  8
0
  6
CONTINUOUS
 62
     7
 10
636.4898264886
 20
-1030.253702139
 30
0.0
  0
VERTEX
  5
2CB
  8
0
  6
CONTINUOUS
 62
     7
 10
636.7274628091
 20
-1031.0225130368
 30
0.0
  0
VERTEX
  5
2CC
  8
0
  6
CONTINUOUS
 62
     7
 10
637.0597552577
 20
-1031.8325597833
 30
0.0
  0
SEQEND
  5
2C3
  8
0
  6
CONTINUOUS
 62
     7
  0
ARC
  5
D9
  8
0
  6
CONTINUOUS
 62
     7
 10
638.6627580817
 20
-1032.1861682755
 30
0.0
 40
0.6438851864028508
 50
308.1012095364
 51
10.5182597463
  0
LINE
  5
DA
  8
0
  6
CONTINUOUS
 62
     7
 10
639.2958232352
 20
-1032.0686277608
 30
0.0
 11
641.2958232352
 21
-1032.0686277608
 31
0.0
  0
ARC
  5
DB
  8
0
  6
CONTINUOUS
 62
     7
 10
636.9403520708
 20
-1030.5063119279
 30
0.0
 40
0.6842514169614163
 50
79.9503256787
 51
136.3934088744
  0
LINE
  5
DC
  8
0
  6
CONTINUOUS
 62
     7
 10
637.0597552577
 20
-1027.8325597833
 30
0.0
 11
637.0597552577
 21
-1029.8325590945
 31
0.0
  0
LINE
  5
DD
  8
0
  6
CONTINUOUS
 62
     7
 10
-339.4541767648
 20
-1039.0825597833
 30
0.0
 11
-346.5828564212
 21
-1031.9538801268
 31
0.0
  0
LINE
  5
DE
  8
0
  6
CONTINUOUS
 62
     7
 10
-330.2041767648
 20
-1039.0825597833
 30
0.0
 11
-339.4541767648
 21
-1039.0825597833
 31
0.0
  0
LINE
  5
DF
  8
0
  6
CONTINUOUS
 62
     7
 10
-330.2041767648
 20
-1039.0825597833
 30
0.0
 11
-330.2041767648
 21
-1048.3325597833
 31
0.0
  0
LINE
  5
E0
  8
0
  6
CONTINUOUS
 62
     7
 10
-330.2041767648
 20
-1048.3325597833
 30
0.0
 11
-346.7041767648
 21
-1048.3325597833
 31
0.0
  0
ARC
  5
E1
  8
0
  6
CONTINUOUS
 62
     7
 10
-348.7041767648
 20
-1029.8325597833
 30
0.0
 40
3.000000000000024
 50
311.8103148958
 51
315.0
  0
ARC
  5
E2
  8
0
  6
CONTINUOUS
 62
     7
 10
-346.3487056001
 20
-1030.5063119276
 30
0.0
 40
0.684251416719074
 50
43.6065911111
 51
100.0496743388
  0
LINE
  5
E3
  8
0
  6
CONTINUOUS
 62
     7
 10
-346.4681087873
 20
-1029.8325597833
 30
0.0
 11
-346.4681087873
 21
-1027.8325597833
 31
0.0
  0
LINE
  5
E4
  8
0
  6
CONTINUOUS
 62
     7
 10
-346.7041767648
 20
-1048.3325597833
 30
0.0
 11
-350.7041767648
 21
-1048.3325597833
 31
0.0
  0
LINE
  5
E5
  8
0
  6
CONTINUOUS
 62
     7
 10
-350.7041767648
 20
-1032.0686277608
 30
0.0
 11
-350.7041767648
 21
-1048.3325597833
 31
0.0
  0
POLYLINE
  5
E6
  8
0
  6
CONTINUOUS
 62
     7
 66
     1
 10
0.0
 20
0.0
 30
0.0
  0
VERTEX
  5
2CE
  8
0
  6
CONTINUOUS
 62
     7
 10
-350.7041774536
 20
-1032.0686277608
 30
0.0
  0
VERTEX
  5
2CF
  8
0
  6
CONTINUOUS
 62
     7
 10
-350.6212968521
 20
-1032.4009202095
 30
0.0
  0
VERTEX
  5
2D0
  8
0
  6
CONTINUOUS
 62
     7
 10
-350.3793929557
 20
-1032.63855653
 30
0.0
  0
VERTEX
  5
2D1
  8
0
  6
CONTINUOUS
 62
     7
 10
-349.9930371475
 20
-1032.7815367223
 30
0.0
  0
VERTEX
  5
2D2
  8
0
  6
CONTINUOUS
 62
     7
 10
-349.4819076355
 20
-1032.8298607865
 30
0.0
  0
VERTEX
  5
2D3
  8
0
  6
CONTINUOUS
 62
     7
 10
-348.8977380613
 20
-1032.785671929
 30
0.0
  0
VERTEX
  5
2D4
  8
0
  6
CONTINUOUS
 62
     7
 10
-348.2526037061
 20
-1032.6461965446
 30
0.0
  0
VERTEX
  5
2D5
  8
0
  6
CONTINUOUS
 62
     7
 10
-347.5145767206
 20
-1032.4071818219
 30
0.0
  0
VERTEX
  5
2D6
  8
0
  6
CONTINUOUS
 62
     7
 10
-346.7041767648
 20
-1032.0686277608
 30
0.0
  0
SEQEND
  5
2CD
  8
0
  6
CONTINUOUS
 62
     7
  0
ARC
  5
E7
  8
0
  6
CONTINUOUS
 62
     7
 10
-348.0711116113
 20
-1032.1861682755
 30
0.0
 40
0.6438851863820038
 50
169.4817402574
 51
231.8987904685
  0
LINE
  5
E8
  8
0
  6
CONTINUOUS
 62
     7
 10
-350.7041767648
 20
-1032.0686277608
 30
0.0
 11
-348.7041767648
 21
-1032.0686277608
 31
0.0
  0
LINE
  5
E9
  8
0
  6
CONTINUOUS
 62
     7
 10
639.2958232352
 20
-1031.8325597833
 30
0.0
 11
639.2958232352
 21
-1032.0686277608
 31
0.0
  0
LINE
  5
EA
  8
0
  6
CONTINUOUS
 62
     7
 10
639.2958235796
 20
-1031.8325597833
 30
0.0
 11
641.2958232352
 21
-1031.8325597833
 31
0.0
  0
LINE
  5
EB
  8
0
  6
CONTINUOUS
 62
     7
 10
641.2958232352
 20
-1031.8325597833
 30
0.0
 11
641.2958232352
 21
-1032.0686277608
 31
0.0
  0
LINE
  5
EC
  8
0
  6
CONTINUOUS
 62
     7
 10
-350.7041767648
 20
-1031.8325597833
 30
0.0
 11
-350.7041767648
 21
-1032.0686277608
 31
0.0
  0
LINE
  5
ED
  8
0
  6
CONTINUOUS
 62
     7
 10
-348.7041767648
 20
-1031.8325597833
 30
0.0
 11
-350.7041767648
 21
-1031.8325597833
 31
0.0
  0
LINE
  5
EE
  8
0
  6
CONTINUOUS
 62
     7
 10
-348.7041767648
 20
-1031.8325597833
 30
0.0
 11
-348.7041767648
 21
-1032.0686277608
 31
0.0
  0
LINE
  5
EF
  8
0
  6
CONTINUOUS
 62
     7
 10
-346.4681087873
 20
-1029.8325597833
 30
0.0
 11
-346.7041767648
 21
-1029.8325597833
 31
0.0
  0
LINE
  5
F0
  8
0
  6
CONTINUOUS
 62
     7
 10
-346.7041767648
 20
-1029.8325597833
 30
0.0
 11
-346.7041767648
 21
-1027.8325597833
 31
0.0
  0
LINE
  5
F1
  8
0
  6
CONTINUOUS
 62
     7
 10
-346.4681087873
 20
-1027.8325597833
 30
0.0
 11
-346.7041767648
 21
-1027.8325597833
 31
0.0
  0
LINE
  5
F2
  8
0
  6
CONTINUOUS
 62
     7
 10
637.2958232352
 20
-1029.8325597833
 30
0.0
 11
637.2958232352
 21
-1027.8325597833
 31
0.0
  0
LINE
  5
F3
  8
0
  6
CONTINUOUS
 62
     7
 10
637.0597552577
 20
-1029.8325597833
 30
0.0
 11
637.2958232352
 21
-1029.8325597833
 31
0.0
  0
LINE
  5
F4
  8
0
  6
CONTINUOUS
 62
     7
 10
637.0597552577
 20
-1027.8325597833
 30
0.0
 11
637.2958232352
 21
-1027.8325597833
 31
0.0
  0
ARC
  5
F5
  8
0
  6
CONTINUOUS
 62
     7
 10
-346.7041767648
 20
-1031.8325597833
 30
0.0
 40
4.000000344396994
 50
90.0
 51
180.0
  0
ARC
  5
F6
  8
0
  6
CONTINUOUS
 62
     7
 10
-346.7041767648
 20
-1031.8325597833
 30
0.0
 40
2.000000344396938
 50
90.0
 51
180.0
  0
ARC
  5
F7
  8
0
  6
CONTINUOUS
 62
     7
 10
637.2958232352
 20
-1031.8325597833
 30
0.0
 40
2.000000344396994
 50
0.0
 51
90.0
  0
ARC
  5
F8
  8
0
  6
CONTINUOUS
 62
     7
 10
637.2958232352
 20
-1031.8325597833
 30
0.0
 40
4.000000344396881
 50
0.0
 51
90.0
  0
ARC
  5
F9
  8
0
  6
CONTINUOUS
 62
     7
 10
-353.296296694
 20
-1028.4935345394
 30
0.0
 40
7.600870980896991
 50
333.9410867287
 51
348.3039530724
  0
LINE
  5
FA
  8
0
  6
CONTINUOUS
 62
     7
 10
541.2944287901
 20
-1049.3325597833
 30
0.0
 11
545.2958232352
 21
-1049.3325597833
 31
0.0
  0
LINE
  5
FB
  8
0
  6
CONTINUOUS
 62
     7
 10
537.2958232352
 20
-1049.3325597833
 30
0.0
 11
541.2944287901
 21
-1049.3325597833
 31
0.0
  0
LINE
  5
FC
  8
0
  6
CONTINUOUS
 62
     7
 10
541.2946030958
 20
-1049.8325597833
 30
0.0
 11
544.7958232352
 21
-1049.8325597833
 31
0.0
  0
LINE
  5
FD
  8
0
  6
CONTINUOUS
 62
     7
 10
537.7958232352
 20
-1049.8325597833
 30
0.0
 11
541.2946030958
 21
-1049.8325597833
 31
0.0
  0
ARC
  5
FE
  8
0
  6
HIDDEN
 62
     7
 10
602.2958232352
 20
-1029.3325597833
 30
0.0
 40
7.516648189186568
 50
183.8140748343
 51
356.1859251657
  0
ARC
  5
FF
  8
0
  6
HIDDEN
 62
     7
 10
-311.7041767648
 20
-1029.3325597833
 30
0.0
 40
7.516648189186454
 50
183.8140748343
 51
356.1859251657
  0
POLYLINE
  5
100
  8
0
  6
HIDDEN
 62
     7
 66
     1
 10
0.0
 20
0.0
 30
0.0
  0
VERTEX
  5
2D8
  8
0
  6
HIDDEN
 62
     7
 10
637.2958232352
 20
-1032.0686277608
 30
0.0
  0
VERTEX
  5
2D9
  8
0
  6
HIDDEN
 62
     7
 10
637.2958232352
 20
-1032.0686277608
 30
0.0
  0
SEQEND
  5
2D7
  8
0
  6
HIDDEN
 62
     7
  0
ARC
  5
101
  8
0
  6
HIDDEN
 62
     7
 10
638.7386491046
 20
-1032.3948239827
 30
0.0
 40
0.4383305520797535
 50
262.7196673778
 51
317.1622516306
  0
POLYLINE
  5
102
  8
0
  6
HIDDEN
 62
     7
 66
     1
 10
0.0
 20
0.0
 30
0.0
  0
VERTEX
  5
2DB
  8
0
  6
HIDDEN
 62
     7
 10
636.4448907345
 20
-1030.0343817785
 30
0.0
  0
VERTEX
  5
2DC
  8
0
  6
HIDDEN
 62
     7
 10
636.3427110895
 20
-1030.1601141039
 30
0.0
  0
VERTEX
  5
2DD
  8
0
  6
HIDDEN
 62
     7
 10
636.298762279
 20
-1030.3921762563
 30
0.0
  0
SEQEND
  5
2DA
  8
0
  6
HIDDEN
 62
     7
  0
POLYLINE
  5
103
  8
0
  6
HIDDEN
 62
     7
 66
     1
 10
0.0
 20
0.0
 30
0.0
  0
VERTEX
  5
2DF
  8
0
  6
HIDDEN
 62
     7
 10
637.0597552577
 20
-1031.8325597833
 30
0.0
  0
VERTEX
  5
2E0
  8
0
  6
HIDDEN
 62
     7
 10
637.0597552577
 20
-1031.8325597833
 30
0.0
  0
SEQEND
  5
2DE
  8
0
  6
HIDDEN
 62
     7
  0
POLYLINE
  5
104
  8
0
  6
HIDDEN
 62
     7
 66
     1
 10
0.0
 20
0.0
 30
0.0
  0
VERTEX
  5
2E2
  8
0
  6
HIDDEN
 62
     7
 10
-346.4681087873
 20
-1031.8325597833
 30
0.0
  0
VERTEX
  5
2E3
  8
0
  6
HIDDEN
 62
     7
 10
-346.4681087873
 20
-1031.8325597833
 30
0.0
  0
SEQEND
  5
2E1
  8
0
  6
HIDDEN
 62
     7
  0
POLYLINE
  5
105
  8
0
  6
HIDDEN
 62
     7
 66
     1
 10
0.0
 20
0.0
 30
0.0
  0
VERTEX
  5
2E5
  8
0
  6
HIDDEN
 62
     7
 10
-345.7071158086
 20
-1030.3921762562
 30
0.0
  0
VERTEX
  5
2E6
  8
0
  6
HIDDEN
 62
     7
 10
-345.751064619
 20
-1030.1601141038
 30
0.0
  0
VERTEX
  5
2E7
  8
0
  6
HIDDEN
 62
     7
 10
-345.853244264
 20
-1030.0343817785
 30
0.0
  0
SEQEND
  5
2E4
  8
0
  6
HIDDEN
 62
     7
  0
ARC
  5
106
  8
0
  6
HIDDEN
 62
     7
 10
-348.147002634
 20
-1032.3948239826
 30
0.0
 40
0.4383305521331794
 50
222.8377483722
 51
277.2803326206
  0
POLYLINE
  5
107
  8
0
  6
HIDDEN
 62
     7
 66
     1
 10
0.0
 20
0.0
 30
0.0
  0
VERTEX
  5
2E9
  8
0
  6
HIDDEN
 62
     7
 10
-346.7041767648
 20
-1032.0686277608
 30
0.0
  0
VERTEX
  5
2EA
  8
0
  6
HIDDEN
 62
     7
 10
-346.7041767648
 20
-1032.0686277608
 30
0.0
  0
SEQEND
  5
2E8
  8
0
  6
HIDDEN
 62
     7
  0
LINE
  5
108
  8
0
  6
HIDDEN
 62
     7
 10
639.2958232352
 20
-1048.3325597833
 30
0.0
 11
639.2958232352
 21
-1032.0686277608
 31
0.0
  0
LINE
  5
109
  8
0
  6
HIDDEN
 62
     7
 10
637.0597552577
 20
-1029.8325597833
 30
0.0
 11
-346.4681087873
 21
-1029.8325597833
 31
0.0
  0
LINE
  5
10A
  8
0
  6
HIDDEN
 62
     7
 10
-348.7041767648
 20
-1032.0686277608
 30
0.0
 11
-348.7041767648
 21
-1048.3325597833
 31
0.0
  0
LINE
  5
10B
  8
0
  6
HIDDEN
 62
     7
 10
-325.1873377986
 20
-1032.3360932699
 30
0.0
 11
-334.221015731
 21
-1032.3360932699
 31
0.0
  0
LINE
  5
10C
  8
0
  6
HIDDEN
 62
     7
 10
615.778984269
 20
-1032.3360932699
 30
0.0
 11
624.8126622014
 21
-1032.3360932699
 31
0.0
  0
LINE
  5
10D
  8
0
  6
HIDDEN
 62
     7
 10
617.2958232352
 20
-1031.0325597833
 30
0.0
 11
623.2958232352
 21
-1031.0325597833
 31
0.0
  0
LINE
  5
10E
  8
0
  6
HIDDEN
 62
     7
 10
-326.7041767648
 20
-1031.0325597833
 30
0.0
 11
-332.7041767648
 21
-1031.0325597833
 31
0.0
  0
LINE
  5
10F
  8
0
  6
HIDDEN
 62
     7
 10
640.06708954
 20
-1032.829371831
 30
0.0
 11
639.4893845316
 21
-1032.785671929
 31
0.0
  0
ARC
  5
110
  8
0
  6
HIDDEN
 62
     7
 10
-349.1309709918
 20
-1029.041362923
 30
0.0
 40
3.424847223437743
 50
343.1453221468
 51
1.5426827265
  0
POLYLINE
  5
111
  8
0
  6
HIDDEN
 62
     7
 66
     1
 10
0.0
 20
0.0
 30
0.0
  0
VERTEX
  5
2EC
  8
0
  6
HIDDEN
 62
     7
 10
-346.7041767648
 20
-1032.0686277608
 30
0.0
  0
VERTEX
  5
2ED
  8
0
  6
HIDDEN
 62
     7
 10
-346.7041767648
 20
-1032.0686277608
 30
0.0
  0
SEQEND
  5
2EB
  8
0
  6
HIDDEN
 62
     7
  0
POLYLINE
  5
112
  8
0
  6
HIDDEN
 62
     7
 66
     1
 10
0.0
 20
0.0
 30
0.0
  0
VERTEX
  5
2EF
  8
0
  6
HIDDEN
 62
     7
 10
637.0597552577
 20
-1031.8325597833
 30
0.0
  0
VERTEX
  5
2F0
  8
0
  6
HIDDEN
 62
     7
 10
637.0597552577
 20
-1031.8325597833
 30
0.0
  0
SEQEND
  5
2EE
  8
0
  6
HIDDEN
 62
     7
  0
POLYLINE
  5
113
  8
0
  6
HIDDEN
 62
     7
 66
     1
 10
0.0
 20
0.0
 30
0.0
  0
VERTEX
  5
2F2
  8
0
  6
HIDDEN
 62
     7
 10
-346.4681087873
 20
-1031.8325597833
 30
0.0
  0
VERTEX
  5
2F3
  8
0
  6
HIDDEN
 62
     7
 10
-346.4681087873
 20
-1031.8325597833
 30
0.0
  0
SEQEND
  5
2F1
  8
0
  6
HIDDEN
 62
     7
  0
POLYLINE
  5
114
  8
0
  6
HIDDEN
 62
     7
 66
     1
 10
0.0
 20
0.0
 30
0.0
  0
VERTEX
  5
2F5
  8
0
  6
HIDDEN
 62
     7
 10
637.2958232352
 20
-1032.0686277608
 30
0.0
  0
VERTEX
  5
2F6
  8
0
  6
HIDDEN
 62
     7
 10
637.2958232352
 20
-1032.0686277608
 30
0.0
  0
SEQEND
  5
2F4
  8
0
  6
HIDDEN
 62
     7
  0
LINE
  5
115
  8
0
  6
HIDDEN
 62
     7
 10
541.2940801788
 20
-1030.8325597833
 30
0.0
 11
546.2958232352
 21
-1030.8325597833
 31
0.0
  0
LINE
  5
116
  8
0
  6
HIDDEN
 62
     7
 10
536.2958232352
 20
-1030.8325597833
 30
0.0
 11
541.2940801788
 21
-1030.8325597833
 31
0.0
  0
LINE
  5
117
  8
0
  6
HIDDEN
 62
     7
 10
-299.2041767648
 20
-1036.8492079725
 30
0.0
 11
589.7958232352
 21
-1036.8492079725
 31
0.0
  0
LINE
  5
118
  8
0
  6
HIDDEN
 62
     7
 10
589.7958232352
 20
-1036.8492079725
 30
0.0
 11
602.2958232352
 21
-1036.8492079725
 31
0.0
  0
LINE
  5
119
  8
0
  6
HIDDEN
 62
     7
 10
-311.7041767648
 20
-1036.8492079725
 30
0.0
 11
-299.2041767648
 21
-1036.8492079725
 31
0.0
  0
LINE
  5
11A
  8
0
  6
HIDDEN
 62
     7
 10
638.6817090309
 20
-1032.8298660266
 30
0.0
 11
640.0675939658
 21
-1032.8298660266
 31
0.0
  0
LINE
  5
11B
  8
0
  6
HIDDEN
 62
     7
 10
636.298516992
 20
-1028.9485882744
 30
0.0
 11
636.298516992
 21
-1030.3905741989
 31
0.0
  0
LINE
  5
11C
  8
0
  6
HIDDEN
 62
     7
 10
-345.7068705215
 20
-1030.3905741988
 30
0.0
 11
-345.7068705215
 21
-1028.948588274
 31
0.0
  0
LINE
  5
11D
  8
0
  6
HIDDEN
 62
     7
 10
-349.4759474951
 20
-1032.8298660266
 30
0.0
 11
-348.0900625603
 21
-1032.8298660266
 31
0.0
  0
ARC
  5
11E
  8
0
  6
HIDDEN
 62
     7
 10
-322.8200601403
 20
-1030.3025597833
 30
0.0
 40
0.470000000028449
 50
90.0
 51
139.3250604347
  0
ARC
  5
11F
  8
0
  6
HIDDEN
 62
     7
 10
-336.5882933892
 20
-1030.3025597833
 30
0.0
 40
0.470000000028449
 50
40.6749395653
 51
90.0
  0
ARC
  5
120
  8
0
  6
HIDDEN
 62
     7
 10
627.1799398597
 20
-1030.3025597833
 30
0.0
 40
0.470000000028449
 50
90.0
 51
139.3250604347
  0
ARC
  5
121
  8
0
  6
HIDDEN
 62
     7
 10
613.4117066108
 20
-1030.3025597833
 30
0.0
 40
0.470000000028449
 50
40.6749395652
 51
90.0
  0
ARC
  5
122
  8
0
  6
HIDDEN
 62
     7
 10
627.1799398597
 20
-1030.3025597833
 30
0.0
 40
2.470000000000027
 50
90.0
 51
139.3250604347
  0
ARC
  5
123
  8
0
  6
HIDDEN
 62
     7
 10
613.4117066108
 20
-1030.3025597833
 30
0.0
 40
2.470000000000027
 50
40.6749395653
 51
90.0
  0
ARC
  5
124
  8
0
  6
HIDDEN
 62
     7
 10
-322.8200601403
 20
-1030.3025597833
 30
0.0
 40
2.470000000000027
 50
90.0
 51
139.3250604347
  0
ARC
  5
125
  8
0
  6
HIDDEN
 62
     7
 10
-336.5882933892
 20
-1030.3025597833
 30
0.0
 40
2.470000000000027
 50
40.6749395653
 51
90.0
  0
LINE
  5
126
  8
0
  6
HIDDEN
 62
     7
 10
-336.2318362321
 20
-1029.996229414
 30
0.0
 11
-334.221015731
 21
-1032.3360932699
 31
0.0
  0
LINE
  5
127
  8
0
  6
HIDDEN
 62
     7
 10
-325.1873377986
 20
-1032.3360932699
 30
0.0
 11
-323.1765172974
 21
-1029.996229414
 31
0.0
  0
LINE
  5
128
  8
0
  6
HIDDEN
 62
     7
 10
613.7681637679
 20
-1029.996229414
 30
0.0
 11
615.778984269
 21
-1032.3360932699
 31
0.0
  0
LINE
  5
129
  8
0
  6
HIDDEN
 62
     7
 10
624.8126622014
 20
-1032.3360932699
 30
0.0
 11
626.8234827026
 21
-1029.996229414
 31
0.0
  0
LINE
  5
12A
  8
0
  6
HIDDEN
 62
     7
 10
615.2850027341
 20
-1028.6926959274
 30
0.0
 11
617.2958232352
 21
-1031.0325597833
 31
0.0
  0
LINE
  5
12B
  8
0
  6
HIDDEN
 62
     7
 10
623.2958232352
 20
-1031.0325597833
 30
0.0
 11
625.3066437364
 21
-1028.6926959274
 31
0.0
  0
LINE
  5
12C
  8
0
  6
HIDDEN
 62
     7
 10
-334.7149972659
 20
-1028.6926959274
 30
0.0
 11
-332.7041767648
 21
-1031.0325597833
 31
0.0
  0
LINE
  5
12D
  8
0
  6
HIDDEN
 62
     7
 10
-326.7041767648
 20
-1031.0325597833
 30
0.0
 11
-324.6933562636
 21
-1028.6926959274
 31
0.0
  0
LINE
  5
12E
  8
0
  6
HIDDEN
 62
     7
 10
-325.1873377986
 20
-1032.3360932699
 30
0.0
 11
-326.7041767648
 21
-1031.0325597833
 31
0.0
  0
LINE
  5
12F
  8
0
  6
HIDDEN
 62
     7
 10
-332.7041767648
 20
-1031.0325597833
 30
0.0
 11
-334.221015731
 21
-1032.3360932699
 31
0.0
  0
LINE
  5
130
  8
0
  6
HIDDEN
 62
     7
 10
624.8126622014
 20
-1032.3360932699
 30
0.0
 11
623.2958232352
 21
-1031.0325597833
 31
0.0
  0
LINE
  5
131
  8
0
  6
HIDDEN
 62
     7
 10
617.2958232352
 20
-1031.0325597833
 30
0.0
 11
615.778984269
 21
-1032.3360932699
 31
0.0
  0
LINE
  5
132
  8
0
  6
HIDDEN
 62
     7
 10
536.2958232352
 20
-1029.8325597833
 30
0.0
 11
536.2958232352
 21
-1030.8325597833
 31
0.0
  0
LINE
  5
133
  8
0
  6
HIDDEN
 62
     7
 10
546.2958232352
 20
-1030.8325597833
 30
0.0
 11
546.2958232352
 21
-1029.8325597833
 31
0.0
  0
LINE
  5
134
  8
0
  6
HIDDEN
 62
     7
 10
537.2958232352
 20
-1030.8325597833
 30
0.0
 11
537.2958232352
 21
-1048.3325597833
 31
0.0
  0
LINE
  5
135
  8
0
  6
HIDDEN
 62
     7
 10
545.2958232352
 20
-1048.3325597833
 30
0.0
 11
545.2958232352
 21
-1030.8325597833
 31
0.0
  0
LINE
  5
136
  8
0
  6
CONTINUOUS
 62
     7
 10
801.5615460549
 20
-797.8925592949
 30
0.0
 11
802.5615460549
 21
-797.8925592949
 31
0.0
  0
LINE
  5
137
  8
0
  6
CONTINUOUS
 62
     7
 10
802.5615460549
 20
-789.8925592949
 30
0.0
 11
801.5615460549
 21
-789.8925592949
 31
0.0
  0
LINE
  5
138
  8
0
  6
CONTINUOUS
 62
     7
 10
802.5615460549
 20
-797.8925592949
 30
0.0
 11
803.0615460549
 21
-797.3925592949
 31
0.0
  0
LINE
  5
139
  8
0
  6
CONTINUOUS
 62
     7
 10
803.0615460549
 20
-790.3925592949
 30
0.0
 11
802.5615460549
 21
-789.8925592949
 31
0.0
  0
LINE
  5
13A
  8
0
  6
CONTINUOUS
 62
     7
 10
801.5615460549
 20
1078.1074407051
 30
0.0
 11
801.5615460549
 21
-889.8925592949
 31
0.0
  0
ARC
  5
13B
  8
0
  6
CONTINUOUS
 62
     7
 10
783.0615460549
 20
-891.8925592949
 30
0.0
 40
2.999999999999962
 50
41.8103148958
 51
48.1896851042
  0
ARC
  5
13C
  8
0
  6
CONTINUOUS
 62
     7
 10
783.0615460549
 20
1080.1074407051
 30
0.0
 40
2.999999999999944
 50
311.8103148958
 51
318.1896851042
  0
LINE
  5
13D
  8
0
  6
CONTINUOUS
 62
     7
 10
801.5615460549
 20
1082.1074407051
 30
0.0
 11
801.5615460549
 21
1078.1074407051
 31
0.0
  0
POLYLINE
  5
13E
  8
0
  6
CONTINUOUS
 62
     7
 66
     1
 10
0.0
 20
0.0
 30
0.0
  0
VERTEX
  5
2F8
  8
0
  6
CONTINUOUS
 62
     7
 10
785.2976140324
 20
1078.1074407051
 30
0.0
  0
VERTEX
  5
2F9
  8
0
  6
CONTINUOUS
 62
     7
 10
785.6299064811
 20
1078.9174874515
 30
0.0
  0
VERTEX
  5
2FA
  8
0
  6
CONTINUOUS
 62
     7
 10
785.8675428016
 20
1079.6862983492
 30
0.0
  0
VERTEX
  5
2FB
  8
0
  6
CONTINUOUS
 62
     7
 10
786.010522994
 20
1080.3841494904
 30
0.0
  0
VERTEX
  5
2FC
  8
0
  6
CONTINUOUS
 62
     7
 10
786.0588470581
 20
1080.9856722316
 30
0.0
  0
VERTEX
  5
2FD
  8
0
  6
CONTINUOUS
 62
     7
 10
786.0146582006
 20
1081.4523314879
 30
0.0
  0
VERTEX
  5
2FE
  8
0
  6
CONTINUOUS
 62
     7
 10
785.8751828163
 20
1081.7955810926
 30
0.0
  0
VERTEX
  5
2FF
  8
0
  6
CONTINUOUS
 62
     7
 10
785.6361680936
 20
1082.0244877335
 30
0.0
  0
VERTEX
  5
300
  8
0
  6
CONTINUOUS
 62
     7
 10
785.2976140324
 20
1082.1074413939
 30
0.0
  0
SEQEND
  5
2F7
  8
0
  6
CONTINUOUS
 62
     7
  0
LINE
  5
13F
  8
0
  6
CONTINUOUS
 62
     7
 10
785.2976140324
 20
1082.1074407051
 30
0.0
 11
801.5615460549
 21
1082.1074407051
 31
0.0
  0
POLYLINE
  5
140
  8
0
  6
CONTINUOUS
 62
     7
 66
     1
 10
0.0
 20
0.0
 30
0.0
  0
VERTEX
  5
302
  8
0
  6
CONTINUOUS
 62
     7
 10
781.0615457105
 20
1077.8713727276
 30
0.0
  0
VERTEX
  5
303
  8
0
  6
CONTINUOUS
 62
     7
 10
781.1444263044
 20
1077.5390802765
 30
0.0
  0
VERTEX
  5
304
  8
0
  6
CONTINUOUS
 62
     7
 10
781.3863301803
 20
1077.3014439551
 30
0.0
  0
VERTEX
  5
305
  8
0
  6
CONTINUOUS
 62
     7
 10
781.7726859578
 20
1077.1584637635
 30
0.0
  0
VERTEX
  5
306
  8
0
  6
CONTINUOUS
 62
     7
 10
782.2838154321
 20
1077.1101397017
 30
0.0
  0
VERTEX
  5
307
  8
0
  6
CONTINUOUS
 62
     7
 10
782.8679849657
 20
1077.1543285627
 30
0.0
  0
VERTEX
  5
308
  8
0
  6
CONTINUOUS
 62
     7
 10
783.5131192692
 20
1077.2938039485
 30
0.0
  0
VERTEX
  5
309
  8
0
  6
CONTINUOUS
 62
     7
 10
784.2511461854
 20
1077.5328186701
 30
0.0
  0
VERTEX
  5
30A
  8
0
  6
CONTINUOUS
 62
     7
 10
785.0615460549
 20
1077.8713727276
 30
0.0
  0
SEQEND
  5
301
  8
0
  6
CONTINUOUS
 62
     7
  0
POLYLINE
  5
141
  8
0
  6
CONTINUOUS
 62
     7
 66
     1
 10
0.0
 20
0.0
 30
0.0
  0
VERTEX
  5
30C
  8
0
  6
CONTINUOUS
 62
     7
 10
785.0615460549
 20
-889.6564913174
 30
0.0
  0
VERTEX
  5
30D
  8
0
  6
CONTINUOUS
 62
     7
 10
784.2511461854
 20
-889.3179372598
 30
0.0
  0
VERTEX
  5
30E
  8
0
  6
CONTINUOUS
 62
     7
 10
783.5131192692
 20
-889.0789225382
 30
0.0
  0
VERTEX
  5
30F
  8
0
  6
CONTINUOUS
 62
     7
 10
782.8679849657
 20
-888.9394471525
 30
0.0
  0
VERTEX
  5
310
  8
0
  6
CONTINUOUS
 62
     7
 10
782.2838154318
 20
-888.8952582914
 30
0.0
  0
VERTEX
  5
311
  8
0
  6
CONTINUOUS
 62
     7
 10
781.7726859572
 20
-888.9435823531
 30
0.0
  0
VERTEX
  5
312
  8
0
  6
CONTINUOUS
 62
     7
 10
781.3863301799
 20
-889.0865625447
 30
0.0
  0
VERTEX
  5
313
  8
0
  6
CONTINUOUS
 62
     7
 10
781.1444263043
 20
-889.3241988661
 30
0.0
  0
VERTEX
  5
314
  8
0
  6
CONTINUOUS
 62
     7
 10
781.0615457105
 20
-889.6564913174
 30
0.0
  0
SEQEND
  5
30B
  8
0
  6
CONTINUOUS
 62
     7
  0
LINE
  5
142
  8
0
  6
CONTINUOUS
 62
     7
 10
781.0615460549
 20
-889.6564913174
 30
0.0
 11
781.0615460549
 21
1077.8713727276
 31
0.0
  0
ARC
  5
143
  8
0
  6
CONTINUOUS
 62
     7
 10
785.4170172193
 20
1079.4336885606
 30
0.0
 40
0.6842514168829141
 50
43.6065910916
 51
100.0496743192
  0
LINE
  5
144
  8
0
  6
CONTINUOUS
 62
     7
 10
785.2976140324
 20
1082.1074407051
 30
0.0
 11
785.2976140324
 21
1080.1074407051
 31
0.0
  0
LINE
  5
145
  8
0
  6
CONTINUOUS
 62
     7
 10
783.0615460549
 20
1077.8713727276
 30
0.0
 11
781.0615460549
 21
1077.8713727276
 31
0.0
  0
ARC
  5
146
  8
0
  6
CONTINUOUS
 62
     7
 10
783.6946115852
 20
1077.7538321959
 30
0.0
 40
0.6438852214214027
 50
169.4817392885
 51
231.898780478
  0
ARC
  5
147
  8
0
  6
CONTINUOUS
 62
     7
 10
783.6946115852
 20
-889.5389507854
 30
0.0
 40
0.6438852214459778
 50
128.1012195488
 51
190.5182607314
  0
LINE
  5
148
  8
0
  6
CONTINUOUS
 62
     7
 10
781.0615460549
 20
-889.6564913174
 30
0.0
 11
783.0615457105
 21
-889.6564913174
 31
0.0
  0
ARC
  5
149
  8
0
  6
CONTINUOUS
 62
     7
 10
785.4170171035
 20
-891.218807483
 30
0.0
 40
0.6842510690347865
 50
259.9503303708
 51
316.393650666
  0
POLYLINE
  5
14A
  8
0
  6
CONTINUOUS
 62
     7
 66
     1
 10
0.0
 20
0.0
 30
0.0
  0
VERTEX
  5
316
  8
0
  6
CONTINUOUS
 62
     7
 10
785.2976140324
 20
-893.8925599837
 30
0.0
  0
VERTEX
  5
317
  8
0
  6
CONTINUOUS
 62
     7
 10
785.6361680935
 20
-893.8096063232
 30
0.0
  0
VERTEX
  5
318
  8
0
  6
CONTINUOUS
 62
     7
 10
785.8751828163
 20
-893.5806996825
 30
0.0
  0
VERTEX
  5
319
  8
0
  6
CONTINUOUS
 62
     7
 10
786.0146582006
 20
-893.2374500777
 30
0.0
  0
VERTEX
  5
31A
  8
0
  6
CONTINUOUS
 62
     7
 10
786.0588473099
 20
-892.7707882474
 30
0.0
  0
VERTEX
  5
31B
  8
0
  6
CONTINUOUS
 62
     7
 10
786.0105235132
 20
-892.1692617945
 30
0.0
  0
VERTEX
  5
31C
  8
0
  6
CONTINUOUS
 62
     7
 10
785.8675433681
 20
-891.4714092764
 30
0.0
  0
VERTEX
  5
31D
  8
0
  6
CONTINUOUS
 62
     7
 10
785.6299068745
 20
-890.7026003698
 30
0.0
  0
VERTEX
  5
31E
  8
0
  6
CONTINUOUS
 62
     7
 10
785.2976140324
 20
-889.8925592949
 30
0.0
  0
SEQEND
  5
315
  8
0
  6
CONTINUOUS
 62
     7
  0
LINE
  5
14B
  8
0
  6
CONTINUOUS
 62
     7
 10
785.2976140324
 20
-893.8925592949
 30
0.0
 11
785.2976140324
 21
-891.8925599837
 31
0.0
  0
LINE
  5
14C
  8
0
  6
CONTINUOUS
 62
     7
 10
801.5615460549
 20
-889.8925592949
 30
0.0
 11
801.5615460549
 21
-893.8925592949
 31
0.0
  0
LINE
  5
14D
  8
0
  6
CONTINUOUS
 62
     7
 10
785.2976140324
 20
-893.8925592949
 30
0.0
 11
801.5615460549
 21
-893.8925592949
 31
0.0
  0
LINE
  5
14E
  8
0
  6
CONTINUOUS
 62
     7
 10
785.1828663985
 20
1080.1074407051
 30
0.0
 11
785.1828663985
 21
1082.1074407051
 31
0.0
  0
LINE
  5
14F
  8
0
  6
CONTINUOUS
 62
     7
 10
785.2976140324
 20
1082.1074407051
 30
0.0
 11
785.1828663985
 21
1082.1074407051
 31
0.0
  0
LINE
  5
150
  8
0
  6
CONTINUOUS
 62
     7
 10
785.2976140324
 20
1080.1074407051
 30
0.0
 11
785.1828663985
 21
1080.1074407051
 31
0.0
  0
LINE
  5
151
  8
0
  6
CONTINUOUS
 62
     7
 10
783.0615460549
 20
1078.1074407051
 30
0.0
 11
781.0615460549
 21
1078.1074407051
 31
0.0
  0
LINE
  5
152
  8
0
  6
CONTINUOUS
 62
     7
 10
781.0615460549
 20
1078.1074407051
 30
0.0
 11
781.0615460549
 21
1077.8713727276
 31
0.0
  0
LINE
  5
153
  8
0
  6
CONTINUOUS
 62
     7
 10
783.0615460549
 20
1078.1074407051
 30
0.0
 11
783.0615460549
 21
1077.8713727276
 31
0.0
  0
LINE
  5
154
  8
0
  6
CONTINUOUS
 62
     7
 10
785.1828663985
 20
-893.8925592949
 30
0.0
 11
785.1828663985
 21
-891.8925592949
 31
0.0
  0
LINE
  5
155
  8
0
  6
CONTINUOUS
 62
     7
 10
785.2976140324
 20
-893.8925592949
 30
0.0
 11
785.1828663985
 21
-893.8925592949
 31
0.0
  0
LINE
  5
156
  8
0
  6
CONTINUOUS
 62
     7
 10
785.2976140324
 20
-891.8925592949
 30
0.0
 11
785.1828663985
 21
-891.8925592949
 31
0.0
  0
LINE
  5
157
  8
0
  6
CONTINUOUS
 62
     7
 10
783.0615460549
 20
-889.8925592949
 30
0.0
 11
781.0615460549
 21
-889.8925592949
 31
0.0
  0
LINE
  5
158
  8
0
  6
CONTINUOUS
 62
     7
 10
781.0615460549
 20
-889.8925592949
 30
0.0
 11
781.0615460549
 21
-889.6564913174
 31
0.0
  0
LINE
  5
159
  8
0
  6
CONTINUOUS
 62
     7
 10
783.0615460549
 20
-889.8925592949
 30
0.0
 11
783.0615460549
 21
-889.6564913174
 31
0.0
  0
LINE
  5
15A
  8
0
  6
CONTINUOUS
 62
     7
 10
785.1828663985
 20
1082.1074407051
 30
0.0
 11
785.0615460549
 21
1082.1074407051
 31
0.0
  0
LINE
  5
15B
  8
0
  6
CONTINUOUS
 62
     7
 10
785.1828663985
 20
1080.1074407051
 30
0.0
 11
785.1828663985
 21
1082.1074407051
 31
0.0
  0
LINE
  5
15C
  8
0
  6
CONTINUOUS
 62
     7
 10
785.1828663985
 20
1080.1074407051
 30
0.0
 11
785.0615460549
 21
1080.1074407051
 31
0.0
  0
LINE
  5
15D
  8
0
  6
CONTINUOUS
 62
     7
 10
785.0615460549
 20
1080.1074413939
 30
0.0
 11
785.0615460549
 21
1082.1074407051
 31
0.0
  0
LINE
  5
15E
  8
0
  6
CONTINUOUS
 62
     7
 10
785.1828663985
 20
-893.8925592949
 30
0.0
 11
785.1828663985
 21
-891.8925592949
 31
0.0
  0
LINE
  5
15F
  8
0
  6
CONTINUOUS
 62
     7
 10
785.1828663985
 20
-893.8925592949
 30
0.0
 11
785.0615460549
 21
-893.8925592949
 31
0.0
  0
LINE
  5
160
  8
0
  6
CONTINUOUS
 62
     7
 10
785.0615460549
 20
-891.8925592949
 30
0.0
 11
785.0615460549
 21
-893.8925592949
 31
0.0
  0
LINE
  5
161
  8
0
  6
CONTINUOUS
 62
     7
 10
785.1828663985
 20
-891.8925592949
 30
0.0
 11
785.0615460549
 21
-891.8925592949
 31
0.0
  0
ARC
  5
162
  8
0
  6
CONTINUOUS
 62
     7
 10
785.0615460549
 20
1078.1074407051
 30
0.0
 40
2.000000688792738
 50
90.0
 51
180.0
  0
ARC
  5
163
  8
0
  6
CONTINUOUS
 62
     7
 10
785.0615460549
 20
1078.1074407051
 30
0.0
 40
4.000000688793534
 50
90.0
 51
180.0
  0
ARC
  5
164
  8
0
  6
CONTINUOUS
 62
     7
 10
785.0615460549
 20
-889.8925592949
 30
0.0
 40
4.000000688793079
 50
180.0
 51
270.0
  0
ARC
  5
165
  8
0
  6
CONTINUOUS
 62
     7
 10
785.0615460549
 20
-889.8925592949
 30
0.0
 40
2.000000688793079
 50
180.0
 51
270.0
  0
LINE
  5
166
  8
0
  6
CONTINUOUS
 62
     7
 10
802.5615460549
 20
-797.8925592949
 30
0.0
 11
802.5615460549
 21
-789.8925595379
 31
0.0
  0
LINE
  5
167
  8
0
  6
CONTINUOUS
 62
     7
 10
803.0615460549
 20
-797.3925592949
 30
0.0
 11
803.0615460549
 21
-790.3925595075
 31
0.0
  0
ARC
  5
168
  8
0
  6
HIDDEN
 62
     7
 10
782.5615460549
 20
-860.8925592949
 30
0.0
 40
7.51664818918656
 50
273.8140748343
 51
86.1859251657
  0
ARC
  5
169
  8
0
  6
HIDDEN
 62
     7
 10
782.5615460549
 20
1049.1074407051
 30
0.0
 40
7.516648189186447
 50
273.8140748343
 51
86.1859251657
  0
POLYLINE
  5
16A
  8
0
  6
HIDDEN
 62
     7
 66
     1
 10
0.0
 20
0.0
 30
0.0
  0
VERTEX
  5
320
  8
0
  6
HIDDEN
 62
     7
 10
786.0586070112
 20
1079.547824232
 30
0.0
  0
VERTEX
  5
321
  8
0
  6
HIDDEN
 62
     7
 10
786.0146582006
 20
1079.7798863845
 30
0.0
  0
VERTEX
  5
322
  8
0
  6
HIDDEN
 62
     7
 10
785.9124785558
 20
1079.9056187096
 30
0.0
  0
SEQEND
  5
31F
  8
0
  6
HIDDEN
 62
     7
  0
POLYLINE
  5
16B
  8
0
  6
HIDDEN
 62
     7
 66
     1
 10
0.0
 20
0.0
 30
0.0
  0
VERTEX
  5
324
  8
0
  6
HIDDEN
 62
     7
 10
785.2976140324
 20
1078.1074407051
 30
0.0
  0
VERTEX
  5
325
  8
0
  6
HIDDEN
 62
     7
 10
785.2976140324
 20
1078.1074407051
 30
0.0
  0
SEQEND
  5
323
  8
0
  6
HIDDEN
 62
     7
  0
ARC
  5
16C
  8
0
  6
HIDDEN
 62
     7
 10
783.6187204372
 20
1077.5451764187
 30
0.0
 40
0.4383304649434808
 50
222.8377390258
 51
277.2803323101
  0
POLYLINE
  5
16D
  8
0
  6
HIDDEN
 62
     7
 66
     1
 10
0.0
 20
0.0
 30
0.0
  0
VERTEX
  5
327
  8
0
  6
HIDDEN
 62
     7
 10
785.0615460549
 20
1077.8713727276
 30
0.0
  0
VERTEX
  5
328
  8
0
  6
HIDDEN
 62
     7
 10
785.0615460549
 20
1077.8713727276
 30
0.0
  0
SEQEND
  5
326
  8
0
  6
HIDDEN
 62
     7
  0
ARC
  5
16E
  8
0
  6
HIDDEN
 62
     7
 10
783.6187204369
 20
-889.3302950083
 30
0.0
 40
0.4383304648856217
 50
82.7196676843
 51
137.1622609776
  0
POLYLINE
  5
16F
  8
0
  6
HIDDEN
 62
     7
 66
     1
 10
0.0
 20
0.0
 30
0.0
  0
VERTEX
  5
32A
  8
0
  6
HIDDEN
 62
     7
 10
785.0615460549
 20
-889.6564913174
 30
0.0
  0
VERTEX
  5
32B
  8
0
  6
HIDDEN
 62
     7
 10
785.0615460549
 20
-889.6564913174
 30
0.0
  0
SEQEND
  5
329
  8
0
  6
HIDDEN
 62
     7
  0
POLYLINE
  5
170
  8
0
  6
HIDDEN
 62
     7
 66
     1
 10
0.0
 20
0.0
 30
0.0
  0
VERTEX
  5
32D
  8
0
  6
HIDDEN
 62
     7
 10
785.9124801794
 20
-891.6907353016
 30
0.0
  0
VERTEX
  5
32E
  8
0
  6
HIDDEN
 62
     7
 10
786.0146582006
 20
-891.5650049743
 30
0.0
  0
VERTEX
  5
32F
  8
0
  6
HIDDEN
 62
     7
 10
786.0586073526
 20
-891.332941061
 30
0.0
  0
SEQEND
  5
32C
  8
0
  6
HIDDEN
 62
     7
  0
POLYLINE
  5
171
  8
0
  6
HIDDEN
 62
     7
 66
     1
 10
0.0
 20
0.0
 30
0.0
  0
VERTEX
  5
331
  8
0
  6
HIDDEN
 62
     7
 10
785.2976140324
 20
-889.8925592949
 30
0.0
  0
VERTEX
  5
332
  8
0
  6
HIDDEN
 62
     7
 10
785.2976140324
 20
-889.8925592949
 30
0.0
  0
SEQEND
  5
330
  8
0
  6
HIDDEN
 62
     7
  0
LINE
  5
172
  8
0
  6
HIDDEN
 62
     7
 10
785.2976140324
 20
-891.8925592949
 30
0.0
 11
801.5615460549
 21
-891.8925592949
 31
0.0
  0
LINE
  5
173
  8
0
  6
HIDDEN
 62
     7
 10
783.0615460549
 20
-889.6564913174
 30
0.0
 11
783.0615460549
 21
1077.8713727276
 31
0.0
  0
LINE
  5
174
  8
0
  6
HIDDEN
 62
     7
 10
785.2976140324
 20
1080.1074407051
 30
0.0
 11
801.5615460549
 21
1080.1074407051
 31
0.0
  0
LINE
  5
175
  8
0
  6
HIDDEN
 62
     7
 10
792.3115460549
 20
1082.1074407051
 30
0.0
 11
792.3115460549
 21
1080.1074407051
 31
0.0
  0
LINE
  5
176
  8
0
  6
HIDDEN
 62
     7
 10
792.3115460549
 20
-893.8925592949
 30
0.0
 11
792.3115460549
 21
-891.8925592948
 31
0.0
  0
LINE
  5
177
  8
0
  6
HIDDEN
 62
     7
 10
792.3115460549
 20
1082.1074407051
 30
0.0
 11
792.3115460549
 21
1080.1074407051
 31
0.0
  0
LINE
  5
178
  8
0
  6
HIDDEN
 62
     7
 10
792.3115460549
 20
-893.8925592949
 30
0.0
 11
792.3115460549
 21
-891.8925592948
 31
0.0
  0
LINE
  5
179
  8
0
  6
HIDDEN
 62
     7
 10
785.5650795415
 20
86.1074407051
 30
0.0
 11
785.5650795415
 21
81.5906017389
 31
0.0
  0
LINE
  5
17A
  8
0
  6
HIDDEN
 62
     7
 10
785.5650795415
 20
90.6242796713
 30
0.0
 11
785.5650795415
 21
86.1074407051
 31
0.0
  0
LINE
  5
17B
  8
0
  6
HIDDEN
 62
     7
 10
785.5650795415
 20
986.1074407051
 30
0.0
 11
785.5650795415
 21
981.5906017389
 31
0.0
  0
LINE
  5
17C
  8
0
  6
HIDDEN
 62
     7
 10
785.5650795415
 20
990.6242796713
 30
0.0
 11
785.5650795415
 21
986.1074407051
 31
0.0
  0
LINE
  5
17D
  8
0
  6
HIDDEN
 62
     7
 10
785.5650795415
 20
-813.8925592949
 30
0.0
 11
785.5650795415
 21
-818.4093982611
 31
0.0
  0
LINE
  5
17E
  8
0
  6
HIDDEN
 62
     7
 10
785.5650795415
 20
-809.3757203287
 30
0.0
 11
785.5650795415
 21
-813.8925592949
 31
0.0
  0
LINE
  5
17F
  8
0
  6
HIDDEN
 62
     7
 10
784.261546055
 20
89.1074407051
 30
0.0
 11
784.261546055
 21
83.1074407051
 31
0.0
  0
LINE
  5
180
  8
0
  6
HIDDEN
 62
     7
 10
784.261546055
 20
989.1074407051
 30
0.0
 11
784.261546055
 21
983.1074407051
 31
0.0
  0
LINE
  5
181
  8
0
  6
HIDDEN
 62
     7
 10
784.261546055
 20
-810.8925592949
 30
0.0
 11
784.261546055
 21
-816.8925592949
 31
0.0
  0
POLYLINE
  5
182
  8
0
  6
HIDDEN
 62
     7
 66
     1
 10
0.0
 20
0.0
 30
0.0
  0
VERTEX
  5
334
  8
0
  6
HIDDEN
 62
     7
 10
785.2976140324
 20
1078.1074407051
 30
0.0
  0
VERTEX
  5
335
  8
0
  6
HIDDEN
 62
     7
 10
785.2976140324
 20
1078.1074407051
 30
0.0
  0
SEQEND
  5
333
  8
0
  6
HIDDEN
 62
     7
  0
POLYLINE
  5
183
  8
0
  6
HIDDEN
 62
     7
 66
     1
 10
0.0
 20
0.0
 30
0.0
  0
VERTEX
  5
337
  8
0
  6
HIDDEN
 62
     7
 10
785.0615460549
 20
1077.8713727276
 30
0.0
  0
VERTEX
  5
338
  8
0
  6
HIDDEN
 62
     7
 10
785.0615460549
 20
1077.8713727276
 30
0.0
  0
SEQEND
  5
336
  8
0
  6
HIDDEN
 62
     7
  0
LINE
  5
184
  8
0
  6
HIDDEN
 62
     7
 10
782.7581372797
 20
1077.1460192555
 30
0.0
 11
782.2902847322
 21
1077.1106290648
 31
0.0
  0
POLYLINE
  5
185
  8
0
  6
HIDDEN
 62
     7
 66
     1
 10
0.0
 20
0.0
 30
0.0
  0
VERTEX
  5
33A
  8
0
  6
HIDDEN
 62
     7
 10
785.0615460549
 20
-889.6564913174
 30
0.0
  0
VERTEX
  5
33B
  8
0
  6
HIDDEN
 62
     7
 10
785.0615460549
 20
-889.6564913174
 30
0.0
  0
SEQEND
  5
339
  8
0
  6
HIDDEN
 62
     7
  0
POLYLINE
  5
186
  8
0
  6
HIDDEN
 62
     7
 66
     1
 10
0.0
 20
0.0
 30
0.0
  0
VERTEX
  5
33D
  8
0
  6
HIDDEN
 62
     7
 10
785.2976140324
 20
-889.8925592949
 30
0.0
  0
VERTEX
  5
33E
  8
0
  6
HIDDEN
 62
     7
 10
785.2976140324
 20
-889.8925592949
 30
0.0
  0
SEQEND
  5
33C
  8
0
  6
HIDDEN
 62
     7
  0
LINE
  5
187
  8
0
  6
HIDDEN
 62
     7
 10
784.0615460549
 20
-798.8925592949
 30
0.0
 11
784.0615460549
 21
-788.8925595987
 31
0.0
  0
LINE
  5
188
  8
0
  6
HIDDEN
 62
     7
 10
790.0781942441
 20
-860.8925592949
 30
0.0
 11
790.0781942441
 21
-848.3925592949
 31
0.0
  0
LINE
  5
189
  8
0
  6
HIDDEN
 62
     7
 10
790.0781942441
 20
-848.3925592949
 30
0.0
 11
790.0781942441
 21
1036.6074407051
 31
0.0
  0
LINE
  5
18A
  8
0
  6
HIDDEN
 62
     7
 10
790.0781942441
 20
1036.6074407051
 30
0.0
 11
790.0781942441
 21
1049.1074407051
 31
0.0
  0
LINE
  5
18B
  8
0
  6
HIDDEN
 62
     7
 10
786.0588522982
 20
1079.5494262892
 30
0.0
 11
786.0588522982
 21
1080.9914122135
 31
0.0
  0
LINE
  5
18C
  8
0
  6
HIDDEN
 62
     7
 10
782.2897755528
 20
1077.1101344617
 30
0.0
 11
783.6756604928
 21
1077.1101344617
 31
0.0
  0
LINE
  5
18D
  8
0
  6
HIDDEN
 62
     7
 10
783.6756604925
 20
-888.8952530514
 30
0.0
 11
782.2897755521
 21
-888.8952530514
 31
0.0
  0
LINE
  5
18E
  8
0
  6
HIDDEN
 62
     7
 10
786.058852546
 20
-892.7765260885
 30
0.0
 11
786.058852546
 21
-891.3345425219
 31
0.0
  0
ARC
  5
18F
  8
0
  6
HIDDEN
 62
     7
 10
783.531546055
 20
992.9915573296
 30
0.0
 40
0.4700000000285627
 50
180.0
 51
229.3250604347
  0
ARC
  5
190
  8
0
  6
HIDDEN
 62
     7
 10
783.531546055
 20
979.2233240807
 30
0.0
 40
0.4700000000285627
 50
130.6749395653
 51
180.0
  0
ARC
  5
191
  8
0
  6
HIDDEN
 62
     7
 10
783.531546055
 20
-807.0084426704
 30
0.0
 40
0.4700000000285627
 50
180.0
 51
229.3250604347
  0
ARC
  5
192
  8
0
  6
HIDDEN
 62
     7
 10
783.531546055
 20
-820.7766759193
 30
0.0
 40
0.4700000000285627
 50
130.6749395653
 51
180.0
  0
ARC
  5
193
  8
0
  6
HIDDEN
 62
     7
 10
783.531546055
 20
992.9915573296
 30
0.0
 40
2.470000000000141
 50
180.0
 51
229.3250604347
  0
ARC
  5
194
  8
0
  6
HIDDEN
 62
     7
 10
783.531546055
 20
979.2233240807
 30
0.0
 40
2.470000000000141
 50
130.6749395653
 51
180.0
  0
ARC
  5
195
  8
0
  6
HIDDEN
 62
     7
 10
783.531546055
 20
92.9915573296
 30
0.0
 40
2.470000000000141
 50
180.0
 51
229.3250604347
  0
ARC
  5
196
  8
0
  6
HIDDEN
 62
     7
 10
783.531546055
 20
79.2233240807
 30
0.0
 40
2.470000000000141
 50
130.6749395653
 51
180.0
  0
ARC
  5
197
  8
0
  6
HIDDEN
 62
     7
 10
783.531546055
 20
92.9915573296
 30
0.0
 40
0.4700000000285627
 50
180.0
 51
229.3250604347
  0
ARC
  5
198
  8
0
  6
HIDDEN
 62
     7
 10
783.531546055
 20
79.2233240807
 30
0.0
 40
0.4700000000285627
 50
130.6749395653
 51
180.0
  0
ARC
  5
199
  8
0
  6
HIDDEN
 62
     7
 10
783.531546055
 20
-807.0084426704
 30
0.0
 40
2.470000000000141
 50
180.0
 51
229.3250604347
  0
ARC
  5
19A
  8
0
  6
HIDDEN
 62
     7
 10
783.531546055
 20
-820.7766759193
 30
0.0
 40
2.470000000000141
 50
130.6749395653
 51
180.0
  0
LINE
  5
19B
  8
0
  6
HIDDEN
 62
     7
 10
783.2252156856
 20
79.5797812378
 30
0.0
 11
785.5650795415
 21
81.5906017389
 31
0.0
  0
LINE
  5
19C
  8
0
  6
HIDDEN
 62
     7
 10
785.5650795415
 20
90.6242796713
 30
0.0
 11
783.2252156856
 21
92.6351001725
 31
0.0
  0
LINE
  5
19D
  8
0
  6
HIDDEN
 62
     7
 10
783.2252156856
 20
979.5797812378
 30
0.0
 11
785.5650795415
 21
981.5906017389
 31
0.0
  0
LINE
  5
19E
  8
0
  6
HIDDEN
 62
     7
 10
785.5650795415
 20
990.6242796713
 30
0.0
 11
783.2252156856
 21
992.6351001725
 31
0.0
  0
LINE
  5
19F
  8
0
  6
HIDDEN
 62
     7
 10
783.2252156856
 20
-820.4202187622
 30
0.0
 11
785.5650795415
 21
-818.4093982611
 31
0.0
  0
LINE
  5
1A0
  8
0
  6
HIDDEN
 62
     7
 10
785.5650795415
 20
-809.3757203287
 30
0.0
 11
783.2252156856
 21
-807.3648998275
 31
0.0
  0
LINE
  5
1A1
  8
0
  6
HIDDEN
 62
     7
 10
781.921682199
 20
81.096620204
 30
0.0
 11
784.261546055
 21
83.1074407051
 31
0.0
  0
LINE
  5
1A2
  8
0
  6
HIDDEN
 62
     7
 10
784.261546055
 20
89.1074407051
 30
0.0
 11
781.921682199
 21
91.1182612063
 31
0.0
  0
LINE
  5
1A3
  8
0
  6
HIDDEN
 62
     7
 10
781.921682199
 20
981.096620204
 30
0.0
 11
784.261546055
 21
983.1074407051
 31
0.0
  0
LINE
  5
1A4
  8
0
  6
HIDDEN
 62
     7
 10
784.261546055
 20
989.1074407051
 30
0.0
 11
781.921682199
 21
991.1182612063
 31
0.0
  0
LINE
  5
1A5
  8
0
  6
HIDDEN
 62
     7
 10
781.921682199
 20
-818.903379796
 30
0.0
 11
784.261546055
 21
-816.8925592949
 31
0.0
  0
LINE
  5
1A6
  8
0
  6
HIDDEN
 62
     7
 10
784.261546055
 20
-810.8925592949
 30
0.0
 11
781.921682199
 21
-808.8817387937
 31
0.0
  0
LINE
  5
1A7
  8
0
  6
HIDDEN
 62
     7
 10
785.5650795415
 20
-809.3757203287
 30
0.0
 11
784.261546055
 21
-810.8925592949
 31
0.0
  0
LINE
  5
1A8
  8
0
  6
HIDDEN
 62
     7
 10
784.261546055
 20
-816.8925592949
 30
0.0
 11
785.5650795415
 21
-818.4093982611
 31
0.0
  0
LINE
  5
1A9
  8
0
  6
HIDDEN
 62
     7
 10
785.5650795415
 20
90.6242796713
 30
0.0
 11
784.261546055
 21
89.1074407051
 31
0.0
  0
LINE
  5
1AA
  8
0
  6
HIDDEN
 62
     7
 10
784.261546055
 20
83.1074407051
 30
0.0
 11
785.5650795415
 21
81.5906017389
 31
0.0
  0
LINE
  5
1AB
  8
0
  6
HIDDEN
 62
     7
 10
785.5650795415
 20
990.6242796713
 30
0.0
 11
784.261546055
 21
989.1074407051
 31
0.0
  0
LINE
  5
1AC
  8
0
  6
HIDDEN
 62
     7
 10
784.261546055
 20
983.1074407051
 30
0.0
 11
785.5650795415
 21
981.5906017389
 31
0.0
  0
LINE
  5
1AD
  8
0
  6
HIDDEN
 62
     7
 10
783.0615460549
 20
-798.8925592949
 30
0.0
 11
784.0615460549
 21
-798.8925592949
 31
0.0
  0
LINE
  5
1AE
  8
0
  6
HIDDEN
 62
     7
 10
784.0615460549
 20
-788.8925592949
 30
0.0
 11
783.0615460549
 21
-788.8925592949
 31
0.0
  0
LINE
  5
1AF
  8
0
  6
HIDDEN
 62
     7
 10
784.0615460549
 20
-797.8925592949
 30
0.0
 11
801.5615460549
 21
-797.8925592949
 31
0.0
  0
LINE
  5
1B0
  8
0
  6
HIDDEN
 62
     7
 10
801.5615460549
 20
-789.8925592949
 30
0.0
 11
784.0615460549
 21
-789.8925592949
 31
0.0
  0
ARC
  5
1B1
  8
0
  6
CONTINUOUS
 62
     7
 10
946.6400653858
 20
1080.1074407051
 30
0.0
 40
3.000000000000029
 50
311.8103148958
 51
318.1896851042
  0
ARC
  5
1B2
  8
0
  6
CONTINUOUS
 62
     7
 10
1934.6400653858
 20
1080.1074407051
 30
0.0
 40
2.999999999999944
 50
221.8103148958
 51
228.1896851042
  0
ARC
  5
1B3
  8
0
  6
CONTINUOUS
 62
     7
 10
1934.6400653858
 20
-891.8925592949
 30
0.0
 40
2.999999999999927
 50
131.8103148958
 51
138.1896851042
  0
ARC
  5
1B4
  8
0
  6
CONTINUOUS
 62
     7
 10
946.6400653858
 20
-891.8925592949
 30
0.0
 40
2.999999999999962
 50
41.8103148958
 51
48.1896851042
  0
ARC
  5
1B5
  8
0
  6
CONTINUOUS
 62
     7
 10
948.9936738779
 20
1079.4743755517
 30
0.0
 40
0.6438851863218338
 50
38.1012095142
 51
100.5182597343
  0
LINE
  5
1B6
  8
0
  6
CONTINUOUS
 62
     7
 10
948.8761333633
 20
1082.1074407051
 30
0.0
 11
948.8761333633
 21
1080.1074407051
 31
0.0
  0
POLYLINE
  5
1B7
  8
0
  6
CONTINUOUS
 62
     7
 66
     1
 10
0.0
 20
0.0
 30
0.0
  0
VERTEX
  5
340
  8
0
  6
CONTINUOUS
 62
     7
 10
948.8761333633
 20
1078.1074407051
 30
0.0
  0
VERTEX
  5
341
  8
0
  6
CONTINUOUS
 62
     7
 10
949.2146874245
 20
1078.9178406611
 30
0.0
  0
VERTEX
  5
342
  8
0
  6
CONTINUOUS
 62
     7
 10
949.4537021473
 20
1079.6558676467
 30
0.0
  0
VERTEX
  5
343
  8
0
  6
CONTINUOUS
 62
     7
 10
949.5931775316
 20
1080.3010020017
 30
0.0
  0
VERTEX
  5
344
  8
0
  6
CONTINUOUS
 62
     7
 10
949.637366389
 20
1080.8851715759
 30
0.0
  0
VERTEX
  5
345
  8
0
  6
CONTINUOUS
 62
     7
 10
949.5890423248
 20
1081.3963010878
 30
0.0
  0
VERTEX
  5
346
  8
0
  6
CONTINUOUS
 62
     7
 10
949.4460621325
 20
1081.782656896
 30
0.0
  0
VERTEX
  5
347
  8
0
  6
CONTINUOUS
 62
     7
 10
949.208425812
 20
1082.0245607925
 30
0.0
  0
VERTEX
  5
348
  8
0
  6
CONTINUOUS
 62
     7
 10
948.8761333633
 20
1082.1074413939
 30
0.0
  0
SEQEND
  5
33F
  8
0
  6
CONTINUOUS
 62
     7
  0
POLYLINE
  5
1B8
  8
0
  6
CONTINUOUS
 62
     7
 66
     1
 10
0.0
 20
0.0
 30
0.0
  0
VERTEX
  5
34A
  8
0
  6
CONTINUOUS
 62
     7
 10
1932.4039974083
 20
1082.1074413939
 30
0.0
  0
VERTEX
  5
34B
  8
0
  6
CONTINUOUS
 62
     7
 10
1932.0717049598
 20
1082.0245607925
 30
0.0
  0
VERTEX
  5
34C
  8
0
  6
CONTINUOUS
 62
     7
 10
1931.8340686393
 20
1081.7826568959
 30
0.0
  0
VERTEX
  5
34D
  8
0
  6
CONTINUOUS
 62
     7
 10
1931.6910884469
 20
1081.3963010877
 30
0.0
  0
VERTEX
  5
34E
  8
0
  6
CONTINUOUS
 62
     7
 10
1931.6427643827
 20
1080.8851715758
 30
0.0
  0
VERTEX
  5
34F
  8
0
  6
CONTINUOUS
 62
     7
 10
1931.6869532401
 20
1080.3010020014
 30
0.0
  0
VERTEX
  5
350
  8
0
  6
CONTINUOUS
 62
     7
 10
1931.8264286244
 20
1079.655867646
 30
0.0
  0
VERTEX
  5
351
  8
0
  6
CONTINUOUS
 62
     7
 10
1932.0654433471
 20
1078.9178406604
 30
0.0
  0
VERTEX
  5
352
  8
0
  6
CONTINUOUS
 62
     7
 10
1932.4039974083
 20
1078.1074407051
 30
0.0
  0
SEQEND
  5
349
  8
0
  6
CONTINUOUS
 62
     7
  0
LINE
  5
1B9
  8
0
  6
CONTINUOUS
 62
     7
 10
948.8761333633
 20
1082.1074407051
 30
0.0
 11
1932.4039974083
 21
1082.1074407051
 31
0.0
  0
ARC
  5
1BA
  8
0
  6
CONTINUOUS
 62
     7
 10
947.3138179325
 20
-889.5370881197
 30
0.0
 40
0.684251475570352
 50
133.606600356
 51
190.0496743588
  0
LINE
  5
1BB
  8
0
  6
CONTINUOUS
 62
     7
 10
944.6400653858
 20
-889.6564913174
 30
0.0
 11
946.6400653858
 21
-889.6564913174
 31
0.0
  0
POLYLINE
  5
1BC
  8
0
  6
CONTINUOUS
 62
     7
 66
     1
 10
0.0
 20
0.0
 30
0.0
  0
VERTEX
  5
354
  8
0
  6
CONTINUOUS
 62
     7
 10
948.6400653858
 20
-889.6564913174
 30
0.0
  0
VERTEX
  5
355
  8
0
  6
CONTINUOUS
 62
     7
 10
947.8300187108
 20
-889.3241988662
 30
0.0
  0
VERTEX
  5
356
  8
0
  6
CONTINUOUS
 62
     7
 10
947.0612078778
 20
-889.0865625448
 30
0.0
  0
VERTEX
  5
357
  8
0
  6
CONTINUOUS
 62
     7
 10
946.3633567928
 20
-888.9435823532
 30
0.0
  0
VERTEX
  5
358
  8
0
  6
CONTINUOUS
 62
     7
 10
945.7618340986
 20
-888.8952582915
 30
0.0
  0
VERTEX
  5
359
  8
0
  6
CONTINUOUS
 62
     7
 10
945.2951748789
 20
-888.9394471525
 30
0.0
  0
VERTEX
  5
35A
  8
0
  6
CONTINUOUS
 62
     7
 10
944.9519253066
 20
-889.0789225382
 30
0.0
  0
VERTEX
  5
35B
  8
0
  6
CONTINUOUS
 62
     7
 10
944.7230186914
 20
-889.3179372598
 30
0.0
  0
VERTEX
  5
35C
  8
0
  6
CONTINUOUS
 62
     7
 10
944.6400650414
 20
-889.6564913174
 30
0.0
  0
SEQEND
  5
353
  8
0
  6
CONTINUOUS
 62
     7
  0
POLYLINE
  5
1BD
  8
0
  6
CONTINUOUS
 62
     7
 66
     1
 10
0.0
 20
0.0
 30
0.0
  0
VERTEX
  5
35E
  8
0
  6
CONTINUOUS
 62
     7
 10
944.6400650414
 20
1077.8713727276
 30
0.0
  0
VERTEX
  5
35F
  8
0
  6
CONTINUOUS
 62
     7
 10
944.7230186914
 20
1077.5328186701
 30
0.0
  0
VERTEX
  5
360
  8
0
  6
CONTINUOUS
 62
     7
 10
944.9519253066
 20
1077.2938039485
 30
0.0
  0
VERTEX
  5
361
  8
0
  6
CONTINUOUS
 62
     7
 10
945.2951748789
 20
1077.1543285627
 30
0.0
  0
VERTEX
  5
362
  8
0
  6
CONTINUOUS
 62
     7
 10
945.7618340992
 20
1077.1101397017
 30
0.0
  0
VERTEX
  5
363
  8
0
  6
CONTINUOUS
 62
     7
 10
946.3633567942
 20
1077.1584637634
 30
0.0
  0
VERTEX
  5
364
  8
0
  6
CONTINUOUS
 62
     7
 10
947.0612078794
 20
1077.301443955
 30
0.0
  0
VERTEX
  5
365
  8
0
  6
CONTINUOUS
 62
     7
 10
947.830018712
 20
1077.5390802764
 30
0.0
  0
VERTEX
  5
366
  8
0
  6
CONTINUOUS
 62
     7
 10
948.6400653858
 20
1077.8713727276
 30
0.0
  0
SEQEND
  5
35D
  8
0
  6
CONTINUOUS
 62
     7
  0
LINE
  5
1BE
  8
0
  6
CONTINUOUS
 62
     7
 10
944.6400653858
 20
-889.6564913174
 30
0.0
 11
944.6400653858
 21
1077.8713727276
 31
0.0
  0
LINE
  5
1BF
  8
0
  6
CONTINUOUS
 62
     7
 10
946.6400650414
 20
1077.8713727276
 30
0.0
 11
944.6400653858
 21
1077.8713727276
 31
0.0
  0
ARC
  5
1C0
  8
0
  6
CONTINUOUS
 62
     7
 10
947.3138179324
 20
1077.75196953
 30
0.0
 40
0.6842514754896506
 50
169.9503256421
 51
226.3933996966
  0
POLYLINE
  5
1C1
  8
0
  6
CONTINUOUS
 62
     7
 66
     1
 10
0.0
 20
0.0
 30
0.0
  0
VERTEX
  5
368
  8
0
  6
CONTINUOUS
 62
     7
 10
1932.4039974083
 20
-889.8925592949
 30
0.0
  0
VERTEX
  5
369
  8
0
  6
CONTINUOUS
 62
     7
 10
1932.0654438317
 20
-890.7029522641
 30
0.0
  0
VERTEX
  5
36A
  8
0
  6
CONTINUOUS
 62
     7
 10
1931.8264291945
 20
-891.4409784971
 30
0.0
  0
VERTEX
  5
36B
  8
0
  6
CONTINUOUS
 62
     7
 10
1931.6869534966
 20
-892.0861174329
 30
0.0
  0
VERTEX
  5
36C
  8
0
  6
CONTINUOUS
 62
     7
 10
1931.6427643826
 20
-892.6702901656
 30
0.0
  0
VERTEX
  5
36D
  8
0
  6
CONTINUOUS
 62
     7
 10
1931.6910884468
 20
-893.1814196775
 30
0.0
  0
VERTEX
  5
36E
  8
0
  6
CONTINUOUS
 62
     7
 10
1931.8340686392
 20
-893.5677754857
 30
0.0
  0
VERTEX
  5
36F
  8
0
  6
CONTINUOUS
 62
     7
 10
1932.0717049597
 20
-893.8096793822
 30
0.0
  0
VERTEX
  5
370
  8
0
  6
CONTINUOUS
 62
     7
 10
1932.4039974083
 20
-893.8925599837
 30
0.0
  0
SEQEND
  5
367
  8
0
  6
CONTINUOUS
 62
     7
  0
LINE
  5
1C2
  8
0
  6
CONTINUOUS
 62
     7
 10
948.8761333633
 20
-893.8925592949
 30
0.0
 11
1932.4039974083
 21
-893.8925592949
 31
0.0
  0
POLYLINE
  5
1C3
  8
0
  6
CONTINUOUS
 62
     7
 66
     1
 10
0.0
 20
0.0
 30
0.0
  0
VERTEX
  5
372
  8
0
  6
CONTINUOUS
 62
     7
 10
948.8761333633
 20
-893.8925599837
 30
0.0
  0
VERTEX
  5
373
  8
0
  6
CONTINUOUS
 62
     7
 10
949.2084258119
 20
-893.8096793822
 30
0.0
  0
VERTEX
  5
374
  8
0
  6
CONTINUOUS
 62
     7
 10
949.4460621324
 20
-893.5677754856
 30
0.0
  0
VERTEX
  5
375
  8
0
  6
CONTINUOUS
 62
     7
 10
949.5890423248
 20
-893.1814196774
 30
0.0
  0
VERTEX
  5
376
  8
0
  6
CONTINUOUS
 62
     7
 10
949.637366389
 20
-892.6702901655
 30
0.0
  0
VERTEX
  5
377
  8
0
  6
CONTINUOUS
 62
     7
 10
949.593177275
 20
-892.0861174329
 30
0.0
  0
VERTEX
  5
378
  8
0
  6
CONTINUOUS
 62
     7
 10
949.4537015772
 20
-891.4409784972
 30
0.0
  0
VERTEX
  5
379
  8
0
  6
CONTINUOUS
 62
     7
 10
949.21468694
 20
-890.7029522642
 30
0.0
  0
VERTEX
  5
37A
  8
0
  6
CONTINUOUS
 62
     7
 10
948.8761333633
 20
-889.8925592949
 30
0.0
  0
SEQEND
  5
371
  8
0
  6
CONTINUOUS
 62
     7
  0
ARC
  5
1C4
  8
0
  6
CONTINUOUS
 62
     7
 10
948.9936737864
 20
-891.2594939861
 30
0.0
 40
0.643885322355171
 50
259.4817507922
 51
321.8988860832
  0
LINE
  5
1C5
  8
0
  6
CONTINUOUS
 62
     7
 10
948.8761333633
 20
-893.8925592949
 30
0.0
 11
948.8761333633
 21
-891.8925599837
 31
0.0
  0
ARC
  5
1C6
  8
0
  6
CONTINUOUS
 62
     7
 10
1932.2864569851
 20
-891.2594939861
 30
0.0
 40
0.6438853223802331
 50
218.1011139304
 51
280.5182492152
  0
LINE
  5
1C7
  8
0
  6
CONTINUOUS
 62
     7
 10
1932.4039974083
 20
-891.8925592949
 30
0.0
 11
1932.4039974083
 21
-893.8925592949
 31
0.0
  0
LINE
  5
1C8
  8
0
  6
CONTINUOUS
 62
     7
 10
1932.4039974083
 20
1080.1074413939
 30
0.0
 11
1932.4039974083
 21
1082.1074407051
 31
0.0
  0
ARC
  5
1C9
  8
0
  6
CONTINUOUS
 62
     7
 10
1932.2864568939
 20
1079.4743755517
 30
0.0
 40
0.6438851863090332
 50
79.4817402742
 51
141.8987905096
  0
ARC
  5
1CA
  8
0
  6
CONTINUOUS
 62
     7
 10
1933.9663128392
 20
1077.75196953
 30
0.0
 40
0.6842514755571357
 50
313.6066003503
 51
10.049674359
  0
LINE
  5
1CB
  8
0
  6
CONTINUOUS
 62
     7
 10
1934.6400653858
 20
1077.8713727276
 30
0.0
 11
1936.6400653858
 21
1077.8713727276
 31
0.0
  0
POLYLINE
  5
1CC
  8
0
  6
CONTINUOUS
 62
     7
 66
     1
 10
0.0
 20
0.0
 30
0.0
  0
VERTEX
  5
37C
  8
0
  6
CONTINUOUS
 62
     7
 10
1932.6400653858
 20
1077.8713727276
 30
0.0
  0
VERTEX
  5
37D
  8
0
  6
CONTINUOUS
 62
     7
 10
1933.4501120608
 20
1077.5390802765
 30
0.0
  0
VERTEX
  5
37E
  8
0
  6
CONTINUOUS
 62
     7
 10
1934.2189228937
 20
1077.3014439551
 30
0.0
  0
VERTEX
  5
37F
  8
0
  6
CONTINUOUS
 62
     7
 10
1934.9167739787
 20
1077.1584637635
 30
0.0
  0
VERTEX
  5
380
  8
0
  6
CONTINUOUS
 62
     7
 10
1935.518296673
 20
1077.1101397017
 30
0.0
  0
VERTEX
  5
381
  8
0
  6
CONTINUOUS
 62
     7
 10
1935.9849558927
 20
1077.1543285627
 30
0.0
  0
VERTEX
  5
382
  8
0
  6
CONTINUOUS
 62
     7
 10
1936.3282054651
 20
1077.2938039485
 30
0.0
  0
VERTEX
  5
383
  8
0
  6
CONTINUOUS
 62
     7
 10
1936.5571120803
 20
1077.5328186701
 30
0.0
  0
VERTEX
  5
384
  8
0
  6
CONTINUOUS
 62
     7
 10
1936.6400657302
 20
1077.8713727276
 30
0.0
  0
SEQEND
  5
37B
  8
0
  6
CONTINUOUS
 62
     7
  0
LINE
  5
1CD
  8
0
  6
CONTINUOUS
 62
     7
 10
1936.6400653858
 20
-889.6564913174
 30
0.0
 11
1936.6400653858
 21
1077.8713727276
 31
0.0
  0
POLYLINE
  5
1CE
  8
0
  6
CONTINUOUS
 62
     7
 66
     1
 10
0.0
 20
0.0
 30
0.0
  0
VERTEX
  5
386
  8
0
  6
CONTINUOUS
 62
     7
 10
1936.6400657302
 20
-889.6564913174
 30
0.0
  0
VERTEX
  5
387
  8
0
  6
CONTINUOUS
 62
     7
 10
1936.5571120803
 20
-889.3179372598
 30
0.0
  0
VERTEX
  5
388
  8
0
  6
CONTINUOUS
 62
     7
 10
1936.3282054651
 20
-889.0789225382
 30
0.0
  0
VERTEX
  5
389
  8
0
  6
CONTINUOUS
 62
     7
 10
1935.9849558927
 20
-888.9394471525
 30
0.0
  0
VERTEX
  5
38A
  8
0
  6
CONTINUOUS
 62
     7
 10
1935.5182966727
 20
-888.8952582914
 30
0.0
  0
VERTEX
  5
38B
  8
0
  6
CONTINUOUS
 62
     7
 10
1934.9167739779
 20
-888.9435823531
 30
0.0
  0
VERTEX
  5
38C
  8
0
  6
CONTINUOUS
 62
     7
 10
1934.2189228927
 20
-889.0865625447
 30
0.0
  0
VERTEX
  5
38D
  8
0
  6
CONTINUOUS
 62
     7
 10
1933.4501120601
 20
-889.3241988661
 30
0.0
  0
VERTEX
  5
38E
  8
0
  6
CONTINUOUS
 62
     7
 10
1932.6400653858
 20
-889.6564913174
 30
0.0
  0
SEQEND
  5
385
  8
0
  6
CONTINUOUS
 62
     7
  0
ARC
  5
1CF
  8
0
  6
CONTINUOUS
 62
     7
 10
1933.9663128392
 20
-889.5370881197
 30
0.0
 40
0.6842514755122112
 50
349.9503256422
 51
46.3933996823
  0
LINE
  5
1D0
  8
0
  6
CONTINUOUS
 62
     7
 10
1936.6400653858
 20
-889.6564913174
 30
0.0
 11
1934.6400657302
 21
-889.6564913174
 31
0.0
  0
CIRCLE
  5
1D1
  8
0
  6
CONTINUOUS
 62
     7
 10
965.6400653858
 20
986.1074407051
 30
0.0
 40
2.999999999999886
  0
CIRCLE
  5
1D2
  8
0
  6
CONTINUOUS
 62
     7
 10
965.6400653858
 20
-813.8925592949
 30
0.0
 40
2.999999999999886
  0
CIRCLE
  5
1D3
  8
0
  6
CONTINUOUS
 62
     7
 10
965.6400653858
 20
86.1074407051
 30
0.0
 40
2.999999999999886
  0
CIRCLE
  5
1D4
  8
0
  6
CONTINUOUS
 62
     7
 10
1915.6400653858
 20
986.1074407051
 30
0.0
 40
3.0
  0
CIRCLE
  5
1D5
  8
0
  6
CONTINUOUS
 62
     7
 10
1915.6400653858
 20
-813.8925592949
 30
0.0
 40
3.0
  0
CIRCLE
  5
1D6
  8
0
  6
CONTINUOUS
 62
     7
 10
1915.6400653858
 20
86.1074407051
 30
0.0
 40
3.0
  0
LINE
  5
1D7
  8
0
  6
CONTINUOUS
 62
     7
 10
946.6400653858
 20
-889.6564913174
 30
0.0
 11
946.6400653858
 21
-889.8925592949
 31
0.0
  0
LINE
  5
1D8
  8
0
  6
CONTINUOUS
 62
     7
 10
946.640064697
 20
-889.8925592949
 30
0.0
 11
944.6400653858
 21
-889.8925592949
 31
0.0
  0
LINE
  5
1D9
  8
0
  6
CONTINUOUS
 62
     7
 10
944.6400653858
 20
-889.6564913174
 30
0.0
 11
944.6400653858
 21
-889.8925592949
 31
0.0
  0
LINE
  5
1DA
  8
0
  6
CONTINUOUS
 62
     7
 10
944.6400653858
 20
1077.8713727276
 30
0.0
 11
944.6400653858
 21
1078.1074407051
 31
0.0
  0
LINE
  5
1DB
  8
0
  6
CONTINUOUS
 62
     7
 10
946.6400653858
 20
1078.1074407051
 30
0.0
 11
944.6400653858
 21
1078.1074407051
 31
0.0
  0
LINE
  5
1DC
  8
0
  6
CONTINUOUS
 62
     7
 10
946.6400653858
 20
1077.8713727276
 30
0.0
 11
946.6400653858
 21
1078.1074407051
 31
0.0
  0
LINE
  5
1DD
  8
0
  6
CONTINUOUS
 62
     7
 10
948.7613857294
 20
1080.1074407051
 30
0.0
 11
948.8761333633
 21
1080.1074407051
 31
0.0
  0
LINE
  5
1DE
  8
0
  6
CONTINUOUS
 62
     7
 10
948.7613857294
 20
1082.1074407051
 30
0.0
 11
948.7613857294
 21
1080.1074407051
 31
0.0
  0
LINE
  5
1DF
  8
0
  6
CONTINUOUS
 62
     7
 10
948.7613857294
 20
1082.1074407051
 30
0.0
 11
948.8761333633
 21
1082.1074407051
 31
0.0
  0
LINE
  5
1E0
  8
0
  6
CONTINUOUS
 62
     7
 10
948.7613857294
 20
-891.8925592948
 30
0.0
 11
948.7613857294
 21
-893.8925592949
 31
0.0
  0
LINE
  5
1E1
  8
0
  6
CONTINUOUS
 62
     7
 10
948.7613857294
 20
-891.8925592949
 30
0.0
 11
948.8761333633
 21
-891.8925592949
 31
0.0
  0
LINE
  5
1E2
  8
0
  6
CONTINUOUS
 62
     7
 10
948.7613857294
 20
-893.8925592949
 30
0.0
 11
948.8761333633
 21
-893.8925592949
 31
0.0
  0
LINE
  5
1E3
  8
0
  6
CONTINUOUS
 62
     7
 10
1936.6400653858
 20
1078.1074407051
 30
0.0
 11
1934.6400653858
 21
1078.1074407051
 31
0.0
  0
LINE
  5
1E4
  8
0
  6
CONTINUOUS
 62
     7
 10
1936.6400653858
 20
1077.8713727276
 30
0.0
 11
1936.6400653858
 21
1078.1074407051
 31
0.0
  0
LINE
  5
1E5
  8
0
  6
CONTINUOUS
 62
     7
 10
1934.6400653858
 20
1077.8713727276
 30
0.0
 11
1934.6400653858
 21
1078.1074407051
 31
0.0
  0
LINE
  5
1E6
  8
0
  6
CONTINUOUS
 62
     7
 10
1932.5187450423
 20
-893.8925592949
 30
0.0
 11
1932.5187450423
 21
-891.8925592949
 31
0.0
  0
LINE
  5
1E7
  8
0
  6
CONTINUOUS
 62
     7
 10
1932.5187450423
 20
-891.8925592949
 30
0.0
 11
1932.4039974083
 21
-891.8925592949
 31
0.0
  0
LINE
  5
1E8
  8
0
  6
CONTINUOUS
 62
     7
 10
1932.5187450423
 20
-893.8925592949
 30
0.0
 11
1932.4039974083
 21
-893.8925592949
 31
0.0
  0
LINE
  5
1E9
  8
0
  6
CONTINUOUS
 62
     7
 10
1932.5187450423
 20
1080.1074407051
 30
0.0
 11
1932.5187450423
 21
1082.1074407051
 31
0.0
  0
LINE
  5
1EA
  8
0
  6
CONTINUOUS
 62
     7
 10
1932.5187450423
 20
1080.1074407051
 30
0.0
 11
1932.4039974083
 21
1080.1074407051
 31
0.0
  0
LINE
  5
1EB
  8
0
  6
CONTINUOUS
 62
     7
 10
1932.5187450423
 20
1082.1074407051
 30
0.0
 11
1932.4039974083
 21
1082.1074407051
 31
0.0
  0
LINE
  5
1EC
  8
0
  6
CONTINUOUS
 62
     7
 10
1936.6400653858
 20
-889.8925592949
 30
0.0
 11
1934.6400660746
 21
-889.8925592949
 31
0.0
  0
LINE
  5
1ED
  8
0
  6
CONTINUOUS
 62
     7
 10
1936.6400653858
 20
-889.6564913174
 30
0.0
 11
1936.6400653858
 21
-889.8925592949
 31
0.0
  0
LINE
  5
1EE
  8
0
  6
CONTINUOUS
 62
     7
 10
1934.6400653858
 20
-889.6564913174
 30
0.0
 11
1934.6400653858
 21
-889.8925592949
 31
0.0
  0
LINE
  5
1EF
  8
0
  6
CONTINUOUS
 62
     7
 10
948.7613857294
 20
-891.8925592949
 30
0.0
 11
948.7613857294
 21
-893.8925592949
 31
0.0
  0
LINE
  5
1F0
  8
0
  6
CONTINUOUS
 62
     7
 10
948.6400653858
 20
-893.8925592949
 30
0.0
 11
948.7613857294
 21
-893.8925592949
 31
0.0
  0
LINE
  5
1F1
  8
0
  6
CONTINUOUS
 62
     7
 10
948.6400653858
 20
-891.8925592949
 30
0.0
 11
948.6400653858
 21
-893.8925592949
 31
0.0
  0
LINE
  5
1F2
  8
0
  6
CONTINUOUS
 62
     7
 10
948.6400653858
 20
-891.8925592949
 30
0.0
 11
948.7613857294
 21
-891.8925592949
 31
0.0
  0
LINE
  5
1F3
  8
0
  6
CONTINUOUS
 62
     7
 10
948.7613857294
 20
1082.1074407051
 30
0.0
 11
948.7613857294
 21
1080.1074407051
 31
0.0
  0
LINE
  5
1F4
  8
0
  6
CONTINUOUS
 62
     7
 10
948.6400653858
 20
1080.1074407051
 30
0.0
 11
948.7613857294
 21
1080.1074407051
 31
0.0
  0
LINE
  5
1F5
  8
0
  6
CONTINUOUS
 62
     7
 10
948.6400653858
 20
1080.1074413939
 30
0.0
 11
948.6400653858
 21
1082.1074407051
 31
0.0
  0
LINE
  5
1F6
  8
0
  6
CONTINUOUS
 62
     7
 10
948.6400653858
 20
1082.1074407051
 30
0.0
 11
948.7613857294
 21
1082.1074407051
 31
0.0
  0
LINE
  5
1F7
  8
0
  6
CONTINUOUS
 62
     7
 10
1932.5187450423
 20
1080.1074407051
 30
0.0
 11
1932.5187450423
 21
1082.1074407051
 31
0.0
  0
LINE
  5
1F8
  8
0
  6
CONTINUOUS
 62
     7
 10
1932.6400653858
 20
1082.1074407051
 30
0.0
 11
1932.6400653858
 21
1080.1074407051
 31
0.0
  0
LINE
  5
1F9
  8
0
  6
CONTINUOUS
 62
     7
 10
1932.6400653858
 20
1080.1074407051
 30
0.0
 11
1932.5187450423
 21
1080.1074407051
 31
0.0
  0
LINE
  5
1FA
  8
0
  6
CONTINUOUS
 62
     7
 10
1932.6400653858
 20
1082.1074407051
 30
0.0
 11
1932.5187450423
 21
1082.1074407051
 31
0.0
  0
LINE
  5
1FB
  8
0
  6
CONTINUOUS
 62
     7
 10
1932.5187450423
 20
-893.8925592949
 30
0.0
 11
1932.5187450423
 21
-891.8925592949
 31
0.0
  0
LINE
  5
1FC
  8
0
  6
CONTINUOUS
 62
     7
 10
1932.6400653858
 20
-893.8925592949
 30
0.0
 11
1932.6400653858
 21
-891.8925599837
 31
0.0
  0
LINE
  5
1FD
  8
0
  6
CONTINUOUS
 62
     7
 10
1932.6400653858
 20
-891.8925592949
 30
0.0
 11
1932.5187450423
 21
-891.8925592949
 31
0.0
  0
LINE
  5
1FE
  8
0
  6
CONTINUOUS
 62
     7
 10
1932.6400653858
 20
-893.8925592949
 30
0.0
 11
1932.5187450423
 21
-893.8925592949
 31
0.0
  0
ARC
  5
1FF
  8
0
  6
CONTINUOUS
 62
     7
 10
948.6400653858
 20
-889.8925592949
 30
0.0
 40
2.000000688793079
 50
180.0
 51
270.0
  0
ARC
  5
200
  8
0
  6
CONTINUOUS
 62
     7
 10
948.6400653858
 20
-889.8925592949
 30
0.0
 40
4.000000688793079
 50
180.0
 51
270.0
  0
ARC
  5
201
  8
0
  6
CONTINUOUS
 62
     7
 10
948.6400653858
 20
1078.1074407051
 30
0.0
 40
2.000000688793534
 50
90.0
 51
180.0
  0
ARC
  5
202
  8
0
  6
CONTINUOUS
 62
     7
 10
948.6400653858
 20
1078.1074407051
 30
0.0
 40
4.000000688793307
 50
90.0
 51
180.0
  0
ARC
  5
203
  8
0
  6
CONTINUOUS
 62
     7
 10
1932.6400653858
 20
1078.1074407051
 30
0.0
 40
4.000000688793762
 50
0.0
 51
90.0
  0
ARC
  5
204
  8
0
  6
CONTINUOUS
 62
     7
 10
1932.6400653858
 20
1078.1074407051
 30
0.0
 40
2.000000688792625
 50
360.0
 51
90.0
  0
ARC
  5
205
  8
0
  6
CONTINUOUS
 62
     7
 10
1932.6400653858
 20
-889.8925592949
 30
0.0
 40
2.000000688793079
 50
270.0
 51
0.0
  0
ARC
  5
206
  8
0
  6
CONTINUOUS
 62
     7
 10
1932.6400653858
 20
-889.8925592949
 30
0.0
 40
4.000000688793079
 50
270.0
 51
0.0
  0
ENDSEC
  0
EOF
