  0
SECTION
  2
HEADER
  9
$ACADVER
  1
AC1009
  9
$DWGCODEPAGE
  3
ansi_1252
  9
$INSBASE
 10
0.0
 20
0.0
 30
0.0
  9
$EXTMIN
 10
0.0
 20
0.0
 30
0.0
  9
$EXTMAX
 10
297.0
 20
210.0
 30
0.0
  9
$LIMMIN
 10
0.0
 20
0.0
  9
$LIMMAX
 10
0.0
 20
0.0
  9
$ORTHOMODE
 70
     0
  9
$REGENMODE
 70
     1
  9
$FILLMODE
 70
     1
  9
$QTEXTMODE
 70
     0
  9
$MIRRTEXT
 70
     1
  9
$DRAGMODE
 70
     2
  9
$LTSCALE
 40
1.0
  9
$OSMODE
 70
    37
  9
$ATTMODE
 70
     1
  9
$TEXTSIZE
 40
3.5277777778
  9
$TRACEWID
 40
1.0
  9
$TEXTSTYLE
  7
STANDARD
  9
$CLAYER
  8
0
  9
$CELTYPE
  6
BYLAYER
  9
$CECOLOR
 62
   256
  9
$DIMSCALE
 40
1.0
  9
$DIMASZ
 40
1.8
  9
$DIMEXO
 40
0.7
  9
$DIMDLI
 40
3.75
  9
$DIMRND
 40
0.0
  9
$DIMDLE
 40
0.0
  9
$DIMEXE
 40
0.5
  9
$DIMTP
 40
0.0
  9
$DIMTM
 40
0.0
  9
$DIMTXT
 40
2.4694444444
  9
$DIMCEN
 40
2.5
  9
$DIMTSZ
 40
0.0
  9
$DIMTOL
 70
     0
  9
$DIMLIM
 70
     0
  9
$DIMTIH
 70
     1
  9
$DIMTOH
 70
     1
  9
$DIMSE1
 70
     0
  9
$DIMSE2
 70
     0
  9
$DIMTAD
 70
     1
  9
$DIMZIN
 70
     0
  9
$DIMBLK
  1

  9
$DIMASO
 70
     1
  9
$DIMSHO
 70
     1
  9
$DIMPOST
  1

  9
$DIMAPOST
  1

  9
$DIMALT
 70
     0
  9
$DIMALTD
 70
     3
  9
$DIMALTF
 40
0.0393700787
  9
$DIMLFAC
 40
1.0
  9
$DIMTOFL
 70
     1
  9
$DIMTVP
 40
0.0
  9
$DIMTIX
 70
     0
  9
$DIMSOXD
 70
     0
  9
$DIMSAH
 70
     0
  9
$DIMBLK1
  1

  9
$DIMBLK2
  1

  9
$DIMSTYLE
  2
ISO-25
  9
$DIMCLRD
 70
     0
  9
$DIMCLRE
 70
     0
  9
$DIMCLRT
 70
     0
  9
$DIMTFAC
 40
1.0
  9
$DIMGAP
 40
2.0
  9
$LUNITS
 70
     2
  9
$LUPREC
 70
     2
  9
$SKETCHINC
 40
1.0
  9
$FILLETRAD
 40
10.0
  9
$AUNITS
 70
     0
  9
$AUPREC
 70
     0
  9
$MENU
  1
.
  9
$ELEVATION
 40
0.0
  9
$PELEVATION
 40
0.0
  9
$THICKNESS
 40
0.0
  9
$LIMCHECK
 70
     0
  9
$CHAMFERA
 40
10.0
  9
$CHAMFERB
 40
10.0
  9
$SKPOLY
 70
     0
  9
$TDCREATE
 40
2455112.449667245
  9
$TDUPDATE
 40
2455112.449667257
  9
$TDINDWG
 40
0.0000000116
  9
$TDUSRTIMER
 40
0.0000000116
  9
$USRTIMER
 70
     1
  9
$ANGBASE
 50
0.0
  9
$ANGDIR
 70
     0
  9
$PDMODE
 70
     0
  9
$PDSIZE
 40
-1.0
  9
$PLINEWID
 40
0.0
  9
$COORDS
 70
     1
  9
$SPLFRAME
 70
     0
  9
$SPLINETYPE
 70
     6
  9
$SPLINESEGS
 70
     8
  9
$ATTDIA
 70
     0
  9
$ATTREQ
 70
     1
  9
$HANDLING
 70
     1
  9
$HANDSEED
  5
658
  9
$SURFTAB1
 70
     6
  9
$SURFTAB2
 70
     6
  9
$SURFTYPE
 70
     6
  9
$SURFU
 70
     6
  9
$SURFV
 70
     6
  9
$UCSNAME
  2

  9
$UCSORG
 10
0.0
 20
0.0
 30
0.0
  9
$UCSXDIR
 10
1.0
 20
0.0
 30
0.0
  9
$UCSYDIR
 10
0.0
 20
1.0
 30
0.0
  9
$PUCSNAME
  2

  9
$PUCSORG
 10
0.0
 20
0.0
 30
0.0
  9
$PUCSXDIR
 10
1.0
 20
0.0
 30
0.0
  9
$PUCSYDIR
 10
0.0
 20
1.0
 30
0.0
  9
$USERI1
 70
     0
  9
$USERI2
 70
     0
  9
$USERI3
 70
     0
  9
$USERI4
 70
     0
  9
$USERI5
 70
     0
  9
$USERR1
 40
0.0
  9
$USERR2
 40
0.0
  9
$USERR3
 40
0.0
  9
$USERR4
 40
0.0
  9
$USERR5
 40
0.0
  9
$WORLDVIEW
 70
     1
  9
$SHADEDGE
 70
     3
  9
$SHADEDIF
 70
    70
  9
$TILEMODE
 70
     1
  9
$MAXACTVP
 70
    64
  9
$PLIMCHECK
 70
     0
  9
$PEXTMIN
 10
1.0000000000E+20
 20
1.0000000000E+20
 30
1.0000000000E+20
  9
$PEXTMAX
 10
-1.0000000000E+20
 20
-1.0000000000E+20
 30
-1.0000000000E+20
  9
$PLIMMIN
 10
0.0
 20
0.0
  9
$PLIMMAX
 10
420.0
 20
297.0
  9
$UNITMODE
 70
     0
  9
$VISRETAIN
 70
     1
  9
$PLINEGEN
 70
     0
  9
$PSLTSCALE
 70
     1
  0
ENDSEC
  0
SECTION
  2
TABLES
  0
TABLE
  2
VPORT
 70
     1
  0
VPORT
  2
*ACTIVE
 70
     0
 10
0.0
 20
0.0
 11
1.0
 21
1.0
 12
148.5
 22
105.0
 13
0.0
 23
0.0
 14
10.0
 24
10.0
 15
10.0
 25
10.0
 16
0.0
 26
0.0
 36
1.0
 17
0.0
 27
0.0
 37
0.0
 40
210.0
 41
1.4142857143
 42
50.0
 43
0.0
 44
0.0
 50
0.0
 51
0.0
 71
     0
 72
  2000
 73
     1
 74
     3
 75
     0
 76
     0
 77
     0
 78
     0
  0
ENDTAB
  0
TABLE
  2
LTYPE
 70
     6
  0
LTYPE
  2
CONTINUOUS
 70
     0
  3
Solid line
 72
    65
 73
     0
 40
0.0
  0
LTYPE
  2
HIDDEN
 70
     0
  3
Hidden __ __ __ __ __ __ __ __ __ __ __ __ __ __
 72
    65
 73
     2
 40
1.905
 49
1.27
 49
-0.635
  0
LTYPE
  2
PHANTOM
 70
     0
  3
Phantom ______  __  __  ______  __  __  ______
 72
    65
 73
     6
 40
12.7
 49
6.35
 49
-1.27
 49
1.27
 49
-1.27
 49
1.27
 49
-1.27
  0
LTYPE
  2
CENTER
 70
     0
  3
Center ____ _ ____ _ ____ _ ____ _ ____ _ ____
 72
    65
 73
     4
 40
10.16
 49
6.35
 49
-1.27
 49
1.27
 49
-1.27
  0
LTYPE
  2
CENTERX2
 70
     0
  3
Center (2x) ________  __  ________  __  _____
 72
    65
 73
     4
 40
20.32
 49
12.7
 49
-2.54
 49
2.54
 49
-2.54
  0
LTYPE
  2
DOT2
 70
     0
  3
Dot (.5x) ........................................
 72
    65
 73
     2
 40
0.635
 49
0.0
 49
-0.635
  0
ENDTAB
  0
TABLE
  2
LAYER
 70
     5
  0
LAYER
  2
0
 70
     0
 62
     7
  6
CONTINUOUS
  0
LAYER
  2
SLD-0
 70
     0
 62
     7
  6
CONTINUOUS
  0
LAYER
  2
AM_BOR
 70
     0
 62
     7
  6
CONTINUOUS
  0
LAYER
  2
BIEGLINIE__ZU_
 70
     0
 62
     8
  6
CONTINUOUS
  0
LAYER
  2
BIEGELINIE__WEG_
 70
     0
 62
     8
  6
HIDDEN
  0
ENDTAB
  0
TABLE
  2
STYLE
 70
     1
  0
STYLE
  2
STANDARD
 70
     0
 40
0.0
 41
1.0
 50
0.0
 71
     0
 42
2.5
  3
txt
  4

  0
ENDTAB
  0
TABLE
  2
VIEW
 70
     0
  0
ENDTAB
  0
TABLE
  2
UCS
 70
     0
  0
ENDTAB
  0
TABLE
  2
APPID
 70
     1
  0
APPID
  2
ACAD
 70
     0
  0
ENDTAB
  0
TABLE
  2
DIMSTYLE
 70
     1
  0
DIMSTYLE
  2
ISO-25
 70
     0
  3

  4

  5

  6

  7

 40
1.0
 41
2.5
 42
0.625
 43
3.75
 44
1.25
 45
0.0
 46
0.0
 47
0.0
 48
0.0
140
2.5
141
2.5
142
0.0
143
0.0393700787
144
1.0
145
0.0
146
1.0
147
0.625
 71
     0
 72
     0
 73
     0
 74
     0
 75
     0
 76
     0
 77
     1
 78
     8
170
     0
171
     3
172
     1
173
     0
174
     0
175
     0
176
     0
177
     0
178
     0
  0
ENDTAB
  0
ENDSEC
  0
SECTION
  2
BLOCKS
  0
BLOCK
  8
0
  2
$MODEL_SPACE
 70
     0
 10
0.0
 20
0.0
 30
0.0
  3
$MODEL_SPACE
  1

  0
ENDBLK
  5
21
  8
0
  0
BLOCK
 67
     1
  8
0
  2
$PAPER_SPACE
 70
     0
 10
0.0
 20
0.0
 30
0.0
  3
$PAPER_SPACE
  1

  0
ENDBLK
  5
1D
 67
     1
  8
0
  0
ENDSEC
  0
SECTION
  2
ENTITIES
  0
TEXT
  5
33
  8
SLD-0
 10
592.7539628247
 20
-1040.0882934448
 30
0.0
 40
19.05
  1
Rückwandsatz RS/GL  BxH 1200 x 2000
 41
0.64
 11
592.7539628247
 21
-1045.5311505876
 31
0.0
 73
     1
  0
ARC
  5
34
  8
0
  6
CONTINUOUS
 62
     7
 10
-746.6391411185
 20
1082.4824965347
 30
0.0
 40
1.000000689493163
 50
90.0
 51
180.0
  0
ARC
  5
35
  8
0
  6
CONTINUOUS
 62
     7
 10
-746.639140429
 20
1082.4824965347
 30
0.0
 40
3.000001378986326
 50
90.0000131683
 51
180.0
  0
LINE
  5
36
  8
0
  6
CONTINUOUS
 62
     7
 10
-747.6391411185
 20
-887.5175034653
 30
0.0
 11
-747.639141808
 21
1082.4824965347
 31
0.0
  0
LINE
  5
37
  8
0
  6
CONTINUOUS
 62
     7
 10
-749.6391414632
 20
-887.5175034653
 30
0.0
 11
-749.639141808
 21
1082.4824965347
 31
0.0
  0
ARC
  5
38
  8
0
  6
CONTINUOUS
 62
     7
 10
-746.6391411185
 20
-887.5175034653
 30
0.0
 40
1.000000000000114
 50
180.0
 51
270.0
  0
ARC
  5
39
  8
0
  6
CONTINUOUS
 62
     7
 10
-746.639140429
 20
-887.5175034653
 30
0.0
 40
3.000001034239858
 50
180.0
 51
269.9999868316
  0
LINE
  5
3A
  8
0
  6
CONTINUOUS
 62
     7
 10
-729.1391411185
 20
1085.4824965347
 30
0.0
 11
-729.1391411185
 21
1083.4824965347
 31
0.0
  0
LINE
  5
3B
  8
0
  6
CONTINUOUS
 62
     7
 10
-746.6391411185
 20
1083.4824965347
 30
0.0
 11
-729.1391411185
 21
1083.4824965347
 31
0.0
  0
LINE
  5
3C
  8
0
  6
CONTINUOUS
 62
     7
 10
-746.6391411185
 20
1085.4824965347
 30
0.0
 11
-729.1391411185
 21
1085.4824965347
 31
0.0
  0
LINE
  5
3D
  8
0
  6
CONTINUOUS
 62
     7
 10
-729.1391411185
 20
-890.5175034653
 30
0.0
 11
-729.1391411185
 21
-888.5175034653
 31
0.0
  0
LINE
  5
3E
  8
0
  6
CONTINUOUS
 62
     7
 10
-729.1391411185
 20
-888.5175034653
 30
0.0
 11
-746.6391411185
 21
-888.5175034653
 31
0.0
  0
LINE
  5
3F
  8
0
  6
CONTINUOUS
 62
     7
 10
-729.1391411185
 20
-890.5175034653
 30
0.0
 11
-746.6391411185
 21
-890.5175041548
 31
0.0
  0
LINE
  5
40
  8
0
  6
CONTINUOUS
 62
     7
 10
-178.1391411185
 20
-888.5175034653
 30
0.0
 11
-178.1391411185
 21
-890.5175034653
 31
0.0
  0
LINE
  5
41
  8
0
  6
CONTINUOUS
 62
     7
 10
-729.1391411185
 20
-888.5175034653
 30
0.0
 11
-729.1391411185
 21
-890.5175034653
 31
0.0
  0
LINE
  5
42
  8
0
  6
CONTINUOUS
 62
     7
 10
-178.1391411185
 20
-888.5175034653
 30
0.0
 11
-729.1391411185
 21
-888.5175034653
 31
0.0
  0
LINE
  5
43
  8
0
  6
CONTINUOUS
 62
     7
 10
-178.1391411185
 20
-890.5175034653
 30
0.0
 11
-729.1391411185
 21
-890.5175034653
 31
0.0
  0
LINE
  5
44
  8
0
  6
CONTINUOUS
 62
     7
 10
-178.1391411185
 20
1083.4824965347
 30
0.0
 11
-178.1391411185
 21
1085.4824965347
 31
0.0
  0
LINE
  5
45
  8
0
  6
CONTINUOUS
 62
     7
 10
-729.1391411185
 20
1083.4824965347
 30
0.0
 11
-729.1391411185
 21
1085.4824965347
 31
0.0
  0
LINE
  5
46
  8
0
  6
CONTINUOUS
 62
     7
 10
-729.1391411185
 20
1083.4824965347
 30
0.0
 11
-178.1391411185
 21
1083.4824965347
 31
0.0
  0
LINE
  5
47
  8
0
  6
CONTINUOUS
 62
     7
 10
-729.1391411185
 20
1085.4824965347
 30
0.0
 11
-178.1391411185
 21
1085.4824965347
 31
0.0
  0
LINE
  5
48
  8
0
  6
CONTINUOUS
 62
     7
 10
-178.1391411185
 20
-890.5175034653
 30
0.0
 11
-178.1391411185
 21
-888.5175034653
 31
0.0
  0
LINE
  5
49
  8
0
  6
CONTINUOUS
 62
     7
 10
-160.6391411185
 20
-890.5175034653
 30
0.0
 11
-178.1391411185
 21
-890.5175034653
 31
0.0
  0
LINE
  5
4A
  8
0
  6
CONTINUOUS
 62
     7
 10
-160.6391411185
 20
-888.5175034653
 30
0.0
 11
-178.1391411185
 21
-888.5175034653
 31
0.0
  0
ARC
  5
4B
  8
0
  6
CONTINUOUS
 62
     7
 10
-160.6391411185
 20
-887.5175034653
 30
0.0
 40
1.0
 50
270.0
 51
360.0
  0
ARC
  5
4C
  8
0
  6
CONTINUOUS
 62
     7
 10
-160.639141808
 20
-887.5175034653
 30
0.0
 40
3.000000689493135
 50
270.0000131683
 51
360.0
  0
LINE
  5
4D
  8
0
  6
CONTINUOUS
 62
     7
 10
-159.6391411185
 20
1044.9824965347
 30
0.0
 11
-157.6391411185
 21
1044.9824965347
 31
0.0
  0
LINE
  5
4E
  8
0
  6
CONTINUOUS
 62
     7
 10
-159.6391411185
 20
-850.0175034653
 30
0.0
 11
-157.6391411185
 21
-850.0175034653
 31
0.0
  0
LINE
  5
4F
  8
0
  6
CONTINUOUS
 62
     7
 10
-157.6391411185
 20
1044.9824965347
 30
0.0
 11
-157.6391411185
 21
1043.9824965347
 31
0.0
  0
LINE
  5
50
  8
0
  6
CONTINUOUS
 62
     7
 10
-157.6391411185
 20
-849.0175034653
 30
0.0
 11
-157.6391411185
 21
-850.0175034653
 31
0.0
  0
LINE
  5
51
  8
0
  6
CONTINUOUS
 62
     7
 10
-159.6391411185
 20
1044.9824965347
 30
0.0
 11
-159.6391411185
 21
1043.9824965347
 31
0.0
  0
LINE
  5
52
  8
0
  6
CONTINUOUS
 62
     7
 10
-159.6391411185
 20
-849.0175034653
 30
0.0
 11
-159.6391411185
 21
-850.0175034653
 31
0.0
  0
LINE
  5
53
  8
0
  6
CONTINUOUS
 62
     7
 10
-159.6391411185
 20
-872.8780355471
 30
0.0
 11
-157.6391411185
 21
-872.8780355471
 31
0.0
  0
LINE
  5
54
  8
0
  6
CONTINUOUS
 62
     7
 10
-157.6391411185
 20
-871.9654167862
 30
0.0
 11
-157.6391411185
 21
-872.8780355471
 31
0.0
  0
LINE
  5
55
  8
0
  6
CONTINUOUS
 62
     7
 10
-159.6391411185
 20
-872.8780355471
 30
0.0
 11
-159.6391411185
 21
-871.9654167862
 31
0.0
  0
LINE
  5
56
  8
0
  6
CONTINUOUS
 62
     7
 10
-157.6391411185
 20
-872.8780355471
 30
0.0
 11
-157.6391411185
 21
-887.5175034653
 31
0.0
  0
LINE
  5
57
  8
0
  6
CONTINUOUS
 62
     7
 10
-159.6391411185
 20
-872.8780355471
 30
0.0
 11
-159.6391411185
 21
-887.5175034653
 31
0.0
  0
LINE
  5
58
  8
0
  6
CONTINUOUS
 62
     7
 10
-157.6391411185
 20
-850.0175034653
 30
0.0
 11
-157.6391411185
 21
-852.6567711461
 31
0.0
  0
LINE
  5
59
  8
0
  6
CONTINUOUS
 62
     7
 10
-159.6391411185
 20
-852.6567711461
 30
0.0
 11
-159.6391411185
 21
-850.0175034653
 31
0.0
  0
LINE
  5
5A
  8
0
  6
CONTINUOUS
 62
     7
 10
-178.1391411185
 20
1085.4824965347
 30
0.0
 11
-178.1391411185
 21
1083.4824965347
 31
0.0
  0
LINE
  5
5B
  8
0
  6
CONTINUOUS
 62
     7
 10
-178.1391411185
 20
1085.4824965347
 30
0.0
 11
-160.6391411185
 21
1085.4824972242
 31
0.0
  0
LINE
  5
5C
  8
0
  6
CONTINUOUS
 62
     7
 10
-178.1391411185
 20
1083.4824965347
 30
0.0
 11
-160.6391411185
 21
1083.4824965347
 31
0.0
  0
ARC
  5
5D
  8
0
  6
CONTINUOUS
 62
     7
 10
-160.639141808
 20
1082.4824965347
 30
0.0
 40
3.000001378986298
 50
360.0
 51
89.9999868316
  0
ARC
  5
5E
  8
0
  6
CONTINUOUS
 62
     7
 10
-160.6391411185
 20
1082.4824965347
 30
0.0
 40
1.0
 50
360.0
 51
90.0
  0
LINE
  5
5F
  8
0
  6
CONTINUOUS
 62
     7
 10
-157.6391411185
 20
1044.9824965347
 30
0.0
 11
-157.6391411185
 21
1047.6217642154
 31
0.0
  0
LINE
  5
60
  8
0
  6
CONTINUOUS
 62
     7
 10
-159.6391411185
 20
1047.6217642154
 30
0.0
 11
-159.6391411185
 21
1044.9824965347
 31
0.0
  0
LINE
  5
61
  8
0
  6
CONTINUOUS
 62
     7
 10
-159.6391411185
 20
1067.8430286165
 30
0.0
 11
-157.6391411185
 21
1067.8430286165
 31
0.0
  0
LINE
  5
62
  8
0
  6
CONTINUOUS
 62
     7
 10
-157.639140429
 20
1082.4824965347
 30
0.0
 11
-157.6391411185
 21
1067.8430286165
 31
0.0
  0
LINE
  5
63
  8
0
  6
CONTINUOUS
 62
     7
 10
-159.6391411185
 20
1082.4824965347
 30
0.0
 11
-159.6391411185
 21
1067.8430286165
 31
0.0
  0
LINE
  5
64
  8
0
  6
CONTINUOUS
 62
     7
 10
-157.6391411185
 20
1066.9304098556
 30
0.0
 11
-157.6391411185
 21
1067.8430286165
 31
0.0
  0
LINE
  5
65
  8
0
  6
CONTINUOUS
 62
     7
 10
-159.6391411185
 20
1067.8430286165
 30
0.0
 11
-159.6391411185
 21
1066.9304098556
 31
0.0
  0
LINE
  5
66
  8
0
  6
CONTINUOUS
 62
     7
 10
-157.6391411185
 20
-866.5082370505
 30
0.0
 11
-157.6391411185
 21
-871.9654167862
 31
0.0
  0
LINE
  5
67
  8
0
  6
CONTINUOUS
 62
     7
 10
-159.6391411185
 20
-871.9654167862
 30
0.0
 11
-159.6391411185
 21
-866.5082370505
 31
0.0
  0
LINE
  5
68
  8
0
  6
CONTINUOUS
 62
     7
 10
-157.6391411185
 20
1061.4732301199
 30
0.0
 11
-157.6391411185
 21
1066.9304098556
 31
0.0
  0
LINE
  5
69
  8
0
  6
CONTINUOUS
 62
     7
 10
-159.6391411185
 20
1066.9304098556
 30
0.0
 11
-159.6391411185
 21
1061.4732301199
 31
0.0
  0
LINE
  5
6A
  8
0
  6
CONTINUOUS
 62
     7
 10
-157.6391411185
 20
-860.5175034653
 30
0.0
 11
-157.6391411185
 21
-866.5082370505
 31
0.0
  0
LINE
  5
6B
  8
0
  6
CONTINUOUS
 62
     7
 10
-159.6391411185
 20
-866.5082370505
 30
0.0
 11
-159.6391411185
 21
-865.0036154137
 31
0.0
  0
LINE
  5
6C
  8
0
  6
CONTINUOUS
 62
     7
 10
-157.6391411185
 20
1055.4824965347
 30
0.0
 11
-157.6391411185
 21
1061.4732301199
 31
0.0
  0
LINE
  5
6D
  8
0
  6
CONTINUOUS
 62
     7
 10
-159.6391411185
 20
1061.4732301199
 30
0.0
 11
-159.6391411185
 21
1059.968608483
 31
0.0
  0
LINE
  5
6E
  8
0
  6
CONTINUOUS
 62
     7
 10
-157.6391411185
 20
-852.6567711461
 30
0.0
 11
-157.6391411185
 21
-858.5175034653
 31
0.0
  0
LINE
  5
6F
  8
0
  6
CONTINUOUS
 62
     7
 10
-159.6391411185
 20
-853.0950907935
 30
0.0
 11
-159.6391411185
 21
-852.6567711461
 31
0.0
  0
LINE
  5
70
  8
0
  6
CONTINUOUS
 62
     7
 10
-157.6391411185
 20
1047.6217642154
 30
0.0
 11
-157.6391411185
 21
1053.4824965347
 31
0.0
  0
LINE
  5
71
  8
0
  6
CONTINUOUS
 62
     7
 10
-159.6391411185
 20
1048.0600838629
 30
0.0
 11
-159.6391411185
 21
1047.6217642154
 31
0.0
  0
CIRCLE
  5
72
  8
0
  6
CONTINUOUS
 62
     7
 10
-728.6391411185
 20
-810.5175034653
 30
0.0
 40
4.516838966197497
  0
CIRCLE
  5
73
  8
0
  6
CONTINUOUS
 62
     7
 10
-728.6391411185
 20
89.4824965347
 30
0.0
 40
4.516838966197497
  0
CIRCLE
  5
74
  8
0
  6
CONTINUOUS
 62
     7
 10
-728.6391411185
 20
989.4824965347
 30
0.0
 40
4.516838966197497
  0
CIRCLE
  5
75
  8
0
  6
CONTINUOUS
 62
     7
 10
-728.6391411185
 20
989.4824965347
 30
0.0
 40
3.0
  0
CIRCLE
  5
76
  8
0
  6
CONTINUOUS
 62
     7
 10
-728.6391411185
 20
89.4824965347
 30
0.0
 40
3.0
  0
CIRCLE
  5
77
  8
0
  6
CONTINUOUS
 62
     7
 10
-728.6391411185
 20
-810.5175034653
 30
0.0
 40
3.0
  0
ARC
  5
78
  8
0
  6
CONTINUOUS
 62
     7
 10
-237.6391411185
 20
1064.4824965347
 30
0.0
 40
4.516838966197592
 50
299.5276563099
 51
180.0
  0
ARC
  5
79
  8
0
  6
CONTINUOUS
 62
     7
 10
-237.6391411185
 20
1064.4824965347
 30
0.0
 40
4.516838966197592
 50
180.0
 51
240.4723436901
  0
ARC
  5
7A
  8
0
  6
CONTINUOUS
 62
     7
 10
-237.6391411185
 20
-869.5175034653
 30
0.0
 40
4.516838966197493
 50
180.0
 51
60.4723436901
  0
ARC
  5
7B
  8
0
  6
CONTINUOUS
 62
     7
 10
-237.6391411185
 20
-869.5175034653
 30
0.0
 40
4.516838966197493
 50
119.5276563099
 51
180.0
  0
CIRCLE
  5
7C
  8
0
  6
CONTINUOUS
 62
     7
 10
-237.6391411185
 20
-869.5175034653
 30
0.0
 40
3.0
  0
CIRCLE
  5
7D
  8
0
  6
CONTINUOUS
 62
     7
 10
-237.6391411185
 20
1064.4824965347
 30
0.0
 40
3.0
  0
LINE
  5
7E
  8
0
  6
CONTINUOUS
 62
     7
 10
-157.6391411185
 20
-858.5175034653
 30
0.0
 11
-157.6391411185
 21
-860.5175034653
 31
0.0
  0
LINE
  5
7F
  8
0
  6
CONTINUOUS
 62
     7
 10
-157.6391411185
 20
1053.4824965347
 30
0.0
 11
-157.6391411185
 21
1055.4824965347
 31
0.0
  0
POLYLINE
  5
80
  8
0
  6
CONTINUOUS
 62
     7
 66
     1
 10
0.0
 20
0.0
 30
0.0
  0
VERTEX
  5
41F
  8
0
  6
CONTINUOUS
 62
     7
 10
-744.7166041943
 20
-888.4558791365
 30
0.0
  0
VERTEX
  5
420
  8
0
  6
CONTINUOUS
 62
     7
 10
-744.7344393361
 20
-888.2585857902
 30
0.0
  0
VERTEX
  5
421
  8
0
  6
CONTINUOUS
 62
     7
 10
-744.8107139937
 20
-887.5175034653
 30
0.0
  0
SEQEND
  5
41E
  8
0
  6
CONTINUOUS
 62
     7
  0
POLYLINE
  5
81
  8
0
  6
CONTINUOUS
 62
     7
 66
     1
 10
0.0
 20
0.0
 30
0.0
  0
VERTEX
  5
423
  8
0
  6
CONTINUOUS
 62
     7
 10
-744.8107139937
 20
-888.5175041548
 30
0.0
  0
VERTEX
  5
424
  8
0
  6
CONTINUOUS
 62
     7
 10
-744.7373937149
 20
-888.4858249692
 30
0.0
  0
VERTEX
  5
425
  8
0
  6
CONTINUOUS
 62
     7
 10
-744.6844433645
 20
-888.409553738
 30
0.0
  0
VERTEX
  5
426
  8
0
  6
CONTINUOUS
 62
     7
 10
-744.6396524488
 20
-888.2180918282
 30
0.0
  0
VERTEX
  5
427
  8
0
  6
CONTINUOUS
 62
     7
 10
-744.6805041927
 20
-887.9634089803
 30
0.0
  0
VERTEX
  5
428
  8
0
  6
CONTINUOUS
 62
     7
 10
-744.7344393361
 20
-887.7645310205
 30
0.0
  0
VERTEX
  5
429
  8
0
  6
CONTINUOUS
 62
     7
 10
-744.8107139937
 20
-887.5175034653
 30
0.0
  0
SEQEND
  5
422
  8
0
  6
CONTINUOUS
 62
     7
  0
POLYLINE
  5
82
  8
0
  6
CONTINUOUS
 62
     7
 66
     1
 10
0.0
 20
0.0
 30
0.0
  0
VERTEX
  5
42B
  8
0
  6
CONTINUOUS
 62
     7
 10
-162.4675682432
 20
-887.5175034653
 30
0.0
  0
VERTEX
  5
42C
  8
0
  6
CONTINUOUS
 62
     7
 10
-162.5408885221
 20
-887.767212985
 30
0.0
  0
VERTEX
  5
42D
  8
0
  6
CONTINUOUS
 62
     7
 10
-162.5938388725
 20
-887.9694411713
 30
0.0
  0
VERTEX
  5
42E
  8
0
  6
CONTINUOUS
 62
     7
 10
-162.6386297881
 20
-888.2310700879
 30
0.0
  0
VERTEX
  5
42F
  8
0
  6
CONTINUOUS
 62
     7
 10
-162.5977780441
 20
-888.4125842723
 30
0.0
  0
VERTEX
  5
430
  8
0
  6
CONTINUOUS
 62
     7
 10
-162.5438429008
 20
-888.4865126325
 30
0.0
  0
VERTEX
  5
431
  8
0
  6
CONTINUOUS
 62
     7
 10
-162.4675682432
 20
-888.5175041548
 30
0.0
  0
SEQEND
  5
42A
  8
0
  6
CONTINUOUS
 62
     7
  0
POLYLINE
  5
83
  8
0
  6
CONTINUOUS
 62
     7
 66
     1
 10
0.0
 20
0.0
 30
0.0
  0
VERTEX
  5
433
  8
0
  6
CONTINUOUS
 62
     7
 10
-162.4675682432
 20
-887.5175034653
 30
0.0
  0
VERTEX
  5
434
  8
0
  6
CONTINUOUS
 62
     7
 10
-162.5408885221
 20
-888.2666316799
 30
0.0
  0
VERTEX
  5
435
  8
0
  6
CONTINUOUS
 62
     7
 10
-162.5583445023
 20
-888.4666354327
 30
0.0
  0
SEQEND
  5
432
  8
0
  6
CONTINUOUS
 62
     7
  0
POLYLINE
  5
84
  8
0
  6
CONTINUOUS
 62
     7
 66
     1
 10
0.0
 20
0.0
 30
0.0
  0
VERTEX
  5
437
  8
0
  6
CONTINUOUS
 62
     7
 10
-747.5882726587
 20
1080.5632931748
 30
0.0
  0
VERTEX
  5
438
  8
0
  6
CONTINUOUS
 62
     7
 10
-747.3882692121
 20
1080.5807491311
 30
0.0
  0
VERTEX
  5
439
  8
0
  6
CONTINUOUS
 62
     7
 10
-746.6391411185
 20
1080.6540694099
 30
0.0
  0
SEQEND
  5
436
  8
0
  6
CONTINUOUS
 62
     7
  0
POLYLINE
  5
85
  8
0
  6
CONTINUOUS
 62
     7
 66
     1
 10
0.0
 20
0.0
 30
0.0
  0
VERTEX
  5
43B
  8
0
  6
CONTINUOUS
 62
     7
 10
-746.6391411185
 20
-885.6890763406
 30
0.0
  0
VERTEX
  5
43C
  8
0
  6
CONTINUOUS
 62
     7
 10
-747.3882692115
 20
-885.6157560616
 30
0.0
  0
VERTEX
  5
43D
  8
0
  6
CONTINUOUS
 62
     7
 10
-747.5882726584
 20
-885.5983001052
 30
0.0
  0
SEQEND
  5
43A
  8
0
  6
CONTINUOUS
 62
     7
  0
POLYLINE
  5
86
  8
0
  6
CONTINUOUS
 62
     7
 66
     1
 10
0.0
 20
0.0
 30
0.0
  0
VERTEX
  5
43F
  8
0
  6
CONTINUOUS
 62
     7
 10
-746.6391411185
 20
-885.6890763406
 30
0.0
  0
VERTEX
  5
440
  8
0
  6
CONTINUOUS
 62
     7
 10
-746.888850517
 20
-885.6157560616
 30
0.0
  0
VERTEX
  5
441
  8
0
  6
CONTINUOUS
 62
     7
 10
-747.0910786053
 20
-885.5628057111
 30
0.0
  0
VERTEX
  5
442
  8
0
  6
CONTINUOUS
 62
     7
 10
-747.3527073954
 20
-885.5180147957
 30
0.0
  0
VERTEX
  5
443
  8
0
  6
CONTINUOUS
 62
     7
 10
-747.5342214919
 20
-885.5588665399
 30
0.0
  0
VERTEX
  5
444
  8
0
  6
CONTINUOUS
 62
     7
 10
-747.6081498163
 20
-885.6128016831
 30
0.0
  0
VERTEX
  5
445
  8
0
  6
CONTINUOUS
 62
     7
 10
-747.6391413236
 20
-885.6890763406
 30
0.0
  0
SEQEND
  5
43E
  8
0
  6
CONTINUOUS
 62
     7
  0
POLYLINE
  5
87
  8
0
  6
CONTINUOUS
 62
     7
 66
     1
 10
0.0
 20
0.0
 30
0.0
  0
VERTEX
  5
447
  8
0
  6
CONTINUOUS
 62
     7
 10
-747.6391413236
 20
1080.6540694099
 30
0.0
  0
VERTEX
  5
448
  8
0
  6
CONTINUOUS
 62
     7
 10
-747.608149816
 20
1080.5777947523
 30
0.0
  0
VERTEX
  5
449
  8
0
  6
CONTINUOUS
 62
     7
 10
-747.5342214913
 20
1080.523859609
 30
0.0
  0
VERTEX
  5
44A
  8
0
  6
CONTINUOUS
 62
     7
 10
-747.3527073954
 20
1080.483007865
 30
0.0
  0
VERTEX
  5
44B
  8
0
  6
CONTINUOUS
 62
     7
 10
-747.0910786055
 20
1080.5277987807
 30
0.0
  0
VERTEX
  5
44C
  8
0
  6
CONTINUOUS
 62
     7
 10
-746.8888505171
 20
1080.5807491311
 30
0.0
  0
VERTEX
  5
44D
  8
0
  6
CONTINUOUS
 62
     7
 10
-746.6391411185
 20
1080.6540694099
 30
0.0
  0
SEQEND
  5
446
  8
0
  6
CONTINUOUS
 62
     7
  0
POLYLINE
  5
88
  8
0
  6
CONTINUOUS
 62
     7
 66
     1
 10
0.0
 20
0.0
 30
0.0
  0
VERTEX
  5
44F
  8
0
  6
CONTINUOUS
 62
     7
 10
-744.8107139937
 20
1082.4824965347
 30
0.0
  0
VERTEX
  5
450
  8
0
  6
CONTINUOUS
 62
     7
 10
-744.734439231
 20
1083.2235596744
 30
0.0
  0
VERTEX
  5
451
  8
0
  6
CONTINUOUS
 62
     7
 10
-744.716602439
 20
1083.4208696777
 30
0.0
  0
SEQEND
  5
44E
  8
0
  6
CONTINUOUS
 62
     7
  0
POLYLINE
  5
89
  8
0
  6
CONTINUOUS
 62
     7
 66
     1
 10
0.0
 20
0.0
 30
0.0
  0
VERTEX
  5
453
  8
0
  6
CONTINUOUS
 62
     7
 10
-744.8107139937
 20
1082.4824965347
 30
0.0
  0
VERTEX
  5
454
  8
0
  6
CONTINUOUS
 62
     7
 10
-744.734439231
 20
1082.7295176948
 30
0.0
  0
VERTEX
  5
455
  8
0
  6
CONTINUOUS
 62
     7
 10
-744.6805040526
 20
1082.9283941735
 30
0.0
  0
VERTEX
  5
456
  8
0
  6
CONTINUOUS
 62
     7
 10
-744.6396524488
 20
1083.1830848975
 30
0.0
  0
VERTEX
  5
457
  8
0
  6
CONTINUOUS
 62
     7
 10
-744.6844433643
 20
1083.3745468073
 30
0.0
  0
VERTEX
  5
458
  8
0
  6
CONTINUOUS
 62
     7
 10
-744.7373937148
 20
1083.4508180385
 30
0.0
  0
VERTEX
  5
459
  8
0
  6
CONTINUOUS
 62
     7
 10
-744.8107139937
 20
1083.4824972242
 30
0.0
  0
SEQEND
  5
452
  8
0
  6
CONTINUOUS
 62
     7
  0
POLYLINE
  5
8A
  8
0
  6
CONTINUOUS
 62
     7
 66
     1
 10
0.0
 20
0.0
 30
0.0
  0
VERTEX
  5
45B
  8
0
  6
CONTINUOUS
 62
     7
 10
-162.5583465143
 20
1083.431625744
 30
0.0
  0
VERTEX
  5
45C
  8
0
  6
CONTINUOUS
 62
     7
 10
-162.5408883812
 20
1083.2315990792
 30
0.0
  0
VERTEX
  5
45D
  8
0
  6
CONTINUOUS
 62
     7
 10
-162.4675682432
 20
1082.4824965347
 30
0.0
  0
SEQEND
  5
45A
  8
0
  6
CONTINUOUS
 62
     7
  0
POLYLINE
  5
8B
  8
0
  6
CONTINUOUS
 62
     7
 66
     1
 10
0.0
 20
0.0
 30
0.0
  0
VERTEX
  5
45F
  8
0
  6
CONTINUOUS
 62
     7
 10
-162.4675682432
 20
1083.4824972242
 30
0.0
  0
VERTEX
  5
460
  8
0
  6
CONTINUOUS
 62
     7
 10
-162.5438429007
 20
1083.4515057018
 30
0.0
  0
VERTEX
  5
461
  8
0
  6
CONTINUOUS
 62
     7
 10
-162.597778044
 20
1083.3775773415
 30
0.0
  0
VERTEX
  5
462
  8
0
  6
CONTINUOUS
 62
     7
 10
-162.6386297881
 20
1083.1960631572
 30
0.0
  0
VERTEX
  5
463
  8
0
  6
CONTINUOUS
 62
     7
 10
-162.5938386847
 20
1082.9344237303
 30
0.0
  0
VERTEX
  5
464
  8
0
  6
CONTINUOUS
 62
     7
 10
-162.5408883812
 20
1082.7321974976
 30
0.0
  0
VERTEX
  5
465
  8
0
  6
CONTINUOUS
 62
     7
 10
-162.4675682432
 20
1082.4824965347
 30
0.0
  0
SEQEND
  5
45E
  8
0
  6
CONTINUOUS
 62
     7
  0
POLYLINE
  5
8C
  8
0
  6
CONTINUOUS
 62
     7
 66
     1
 10
0.0
 20
0.0
 30
0.0
  0
VERTEX
  5
467
  8
0
  6
CONTINUOUS
 62
     7
 10
-160.6391411185
 20
1080.6540694099
 30
0.0
  0
VERTEX
  5
468
  8
0
  6
CONTINUOUS
 62
     7
 10
-159.8980589129
 20
1080.5777947524
 30
0.0
  0
VERTEX
  5
469
  8
0
  6
CONTINUOUS
 62
     7
 10
-159.7007658666
 20
1080.5599596349
 30
0.0
  0
SEQEND
  5
466
  8
0
  6
CONTINUOUS
 62
     7
  0
POLYLINE
  5
8D
  8
0
  6
CONTINUOUS
 62
     7
 66
     1
 10
0.0
 20
0.0
 30
0.0
  0
VERTEX
  5
46B
  8
0
  6
CONTINUOUS
 62
     7
 10
-160.6391411185
 20
1080.6540694099
 30
0.0
  0
VERTEX
  5
46C
  8
0
  6
CONTINUOUS
 62
     7
 10
-160.3921136828
 20
1080.5777947524
 30
0.0
  0
VERTEX
  5
46D
  8
0
  6
CONTINUOUS
 62
     7
 10
-160.1932358193
 20
1080.523859609
 30
0.0
  0
VERTEX
  5
46E
  8
0
  6
CONTINUOUS
 62
     7
 10
-159.938553095
 20
1080.483007865
 30
0.0
  0
VERTEX
  5
46F
  8
0
  6
CONTINUOUS
 62
     7
 10
-159.7470912778
 20
1080.5277987806
 30
0.0
  0
VERTEX
  5
470
  8
0
  6
CONTINUOUS
 62
     7
 10
-159.6708200836
 20
1080.5807491311
 30
0.0
  0
VERTEX
  5
471
  8
0
  6
CONTINUOUS
 62
     7
 10
-159.6391409134
 20
1080.6540694099
 30
0.0
  0
SEQEND
  5
46A
  8
0
  6
CONTINUOUS
 62
     7
  0
POLYLINE
  5
8E
  8
0
  6
CONTINUOUS
 62
     7
 66
     1
 10
0.0
 20
0.0
 30
0.0
  0
VERTEX
  5
473
  8
0
  6
CONTINUOUS
 62
     7
 10
-159.7007658666
 20
-885.5949665656
 30
0.0
  0
VERTEX
  5
474
  8
0
  6
CONTINUOUS
 62
     7
 10
-159.8980589112
 20
-885.612801683
 30
0.0
  0
VERTEX
  5
475
  8
0
  6
CONTINUOUS
 62
     7
 10
-160.6391411185
 20
-885.6890763406
 30
0.0
  0
SEQEND
  5
472
  8
0
  6
CONTINUOUS
 62
     7
  0
POLYLINE
  5
8F
  8
0
  6
CONTINUOUS
 62
     7
 66
     1
 10
0.0
 20
0.0
 30
0.0
  0
VERTEX
  5
477
  8
0
  6
CONTINUOUS
 62
     7
 10
-159.6391409134
 20
-885.6890763406
 30
0.0
  0
VERTEX
  5
478
  8
0
  6
CONTINUOUS
 62
     7
 10
-159.6708200837
 20
-885.6157560618
 30
0.0
  0
VERTEX
  5
479
  8
0
  6
CONTINUOUS
 62
     7
 10
-159.7470912779
 20
-885.5628057114
 30
0.0
  0
VERTEX
  5
47A
  8
0
  6
CONTINUOUS
 62
     7
 10
-159.938553095
 20
-885.5180147957
 30
0.0
  0
VERTEX
  5
47B
  8
0
  6
CONTINUOUS
 62
     7
 10
-160.1932358186
 20
-885.5588665396
 30
0.0
  0
VERTEX
  5
47C
  8
0
  6
CONTINUOUS
 62
     7
 10
-160.3921136823
 20
-885.612801683
 30
0.0
  0
VERTEX
  5
47D
  8
0
  6
CONTINUOUS
 62
     7
 10
-160.6391411185
 20
-885.6890763406
 30
0.0
  0
SEQEND
  5
476
  8
0
  6
CONTINUOUS
 62
     7
  0
ARC
  5
90
  8
0
  6
CONTINUOUS
 62
     7
 10
-159.6391411185
 20
1083.4824965347
 30
0.0
 40
3.000000000000021
 50
199.4712206345
 51
250.5287793655
  0
ARC
  5
91
  8
0
  6
CONTINUOUS
 62
     7
 10
-159.6391411185
 20
-888.5175034653
 30
0.0
 40
2.999999999999968
 50
109.4712206345
 51
160.5287793655
  0
ARC
  5
92
  8
0
  6
CONTINUOUS
 62
     7
 10
-747.6391411185
 20
-888.5175034653
 30
0.0
 40
3.000000000000129
 50
19.4712206345
 51
70.5287793655
  0
ARC
  5
93
  8
0
  6
CONTINUOUS
 62
     7
 10
-747.6391411185
 20
1083.4824965347
 30
0.0
 40
3.000000000000129
 50
289.4712206345
 51
340.5287793655
  0
ARC
  5
94
  8
0
  6
CONTINUOUS
 62
     7
 10
-168.6391411185
 20
89.4824965347
 30
0.0
 40
2.500000000000001
 50
249.5126849128
 51
110.4873151069
  0
LINE
  5
95
  8
0
  6
CONTINUOUS
 62
     7
 10
-162.1391411185
 20
82.9824965347
 30
0.0
 11
-173.1391411185
 21
82.9824965347
 31
0.0
  0
LINE
  5
96
  8
0
  6
CONTINUOUS
 62
     7
 10
-162.1391411185
 20
95.9824965347
 30
0.0
 11
-173.1391411185
 21
95.9824965347
 31
0.0
  0
CIRCLE
  5
97
  8
0
  6
CONTINUOUS
 62
     7
 10
-167.6391411185
 20
89.4824965347
 30
0.0
 40
3.0
  0
LINE
  5
98
  8
0
  6
CONTINUOUS
 62
     7
 10
-174.1391411185
 20
82.9824965347
 30
0.0
 11
-173.1391411185
 21
82.9824965347
 31
0.0
  0
LINE
  5
99
  8
0
  6
CONTINUOUS
 62
     7
 10
-174.1391411185
 20
82.9824965347
 30
0.0
 11
-174.1391411185
 21
95.9824965347
 31
0.0
  0
LINE
  5
9A
  8
0
  6
CONTINUOUS
 62
     7
 10
-173.1391411185
 20
95.9824965347
 30
0.0
 11
-174.1391411185
 21
95.9824965347
 31
0.0
  0
LINE
  5
9B
  8
0
  6
CONTINUOUS
 62
     7
 10
-161.1391411185
 20
95.9824965347
 30
0.0
 11
-162.1391411185
 21
95.9824965347
 31
0.0
  0
LINE
  5
9C
  8
0
  6
CONTINUOUS
 62
     7
 10
-161.1391411185
 20
95.9824965347
 30
0.0
 11
-161.1391411185
 21
82.9824965347
 31
0.0
  0
LINE
  5
9D
  8
0
  6
CONTINUOUS
 62
     7
 10
-162.1391411185
 20
82.9824965347
 30
0.0
 11
-161.1391411185
 21
82.9824965347
 31
0.0
  0
ARC
  5
9E
  8
0
  6
CONTINUOUS
 62
     7
 10
-699.1391411185
 20
1040.9824965347
 30
0.0
 40
5.0
 50
90.0
 51
180.0
  0
ARC
  5
9F
  8
0
  6
CONTINUOUS
 62
     7
 10
-699.1391411185
 20
1040.9824965347
 30
0.0
 40
19.99999999999977
 50
90.0
 51
180.0
  0
LINE
  5
A0
  8
0
  6
CONTINUOUS
 62
     7
 10
-704.1391411185
 20
1040.9824965347
 30
0.0
 11
-704.1391411185
 21
-846.0175034653
 31
0.0
  0
LINE
  5
A1
  8
0
  6
CONTINUOUS
 62
     7
 10
-719.1391411185
 20
1040.9824965347
 30
0.0
 11
-719.1391411185
 21
-846.0175034653
 31
0.0
  0
ARC
  5
A2
  8
0
  6
CONTINUOUS
 62
     7
 10
-699.1391411185
 20
-846.0175034653
 30
0.0
 40
5.0
 50
180.0
 51
270.0
  0
ARC
  5
A3
  8
0
  6
CONTINUOUS
 62
     7
 10
-699.1391411185
 20
-846.0175034653
 30
0.0
 40
20.0
 50
180.0
 51
270.0
  0
LINE
  5
A4
  8
0
  6
CONTINUOUS
 62
     7
 10
-699.1391411185
 20
-851.0175034653
 30
0.0
 11
-160.6391411185
 21
-851.0175034653
 31
0.0
  0
LINE
  5
A5
  8
0
  6
CONTINUOUS
 62
     7
 10
-159.6391411185
 20
-853.0950907935
 30
0.0
 11
-159.6391411185
 21
-865.0036154137
 31
0.0
  0
LINE
  5
A6
  8
0
  6
CONTINUOUS
 62
     7
 10
-699.1391411185
 20
-866.0175034653
 30
0.0
 11
-243.5671308029
 21
-866.0175034653
 31
0.0
  0
LINE
  5
A7
  8
0
  6
CONTINUOUS
 62
     7
 10
-231.711151434
 20
-866.0175034653
 30
0.0
 11
-160.6391411185
 21
-866.0175034653
 31
0.0
  0
LINE
  5
A8
  8
0
  6
CONTINUOUS
 62
     7
 10
-699.1391411185
 20
1045.9824965347
 30
0.0
 11
-160.6391411185
 21
1045.9824965347
 31
0.0
  0
LINE
  5
A9
  8
0
  6
CONTINUOUS
 62
     7
 10
-699.1391411185
 20
1060.9824965347
 30
0.0
 11
-243.5671308029
 21
1060.9824965347
 31
0.0
  0
LINE
  5
AA
  8
0
  6
CONTINUOUS
 62
     7
 10
-231.711151434
 20
1060.9824965347
 30
0.0
 11
-160.6391411185
 21
1060.9824965347
 31
0.0
  0
LINE
  5
AB
  8
0
  6
CONTINUOUS
 62
     7
 10
-159.6391411185
 20
1048.0600838629
 30
0.0
 11
-159.6391411185
 21
1059.968608483
 31
0.0
  0
LINE
  5
AC
  8
0
  6
CONTINUOUS
 62
     7
 10
391.8608588815
 20
-851.0175034653
 30
0.0
 11
-145.6391411185
 21
-851.0175034653
 31
0.0
  0
LINE
  5
AD
  8
0
  6
CONTINUOUS
 62
     7
 10
391.8608588815
 20
-866.0175034653
 30
0.0
 11
-63.711151434
 21
-866.0175034653
 31
0.0
  0
LINE
  5
AE
  8
0
  6
CONTINUOUS
 62
     7
 10
-75.5671308029
 20
-866.0175034653
 30
0.0
 11
-145.6391411185
 21
-866.0175034653
 31
0.0
  0
LINE
  5
AF
  8
0
  6
CONTINUOUS
 62
     7
 10
-147.6391411185
 20
-853.0950907935
 30
0.0
 11
-147.6391411185
 21
-865.0036154137
 31
0.0
  0
LINE
  5
B0
  8
0
  6
CONTINUOUS
 62
     7
 10
391.8608588815
 20
1045.9824965347
 30
0.0
 11
-145.6391411185
 21
1045.9824965347
 31
0.0
  0
LINE
  5
B1
  8
0
  6
CONTINUOUS
 62
     7
 10
-147.6391411185
 20
1048.0600838629
 30
0.0
 11
-147.6391411185
 21
1059.968608483
 31
0.0
  0
LINE
  5
B2
  8
0
  6
CONTINUOUS
 62
     7
 10
391.8608588815
 20
1060.9824965347
 30
0.0
 11
-63.711151434
 21
1060.9824965347
 31
0.0
  0
LINE
  5
B3
  8
0
  6
CONTINUOUS
 62
     7
 10
-75.5671308029
 20
1060.9824965347
 30
0.0
 11
-145.6391411185
 21
1060.9824965347
 31
0.0
  0
ARC
  5
B4
  8
0
  6
CONTINUOUS
 62
     7
 10
391.8608588815
 20
-846.0175034653
 30
0.0
 40
5.000000000000114
 50
270.0
 51
360.0
  0
ARC
  5
B5
  8
0
  6
CONTINUOUS
 62
     7
 10
391.8608588815
 20
-846.0175034653
 30
0.0
 40
20.0
 50
270.0
 51
360.0
  0
LINE
  5
B6
  8
0
  6
CONTINUOUS
 62
     7
 10
396.8608588815
 20
-846.0175034653
 30
0.0
 11
396.8608588815
 21
1040.9824965347
 31
0.0
  0
LINE
  5
B7
  8
0
  6
CONTINUOUS
 62
     7
 10
411.8608588815
 20
-846.0175034653
 30
0.0
 11
411.8608588815
 21
1040.9824965347
 31
0.0
  0
ARC
  5
B8
  8
0
  6
CONTINUOUS
 62
     7
 10
391.8608588815
 20
1040.9824965347
 30
0.0
 40
5.000000000000057
 50
360.0
 51
90.0
  0
ARC
  5
B9
  8
0
  6
CONTINUOUS
 62
     7
 10
391.8608588815
 20
1040.9824965347
 30
0.0
 40
19.99999999999994
 50
360.0
 51
90.0
  0
CIRCLE
  5
BA
  8
0
  6
CONTINUOUS
 62
     7
 10
-649.6391411185
 20
-790.5175034653
 30
0.0
 40
4.000000000000034
  0
CIRCLE
  5
BB
  8
0
  6
CONTINUOUS
 62
     7
 10
-649.6391411185
 20
-790.5175034653
 30
0.0
 40
3.50000000000011
  0
CIRCLE
  5
BC
  8
0
  6
CONTINUOUS
 62
     7
 10
-649.6391411185
 20
-790.5175034653
 30
0.0
 40
4.999999999999992
  0
CIRCLE
  5
BD
  8
0
  6
CONTINUOUS
 62
     7
 10
342.360860401
 20
-790.5175034653
 30
0.0
 40
3.999999999999979
  0
CIRCLE
  5
BE
  8
0
  6
CONTINUOUS
 62
     7
 10
342.360860401
 20
-790.5175034653
 30
0.0
 40
3.499999999999854
  0
CIRCLE
  5
BF
  8
0
  6
CONTINUOUS
 62
     7
 10
342.360860401
 20
-790.5175034653
 30
0.0
 40
4.999999999999983
  0
ARC
  5
C0
  8
0
  6
CONTINUOUS
 62
     7
 10
-148.8058148035
 20
1045.7486527232
 30
0.0
 40
1.766162983479683
 50
269.8410663731
 51
311.3433335687
  0
LINE
  5
C1
  8
0
  6
CONTINUOUS
 62
     7
 10
-147.6391411185
 20
-849.4576867421
 30
0.0
 11
-147.6391411185
 21
1044.4226798115
 31
0.0
  0
ARC
  5
C2
  8
0
  6
CONTINUOUS
 62
     7
 10
-148.8058148035
 20
-850.7836596538
 30
0.0
 40
1.766162983478204
 50
48.6566664313
 51
90.1589336269
  0
LINE
  5
C3
  8
0
  6
CONTINUOUS
 62
     7
 10
-151.6391411185
 20
1043.9824965347
 30
0.0
 11
-148.8107139833
 21
1043.9824965347
 31
0.0
  0
LINE
  5
C4
  8
0
  6
CONTINUOUS
 62
     7
 10
-148.8107139833
 20
-849.0175034653
 30
0.0
 11
-151.6391411185
 21
-849.0175034653
 31
0.0
  0
LINE
  5
C5
  8
0
  6
CONTINUOUS
 62
     7
 10
-174.6391411185
 20
1043.9824965347
 30
0.0
 11
-151.6391411185
 21
1043.9824965347
 31
0.0
  0
LINE
  5
C6
  8
0
  6
CONTINUOUS
 62
     7
 10
-174.6391411185
 20
-849.0175034653
 30
0.0
 11
-174.6391411185
 21
1043.9824965347
 31
0.0
  0
LINE
  5
C7
  8
0
  6
CONTINUOUS
 62
     7
 10
-174.6391411185
 20
-849.0175034653
 30
0.0
 11
-151.6391411185
 21
-849.0175034653
 31
0.0
  0
ARC
  5
C8
  8
0
  6
CONTINUOUS
 62
     7
 10
-150.3519707745
 20
-849.7964375035
 30
0.0
 40
0.7892263412778612
 50
25.4179916907
 51
80.736689305
  0
LINE
  5
C9
  8
0
  6
CONTINUOUS
 62
     7
 10
-147.6391411185
 20
-849.4576867421
 30
0.0
 11
-149.6391411185
 21
-849.4576867421
 31
0.0
  0
ARC
  5
CA
  8
0
  6
CONTINUOUS
 62
     7
 10
-150.3519707745
 20
1044.7614305728
 30
0.0
 40
0.7892263412774301
 50
279.263310695
 51
334.5820083094
  0
LINE
  5
CB
  8
0
  6
CONTINUOUS
 62
     7
 10
-147.6391411185
 20
1044.4226798115
 30
0.0
 11
-149.6391411038
 21
1044.4226798115
 31
0.0
  0
LINE
  5
CC
  8
0
  6
CONTINUOUS
 62
     7
 10
-149.6391411185
 20
-852.657749369
 30
0.0
 11
-149.6391411185
 21
-849.4576867421
 31
0.0
  0
LINE
  5
CD
  8
0
  6
CONTINUOUS
 62
     7
 10
-147.6391411185
 20
-849.4576867421
 30
0.0
 11
-147.6391411185
 21
-852.657749369
 31
0.0
  0
LINE
  5
CE
  8
0
  6
CONTINUOUS
 62
     7
 10
-149.6391411185
 20
1047.6227424383
 30
0.0
 11
-149.6391411185
 21
1044.4226798115
 31
0.0
  0
LINE
  5
CF
  8
0
  6
CONTINUOUS
 62
     7
 10
-147.6391411185
 20
1044.4226798115
 30
0.0
 11
-147.6391411185
 21
1047.6227424383
 31
0.0
  0
LINE
  5
D0
  8
0
  6
CONTINUOUS
 62
     7
 10
421.8608588815
 20
1083.4824965347
 30
0.0
 11
421.8608588815
 21
1085.4824965347
 31
0.0
  0
LINE
  5
D1
  8
0
  6
CONTINUOUS
 62
     7
 10
-129.1391411185
 20
1083.4824965347
 30
0.0
 11
-129.1391411185
 21
1085.4824965347
 31
0.0
  0
LINE
  5
D2
  8
0
  6
CONTINUOUS
 62
     7
 10
-129.1391411185
 20
1083.4824965347
 30
0.0
 11
421.8608588815
 21
1083.4824965347
 31
0.0
  0
LINE
  5
D3
  8
0
  6
CONTINUOUS
 62
     7
 10
-129.1391411185
 20
1085.4824965347
 30
0.0
 11
421.8608588815
 21
1085.4824965347
 31
0.0
  0
LINE
  5
D4
  8
0
  6
CONTINUOUS
 62
     7
 10
-147.6391411185
 20
1071.0179987041
 30
0.0
 11
-149.6391411185
 21
1071.0179987041
 31
0.0
  0
LINE
  5
D5
  8
0
  6
CONTINUOUS
 62
     7
 10
-147.6391411185
 20
1071.0179987041
 30
0.0
 11
-147.6391418073
 21
1081.4824965347
 31
0.0
  0
LINE
  5
D6
  8
0
  6
CONTINUOUS
 62
     7
 10
-149.6391418073
 20
1081.4824965347
 30
0.0
 11
-149.6391411185
 21
1071.0179987041
 31
0.0
  0
LINE
  5
D7
  8
0
  6
CONTINUOUS
 62
     7
 10
-147.6391411185
 20
1061.4732301199
 30
0.0
 11
-147.6391411185
 21
1071.0179987041
 31
0.0
  0
LINE
  5
D8
  8
0
  6
CONTINUOUS
 62
     7
 10
-149.6391411185
 20
1071.0179987041
 30
0.0
 11
-149.6391411185
 21
1061.4732301199
 31
0.0
  0
ARC
  5
D9
  8
0
  6
CONTINUOUS
 62
     7
 10
-145.6391411185
 20
-886.5175034653
 30
0.0
 40
2.0
 50
180.0
 51
269.9999999997
  0
ARC
  5
DA
  8
0
  6
CONTINUOUS
 62
     7
 10
-145.6391404297
 20
-886.5175034653
 30
0.0
 40
4.000001033189761
 50
180.0
 51
269.9999901336
  0
LINE
  5
DB
  8
0
  6
CONTINUOUS
 62
     7
 10
-147.6391411185
 20
-876.0530056347
 30
0.0
 11
-149.6391411185
 21
-876.0530056347
 31
0.0
  0
LINE
  5
DC
  8
0
  6
CONTINUOUS
 62
     7
 10
-147.6391411185
 20
-876.0530056347
 30
0.0
 11
-147.6391411185
 21
-886.5175034653
 31
0.0
  0
LINE
  5
DD
  8
0
  6
CONTINUOUS
 62
     7
 10
-149.6391414629
 20
-886.5175034653
 30
0.0
 11
-149.6391411185
 21
-876.0530056347
 31
0.0
  0
ARC
  5
DE
  8
0
  6
CONTINUOUS
 62
     7
 10
-145.6391411185
 20
1081.4824965347
 30
0.0
 40
2.000000688793193
 50
90.0
 51
180.0
  0
ARC
  5
DF
  8
0
  6
CONTINUOUS
 62
     7
 10
-145.6391404297
 20
1081.4824965347
 30
0.0
 40
4.000001377586329
 50
90.0000098662
 51
180.0
  0
LINE
  5
E0
  8
0
  6
CONTINUOUS
 62
     7
 10
-129.1391411185
 20
-888.5175034653
 30
0.0
 11
-129.1391411185
 21
-890.5175034653
 31
0.0
  0
LINE
  5
E1
  8
0
  6
CONTINUOUS
 62
     7
 10
-145.6391411185
 20
-888.5175034653
 30
0.0
 11
-129.1391411185
 21
-888.5175034653
 31
0.0
  0
LINE
  5
E2
  8
0
  6
CONTINUOUS
 62
     7
 10
-129.1391411185
 20
-890.5175034653
 30
0.0
 11
-145.6391411185
 21
-890.5175041541
 31
0.0
  0
LINE
  5
E3
  8
0
  6
CONTINUOUS
 62
     7
 10
-129.1391411185
 20
1083.4824965347
 30
0.0
 11
-129.1391411185
 21
1085.4824965347
 31
0.0
  0
LINE
  5
E4
  8
0
  6
CONTINUOUS
 62
     7
 10
-129.1391411185
 20
1085.4824965347
 30
0.0
 11
-145.6391411185
 21
1085.4824965347
 31
0.0
  0
LINE
  5
E5
  8
0
  6
CONTINUOUS
 62
     7
 10
-145.6391411185
 20
1083.4824965347
 30
0.0
 11
-129.1391411185
 21
1083.4824965347
 31
0.0
  0
LINE
  5
E6
  8
0
  6
CONTINUOUS
 62
     7
 10
-147.6391411185
 20
-866.5082370505
 30
0.0
 11
-147.6391411185
 21
-876.0530056347
 31
0.0
  0
LINE
  5
E7
  8
0
  6
CONTINUOUS
 62
     7
 10
-149.6391411185
 20
-876.0530056347
 30
0.0
 11
-149.6391411185
 21
-866.5082370505
 31
0.0
  0
LINE
  5
E8
  8
0
  6
CONTINUOUS
 62
     7
 10
421.8608588815
 20
-888.5175034653
 30
0.0
 11
421.8608588815
 21
-890.5175034653
 31
0.0
  0
LINE
  5
E9
  8
0
  6
CONTINUOUS
 62
     7
 10
-129.1391411185
 20
-888.5175034653
 30
0.0
 11
-129.1391411185
 21
-890.5175034653
 31
0.0
  0
LINE
  5
EA
  8
0
  6
CONTINUOUS
 62
     7
 10
421.8608588815
 20
-890.5175034653
 30
0.0
 11
-129.1391411185
 21
-890.5175034653
 31
0.0
  0
LINE
  5
EB
  8
0
  6
CONTINUOUS
 62
     7
 10
421.8608588815
 20
-888.5175034653
 30
0.0
 11
-129.1391411185
 21
-888.5175034653
 31
0.0
  0
LINE
  5
EC
  8
0
  6
CONTINUOUS
 62
     7
 10
421.860860401
 20
1085.4824965347
 30
0.0
 11
421.860860401
 21
1083.4824965347
 31
0.0
  0
LINE
  5
ED
  8
0
  6
CONTINUOUS
 62
     7
 10
421.860860401
 20
1085.4824965347
 30
0.0
 11
438.360860401
 21
1085.4824972235
 31
0.0
  0
LINE
  5
EE
  8
0
  6
CONTINUOUS
 62
     7
 10
421.860860401
 20
1083.4824965347
 30
0.0
 11
438.360860401
 21
1083.4824965347
 31
0.0
  0
LINE
  5
EF
  8
0
  6
CONTINUOUS
 62
     7
 10
421.860860401
 20
-890.5175034653
 30
0.0
 11
421.860860401
 21
-888.5175034653
 31
0.0
  0
LINE
  5
F0
  8
0
  6
CONTINUOUS
 62
     7
 10
438.360860401
 20
-890.5175034653
 30
0.0
 11
421.860860401
 21
-890.5175034653
 31
0.0
  0
LINE
  5
F1
  8
0
  6
CONTINUOUS
 62
     7
 10
438.360860401
 20
-888.5175034653
 30
0.0
 11
421.860860401
 21
-888.5175034653
 31
0.0
  0
ARC
  5
F2
  8
0
  6
CONTINUOUS
 62
     7
 10
438.3608597122
 20
-886.5175034653
 30
0.0
 40
4.000000688793136
 50
270.0000098664
 51
0.0
  0
ARC
  5
F3
  8
0
  6
CONTINUOUS
 62
     7
 10
438.360860401
 20
-886.5175034653
 30
0.0
 40
2.000000000000057
 50
270.0000000003
 51
0.0
  0
ARC
  5
F4
  8
0
  6
CONTINUOUS
 62
     7
 10
438.360860401
 20
1081.4824965347
 30
0.0
 40
2.000000000000227
 50
0.0
 51
90.0
  0
ARC
  5
F5
  8
0
  6
CONTINUOUS
 62
     7
 10
438.3608597122
 20
1081.4824965347
 30
0.0
 40
4.000001377586329
 50
0.0
 51
89.9999901338
  0
LINE
  5
F6
  8
0
  6
CONTINUOUS
 62
     7
 10
442.3608610898
 20
1081.4824965347
 30
0.0
 11
442.360860401
 21
-886.5175034653
 31
0.0
  0
LINE
  5
F7
  8
0
  6
CONTINUOUS
 62
     7
 10
440.360860401
 20
1081.4824965347
 30
0.0
 11
440.360860401
 21
-886.5175034653
 31
0.0
  0
LINE
  5
F8
  8
0
  6
CONTINUOUS
 62
     7
 10
-147.6391411185
 20
1057.1964101848
 30
0.0
 11
-149.6391411185
 21
1057.1964101848
 31
0.0
  0
LINE
  5
F9
  8
0
  6
CONTINUOUS
 62
     7
 10
-147.6391411185
 20
1059.968608483
 30
0.0
 11
-147.6391411185
 21
1061.4732301199
 31
0.0
  0
LINE
  5
FA
  8
0
  6
CONTINUOUS
 62
     7
 10
-149.6391411185
 20
1061.4732301199
 30
0.0
 11
-149.6391411185
 21
1057.1964101848
 31
0.0
  0
LINE
  5
FB
  8
0
  6
CONTINUOUS
 62
     7
 10
-147.6391411185
 20
-862.2314171154
 30
0.0
 11
-149.6391413125
 21
-862.2314171154
 31
0.0
  0
LINE
  5
FC
  8
0
  6
CONTINUOUS
 62
     7
 10
-147.6391411185
 20
-865.0036154137
 30
0.0
 11
-147.6391411185
 21
-866.5082370505
 31
0.0
  0
LINE
  5
FD
  8
0
  6
CONTINUOUS
 62
     7
 10
-149.6391411185
 20
-866.5082370505
 30
0.0
 11
-149.6391411185
 21
-862.2314171154
 31
0.0
  0
LINE
  5
FE
  8
0
  6
CONTINUOUS
 62
     7
 10
-149.6391413125
 20
1051.7685828846
 30
0.0
 11
-147.6391411185
 21
1051.7685828846
 31
0.0
  0
LINE
  5
FF
  8
0
  6
CONTINUOUS
 62
     7
 10
-149.6391411185
 20
1051.7685828846
 30
0.0
 11
-149.6391411185
 21
1047.6227424383
 31
0.0
  0
LINE
  5
100
  8
0
  6
CONTINUOUS
 62
     7
 10
-147.6391411185
 20
1047.6227424383
 30
0.0
 11
-147.6391411185
 21
1048.0600838629
 31
0.0
  0
LINE
  5
101
  8
0
  6
CONTINUOUS
 62
     7
 10
-149.6391411185
 20
-856.8035898152
 30
0.0
 11
-147.6391411185
 21
-856.8035898152
 31
0.0
  0
LINE
  5
102
  8
0
  6
CONTINUOUS
 62
     7
 10
-149.6391411185
 20
-856.8035898152
 30
0.0
 11
-149.6391411185
 21
-852.657749369
 31
0.0
  0
LINE
  5
103
  8
0
  6
CONTINUOUS
 62
     7
 10
-147.6391411185
 20
-852.657749369
 30
0.0
 11
-147.6391411185
 21
-853.0950907935
 31
0.0
  0
ARC
  5
104
  8
0
  6
CONTINUOUS
 62
     7
 10
-69.6391411185
 20
1064.4824965347
 30
0.0
 40
4.516838966197511
 50
299.5276563099
 51
180.0
  0
ARC
  5
105
  8
0
  6
CONTINUOUS
 62
     7
 10
-69.6391411185
 20
1064.4824965347
 30
0.0
 40
4.516838966197511
 50
180.0
 51
240.4723436901
  0
ARC
  5
106
  8
0
  6
CONTINUOUS
 62
     7
 10
-69.6391411185
 20
-869.5175034653
 30
0.0
 40
4.516838966197511
 50
180.0
 51
60.4723436901
  0
ARC
  5
107
  8
0
  6
CONTINUOUS
 62
     7
 10
-69.6391411185
 20
-869.5175034653
 30
0.0
 40
4.516838966197511
 50
119.5276563099
 51
180.0
  0
CIRCLE
  5
108
  8
0
  6
CONTINUOUS
 62
     7
 10
-69.6391411185
 20
1064.4824965347
 30
0.0
 40
3.0
  0
CIRCLE
  5
109
  8
0
  6
CONTINUOUS
 62
     7
 10
-69.6391411185
 20
-869.5175034653
 30
0.0
 40
3.0
  0
CIRCLE
  5
10A
  8
0
  6
CONTINUOUS
 62
     7
 10
421.3608588815
 20
89.4824965347
 30
0.0
 40
4.516838966197383
  0
CIRCLE
  5
10B
  8
0
  6
CONTINUOUS
 62
     7
 10
421.3608588815
 20
-810.5175034653
 30
0.0
 40
4.516838966197383
  0
CIRCLE
  5
10C
  8
0
  6
CONTINUOUS
 62
     7
 10
421.3608588815
 20
989.4824965347
 30
0.0
 40
4.516838966197383
  0
CIRCLE
  5
10D
  8
0
  6
CONTINUOUS
 62
     7
 10
421.3608588815
 20
989.4824965347
 30
0.0
 40
2.999999999999886
  0
CIRCLE
  5
10E
  8
0
  6
CONTINUOUS
 62
     7
 10
421.3608588815
 20
89.4824965347
 30
0.0
 40
2.999999999999886
  0
CIRCLE
  5
10F
  8
0
  6
CONTINUOUS
 62
     7
 10
421.3608588815
 20
-810.5175034653
 30
0.0
 40
2.999999999999886
  0
LINE
  5
110
  8
0
  6
CONTINUOUS
 62
     7
 10
-149.6391413125
 20
1051.7685828846
 30
0.0
 11
-149.6198802183
 21
1053.4824965347
 31
0.0
  0
LINE
  5
111
  8
0
  6
CONTINUOUS
 62
     7
 10
-149.6198802183
 20
-858.5175034653
 30
0.0
 11
-149.6391413125
 21
-856.8035898152
 31
0.0
  0
LINE
  5
112
  8
0
  6
CONTINUOUS
 62
     7
 10
-149.6198802183
 20
-860.5175034653
 30
0.0
 11
-149.6198802183
 21
-858.5175034653
 31
0.0
  0
LINE
  5
113
  8
0
  6
CONTINUOUS
 62
     7
 10
-149.6391413125
 20
-862.2314171154
 30
0.0
 11
-149.6198802183
 21
-860.5175034653
 31
0.0
  0
ARC
  5
114
  8
0
  6
CONTINUOUS
 62
     7
 10
-149.2068080919
 20
-893.7455299033
 30
0.0
 40
8.272904754412748
 50
64.4532636351
 51
77.5366032436
  0
ARC
  5
115
  8
0
  6
CONTINUOUS
 62
     7
 10
-149.2068080914
 20
1088.7105229728
 30
0.0
 40
8.272904754375157
 50
282.4633967508
 51
295.5467363611
  0
LINE
  5
116
  8
0
  6
CONTINUOUS
 62
     7
 10
-149.6198802183
 20
1055.4824965347
 30
0.0
 11
-149.6391413125
 21
1057.1964101848
 31
0.0
  0
LINE
  5
117
  8
0
  6
CONTINUOUS
 62
     7
 10
-149.6198802183
 20
1053.4824965347
 30
0.0
 11
-149.6198802183
 21
1055.4824965347
 31
0.0
  0
POLYLINE
  5
118
  8
0
  6
CONTINUOUS
 62
     7
 66
     1
 10
0.0
 20
0.0
 30
0.0
  0
VERTEX
  5
47F
  8
0
  6
CONTINUOUS
 62
     7
 10
-147.6391413125
 20
1081.2464285572
 30
0.0
  0
VERTEX
  5
480
  8
0
  6
CONTINUOUS
 62
     7
 10
-147.5959630465
 20
1080.9123174782
 30
0.0
  0
VERTEX
  5
481
  8
0
  6
CONTINUOUS
 62
     7
 10
-147.4746094691
 20
1080.6736249588
 30
0.0
  0
VERTEX
  5
482
  8
0
  6
CONTINUOUS
 62
     7
 10
-147.288831799
 20
1080.5303509992
 30
0.0
  0
VERTEX
  5
483
  8
0
  6
CONTINUOUS
 62
     7
 10
-147.0533566929
 20
1080.4824955992
 30
0.0
  0
VERTEX
  5
484
  8
0
  6
CONTINUOUS
 62
     7
 10
-146.7706093062
 20
1080.5301321854
 30
0.0
  0
VERTEX
  5
485
  8
0
  6
CONTINUOUS
 62
     7
 10
-146.4346435396
 20
1080.6733332071
 30
0.0
  0
VERTEX
  5
486
  8
0
  6
CONTINUOUS
 62
     7
 10
-146.0533679012
 20
1080.9120986643
 30
0.0
  0
VERTEX
  5
487
  8
0
  6
CONTINUOUS
 62
     7
 10
-145.6391411185
 20
1081.2464285572
 30
0.0
  0
SEQEND
  5
47E
  8
0
  6
CONTINUOUS
 62
     7
  0
POLYLINE
  5
119
  8
0
  6
CONTINUOUS
 62
     7
 66
     1
 10
0.0
 20
0.0
 30
0.0
  0
VERTEX
  5
489
  8
0
  6
CONTINUOUS
 62
     7
 10
-145.6391411185
 20
-886.2814354878
 30
0.0
  0
VERTEX
  5
48A
  8
0
  6
CONTINUOUS
 62
     7
 10
-146.0533679014
 20
-885.9471055948
 30
0.0
  0
VERTEX
  5
48B
  8
0
  6
CONTINUOUS
 62
     7
 10
-146.4346435399
 20
-885.7083401375
 30
0.0
  0
VERTEX
  5
48C
  8
0
  6
CONTINUOUS
 62
     7
 10
-146.7706093063
 20
-885.5651391158
 30
0.0
  0
VERTEX
  5
48D
  8
0
  6
CONTINUOUS
 62
     7
 10
-147.0533566929
 20
-885.5175025298
 30
0.0
  0
VERTEX
  5
48E
  8
0
  6
CONTINUOUS
 62
     7
 10
-147.2888317991
 20
-885.56535793
 30
0.0
  0
VERTEX
  5
48F
  8
0
  6
CONTINUOUS
 62
     7
 10
-147.4746094692
 20
-885.7086318897
 30
0.0
  0
VERTEX
  5
490
  8
0
  6
CONTINUOUS
 62
     7
 10
-147.5959630466
 20
-885.947324409
 30
0.0
  0
VERTEX
  5
491
  8
0
  6
CONTINUOUS
 62
     7
 10
-147.6391413125
 20
-886.2814354878
 30
0.0
  0
SEQEND
  5
488
  8
0
  6
CONTINUOUS
 62
     7
  0
ARC
  5
11A
  8
0
  6
CONTINUOUS
 62
     7
 10
-152.8269183753
 20
1085.0370360647
 30
0.0
 40
8.230931255601408
 50
334.4148852109
 51
347.5636503091
  0
POLYLINE
  5
11B
  8
0
  6
CONTINUOUS
 62
     7
 66
     1
 10
0.0
 20
0.0
 30
0.0
  0
VERTEX
  5
493
  8
0
  6
CONTINUOUS
 62
     7
 10
-145.403073141
 20
1081.4824965347
 30
0.0
  0
VERTEX
  5
494
  8
0
  6
CONTINUOUS
 62
     7
 10
-145.0689620641
 20
1081.8958305348
 30
0.0
  0
VERTEX
  5
495
  8
0
  6
CONTINUOUS
 62
     7
 10
-144.8302695455
 20
1082.276881751
 30
0.0
  0
VERTEX
  5
496
  8
0
  6
CONTINUOUS
 62
     7
 10
-144.6869955851
 20
1082.6132101534
 30
0.0
  0
VERTEX
  5
497
  8
0
  6
CONTINUOUS
 62
     7
 10
-144.639140183
 20
1082.8967087093
 30
0.0
  0
VERTEX
  5
498
  8
0
  6
CONTINUOUS
 62
     7
 10
-144.6867767708
 20
1083.1316699551
 30
0.0
  0
VERTEX
  5
499
  8
0
  6
CONTINUOUS
 62
     7
 10
-144.8299777931
 20
1083.3174812937
 30
0.0
  0
VERTEX
  5
49A
  8
0
  6
CONTINUOUS
 62
     7
 10
-145.0687432498
 20
1083.4391301183
 30
0.0
  0
VERTEX
  5
49B
  8
0
  6
CONTINUOUS
 62
     7
 10
-145.403073141
 20
1083.4824972235
 30
0.0
  0
SEQEND
  5
492
  8
0
  6
CONTINUOUS
 62
     7
  0
LINE
  5
11C
  8
0
  6
CONTINUOUS
 62
     7
 10
-147.6295107649
 20
-860.5175034653
 30
0.0
 11
-149.6198802183
 21
-860.5175034653
 31
0.0
  0
LINE
  5
11D
  8
0
  6
CONTINUOUS
 62
     7
 10
-147.6295107649
 20
1053.4824965347
 30
0.0
 11
-149.6198802183
 21
1053.4824965347
 31
0.0
  0
POLYLINE
  5
11E
  8
0
  6
CONTINUOUS
 62
     7
 66
     1
 10
0.0
 20
0.0
 30
0.0
  0
VERTEX
  5
49D
  8
0
  6
CONTINUOUS
 62
     7
 10
438.1247924235
 20
1083.4824972235
 30
0.0
  0
VERTEX
  5
49E
  8
0
  6
CONTINUOUS
 62
     7
 10
437.7906813448
 20
1083.4393189467
 30
0.0
  0
VERTEX
  5
49F
  8
0
  6
CONTINUOUS
 62
     7
 10
437.5519888256
 20
1083.317965339
 30
0.0
  0
VERTEX
  5
4A0
  8
0
  6
CONTINUOUS
 62
     7
 10
437.4087148658
 20
1083.1321876229
 30
0.0
  0
VERTEX
  5
4A1
  8
0
  6
CONTINUOUS
 62
     7
 10
437.3608594655
 20
1082.8967124589
 30
0.0
  0
VERTEX
  5
4A2
  8
0
  6
CONTINUOUS
 62
     7
 10
437.4084960513
 20
1082.6139650033
 30
0.0
  0
VERTEX
  5
4A3
  8
0
  6
CONTINUOUS
 62
     7
 10
437.5516970729
 20
1082.2779991542
 30
0.0
  0
VERTEX
  5
4A4
  8
0
  6
CONTINUOUS
 62
     7
 10
437.7904625303
 20
1081.8967234211
 30
0.0
  0
VERTEX
  5
4A5
  8
0
  6
CONTINUOUS
 62
     7
 10
438.1247924235
 20
1081.4824965347
 30
0.0
  0
SEQEND
  5
49C
  8
0
  6
CONTINUOUS
 62
     7
  0
ARC
  5
11F
  8
0
  6
CONTINUOUS
 62
     7
 10
445.5888887569
 20
1085.0501639405
 30
0.0
 40
8.272906671378463
 50
192.4633941027
 51
205.5467333382
  0
LINE
  5
120
  8
0
  6
CONTINUOUS
 62
     7
 10
-147.6295107649
 20
-858.5175034653
 30
0.0
 11
-149.6198802183
 21
-858.5175034653
 31
0.0
  0
LINE
  5
121
  8
0
  6
CONTINUOUS
 62
     7
 10
-147.6295107649
 20
1055.4824965347
 30
0.0
 11
-149.6198802183
 21
1055.4824965347
 31
0.0
  0
ARC
  5
122
  8
0
  6
CONTINUOUS
 62
     7
 10
441.9154869048
 20
1088.6705549086
 30
0.0
 40
8.231222367579928
 50
244.4151842132
 51
257.5634906449
  0
POLYLINE
  5
123
  8
0
  6
CONTINUOUS
 62
     7
 66
     1
 10
0.0
 20
0.0
 30
0.0
  0
VERTEX
  5
4A7
  8
0
  6
CONTINUOUS
 62
     7
 10
438.360860401
 20
1081.2464285572
 30
0.0
  0
VERTEX
  5
4A8
  8
0
  6
CONTINUOUS
 62
     7
 10
438.7741989082
 20
1080.9123174784
 30
0.0
  0
VERTEX
  5
4A9
  8
0
  6
CONTINUOUS
 62
     7
 10
439.1552511883
 20
1080.6736249592
 30
0.0
  0
VERTEX
  5
4AA
  8
0
  6
CONTINUOUS
 62
     7
 10
439.491577634
 20
1080.5303509994
 30
0.0
  0
VERTEX
  5
4AB
  8
0
  6
CONTINUOUS
 62
     7
 10
439.7750722404
 20
1080.4824955992
 30
0.0
  0
VERTEX
  5
4AC
  8
0
  6
CONTINUOUS
 62
     7
 10
440.010033431
 20
1080.530132187
 30
0.0
  0
VERTEX
  5
4AD
  8
0
  6
CONTINUOUS
 62
     7
 10
440.1958447255
 20
1080.6733332093
 30
0.0
  0
VERTEX
  5
4AE
  8
0
  6
CONTINUOUS
 62
     7
 10
440.317493521
 20
1080.912098666
 30
0.0
  0
VERTEX
  5
4AF
  8
0
  6
CONTINUOUS
 62
     7
 10
440.3608606157
 20
1081.2464285572
 30
0.0
  0
SEQEND
  5
4A6
  8
0
  6
CONTINUOUS
 62
     7
  0
ARC
  5
124
  8
0
  6
CONTINUOUS
 62
     7
 10
441.9154869022
 20
-893.7055618317
 30
0.0
 40
8.231222359555852
 50
102.4365093472
 51
115.5848157932
  0
POLYLINE
  5
125
  8
0
  6
CONTINUOUS
 62
     7
 66
     1
 10
0.0
 20
0.0
 30
0.0
  0
VERTEX
  5
4B1
  8
0
  6
CONTINUOUS
 62
     7
 10
440.3608606157
 20
-886.2814354878
 30
0.0
  0
VERTEX
  5
4B2
  8
0
  6
CONTINUOUS
 62
     7
 10
440.3174935211
 20
-885.9471055966
 30
0.0
  0
VERTEX
  5
4B3
  8
0
  6
CONTINUOUS
 62
     7
 10
440.1958447256
 20
-885.7083401398
 30
0.0
  0
VERTEX
  5
4B4
  8
0
  6
CONTINUOUS
 62
     7
 10
440.010033431
 20
-885.5651391176
 30
0.0
  0
VERTEX
  5
4B5
  8
0
  6
CONTINUOUS
 62
     7
 10
439.7750722404
 20
-885.5175025298
 30
0.0
  0
VERTEX
  5
4B6
  8
0
  6
CONTINUOUS
 62
     7
 10
439.4915776338
 20
-885.5653579302
 30
0.0
  0
VERTEX
  5
4B7
  8
0
  6
CONTINUOUS
 62
     7
 10
439.1552511881
 20
-885.7086318899
 30
0.0
  0
VERTEX
  5
4B8
  8
0
  6
CONTINUOUS
 62
     7
 10
438.774198908
 20
-885.9473244092
 30
0.0
  0
VERTEX
  5
4B9
  8
0
  6
CONTINUOUS
 62
     7
 10
438.360860401
 20
-886.2814354878
 30
0.0
  0
SEQEND
  5
4B0
  8
0
  6
CONTINUOUS
 62
     7
  0
ARC
  5
126
  8
0
  6
CONTINUOUS
 62
     7
 10
-152.8272013344
 20
-890.0721303861
 30
0.0
 40
8.231224208966054
 50
12.4365068146
 51
25.5848128672
  0
POLYLINE
  5
127
  8
0
  6
CONTINUOUS
 62
     7
 66
     1
 10
0.0
 20
0.0
 30
0.0
  0
VERTEX
  5
4BB
  8
0
  6
CONTINUOUS
 62
     7
 10
-145.403073141
 20
-888.5175041541
 30
0.0
  0
VERTEX
  5
4BC
  8
0
  6
CONTINUOUS
 62
     7
 10
-145.0687432498
 20
-888.474137049
 30
0.0
  0
VERTEX
  5
4BD
  8
0
  6
CONTINUOUS
 62
     7
 10
-144.8299777931
 20
-888.3524882243
 30
0.0
  0
VERTEX
  5
4BE
  8
0
  6
CONTINUOUS
 62
     7
 10
-144.6867767708
 20
-888.1666768857
 30
0.0
  0
VERTEX
  5
4BF
  8
0
  6
CONTINUOUS
 62
     7
 10
-144.639140183
 20
-887.9317156399
 30
0.0
  0
VERTEX
  5
4C0
  8
0
  6
CONTINUOUS
 62
     7
 10
-144.6869955832
 20
-887.6482209672
 30
0.0
  0
VERTEX
  5
4C1
  8
0
  6
CONTINUOUS
 62
     7
 10
-144.830269543
 20
-887.3118944421
 30
0.0
  0
VERTEX
  5
4C2
  8
0
  6
CONTINUOUS
 62
     7
 10
-145.0689620622
 20
-886.9308420714
 30
0.0
  0
VERTEX
  5
4C3
  8
0
  6
CONTINUOUS
 62
     7
 10
-145.403073141
 20
-886.5175034653
 30
0.0
  0
SEQEND
  5
4BA
  8
0
  6
CONTINUOUS
 62
     7
  0
POLYLINE
  5
128
  8
0
  6
CONTINUOUS
 62
     7
 66
     1
 10
0.0
 20
0.0
 30
0.0
  0
VERTEX
  5
4C5
  8
0
  6
CONTINUOUS
 62
     7
 10
438.1247924235
 20
-886.5175034653
 30
0.0
  0
VERTEX
  5
4C6
  8
0
  6
CONTINUOUS
 62
     7
 10
437.7904625323
 20
-886.9317350123
 30
0.0
  0
VERTEX
  5
4C7
  8
0
  6
CONTINUOUS
 62
     7
 10
437.5516970755
 20
-887.3130119125
 30
0.0
  0
VERTEX
  5
4C8
  8
0
  6
CONTINUOUS
 62
     7
 10
437.4084960533
 20
-887.6489758621
 30
0.0
  0
VERTEX
  5
4C9
  8
0
  6
CONTINUOUS
 62
     7
 10
437.3608594655
 20
-887.9317193895
 30
0.0
  0
VERTEX
  5
4CA
  8
0
  6
CONTINUOUS
 62
     7
 10
437.4087148658
 20
-888.1671945535
 30
0.0
  0
VERTEX
  5
4CB
  8
0
  6
CONTINUOUS
 62
     7
 10
437.5519888255
 20
-888.3529722696
 30
0.0
  0
VERTEX
  5
4CC
  8
0
  6
CONTINUOUS
 62
     7
 10
437.7906813448
 20
-888.4743258773
 30
0.0
  0
VERTEX
  5
4CD
  8
0
  6
CONTINUOUS
 62
     7
 10
438.1247924235
 20
-888.5175041541
 30
0.0
  0
SEQEND
  5
4C4
  8
0
  6
CONTINUOUS
 62
     7
  0
ARC
  5
129
  8
0
  6
CONTINUOUS
 62
     7
 10
445.5891776746
 20
-890.0852600743
 30
0.0
 40
8.273205811409637
 50
154.4535721636
 51
167.536447363
  0
ARC
  5
12A
  8
0
  6
CONTINUOUS
 62
     7
 10
440.360860401
 20
1083.4824965347
 30
0.0
 40
3.000000000000152
 50
221.8103148958
 51
228.1896851042
  0
ARC
  5
12B
  8
0
  6
CONTINUOUS
 62
     7
 10
440.360860401
 20
-888.5175034653
 30
0.0
 40
2.999999999999987
 50
131.8103148958
 51
138.1896851042
  0
ARC
  5
12C
  8
0
  6
CONTINUOUS
 62
     7
 10
-147.6391411185
 20
-888.5175034653
 30
0.0
 40
2.99999999999999
 50
41.8103148958
 51
48.1896851042
  0
ARC
  5
12D
  8
0
  6
CONTINUOUS
 62
     7
 10
-147.6391411185
 20
1083.4824965347
 30
0.0
 40
2.99999999999999
 50
311.8103148958
 51
318.1896851042
  0
LINE
  5
12E
  8
0
  6
HIDDEN
 62
     7
 10
-157.6391411185
 20
1043.9824965347
 30
0.0
 11
-157.6391411185
 21
-849.0175034653
 31
0.0
  0
LINE
  5
12F
  8
0
  6
HIDDEN
 62
     7
 10
-159.6391411185
 20
1043.9824965347
 30
0.0
 11
-159.6391411185
 21
-849.0175034653
 31
0.0
  0
LINE
  5
130
  8
0
  6
HIDDEN
 62
     7
 10
-738.3891411185
 20
-888.5175034653
 30
0.0
 11
-738.3891411185
 21
-890.5175034653
 31
0.0
  0
LINE
  5
131
  8
0
  6
HIDDEN
 62
     7
 10
-745.5178207749
 20
-890.5175034653
 30
0.0
 11
-745.5178207749
 21
-888.5175034653
 31
0.0
  0
LINE
  5
132
  8
0
  6
HIDDEN
 62
     7
 10
-738.3891411185
 20
1083.4824965347
 30
0.0
 11
-738.3891411185
 21
1085.4824965347
 31
0.0
  0
LINE
  5
133
  8
0
  6
HIDDEN
 62
     7
 10
-745.5178207749
 20
1083.4824965347
 30
0.0
 11
-745.5178207749
 21
1085.4824965347
 31
0.0
  0
LINE
  5
134
  8
0
  6
HIDDEN
 62
     7
 10
-738.3891411185
 20
1083.4824965347
 30
0.0
 11
-738.3891411185
 21
1085.4824965347
 31
0.0
  0
LINE
  5
135
  8
0
  6
HIDDEN
 62
     7
 10
-738.3891411185
 20
-888.5175034653
 30
0.0
 11
-738.3891411185
 21
-890.5175034653
 31
0.0
  0
LINE
  5
136
  8
0
  6
HIDDEN
 62
     7
 10
-168.8891411185
 20
-888.5175034653
 30
0.0
 11
-168.8891411185
 21
-890.5175034653
 31
0.0
  0
LINE
  5
137
  8
0
  6
HIDDEN
 62
     7
 10
-168.8891411185
 20
-888.5175034653
 30
0.0
 11
-168.8891411185
 21
-890.5175034653
 31
0.0
  0
LINE
  5
138
  8
0
  6
HIDDEN
 62
     7
 10
-161.760461462
 20
-888.5175034653
 30
0.0
 11
-161.760461462
 21
-890.5175034653
 31
0.0
  0
LINE
  5
139
  8
0
  6
HIDDEN
 62
     7
 10
-168.8891411185
 20
1083.4824965347
 30
0.0
 11
-168.8891411185
 21
1085.4824965347
 31
0.0
  0
LINE
  5
13A
  8
0
  6
HIDDEN
 62
     7
 10
-168.8891411185
 20
1083.4824965347
 30
0.0
 11
-168.8891411185
 21
1085.4824965347
 31
0.0
  0
LINE
  5
13B
  8
0
  6
HIDDEN
 62
     7
 10
-161.760461462
 20
1083.4824965347
 30
0.0
 11
-161.760461462
 21
1085.4824965347
 31
0.0
  0
LINE
  5
13C
  8
0
  6
HIDDEN
 62
     7
 10
-749.6391411185
 20
1082.4824965347
 30
0.0
 11
-747.6391411185
 21
1082.4824965347
 31
0.0
  0
LINE
  5
13D
  8
0
  6
HIDDEN
 62
     7
 10
-746.6391411185
 20
1085.4824972242
 30
0.0
 11
-746.6391411185
 21
1083.4824965347
 31
0.0
  0
LINE
  5
13E
  8
0
  6
HIDDEN
 62
     7
 10
-745.5178207749
 20
1083.4824965347
 30
0.0
 11
-745.5178207749
 21
1085.4824965347
 31
0.0
  0
LINE
  5
13F
  8
0
  6
HIDDEN
 62
     7
 10
-749.639141808
 20
-887.5175034653
 30
0.0
 11
-747.6391411185
 21
-887.5175034653
 31
0.0
  0
LINE
  5
140
  8
0
  6
HIDDEN
 62
     7
 10
-746.6391411185
 20
-890.5175034653
 30
0.0
 11
-746.6391411185
 21
-888.5175034653
 31
0.0
  0
LINE
  5
141
  8
0
  6
HIDDEN
 62
     7
 10
-745.5178207749
 20
-890.5175034653
 30
0.0
 11
-745.5178207749
 21
-888.5175034653
 31
0.0
  0
LINE
  5
142
  8
0
  6
HIDDEN
 62
     7
 10
-160.6391411185
 20
-888.5175034653
 30
0.0
 11
-160.6391411185
 21
-890.5175041548
 31
0.0
  0
LINE
  5
143
  8
0
  6
HIDDEN
 62
     7
 10
-161.760461462
 20
-888.5175034653
 30
0.0
 11
-161.760461462
 21
-890.5175034653
 31
0.0
  0
LINE
  5
144
  8
0
  6
HIDDEN
 62
     7
 10
-159.6391411185
 20
-887.5175034653
 30
0.0
 11
-157.639140429
 21
-887.5175034653
 31
0.0
  0
LINE
  5
145
  8
0
  6
HIDDEN
 62
     7
 10
-159.6391411185
 20
1082.4824965347
 30
0.0
 11
-157.6391411185
 21
1082.4824965347
 31
0.0
  0
LINE
  5
146
  8
0
  6
HIDDEN
 62
     7
 10
-160.6391411185
 20
1083.4824965347
 30
0.0
 11
-160.6391411185
 21
1085.4824965347
 31
0.0
  0
LINE
  5
147
  8
0
  6
HIDDEN
 62
     7
 10
-161.760461462
 20
1083.4824965347
 30
0.0
 11
-161.760461462
 21
1085.4824965347
 31
0.0
  0
ARC
  5
148
  8
0
  6
HIDDEN
 62
     7
 10
-237.6391411185
 20
1064.4824965347
 30
0.0
 40
4.516838966197592
 50
240.4723436901
 51
299.5276563099
  0
ARC
  5
149
  8
0
  6
HIDDEN
 62
     7
 10
-237.6391411185
 20
-869.5175034653
 30
0.0
 40
4.516838966197493
 50
60.4723436901
 51
119.5276563099
  0
ARC
  5
14A
  8
0
  6
HIDDEN
 62
     7
 10
-748.5631607427
 20
-889.3132506296
 30
0.0
 40
3.940949524785311
 50
342.2072718396
 51
12.5654403231
  0
POLYLINE
  5
14B
  8
0
  6
HIDDEN
 62
     7
 66
     1
 10
0.0
 20
0.0
 30
0.0
  0
VERTEX
  5
4CF
  8
0
  6
HIDDEN
 62
     7
 10
-744.8107139937
 20
-887.5175034653
 30
0.0
  0
VERTEX
  5
4D0
  8
0
  6
HIDDEN
 62
     7
 10
-744.8107139937
 20
-887.5175034653
 30
0.0
  0
SEQEND
  5
4CE
  8
0
  6
HIDDEN
 62
     7
  0
LINE
  5
14C
  8
0
  6
HIDDEN
 62
     7
 10
-744.8107139937
 20
-888.5175034653
 30
0.0
 11
-744.8107139937
 21
-890.5175041548
 31
0.0
  0
ARC
  5
14D
  8
0
  6
HIDDEN
 62
     7
 10
-159.2447712672
 20
-889.3474122568
 30
0.0
 40
3.428634625978506
 50
165.1144831765
 51
199.9542995036
  0
ARC
  5
14E
  8
0
  6
HIDDEN
 62
     7
 10
-748.447372791
 20
1084.366598753
 30
0.0
 40
3.899126358326502
 50
252.2027176112
 51
282.7285009051
  0
ARC
  5
14F
  8
0
  6
HIDDEN
 62
     7
 10
-748.4690495169
 20
-888.9118726708
 30
0.0
 40
3.428633987793684
 50
75.1144797467
 51
109.9543017512
  0
POLYLINE
  5
150
  8
0
  6
HIDDEN
 62
     7
 66
     1
 10
0.0
 20
0.0
 30
0.0
  0
VERTEX
  5
4D2
  8
0
  6
HIDDEN
 62
     7
 10
-746.6391411185
 20
-885.6890763406
 30
0.0
  0
VERTEX
  5
4D3
  8
0
  6
HIDDEN
 62
     7
 10
-746.6391411185
 20
-885.6890763406
 30
0.0
  0
SEQEND
  5
4D1
  8
0
  6
HIDDEN
 62
     7
  0
LINE
  5
151
  8
0
  6
HIDDEN
 62
     7
 10
-749.6391411185
 20
-885.6890763406
 30
0.0
 11
-747.6391411185
 21
-885.6890763406
 31
0.0
  0
POLYLINE
  5
152
  8
0
  6
HIDDEN
 62
     7
 66
     1
 10
0.0
 20
0.0
 30
0.0
  0
VERTEX
  5
4D5
  8
0
  6
HIDDEN
 62
     7
 10
-746.6391411185
 20
1080.6540694099
 30
0.0
  0
VERTEX
  5
4D6
  8
0
  6
HIDDEN
 62
     7
 10
-746.6391411185
 20
1080.6540694099
 30
0.0
  0
SEQEND
  5
4D4
  8
0
  6
HIDDEN
 62
     7
  0
LINE
  5
153
  8
0
  6
HIDDEN
 62
     7
 10
-747.6391411185
 20
1080.6540694099
 30
0.0
 11
-749.6391413236
 21
1080.6540694099
 31
0.0
  0
ARC
  5
154
  8
0
  6
HIDDEN
 62
     7
 10
-748.0761514471
 20
1084.3004709352
 30
0.0
 40
3.472789643717666
 50
345.3280856974
 51
19.8992931014
  0
POLYLINE
  5
155
  8
0
  6
HIDDEN
 62
     7
 66
     1
 10
0.0
 20
0.0
 30
0.0
  0
VERTEX
  5
4D8
  8
0
  6
HIDDEN
 62
     7
 10
-744.8107139937
 20
1082.4824965347
 30
0.0
  0
VERTEX
  5
4D9
  8
0
  6
HIDDEN
 62
     7
 10
-744.8107139937
 20
1082.4824965347
 30
0.0
  0
SEQEND
  5
4D7
  8
0
  6
HIDDEN
 62
     7
  0
LINE
  5
156
  8
0
  6
HIDDEN
 62
     7
 10
-744.8107139937
 20
1083.4824965347
 30
0.0
 11
-744.8107139937
 21
1085.4824965347
 31
0.0
  0
ARC
  5
157
  8
0
  6
HIDDEN
 62
     7
 10
-158.7550134761
 20
1084.2907226112
 30
0.0
 40
3.89915242417856
 50
162.2027467271
 51
192.7283651993
  0
POLYLINE
  5
158
  8
0
  6
HIDDEN
 62
     7
 66
     1
 10
0.0
 20
0.0
 30
0.0
  0
VERTEX
  5
4DB
  8
0
  6
HIDDEN
 62
     7
 10
-162.4675682432
 20
-887.5175034653
 30
0.0
  0
VERTEX
  5
4DC
  8
0
  6
HIDDEN
 62
     7
 10
-162.4675682432
 20
-887.5175034653
 30
0.0
  0
SEQEND
  5
4DA
  8
0
  6
HIDDEN
 62
     7
  0
LINE
  5
159
  8
0
  6
HIDDEN
 62
     7
 10
-162.4675682432
 20
-890.5175034653
 30
0.0
 11
-162.4675682432
 21
-888.5175034653
 31
0.0
  0
POLYLINE
  5
15A
  8
0
  6
HIDDEN
 62
     7
 66
     1
 10
0.0
 20
0.0
 30
0.0
  0
VERTEX
  5
4DE
  8
0
  6
HIDDEN
 62
     7
 10
-162.4675682432
 20
1082.4824965347
 30
0.0
  0
VERTEX
  5
4DF
  8
0
  6
HIDDEN
 62
     7
 10
-162.4675682432
 20
1082.4824965347
 30
0.0
  0
SEQEND
  5
4DD
  8
0
  6
HIDDEN
 62
     7
  0
LINE
  5
15B
  8
0
  6
HIDDEN
 62
     7
 10
-162.4675682432
 20
1085.4824972242
 30
0.0
 11
-162.4675682432
 21
1083.4824965347
 31
0.0
  0
POLYLINE
  5
15C
  8
0
  6
HIDDEN
 62
     7
 66
     1
 10
0.0
 20
0.0
 30
0.0
  0
VERTEX
  5
4E1
  8
0
  6
HIDDEN
 62
     7
 10
-160.6391411185
 20
1080.6540694099
 30
0.0
  0
VERTEX
  5
4E2
  8
0
  6
HIDDEN
 62
     7
 10
-160.6391411185
 20
1080.6540694099
 30
0.0
  0
SEQEND
  5
4E0
  8
0
  6
HIDDEN
 62
     7
  0
ARC
  5
15D
  8
0
  6
HIDDEN
 62
     7
 10
-158.8211627037
 20
1083.9194960809
 30
0.0
 40
3.472777973906576
 50
255.3280027917
 51
289.8992838611
  0
LINE
  5
15E
  8
0
  6
HIDDEN
 62
     7
 10
-157.6391411185
 20
1080.6540694099
 30
0.0
 11
-159.6391411185
 21
1080.6540694099
 31
0.0
  0
ARC
  5
15F
  8
0
  6
HIDDEN
 62
     7
 10
-158.8433943306
 20
-889.441522315
 30
0.0
 40
3.940948754309927
 50
72.2072698936
 51
102.5654434598
  0
POLYLINE
  5
160
  8
0
  6
HIDDEN
 62
     7
 66
     1
 10
0.0
 20
0.0
 30
0.0
  0
VERTEX
  5
4E4
  8
0
  6
HIDDEN
 62
     7
 10
-160.6391411185
 20
-885.6890763406
 30
0.0
  0
VERTEX
  5
4E5
  8
0
  6
HIDDEN
 62
     7
 10
-160.6391411185
 20
-885.6890763406
 30
0.0
  0
SEQEND
  5
4E3
  8
0
  6
HIDDEN
 62
     7
  0
LINE
  5
161
  8
0
  6
HIDDEN
 62
     7
 10
-159.6391411185
 20
-885.6890763406
 30
0.0
 11
-157.6391409134
 21
-885.6890763406
 31
0.0
  0
ARC
  5
162
  8
0
  6
HIDDEN
 62
     7
 10
-168.6391411185
 20
89.4824965347
 30
0.0
 40
2.500000000000001
 50
110.4873151069
 51
180.0
  0
ARC
  5
163
  8
0
  6
HIDDEN
 62
     7
 10
-168.6391411185
 20
89.4824965347
 30
0.0
 40
2.5
 50
180.0
 51
249.5126849128
  0
LINE
  5
164
  8
0
  6
HIDDEN
 62
     7
 10
-152.1391411185
 20
1043.9824965347
 30
0.0
 11
-152.1391411185
 21
-849.0175034653
 31
0.0
  0
LINE
  5
165
  8
0
  6
HIDDEN
 62
     7
 10
-163.1391411185
 20
1043.9824965347
 30
0.0
 11
-163.1391411185
 21
94.4674002674
 31
0.0
  0
LINE
  5
166
  8
0
  6
HIDDEN
 62
     7
 10
-163.1391411185
 20
84.497592802
 30
0.0
 11
-163.1391411185
 21
-849.0175034653
 31
0.0
  0
LINE
  5
167
  8
0
  6
HIDDEN
 62
     7
 10
-173.6391411185
 20
95.9824965347
 30
0.0
 11
-173.6391411185
 21
82.9824965347
 31
0.0
  0
LINE
  5
168
  8
0
  6
HIDDEN
 62
     7
 10
-173.1391411185
 20
95.9824965347
 30
0.0
 11
-173.1391411185
 21
82.9824965347
 31
0.0
  0
LINE
  5
169
  8
0
  6
HIDDEN
 62
     7
 10
-161.6391411185
 20
82.9824965347
 30
0.0
 11
-161.6391411185
 21
95.9824965347
 31
0.0
  0
LINE
  5
16A
  8
0
  6
HIDDEN
 62
     7
 10
-162.1391411185
 20
82.9824965347
 30
0.0
 11
-162.1391411185
 21
95.9824965347
 31
0.0
  0
POLYLINE
  5
16B
  8
0
  6
HIDDEN
 62
     7
 66
     1
 10
0.0
 20
0.0
 30
0.0
  0
VERTEX
  5
4E7
  8
0
  6
HIDDEN
 62
     7
 10
-174.0051665223
 20
82.9824965347
 30
0.0
  0
VERTEX
  5
4E8
  8
0
  6
HIDDEN
 62
     7
 10
-173.8958498263
 20
83.4503010936
 30
0.0
  0
VERTEX
  5
4E9
  8
0
  6
HIDDEN
 62
     7
 10
-173.7368813151
 20
83.7367496812
 30
0.0
  0
VERTEX
  5
4EA
  8
0
  6
HIDDEN
 62
     7
 10
-173.5422471994
 20
83.9099026783
 30
0.0
  0
VERTEX
  5
4EB
  8
0
  6
HIDDEN
 62
     7
 10
-173.3370047683
 20
83.9969979901
 30
0.0
  0
VERTEX
  5
4EC
  8
0
  6
HIDDEN
 62
     7
 10
-173.1391411185
 20
84.0219972369
 30
0.0
  0
SEQEND
  5
4E6
  8
0
  6
HIDDEN
 62
     7
  0
POLYLINE
  5
16C
  8
0
  6
HIDDEN
 62
     7
 66
     1
 10
0.0
 20
0.0
 30
0.0
  0
VERTEX
  5
4EE
  8
0
  6
HIDDEN
 62
     7
 10
-174.0051665223
 20
95.9824965347
 30
0.0
  0
VERTEX
  5
4EF
  8
0
  6
HIDDEN
 62
     7
 10
-173.8958498263
 20
95.5146919758
 30
0.0
  0
VERTEX
  5
4F0
  8
0
  6
HIDDEN
 62
     7
 10
-173.7368813151
 20
95.2282433882
 30
0.0
  0
VERTEX
  5
4F1
  8
0
  6
HIDDEN
 62
     7
 10
-173.5422471994
 20
95.0550903911
 30
0.0
  0
VERTEX
  5
4F2
  8
0
  6
HIDDEN
 62
     7
 10
-173.3370047683
 20
94.9679950793
 30
0.0
  0
VERTEX
  5
4F3
  8
0
  6
HIDDEN
 62
     7
 10
-173.1391411185
 20
94.9429958324
 30
0.0
  0
SEQEND
  5
4ED
  8
0
  6
HIDDEN
 62
     7
  0
ARC
  5
16D
  8
0
  6
HIDDEN
 62
     7
 10
-162.2542086044
 20
83.0456321236
 30
0.0
 40
0.9831222512095182
 50
356.3179616268
 51
83.2785291508
  0
ARC
  5
16E
  8
0
  6
HIDDEN
 62
     7
 10
-162.2542086044
 20
95.9193609458
 30
0.0
 40
0.9831222512095281
 50
276.7214708492
 51
3.6820383732
  0
POLYLINE
  5
16F
  8
0
  6
HIDDEN
 62
     7
 66
     1
 10
0.0
 20
0.0
 30
0.0
  0
VERTEX
  5
4F5
  8
0
  6
HIDDEN
 62
     7
 10
-171.6391411185
 20
94.4674002674
 30
0.0
  0
VERTEX
  5
4F6
  8
0
  6
HIDDEN
 62
     7
 10
-171.7127460906
 20
94.8000166961
 30
0.0
  0
VERTEX
  5
4F7
  8
0
  6
HIDDEN
 62
     7
 10
-171.9786227635
 20
95.3201450933
 30
0.0
  0
VERTEX
  5
4F8
  8
0
  6
HIDDEN
 62
     7
 10
-172.3952680072
 20
95.8620185713
 30
0.0
  0
VERTEX
  5
4F9
  8
0
  6
HIDDEN
 62
     7
 10
-172.495210035
 20
95.9380704555
 30
0.0
  0
VERTEX
  5
4FA
  8
0
  6
HIDDEN
 62
     7
 10
-172.5848129485
 20
95.9759724606
 30
0.0
  0
VERTEX
  5
4FB
  8
0
  6
HIDDEN
 62
     7
 10
-172.6391411185
 20
95.9824965347
 30
0.0
  0
SEQEND
  5
4F4
  8
0
  6
HIDDEN
 62
     7
  0
LINE
  5
170
  8
0
  6
HIDDEN
 62
     7
 10
-172.6391411185
 20
94.9429958324
 30
0.0
 11
-173.1391411185
 21
94.9429958324
 31
0.0
  0
ARC
  5
171
  8
0
  6
HIDDEN
 62
     7
 10
-172.6621312485
 20
94.4181998627
 30
0.0
 40
0.5252993013197766
 50
5.3742951272
 51
87.4916046942
  0
ARC
  5
172
  8
0
  6
HIDDEN
 62
     7
 10
-172.4688794106
 20
94.8165861159
 30
0.0
 40
0.8512898910752397
 50
258.4627847698
 51
292.7890629595
  0
LINE
  5
173
  8
0
  6
HIDDEN
 62
     7
 10
-172.1391411185
 20
93.9824965347
 30
0.0
 11
-172.6391411185
 21
93.9824965347
 31
0.0
  0
LINE
  5
174
  8
0
  6
HIDDEN
 62
     7
 10
-172.1391411185
 20
84.9824965347
 30
0.0
 11
-172.6391411185
 21
84.9824965347
 31
0.0
  0
ARC
  5
175
  8
0
  6
HIDDEN
 62
     7
 10
-172.4688794106
 20
84.1484069535
 30
0.0
 40
0.8512898910752397
 50
67.2109370405
 51
101.5372152302
  0
ARC
  5
176
  8
0
  6
HIDDEN
 62
     7
 10
-172.6621312485
 20
84.5467932067
 30
0.0
 40
0.5252993013197625
 50
272.5083953058
 51
354.6257048728
  0
LINE
  5
177
  8
0
  6
HIDDEN
 62
     7
 10
-172.6391411185
 20
84.0219972369
 30
0.0
 11
-173.1391411185
 21
84.0219972369
 31
0.0
  0
POLYLINE
  5
178
  8
0
  6
HIDDEN
 62
     7
 66
     1
 10
0.0
 20
0.0
 30
0.0
  0
VERTEX
  5
4FD
  8
0
  6
HIDDEN
 62
     7
 10
-171.6391411185
 20
84.497592802
 30
0.0
  0
VERTEX
  5
4FE
  8
0
  6
HIDDEN
 62
     7
 10
-171.7127460906
 20
84.1649763733
 30
0.0
  0
VERTEX
  5
4FF
  8
0
  6
HIDDEN
 62
     7
 10
-171.9786227635
 20
83.6448479761
 30
0.0
  0
VERTEX
  5
500
  8
0
  6
HIDDEN
 62
     7
 10
-172.3952680072
 20
83.1029744981
 30
0.0
  0
VERTEX
  5
501
  8
0
  6
HIDDEN
 62
     7
 10
-172.495210035
 20
83.0269226138
 30
0.0
  0
VERTEX
  5
502
  8
0
  6
HIDDEN
 62
     7
 10
-172.5848129485
 20
82.9890206087
 30
0.0
  0
VERTEX
  5
503
  8
0
  6
HIDDEN
 62
     7
 10
-172.6391411185
 20
82.9824965347
 30
0.0
  0
SEQEND
  5
4FC
  8
0
  6
HIDDEN
 62
     7
  0
POLYLINE
  5
179
  8
0
  6
HIDDEN
 62
     7
 66
     1
 10
0.0
 20
0.0
 30
0.0
  0
VERTEX
  5
505
  8
0
  6
HIDDEN
 62
     7
 10
-162.6391411185
 20
95.9824965347
 30
0.0
  0
VERTEX
  5
506
  8
0
  6
HIDDEN
 62
     7
 10
-162.7220317127
 20
95.967414384
 30
0.0
  0
VERTEX
  5
507
  8
0
  6
HIDDEN
 62
     7
 10
-162.8270291504
 20
95.9084929594
 30
0.0
  0
VERTEX
  5
508
  8
0
  6
HIDDEN
 62
     7
 10
-163.0700839663
 20
95.6533798461
 30
0.0
  0
VERTEX
  5
509
  8
0
  6
HIDDEN
 62
     7
 10
-163.4631549369
 20
95.0298411244
 30
0.0
  0
VERTEX
  5
50A
  8
0
  6
HIDDEN
 62
     7
 10
-163.6186348415
 20
94.6289093328
 30
0.0
  0
VERTEX
  5
50B
  8
0
  6
HIDDEN
 62
     7
 10
-163.6391411185
 20
94.4674002674
 30
0.0
  0
SEQEND
  5
504
  8
0
  6
HIDDEN
 62
     7
  0
LINE
  5
17A
  8
0
  6
HIDDEN
 62
     7
 10
-162.6391411185
 20
93.9824965347
 30
0.0
 11
-163.1391411185
 21
93.9824965347
 31
0.0
  0
ARC
  5
17B
  8
0
  6
HIDDEN
 62
     7
 10
-162.7755034223
 20
95.1607156556
 30
0.0
 40
1.186083881818957
 50
252.1463431645
 51
276.6018091062
  0
ARC
  5
17C
  8
0
  6
HIDDEN
 62
     7
 10
-162.6142185927
 20
94.4161683091
 30
0.0
 40
0.5274166963780974
 50
92.708460898
 51
174.4256392805
  0
LINE
  5
17D
  8
0
  6
HIDDEN
 62
     7
 10
-162.1391411185
 20
94.9429958324
 30
0.0
 11
-162.6391411185
 21
94.9429958324
 31
0.0
  0
LINE
  5
17E
  8
0
  6
HIDDEN
 62
     7
 10
-162.1391411185
 20
84.0219972369
 30
0.0
 11
-162.6391411185
 21
84.0219972369
 31
0.0
  0
ARC
  5
17F
  8
0
  6
HIDDEN
 62
     7
 10
-162.6142185927
 20
84.5488247602
 30
0.0
 40
0.5274166963780508
 50
185.5743607195
 51
267.291539102
  0
ARC
  5
180
  8
0
  6
HIDDEN
 62
     7
 10
-162.7755034223
 20
83.8042774138
 30
0.0
 40
1.186083881818854
 50
83.3981908938
 51
107.8536568355
  0
LINE
  5
181
  8
0
  6
HIDDEN
 62
     7
 10
-162.6391411185
 20
84.9824965347
 30
0.0
 11
-163.1391411185
 21
84.9824965347
 31
0.0
  0
POLYLINE
  5
182
  8
0
  6
HIDDEN
 62
     7
 66
     1
 10
0.0
 20
0.0
 30
0.0
  0
VERTEX
  5
50D
  8
0
  6
HIDDEN
 62
     7
 10
-162.6391411185
 20
82.9824965347
 30
0.0
  0
VERTEX
  5
50E
  8
0
  6
HIDDEN
 62
     7
 10
-162.7220317127
 20
82.9975786854
 30
0.0
  0
VERTEX
  5
50F
  8
0
  6
HIDDEN
 62
     7
 10
-162.8270291504
 20
83.0565001099
 30
0.0
  0
VERTEX
  5
510
  8
0
  6
HIDDEN
 62
     7
 10
-163.0700839663
 20
83.3116132232
 30
0.0
  0
VERTEX
  5
511
  8
0
  6
HIDDEN
 62
     7
 10
-163.4631549369
 20
83.935151945
 30
0.0
  0
VERTEX
  5
512
  8
0
  6
HIDDEN
 62
     7
 10
-163.6186348415
 20
84.3360837365
 30
0.0
  0
VERTEX
  5
513
  8
0
  6
HIDDEN
 62
     7
 10
-163.6391411185
 20
84.497592802
 30
0.0
  0
SEQEND
  5
50C
  8
0
  6
HIDDEN
 62
     7
  0
LINE
  5
183
  8
0
  6
HIDDEN
 62
     7
 10
-171.6391411185
 20
94.4674002674
 30
0.0
 11
-171.6391411185
 21
84.497592802
 31
0.0
  0
LINE
  5
184
  8
0
  6
HIDDEN
 62
     7
 10
-172.6391411185
 20
82.9824965347
 30
0.0
 11
-172.6391411185
 21
95.9824965347
 31
0.0
  0
LINE
  5
185
  8
0
  6
HIDDEN
 62
     7
 10
-163.6391411185
 20
84.497592802
 30
0.0
 11
-163.6391411185
 21
94.4674002674
 31
0.0
  0
LINE
  5
186
  8
0
  6
HIDDEN
 62
     7
 10
-162.6391411185
 20
95.9824965347
 30
0.0
 11
-162.6391411185
 21
82.9824965347
 31
0.0
  0
LINE
  5
187
  8
0
  6
HIDDEN
 62
     7
 10
-172.1391411185
 20
84.497592802
 30
0.0
 11
-172.1391411185
 21
84.9824965347
 31
0.0
  0
LINE
  5
188
  8
0
  6
HIDDEN
 62
     7
 10
-172.1391411185
 20
93.9824965347
 30
0.0
 11
-172.1391411185
 21
94.4674002674
 31
0.0
  0
LINE
  5
189
  8
0
  6
HIDDEN
 62
     7
 10
-163.1391411185
 20
94.4674002674
 30
0.0
 11
-163.1391411185
 21
93.9824965347
 31
0.0
  0
LINE
  5
18A
  8
0
  6
HIDDEN
 62
     7
 10
-163.1391411185
 20
84.9824965347
 30
0.0
 11
-163.1391411185
 21
84.497592802
 31
0.0
  0
LINE
  5
18B
  8
0
  6
HIDDEN
 62
     7
 10
-172.6391411185
 20
84.9824965347
 30
0.0
 11
-174.1391411185
 21
84.9824965347
 31
0.0
  0
LINE
  5
18C
  8
0
  6
HIDDEN
 62
     7
 10
-172.6391411185
 20
93.9824965347
 30
0.0
 11
-174.1391411185
 21
93.9824965347
 31
0.0
  0
LINE
  5
18D
  8
0
  6
HIDDEN
 62
     7
 10
-161.1391411185
 20
93.9824965347
 30
0.0
 11
-162.6391411185
 21
93.9824965347
 31
0.0
  0
LINE
  5
18E
  8
0
  6
HIDDEN
 62
     7
 10
-161.1391411185
 20
84.9824965347
 30
0.0
 11
-162.6391411185
 21
84.9824965347
 31
0.0
  0
LINE
  5
18F
  8
0
  6
HIDDEN
 62
     7
 10
-160.6391411185
 20
-851.0175034653
 30
0.0
 11
-159.6391411185
 21
-851.0175034653
 31
0.0
  0
LINE
  5
190
  8
0
  6
HIDDEN
 62
     7
 10
-243.5671308029
 20
-866.0175034653
 30
0.0
 11
-231.711151434
 21
-866.0175034653
 31
0.0
  0
LINE
  5
191
  8
0
  6
HIDDEN
 62
     7
 10
-160.6391411185
 20
-866.0175034653
 30
0.0
 11
-159.6391411185
 21
-866.0175034653
 31
0.0
  0
LINE
  5
192
  8
0
  6
HIDDEN
 62
     7
 10
-160.6391411185
 20
1045.9824965347
 30
0.0
 11
-159.6391411185
 21
1045.9824965347
 31
0.0
  0
LINE
  5
193
  8
0
  6
HIDDEN
 62
     7
 10
-243.5671308029
 20
1060.9824965347
 30
0.0
 11
-231.711151434
 21
1060.9824965347
 31
0.0
  0
LINE
  5
194
  8
0
  6
HIDDEN
 62
     7
 10
-160.6391411185
 20
1060.9824965347
 30
0.0
 11
-159.6391411185
 21
1060.9824965347
 31
0.0
  0
LINE
  5
195
  8
0
  6
HIDDEN
 62
     7
 10
-145.6391411185
 20
-851.0175034653
 30
0.0
 11
-147.6391411185
 21
-851.0175034653
 31
0.0
  0
LINE
  5
196
  8
0
  6
HIDDEN
 62
     7
 10
-63.711151434
 20
-866.0175034653
 30
0.0
 11
-75.5671308029
 21
-866.0175034653
 31
0.0
  0
LINE
  5
197
  8
0
  6
HIDDEN
 62
     7
 10
-145.6391411185
 20
-866.0175034653
 30
0.0
 11
-147.6391411185
 21
-866.0175034653
 31
0.0
  0
LINE
  5
198
  8
0
  6
HIDDEN
 62
     7
 10
-145.6391411185
 20
1045.9824965347
 30
0.0
 11
-147.6391411185
 21
1045.9824965347
 31
0.0
  0
LINE
  5
199
  8
0
  6
HIDDEN
 62
     7
 10
-63.711151434
 20
1060.9824965347
 30
0.0
 11
-75.5671308029
 21
1060.9824965347
 31
0.0
  0
LINE
  5
19A
  8
0
  6
HIDDEN
 62
     7
 10
-145.6391411185
 20
1060.9824965347
 30
0.0
 11
-147.6391411185
 21
1060.9824965347
 31
0.0
  0
LINE
  5
19B
  8
0
  6
HIDDEN
 62
     7
 10
-172.1391411185
 20
84.9824965347
 30
0.0
 11
-163.1391411185
 21
84.9824965347
 31
0.0
  0
LINE
  5
19C
  8
0
  6
HIDDEN
 62
     7
 10
-163.1391411185
 20
84.9824965347
 30
0.0
 11
-163.1391411185
 21
93.9824965347
 31
0.0
  0
LINE
  5
19D
  8
0
  6
HIDDEN
 62
     7
 10
-163.1391411185
 20
93.9824965347
 30
0.0
 11
-172.1391411185
 21
93.9824965347
 31
0.0
  0
LINE
  5
19E
  8
0
  6
HIDDEN
 62
     7
 10
-172.1391411185
 20
93.9824965347
 30
0.0
 11
-172.1391411185
 21
84.9824965347
 31
0.0
  0
LINE
  5
19F
  8
0
  6
HIDDEN
 62
     7
 10
-149.6391411185
 20
-849.4576867421
 30
0.0
 11
-149.6391411185
 21
1044.4226798115
 31
0.0
  0
LINE
  5
1A0
  8
0
  6
HIDDEN
 62
     7
 10
-138.3891411185
 20
1083.4824965347
 30
0.0
 11
-138.3891411185
 21
1085.4824965347
 31
0.0
  0
LINE
  5
1A1
  8
0
  6
HIDDEN
 62
     7
 10
-145.5178207749
 20
1083.4824965347
 30
0.0
 11
-145.5178207749
 21
1085.4824965347
 31
0.0
  0
LINE
  5
1A2
  8
0
  6
HIDDEN
 62
     7
 10
-138.3891411185
 20
-888.5175034653
 30
0.0
 11
-138.3891411185
 21
-890.5175034653
 31
0.0
  0
LINE
  5
1A3
  8
0
  6
HIDDEN
 62
     7
 10
-138.3891411185
 20
1083.4824965347
 30
0.0
 11
-138.3891411185
 21
1085.4824965347
 31
0.0
  0
LINE
  5
1A4
  8
0
  6
HIDDEN
 62
     7
 10
431.1108588815
 20
1083.4824965347
 30
0.0
 11
431.1108588815
 21
1085.4824965347
 31
0.0
  0
LINE
  5
1A5
  8
0
  6
HIDDEN
 62
     7
 10
438.2395398832
 20
1083.4824965347
 30
0.0
 11
438.2395398832
 21
1085.4824965347
 31
0.0
  0
LINE
  5
1A6
  8
0
  6
HIDDEN
 62
     7
 10
-138.3891411185
 20
-888.5175034653
 30
0.0
 11
-138.3891411185
 21
-890.5175034653
 31
0.0
  0
LINE
  5
1A7
  8
0
  6
HIDDEN
 62
     7
 10
-145.5178207749
 20
-890.5175034653
 30
0.0
 11
-145.5178207749
 21
-888.5175034653
 31
0.0
  0
LINE
  5
1A8
  8
0
  6
HIDDEN
 62
     7
 10
431.1108588815
 20
-888.5175034653
 30
0.0
 11
431.1108588815
 21
-890.5175034653
 31
0.0
  0
LINE
  5
1A9
  8
0
  6
HIDDEN
 62
     7
 10
438.2395395347
 20
-888.5175034653
 30
0.0
 11
438.2395398832
 21
-890.5175034653
 31
0.0
  0
LINE
  5
1AA
  8
0
  6
HIDDEN
 62
     7
 10
431.110860401
 20
1083.4824965347
 30
0.0
 11
431.110860401
 21
1085.4824965347
 31
0.0
  0
LINE
  5
1AB
  8
0
  6
HIDDEN
 62
     7
 10
431.110860401
 20
-888.5175034653
 30
0.0
 11
431.110860401
 21
-890.5175034653
 31
0.0
  0
ARC
  5
1AC
  8
0
  6
HIDDEN
 62
     7
 10
-69.6391411185
 20
1064.4824965347
 30
0.0
 40
4.51683896619739
 50
240.4723436901
 51
299.5276563099
  0
ARC
  5
1AD
  8
0
  6
HIDDEN
 62
     7
 10
-69.6391411185
 20
-869.5175034653
 30
0.0
 40
4.516838966197492
 50
60.4723436901
 51
119.5276563099
  0
LINE
  5
1AE
  8
0
  6
HIDDEN
 62
     7
 10
-145.6391411185
 20
1085.4824972235
 30
0.0
 11
-145.6391411185
 21
1083.4824965347
 31
0.0
  0
LINE
  5
1AF
  8
0
  6
HIDDEN
 62
     7
 10
-145.5178207749
 20
1083.4824965347
 30
0.0
 11
-145.5178207749
 21
1085.4824965347
 31
0.0
  0
LINE
  5
1B0
  8
0
  6
HIDDEN
 62
     7
 10
-145.6391411185
 20
-890.5175034653
 30
0.0
 11
-145.6391411185
 21
-888.5175034653
 31
0.0
  0
LINE
  5
1B1
  8
0
  6
HIDDEN
 62
     7
 10
-145.5178207749
 20
-890.5175034653
 30
0.0
 11
-145.5178207749
 21
-888.5175034653
 31
0.0
  0
LINE
  5
1B2
  8
0
  6
HIDDEN
 62
     7
 10
-149.6391411185
 20
1081.4824965347
 30
0.0
 11
-147.6391411185
 21
1081.4824965347
 31
0.0
  0
LINE
  5
1B3
  8
0
  6
HIDDEN
 62
     7
 10
-149.6391411185
 20
-886.5175034653
 30
0.0
 11
-147.6391411185
 21
-886.5175034653
 31
0.0
  0
LINE
  5
1B4
  8
0
  6
HIDDEN
 62
     7
 10
438.360860401
 20
-888.5175034653
 30
0.0
 11
438.360860401
 21
-890.5175041541
 31
0.0
  0
LINE
  5
1B5
  8
0
  6
HIDDEN
 62
     7
 10
438.2395398832
 20
-888.5175034653
 30
0.0
 11
438.2395398832
 21
-890.5175034653
 31
0.0
  0
LINE
  5
1B6
  8
0
  6
HIDDEN
 62
     7
 10
440.360860401
 20
-886.5175034653
 30
0.0
 11
442.3608610898
 21
-886.5175034653
 31
0.0
  0
LINE
  5
1B7
  8
0
  6
HIDDEN
 62
     7
 10
440.360860401
 20
1081.4824965347
 30
0.0
 11
442.360860401
 21
1081.4824965347
 31
0.0
  0
LINE
  5
1B8
  8
0
  6
HIDDEN
 62
     7
 10
438.360860401
 20
1083.4824965347
 30
0.0
 11
438.360860401
 21
1085.4824965347
 31
0.0
  0
LINE
  5
1B9
  8
0
  6
HIDDEN
 62
     7
 10
438.2395398832
 20
1083.4824965347
 30
0.0
 11
438.2395398832
 21
1085.4824965347
 31
0.0
  0
POLYLINE
  5
1BA
  8
0
  6
HIDDEN
 62
     7
 66
     1
 10
0.0
 20
0.0
 30
0.0
  0
VERTEX
  5
515
  8
0
  6
HIDDEN
 62
     7
 10
-147.4213839886
 20
-885.6675837629
 30
0.0
  0
VERTEX
  5
516
  8
0
  6
HIDDEN
 62
     7
 10
-147.9020773844
 20
-885.5651391158
 30
0.0
  0
VERTEX
  5
517
  8
0
  6
HIDDEN
 62
     7
 10
-148.4675721301
 20
-885.5175025298
 30
0.0
  0
VERTEX
  5
518
  8
0
  6
HIDDEN
 62
     7
 10
-148.9385223197
 20
-885.56535793
 30
0.0
  0
VERTEX
  5
519
  8
0
  6
HIDDEN
 62
     7
 10
-149.3100776418
 20
-885.7086318897
 30
0.0
  0
VERTEX
  5
51A
  8
0
  6
HIDDEN
 62
     7
 10
-149.5527847848
 20
-885.947324409
 30
0.0
  0
VERTEX
  5
51B
  8
0
  6
HIDDEN
 62
     7
 10
-149.6391413125
 20
-886.2814354878
 30
0.0
  0
SEQEND
  5
514
  8
0
  6
HIDDEN
 62
     7
  0
POLYLINE
  5
1BB
  8
0
  6
HIDDEN
 62
     7
 66
     1
 10
0.0
 20
0.0
 30
0.0
  0
VERTEX
  5
51D
  8
0
  6
HIDDEN
 62
     7
 10
-149.6391413125
 20
1081.2464285572
 30
0.0
  0
VERTEX
  5
51E
  8
0
  6
HIDDEN
 62
     7
 10
-149.5527847847
 20
1080.9123174782
 30
0.0
  0
VERTEX
  5
51F
  8
0
  6
HIDDEN
 62
     7
 10
-149.3100776416
 20
1080.6736249588
 30
0.0
  0
VERTEX
  5
520
  8
0
  6
HIDDEN
 62
     7
 10
-148.9385223195
 20
1080.5303509992
 30
0.0
  0
VERTEX
  5
521
  8
0
  6
HIDDEN
 62
     7
 10
-148.4675721301
 20
1080.4824955992
 30
0.0
  0
VERTEX
  5
522
  8
0
  6
HIDDEN
 62
     7
 10
-147.9020773841
 20
1080.5301321854
 30
0.0
  0
VERTEX
  5
523
  8
0
  6
HIDDEN
 62
     7
 10
-147.4213839889
 20
1080.6325768323
 30
0.0
  0
SEQEND
  5
51C
  8
0
  6
HIDDEN
 62
     7
  0
POLYLINE
  5
1BC
  8
0
  6
HIDDEN
 62
     7
 66
     1
 10
0.0
 20
0.0
 30
0.0
  0
VERTEX
  5
525
  8
0
  6
HIDDEN
 62
     7
 10
-145.6391411185
 20
1081.2464285572
 30
0.0
  0
VERTEX
  5
526
  8
0
  6
HIDDEN
 62
     7
 10
-145.6391411185
 20
1081.2464285572
 30
0.0
  0
SEQEND
  5
524
  8
0
  6
HIDDEN
 62
     7
  0
LINE
  5
1BD
  8
0
  6
HIDDEN
 62
     7
 10
-147.6391411185
 20
1081.2464285572
 30
0.0
 11
-149.6391413125
 21
1081.2464285572
 31
0.0
  0
POLYLINE
  5
1BE
  8
0
  6
HIDDEN
 62
     7
 66
     1
 10
0.0
 20
0.0
 30
0.0
  0
VERTEX
  5
528
  8
0
  6
HIDDEN
 62
     7
 10
-145.6391411185
 20
-886.2814354878
 30
0.0
  0
VERTEX
  5
529
  8
0
  6
HIDDEN
 62
     7
 10
-145.6391411185
 20
-886.2814354878
 30
0.0
  0
SEQEND
  5
527
  8
0
  6
HIDDEN
 62
     7
  0
LINE
  5
1BF
  8
0
  6
HIDDEN
 62
     7
 10
-149.6391411185
 20
-886.2814354878
 30
0.0
 11
-147.6391411185
 21
-886.2814354878
 31
0.0
  0
LINE
  5
1C0
  8
0
  6
HIDDEN
 62
     7
 10
-147.6295107649
 20
-860.5175034653
 30
0.0
 11
-147.6295107649
 21
-858.5175034653
 31
0.0
  0
LINE
  5
1C1
  8
0
  6
HIDDEN
 62
     7
 10
-147.6295107649
 20
1053.4824965347
 30
0.0
 11
-147.6295107649
 21
1055.4824965347
 31
0.0
  0
POLYLINE
  5
1C2
  8
0
  6
HIDDEN
 62
     7
 66
     1
 10
0.0
 20
0.0
 30
0.0
  0
VERTEX
  5
52B
  8
0
  6
HIDDEN
 62
     7
 10
-144.7891189334
 20
1083.2644646372
 30
0.0
  0
VERTEX
  5
52C
  8
0
  6
HIDDEN
 62
     7
 10
-144.6869955851
 20
1083.7439233828
 30
0.0
  0
VERTEX
  5
52D
  8
0
  6
HIDDEN
 62
     7
 10
-144.639140183
 20
1084.3109203969
 30
0.0
  0
VERTEX
  5
52E
  8
0
  6
HIDDEN
 62
     7
 10
-144.6867767708
 20
1084.7808428075
 30
0.0
  0
VERTEX
  5
52F
  8
0
  6
HIDDEN
 62
     7
 10
-144.8299777931
 20
1085.1524654207
 30
0.0
  0
VERTEX
  5
530
  8
0
  6
HIDDEN
 62
     7
 10
-145.0687432498
 20
1085.3957630281
 30
0.0
  0
VERTEX
  5
531
  8
0
  6
HIDDEN
 62
     7
 10
-145.403073141
 20
1085.4824972235
 30
0.0
  0
SEQEND
  5
52A
  8
0
  6
HIDDEN
 62
     7
  0
POLYLINE
  5
1C3
  8
0
  6
HIDDEN
 62
     7
 66
     1
 10
0.0
 20
0.0
 30
0.0
  0
VERTEX
  5
533
  8
0
  6
HIDDEN
 62
     7
 10
-145.403073141
 20
1081.4824965347
 30
0.0
  0
VERTEX
  5
534
  8
0
  6
HIDDEN
 62
     7
 10
-145.403073141
 20
1081.4824965347
 30
0.0
  0
SEQEND
  5
532
  8
0
  6
HIDDEN
 62
     7
  0
LINE
  5
1C4
  8
0
  6
HIDDEN
 62
     7
 10
-145.403073141
 20
1083.4824965347
 30
0.0
 11
-145.403073141
 21
1085.4824965347
 31
0.0
  0
POLYLINE
  5
1C5
  8
0
  6
HIDDEN
 62
     7
 66
     1
 10
0.0
 20
0.0
 30
0.0
  0
VERTEX
  5
536
  8
0
  6
HIDDEN
 62
     7
 10
438.1247924235
 20
1085.4824972235
 30
0.0
  0
VERTEX
  5
537
  8
0
  6
HIDDEN
 62
     7
 10
437.7906813448
 20
1085.3961406847
 30
0.0
  0
VERTEX
  5
538
  8
0
  6
HIDDEN
 62
     7
 10
437.5519888256
 20
1085.1534335112
 30
0.0
  0
VERTEX
  5
539
  8
0
  6
HIDDEN
 62
     7
 10
437.4087148658
 20
1084.781878143
 30
0.0
  0
VERTEX
  5
53A
  8
0
  6
HIDDEN
 62
     7
 10
437.3608594655
 20
1084.3109278961
 30
0.0
  0
VERTEX
  5
53B
  8
0
  6
HIDDEN
 62
     7
 10
437.4084960513
 20
1083.7454330822
 30
0.0
  0
VERTEX
  5
53C
  8
0
  6
HIDDEN
 62
     7
 10
437.5109406621
 20
1083.2647397976
 30
0.0
  0
SEQEND
  5
535
  8
0
  6
HIDDEN
 62
     7
  0
POLYLINE
  5
1C6
  8
0
  6
HIDDEN
 62
     7
 66
     1
 10
0.0
 20
0.0
 30
0.0
  0
VERTEX
  5
53E
  8
0
  6
HIDDEN
 62
     7
 10
438.1247924235
 20
1081.4824965347
 30
0.0
  0
VERTEX
  5
53F
  8
0
  6
HIDDEN
 62
     7
 10
438.1247924235
 20
1081.4824965347
 30
0.0
  0
SEQEND
  5
53D
  8
0
  6
HIDDEN
 62
     7
  0
LINE
  5
1C7
  8
0
  6
HIDDEN
 62
     7
 10
438.1247924235
 20
1085.4824972235
 30
0.0
 11
438.1247924235
 21
1083.4824965347
 31
0.0
  0
POLYLINE
  5
1C8
  8
0
  6
HIDDEN
 62
     7
 66
     1
 10
0.0
 20
0.0
 30
0.0
  0
VERTEX
  5
541
  8
0
  6
HIDDEN
 62
     7
 10
438.360860401
 20
1081.2464285572
 30
0.0
  0
VERTEX
  5
542
  8
0
  6
HIDDEN
 62
     7
 10
438.360860401
 20
1081.2464285572
 30
0.0
  0
SEQEND
  5
540
  8
0
  6
HIDDEN
 62
     7
  0
POLYLINE
  5
1C9
  8
0
  6
HIDDEN
 62
     7
 66
     1
 10
0.0
 20
0.0
 30
0.0
  0
VERTEX
  5
544
  8
0
  6
HIDDEN
 62
     7
 10
440.1428303855
 20
1080.6324761252
 30
0.0
  0
VERTEX
  5
545
  8
0
  6
HIDDEN
 62
     7
 10
440.6222947457
 20
1080.5303509994
 30
0.0
  0
VERTEX
  5
546
  8
0
  6
HIDDEN
 62
     7
 10
441.1892839279
 20
1080.4824955992
 30
0.0
  0
VERTEX
  5
547
  8
0
  6
HIDDEN
 62
     7
 10
441.6592062839
 20
1080.530132187
 30
0.0
  0
VERTEX
  5
548
  8
0
  6
HIDDEN
 62
     7
 10
442.030828853
 20
1080.6733332093
 30
0.0
  0
VERTEX
  5
549
  8
0
  6
HIDDEN
 62
     7
 10
442.274126431
 20
1080.912098666
 30
0.0
  0
VERTEX
  5
54A
  8
0
  6
HIDDEN
 62
     7
 10
442.3608606157
 20
1081.2464285572
 30
0.0
  0
SEQEND
  5
543
  8
0
  6
HIDDEN
 62
     7
  0
LINE
  5
1CA
  8
0
  6
HIDDEN
 62
     7
 10
442.360860401
 20
1081.2464285572
 30
0.0
 11
440.360860401
 21
1081.2464285572
 31
0.0
  0
POLYLINE
  5
1CB
  8
0
  6
HIDDEN
 62
     7
 66
     1
 10
0.0
 20
0.0
 30
0.0
  0
VERTEX
  5
54C
  8
0
  6
HIDDEN
 62
     7
 10
442.3608606157
 20
-886.2814354878
 30
0.0
  0
VERTEX
  5
54D
  8
0
  6
HIDDEN
 62
     7
 10
442.2741264311
 20
-885.9471055966
 30
0.0
  0
VERTEX
  5
54E
  8
0
  6
HIDDEN
 62
     7
 10
442.0308288531
 20
-885.7083401398
 30
0.0
  0
VERTEX
  5
54F
  8
0
  6
HIDDEN
 62
     7
 10
441.659206284
 20
-885.5651391176
 30
0.0
  0
VERTEX
  5
550
  8
0
  6
HIDDEN
 62
     7
 10
441.1892839279
 20
-885.5175025298
 30
0.0
  0
VERTEX
  5
551
  8
0
  6
HIDDEN
 62
     7
 10
440.6222947453
 20
-885.5653579302
 30
0.0
  0
VERTEX
  5
552
  8
0
  6
HIDDEN
 62
     7
 10
440.1428303857
 20
-885.6674830558
 30
0.0
  0
SEQEND
  5
54B
  8
0
  6
HIDDEN
 62
     7
  0
POLYLINE
  5
1CC
  8
0
  6
HIDDEN
 62
     7
 66
     1
 10
0.0
 20
0.0
 30
0.0
  0
VERTEX
  5
554
  8
0
  6
HIDDEN
 62
     7
 10
438.360860401
 20
-886.2814354878
 30
0.0
  0
VERTEX
  5
555
  8
0
  6
HIDDEN
 62
     7
 10
438.360860401
 20
-886.2814354878
 30
0.0
  0
SEQEND
  5
553
  8
0
  6
HIDDEN
 62
     7
  0
LINE
  5
1CD
  8
0
  6
HIDDEN
 62
     7
 10
440.360860401
 20
-886.2814354878
 30
0.0
 11
442.3608606157
 21
-886.2814354878
 31
0.0
  0
POLYLINE
  5
1CE
  8
0
  6
HIDDEN
 62
     7
 66
     1
 10
0.0
 20
0.0
 30
0.0
  0
VERTEX
  5
557
  8
0
  6
HIDDEN
 62
     7
 10
-145.403073141
 20
-890.5175041541
 30
0.0
  0
VERTEX
  5
558
  8
0
  6
HIDDEN
 62
     7
 10
-145.0687432498
 20
-890.4307699588
 30
0.0
  0
VERTEX
  5
559
  8
0
  6
HIDDEN
 62
     7
 10
-144.8299777931
 20
-890.1874723513
 30
0.0
  0
VERTEX
  5
55A
  8
0
  6
HIDDEN
 62
     7
 10
-144.6867767708
 20
-889.8158497381
 30
0.0
  0
VERTEX
  5
55B
  8
0
  6
HIDDEN
 62
     7
 10
-144.639140183
 20
-889.3459273275
 30
0.0
  0
VERTEX
  5
55C
  8
0
  6
HIDDEN
 62
     7
 10
-144.6869955832
 20
-888.7789380796
 30
0.0
  0
VERTEX
  5
55D
  8
0
  6
HIDDEN
 62
     7
 10
-144.7891206742
 20
-888.2994738265
 30
0.0
  0
SEQEND
  5
556
  8
0
  6
HIDDEN
 62
     7
  0
POLYLINE
  5
1CF
  8
0
  6
HIDDEN
 62
     7
 66
     1
 10
0.0
 20
0.0
 30
0.0
  0
VERTEX
  5
55F
  8
0
  6
HIDDEN
 62
     7
 10
-145.403073141
 20
-886.5175034653
 30
0.0
  0
VERTEX
  5
560
  8
0
  6
HIDDEN
 62
     7
 10
-145.403073141
 20
-886.5175034653
 30
0.0
  0
SEQEND
  5
55E
  8
0
  6
HIDDEN
 62
     7
  0
LINE
  5
1D0
  8
0
  6
HIDDEN
 62
     7
 10
-145.403073141
 20
-888.5175034653
 30
0.0
 11
-145.403073141
 21
-890.5175041541
 31
0.0
  0
POLYLINE
  5
1D1
  8
0
  6
HIDDEN
 62
     7
 66
     1
 10
0.0
 20
0.0
 30
0.0
  0
VERTEX
  5
562
  8
0
  6
HIDDEN
 62
     7
 10
437.5109424296
 20
-888.2997490202
 30
0.0
  0
VERTEX
  5
563
  8
0
  6
HIDDEN
 62
     7
 10
437.4084960533
 20
-888.7804478692
 30
0.0
  0
VERTEX
  5
564
  8
0
  6
HIDDEN
 62
     7
 10
437.3608594655
 20
-889.3459348267
 30
0.0
  0
VERTEX
  5
565
  8
0
  6
HIDDEN
 62
     7
 10
437.4087148658
 20
-889.8168850736
 30
0.0
  0
VERTEX
  5
566
  8
0
  6
HIDDEN
 62
     7
 10
437.5519888255
 20
-890.1884404417
 30
0.0
  0
VERTEX
  5
567
  8
0
  6
HIDDEN
 62
     7
 10
437.7906813448
 20
-890.4311476153
 30
0.0
  0
VERTEX
  5
568
  8
0
  6
HIDDEN
 62
     7
 10
438.1247924235
 20
-890.5175041541
 30
0.0
  0
SEQEND
  5
561
  8
0
  6
HIDDEN
 62
     7
  0
POLYLINE
  5
1D2
  8
0
  6
HIDDEN
 62
     7
 66
     1
 10
0.0
 20
0.0
 30
0.0
  0
VERTEX
  5
56A
  8
0
  6
HIDDEN
 62
     7
 10
438.1247924235
 20
-886.5175034653
 30
0.0
  0
VERTEX
  5
56B
  8
0
  6
HIDDEN
 62
     7
 10
438.1247924235
 20
-886.5175034653
 30
0.0
  0
SEQEND
  5
569
  8
0
  6
HIDDEN
 62
     7
  0
LINE
  5
1D3
  8
0
  6
HIDDEN
 62
     7
 10
438.1247924235
 20
-890.5175034653
 30
0.0
 11
438.1247924235
 21
-888.5175034653
 31
0.0
  0
LINE
  5
1D4
  8
0
  6
HIDDEN
 62
     7
 10
-744.6395704931
 20
-889.5966410206
 30
0.0
 11
-744.6395704932
 21
-888.210549069
 31
0.0
  0
LINE
  5
1D5
  8
0
  6
HIDDEN
 62
     7
 10
-744.6395704866
 20
-888.2105974495
 30
0.0
 11
-744.6395704865
 21
-889.5967880871
 31
0.0
  0
LINE
  5
1D6
  8
0
  6
HIDDEN
 62
     7
 10
-747.3600072729
 20
-885.5179328347
 30
0.0
 11
-748.8017469699
 21
-885.517932835
 31
0.0
  0
LINE
  5
1D7
  8
0
  6
HIDDEN
 62
     7
 10
-748.8018419925
 20
1080.4829217754
 30
0.0
 11
-747.3600368737
 21
1080.4829217769
 31
0.0
  0
LINE
  5
1D8
  8
0
  6
HIDDEN
 62
     7
 10
-744.6395663406
 20
1084.5614546384
 30
0.0
 11
-744.6395663412
 21
1083.1754871144
 31
0.0
  0
LINE
  5
1D9
  8
0
  6
HIDDEN
 62
     7
 10
-744.6395663453
 20
1083.1755100555
 30
0.0
 11
-744.6395663452
 21
1084.5615340039
 31
0.0
  0
LINE
  5
1DA
  8
0
  6
HIDDEN
 62
     7
 10
-162.6387117491
 20
-888.2383699696
 30
0.0
 11
-162.6387117488
 21
-889.6801096678
 31
0.0
  0
LINE
  5
1DB
  8
0
  6
HIDDEN
 62
     7
 10
-162.6387158846
 20
1084.6451979764
 30
0.0
 11
-162.6387158831
 21
1083.2033927089
 31
0.0
  0
LINE
  5
1DC
  8
0
  6
HIDDEN
 62
     7
 10
-159.9461269456
 20
1080.4829217681
 30
0.0
 11
-158.5601010233
 21
1080.482921768
 31
0.0
  0
LINE
  5
1DD
  8
0
  6
HIDDEN
 62
     7
 10
-158.5600038987
 20
-885.5179328399
 30
0.0
 11
-159.9460958504
 21
-885.51793284
 31
0.0
  0
LINE
  5
1DE
  8
0
  6
HIDDEN
 62
     7
 10
-159.9460474699
 20
-885.5179328335
 30
0.0
 11
-158.5598568322
 21
-885.5179328334
 31
0.0
  0
LINE
  5
1DF
  8
0
  6
HIDDEN
 62
     7
 10
-148.4667962156
 20
1080.4824954882
 30
0.0
 11
-147.0529687402
 21
1080.4824954882
 31
0.0
  0
LINE
  5
1E0
  8
0
  6
HIDDEN
 62
     7
 10
-147.0529687349
 20
1080.4824954882
 30
0.0
 11
-148.4667962104
 21
1080.4824954882
 31
0.0
  0
LINE
  5
1E1
  8
0
  6
HIDDEN
 62
     7
 10
-148.4667910067
 20
-885.5175024181
 30
0.0
 11
-147.0529661333
 21
-885.5175024181
 31
0.0
  0
LINE
  5
1E2
  8
0
  6
HIDDEN
 62
     7
 10
-147.0529661395
 20
-885.5175024181
 30
0.0
 11
-148.4667910134
 21
-885.5175024181
 31
0.0
  0
LINE
  5
1E3
  8
0
  6
HIDDEN
 62
     7
 10
-144.639140072
 20
1082.8970965323
 30
0.0
 11
-144.639140072
 21
1084.3116960645
 31
0.0
  0
LINE
  5
1E4
  8
0
  6
HIDDEN
 62
     7
 10
437.3608593545
 20
1084.310151979
 30
0.0
 11
437.3608593545
 21
1082.8963245049
 31
0.0
  0
LINE
  5
1E5
  8
0
  6
HIDDEN
 62
     7
 10
437.3608593545
 20
1082.8963244995
 30
0.0
 11
437.3608593545
 21
1084.3101519737
 31
0.0
  0
LINE
  5
1E6
  8
0
  6
HIDDEN
 62
     7
 10
439.7754600633
 20
1080.4824954882
 30
0.0
 11
441.1900595954
 21
1080.4824954882
 31
0.0
  0
LINE
  5
1E7
  8
0
  6
HIDDEN
 62
     7
 10
441.190064823
 20
-885.5175024181
 30
0.0
 11
439.7754626767
 21
-885.5175024181
 31
0.0
  0
LINE
  5
1E8
  8
0
  6
HIDDEN
 62
     7
 10
-144.6391400713
 20
-889.346708222
 30
0.0
 11
-144.6391400713
 21
-887.932106076
 31
0.0
  0
LINE
  5
1E9
  8
0
  6
HIDDEN
 62
     7
 10
437.3608593538
 20
-887.9313288356
 30
0.0
 11
437.3608593538
 21
-889.3451537091
 31
0.0
  0
LINE
  5
1EA
  8
0
  6
CONTINUOUS
 62
     7
 10
613.0102568015
 20
-794.5175034653
 30
0.0
 11
614.0102568015
 21
-794.5175034653
 31
0.0
  0
LINE
  5
1EB
  8
0
  6
CONTINUOUS
 62
     7
 10
614.0102568015
 20
-786.5175034653
 30
0.0
 11
613.0102568015
 21
-786.5175034653
 31
0.0
  0
LINE
  5
1EC
  8
0
  6
CONTINUOUS
 62
     7
 10
614.0102568015
 20
-794.5175034653
 30
0.0
 11
614.5102568015
 21
-794.0175034653
 31
0.0
  0
LINE
  5
1ED
  8
0
  6
CONTINUOUS
 62
     7
 10
614.5102568015
 20
-787.0175034653
 30
0.0
 11
614.0102568015
 21
-786.5175034653
 31
0.0
  0
LINE
  5
1EE
  8
0
  6
CONTINUOUS
 62
     7
 10
613.0102568015
 20
-890.5175041548
 30
0.0
 11
613.0102568015
 21
-887.5175034653
 31
0.0
  0
LINE
  5
1EF
  8
0
  6
CONTINUOUS
 62
     7
 10
613.0102568015
 20
-890.5175034653
 30
0.0
 11
597.3386839263
 21
-890.5175034653
 31
0.0
  0
ARC
  5
1F0
  8
0
  6
CONTINUOUS
 62
     7
 10
591.176359827
 20
-889.0175038101
 30
0.0
 40
6.342258220737495
 50
346.3194176202
 51
13.6805823798
  0
LINE
  5
1F1
  8
0
  6
CONTINUOUS
 62
     7
 10
613.0102568015
 20
-887.5175034653
 30
0.0
 11
613.0102568015
 21
1082.4824965347
 31
0.0
  0
ARC
  5
1F2
  8
0
  6
CONTINUOUS
 62
     7
 10
594.5102568015
 20
1083.4824965347
 30
0.0
 40
3.000000000000129
 50
289.4712206345
 51
340.5287793655
  0
ARC
  5
1F3
  8
0
  6
CONTINUOUS
 62
     7
 10
594.5102568015
 20
-888.5175034653
 30
0.0
 40
2.999999999999952
 50
19.4712206345
 51
70.5287793655
  0
LINE
  5
1F4
  8
0
  6
CONTINUOUS
 62
     7
 10
597.3386839263
 20
-890.5175034653
 30
0.0
 11
597.3386839263
 21
-888.5175034653
 31
0.0
  0
LINE
  5
1F5
  8
0
  6
CONTINUOUS
 62
     7
 10
597.3386839263
 20
1085.4824972242
 30
0.0
 11
597.3386839263
 21
1083.4824965347
 31
0.0
  0
ARC
  5
1F6
  8
0
  6
CONTINUOUS
 62
     7
 10
591.1764400696
 20
1083.9824968794
 30
0.0
 40
6.34218025472145
 50
346.3192461707
 51
13.6807538293
  0
LINE
  5
1F7
  8
0
  6
CONTINUOUS
 62
     7
 10
613.0102568015
 20
1082.4824965347
 30
0.0
 11
613.0102568015
 21
1085.4824965347
 31
0.0
  0
LINE
  5
1F8
  8
0
  6
CONTINUOUS
 62
     7
 10
613.0102568015
 20
1085.4824965347
 30
0.0
 11
597.3386839263
 21
1085.4824965347
 31
0.0
  0
ARC
  5
1F9
  8
0
  6
CONTINUOUS
 62
     7
 10
594.010256699
 20
1086.7255010716
 30
0.0
 40
6.253981350327235
 50
256.1224760751
 51
283.8775239249
  0
ARC
  5
1FA
  8
0
  6
CONTINUOUS
 62
     7
 10
594.010256699
 20
-891.760507999
 30
0.0
 40
6.253981347168933
 50
76.122476068
 51
103.877523932
  0
LINE
  5
1FB
  8
0
  6
CONTINUOUS
 62
     7
 10
592.5102568015
 20
1080.6540694099
 30
0.0
 11
592.5102568015
 21
-885.6890763406
 31
0.0
  0
LINE
  5
1FC
  8
0
  6
CONTINUOUS
 62
     7
 10
594.5102568015
 20
1080.6540694099
 30
0.0
 11
592.5102565964
 21
1080.6540694099
 31
0.0
  0
LINE
  5
1FD
  8
0
  6
CONTINUOUS
 62
     7
 10
592.5102568015
 20
-885.6890763406
 30
0.0
 11
594.5102568015
 21
-885.6890763406
 31
0.0
  0
LINE
  5
1FE
  8
0
  6
CONTINUOUS
 62
     7
 10
597.3386839263
 20
1083.4824965347
 30
0.0
 11
596.6315771451
 21
1083.4824965347
 31
0.0
  0
LINE
  5
1FF
  8
0
  6
CONTINUOUS
 62
     7
 10
596.6315771451
 20
1083.4824965347
 30
0.0
 11
596.6315771451
 21
1085.4824965347
 31
0.0
  0
LINE
  5
200
  8
0
  6
CONTINUOUS
 62
     7
 10
597.3386839263
 20
1085.4824965347
 30
0.0
 11
596.6315771451
 21
1085.4824965347
 31
0.0
  0
LINE
  5
201
  8
0
  6
CONTINUOUS
 62
     7
 10
592.5102568015
 20
1082.4824965347
 30
0.0
 11
592.5102568015
 21
1080.6540694099
 31
0.0
  0
LINE
  5
202
  8
0
  6
CONTINUOUS
 62
     7
 10
594.5102568015
 20
1082.4824965347
 30
0.0
 11
592.510256112
 21
1082.4824965347
 31
0.0
  0
LINE
  5
203
  8
0
  6
CONTINUOUS
 62
     7
 10
594.5102568015
 20
1082.4824965347
 30
0.0
 11
594.5102568015
 21
1080.6540694099
 31
0.0
  0
LINE
  5
204
  8
0
  6
CONTINUOUS
 62
     7
 10
594.5102568015
 20
-887.5175034653
 30
0.0
 11
592.510256112
 21
-887.5175034653
 31
0.0
  0
LINE
  5
205
  8
0
  6
CONTINUOUS
 62
     7
 10
592.5102568015
 20
-887.5175034653
 30
0.0
 11
592.5102568015
 21
-885.6890763406
 31
0.0
  0
LINE
  5
206
  8
0
  6
CONTINUOUS
 62
     7
 10
594.5102568015
 20
-887.5175034653
 30
0.0
 11
594.5102568015
 21
-885.6890763406
 31
0.0
  0
LINE
  5
207
  8
0
  6
CONTINUOUS
 62
     7
 10
596.6315771451
 20
-890.5175034653
 30
0.0
 11
596.6315771451
 21
-888.5175034653
 31
0.0
  0
LINE
  5
208
  8
0
  6
CONTINUOUS
 62
     7
 10
597.3386839263
 20
-888.5175034653
 30
0.0
 11
596.6315771451
 21
-888.5175034653
 31
0.0
  0
LINE
  5
209
  8
0
  6
CONTINUOUS
 62
     7
 10
597.3386839263
 20
-890.5175034653
 30
0.0
 11
596.6315771451
 21
-890.5175034653
 31
0.0
  0
LINE
  5
20A
  8
0
  6
CONTINUOUS
 62
     7
 10
596.6315771451
 20
1083.4824965347
 30
0.0
 11
596.6315771451
 21
1085.4824965347
 31
0.0
  0
LINE
  5
20B
  8
0
  6
CONTINUOUS
 62
     7
 10
595.5102568015
 20
1083.4824965347
 30
0.0
 11
595.5102568015
 21
1085.4824965347
 31
0.0
  0
LINE
  5
20C
  8
0
  6
CONTINUOUS
 62
     7
 10
596.6315771451
 20
1085.4824965347
 30
0.0
 11
595.5102568015
 21
1085.4824965347
 31
0.0
  0
LINE
  5
20D
  8
0
  6
CONTINUOUS
 62
     7
 10
596.6315771451
 20
1083.4824965347
 30
0.0
 11
595.5102568015
 21
1083.4824965347
 31
0.0
  0
LINE
  5
20E
  8
0
  6
CONTINUOUS
 62
     7
 10
596.6315771451
 20
-890.5175034653
 30
0.0
 11
596.6315771451
 21
-888.5175034653
 31
0.0
  0
LINE
  5
20F
  8
0
  6
CONTINUOUS
 62
     7
 10
595.5102568015
 20
-888.5175034653
 30
0.0
 11
595.5102568015
 21
-890.5175041548
 31
0.0
  0
LINE
  5
210
  8
0
  6
CONTINUOUS
 62
     7
 10
596.6315771451
 20
-888.5175034653
 30
0.0
 11
595.5102568015
 21
-888.5175034653
 31
0.0
  0
LINE
  5
211
  8
0
  6
CONTINUOUS
 62
     7
 10
596.6315771451
 20
-890.5175034653
 30
0.0
 11
595.5102568015
 21
-890.5175034653
 31
0.0
  0
ARC
  5
212
  8
0
  6
CONTINUOUS
 62
     7
 10
595.5102568015
 20
1082.4824965347
 30
0.0
 40
3.00000068949339
 50
90.0
 51
180.0
  0
ARC
  5
213
  8
0
  6
CONTINUOUS
 62
     7
 10
595.5102568015
 20
1082.4824965347
 30
0.0
 40
1.00000068949339
 50
90.0
 51
180.0
  0
ARC
  5
214
  8
0
  6
CONTINUOUS
 62
     7
 10
595.5102568015
 20
-887.5175034653
 30
0.0
 40
3.000000689493049
 50
180.0
 51
270.0
  0
ARC
  5
215
  8
0
  6
CONTINUOUS
 62
     7
 10
595.5102568015
 20
-887.5175034653
 30
0.0
 40
1.000000689493163
 50
180.0
 51
270.0
  0
LINE
  5
216
  8
0
  6
CONTINUOUS
 62
     7
 10
613.0102568015
 20
-849.0175034653
 30
0.0
 11
617.5102568015
 21
-849.0175034653
 31
0.0
  0
LINE
  5
217
  8
0
  6
CONTINUOUS
 62
     7
 10
613.0102568015
 20
1043.9824965347
 30
0.0
 11
617.5102568015
 21
1043.9824965347
 31
0.0
  0
LINE
  5
218
  8
0
  6
CONTINUOUS
 62
     7
 10
617.5102568015
 20
84.9824965347
 30
0.0
 11
617.0102568015
 21
84.9824965347
 31
0.0
  0
LINE
  5
219
  8
0
  6
CONTINUOUS
 62
     7
 10
617.0102568015
 20
84.9824965347
 30
0.0
 11
617.0102568015
 21
93.9824965347
 31
0.0
  0
LINE
  5
21A
  8
0
  6
CONTINUOUS
 62
     7
 10
617.5102568015
 20
93.9824965347
 30
0.0
 11
617.0102568015
 21
93.9824965347
 31
0.0
  0
ARC
  5
21B
  8
0
  6
CONTINUOUS
 62
     7
 10
617.5102568015
 20
82.4199965347
 30
0.0
 40
2.562499999989253
 50
12.6803834918
 51
38.6947399219
  0
ARC
  5
21C
  8
0
  6
CONTINUOUS
 62
     7
 10
617.5102568015
 20
96.5449965347
 30
0.0
 40
2.562499999989093
 50
321.3052600781
 51
347.3196165082
  0
LINE
  5
21D
  8
0
  6
CONTINUOUS
 62
     7
 10
620.5102568015
 20
95.9824965347
 30
0.0
 11
620.0102568015
 21
95.9824965347
 31
0.0
  0
LINE
  5
21E
  8
0
  6
CONTINUOUS
 62
     7
 10
620.0102568015
 20
82.9824965347
 30
0.0
 11
620.5102568015
 21
82.9824965347
 31
0.0
  0
LINE
  5
21F
  8
0
  6
CONTINUOUS
 62
     7
 10
624.5102568015
 20
95.9824965347
 30
0.0
 11
620.5102568015
 21
95.9824965347
 31
0.0
  0
LINE
  5
220
  8
0
  6
CONTINUOUS
 62
     7
 10
624.5102568015
 20
82.9824965347
 30
0.0
 11
620.5102568015
 21
82.9824965347
 31
0.0
  0
LINE
  5
221
  8
0
  6
CONTINUOUS
 62
     7
 10
624.5102568015
 20
82.9824965347
 30
0.0
 11
625.5102568015
 21
82.9824965347
 31
0.0
  0
LINE
  5
222
  8
0
  6
CONTINUOUS
 62
     7
 10
625.5102568015
 20
82.9824965347
 30
0.0
 11
625.5102568015
 21
95.9824965347
 31
0.0
  0
LINE
  5
223
  8
0
  6
CONTINUOUS
 62
     7
 10
625.5102568015
 20
95.9824965347
 30
0.0
 11
624.5102568015
 21
95.9824965347
 31
0.0
  0
LINE
  5
224
  8
0
  6
CONTINUOUS
 62
     7
 10
614.0102568015
 20
-794.5175034653
 30
0.0
 11
614.0102568015
 21
-786.5175034653
 31
0.0
  0
LINE
  5
225
  8
0
  6
CONTINUOUS
 62
     7
 10
614.5102568015
 20
-794.0175034653
 30
0.0
 11
614.5102568015
 21
-787.0175034653
 31
0.0
  0
LINE
  5
226
  8
0
  6
CONTINUOUS
 62
     7
 10
617.5102568015
 20
-849.0175034653
 30
0.0
 11
617.5102568015
 21
1043.9824965347
 31
0.0
  0
LINE
  5
227
  8
0
  6
CONTINUOUS
 62
     7
 10
619.5102568015
 20
1043.9824965347
 30
0.0
 11
617.5102568015
 21
1043.9824965347
 31
0.0
  0
LINE
  5
228
  8
0
  6
CONTINUOUS
 62
     7
 10
619.5102568015
 20
-849.0175034653
 30
0.0
 11
619.5102568015
 21
1043.9824965347
 31
0.0
  0
LINE
  5
229
  8
0
  6
CONTINUOUS
 62
     7
 10
619.5102568015
 20
-849.0175034653
 30
0.0
 11
617.5102568015
 21
-849.0175034653
 31
0.0
  0
ARC
  5
22A
  8
0
  6
CONTINUOUS
 62
     7
 10
608.0112986492
 20
986.9304061496
 30
0.0
 40
57.97927133189889
 50
79.7396077872
 51
82.568625409
  0
ARC
  5
22B
  8
0
  6
CONTINUOUS
 62
     7
 10
608.0112986492
 20
-791.9654130802
 30
0.0
 40
57.97927133197505
 50
277.431374591
 51
280.2603922128
  0
ARC
  5
22C
  8
0
  6
CONTINUOUS
 62
     7
 10
611.4428986551
 20
-833.8982729021
 30
0.0
 40
16.08224988411249
 50
284.6497645351
 51
289.9284297887
  0
ARC
  5
22D
  8
0
  6
CONTINUOUS
 62
     7
 10
611.4428986551
 20
1028.8632659715
 30
0.0
 40
16.08224988414398
 50
70.0715702114
 51
75.3502354649
  0
POLYLINE
  5
22E
  8
0
  6
CONTINUOUS
 62
     7
 66
     1
 10
0.0
 20
0.0
 30
0.0
  0
VERTEX
  5
56D
  8
0
  6
CONTINUOUS
 62
     7
 10
615.5102568015
 20
1044.4226798115
 30
0.0
  0
VERTEX
  5
56E
  8
0
  6
CONTINUOUS
 62
     7
 10
615.5102568015
 20
1044.4226798115
 30
0.0
  0
SEQEND
  5
56C
  8
0
  6
CONTINUOUS
 62
     7
  0
POLYLINE
  5
22F
  8
0
  6
CONTINUOUS
 62
     7
 66
     1
 10
0.0
 20
0.0
 30
0.0
  0
VERTEX
  5
570
  8
0
  6
CONTINUOUS
 62
     7
 10
615.5102568015
 20
-849.4576867421
 30
0.0
  0
VERTEX
  5
571
  8
0
  6
CONTINUOUS
 62
     7
 10
615.5102568015
 20
-849.4576867421
 30
0.0
  0
SEQEND
  5
56F
  8
0
  6
CONTINUOUS
 62
     7
  0
ARC
  5
230
  8
0
  6
CONTINUOUS
 62
     7
 10
589.0291762136
 20
1085.1375820551
 30
0.0
 40
8.538971374962667
 50
334.6562854698
 51
348.6399828011
  0
ARC
  5
231
  8
0
  6
CONTINUOUS
 62
     7
 10
596.8603328343
 20
1082.8298258963
 30
0.0
 40
0.6625539208313738
 50
41.0086837974
 51
99.9084059685
  0
LINE
  5
232
  8
0
  6
CONTINUOUS
 62
     7
 10
613.0102552821
 20
1044.9729092419
 30
0.0
 11
615.5102568015
 21
1044.4226798115
 31
0.0
  0
LINE
  5
233
  8
0
  6
CONTINUOUS
 62
     7
 10
613.0102552821
 20
-850.0079161725
 30
0.0
 11
615.5102568015
 21
-849.4576867421
 31
0.0
  0
ARC
  5
234
  8
0
  6
CONTINUOUS
 62
     7
 10
592.8656654537
 20
1088.929980958
 30
0.0
 40
8.504118037048485
 50
281.3253066925
 51
295.3767048351
  0
POLYLINE
  5
235
  8
0
  6
CONTINUOUS
 62
     7
 66
     1
 10
0.0
 20
0.0
 30
0.0
  0
VERTEX
  5
573
  8
0
  6
CONTINUOUS
 62
     7
 10
592.6577643896
 20
1080.8524544584
 30
0.0
  0
VERTEX
  5
574
  8
0
  6
CONTINUOUS
 62
     7
 10
592.5969888182
 20
1080.9120986643
 30
0.0
  0
VERTEX
  5
575
  8
0
  6
CONTINUOUS
 62
     7
 10
592.5102566074
 20
1081.2464285572
 30
0.0
  0
SEQEND
  5
572
  8
0
  6
CONTINUOUS
 62
     7
  0
POLYLINE
  5
236
  8
0
  6
CONTINUOUS
 62
     7
 66
     1
 10
0.0
 20
0.0
 30
0.0
  0
VERTEX
  5
577
  8
0
  6
CONTINUOUS
 62
     7
 10
594.6636712828
 20
1080.6960987493
 30
0.0
  0
VERTEX
  5
578
  8
0
  6
CONTINUOUS
 62
     7
 10
594.5536227149
 20
1080.9120986643
 30
0.0
  0
VERTEX
  5
579
  8
0
  6
CONTINUOUS
 62
     7
 10
594.5102566074
 20
1081.2464285572
 30
0.0
  0
SEQEND
  5
576
  8
0
  6
CONTINUOUS
 62
     7
  0
POLYLINE
  5
237
  8
0
  6
CONTINUOUS
 62
     7
 66
     1
 10
0.0
 20
0.0
 30
0.0
  0
VERTEX
  5
57B
  8
0
  6
CONTINUOUS
 62
     7
 10
592.5102566074
 20
-886.2814354878
 30
0.0
  0
VERTEX
  5
57C
  8
0
  6
CONTINUOUS
 62
     7
 10
592.5969888183
 20
-885.9471055948
 30
0.0
  0
VERTEX
  5
57D
  8
0
  6
CONTINUOUS
 62
     7
 10
592.6577643896
 20
-885.8874613889
 30
0.0
  0
SEQEND
  5
57A
  8
0
  6
CONTINUOUS
 62
     7
  0
ARC
  5
238
  8
0
  6
CONTINUOUS
 62
     7
 10
592.8656654538
 20
-893.9649878898
 30
0.0
 40
8.504118038060255
 50
64.623295169
 51
78.6746933094
  0
ARC
  5
239
  8
0
  6
CONTINUOUS
 62
     7
 10
595.1633462403
 20
-886.1676590201
 30
0.0
 40
0.6629262049002147
 50
131.0351072377
 51
189.8824676589
  0
ARC
  5
23A
  8
0
  6
CONTINUOUS
 62
     7
 10
589.2809192255
 20
-890.0951844271
 30
0.0
 40
8.27841054443757
 50
13.4030953916
 51
25.6053549434
  0
ARC
  5
23B
  8
0
  6
CONTINUOUS
 62
     7
 10
596.8603330181
 20
-887.8648328353
 30
0.0
 40
0.6625539442128864
 50
260.0915782563
 51
318.9910602237
  0
ARC
  5
23C
  8
0
  6
CONTINUOUS
 62
     7
 10
596.5102568015
 20
-886.5175034653
 30
0.0
 40
2.000000688793307
 50
180.0
 51
269.9999999999
  0
LINE
  5
23D
  8
0
  6
CONTINUOUS
 62
     7
 10
592.5102561127
 20
1081.4824965347
 30
0.0
 11
592.5868624756
 21
1082.2158451122
 31
0.0
  0
ARC
  5
23E
  8
0
  6
CONTINUOUS
 62
     7
 10
596.5102568015
 20
1081.4824965347
 30
0.0
 40
2.000000688793534
 50
90.0
 51
180.0
  0
POLYLINE
  5
23F
  8
0
  6
HIDDEN
 62
     7
 66
     1
 10
0.0
 20
0.0
 30
0.0
  0
VERTEX
  5
57F
  8
0
  6
HIDDEN
 62
     7
 10
597.3386839263
 20
-887.5175034653
 30
0.0
  0
VERTEX
  5
580
  8
0
  6
HIDDEN
 62
     7
 10
597.3386839263
 20
-887.5175034653
 30
0.0
  0
SEQEND
  5
57E
  8
0
  6
HIDDEN
 62
     7
  0
POLYLINE
  5
240
  8
0
  6
HIDDEN
 62
     7
 66
     1
 10
0.0
 20
0.0
 30
0.0
  0
VERTEX
  5
582
  8
0
  6
HIDDEN
 62
     7
 10
597.3386839263
 20
1082.4824965347
 30
0.0
  0
VERTEX
  5
583
  8
0
  6
HIDDEN
 62
     7
 10
597.3386839263
 20
1082.4824965347
 30
0.0
  0
SEQEND
  5
581
  8
0
  6
HIDDEN
 62
     7
  0
POLYLINE
  5
241
  8
0
  6
HIDDEN
 62
     7
 66
     1
 10
0.0
 20
0.0
 30
0.0
  0
VERTEX
  5
585
  8
0
  6
HIDDEN
 62
     7
 10
595.5102568015
 20
1080.6540694099
 30
0.0
  0
VERTEX
  5
586
  8
0
  6
HIDDEN
 62
     7
 10
595.5102568015
 20
1080.6540694099
 30
0.0
  0
SEQEND
  5
584
  8
0
  6
HIDDEN
 62
     7
  0
POLYLINE
  5
242
  8
0
  6
HIDDEN
 62
     7
 66
     1
 10
0.0
 20
0.0
 30
0.0
  0
VERTEX
  5
588
  8
0
  6
HIDDEN
 62
     7
 10
595.5102568015
 20
-885.6890763406
 30
0.0
  0
VERTEX
  5
589
  8
0
  6
HIDDEN
 62
     7
 10
595.5102568015
 20
-885.6890763406
 30
0.0
  0
SEQEND
  5
587
  8
0
  6
HIDDEN
 62
     7
  0
LINE
  5
243
  8
0
  6
HIDDEN
 62
     7
 10
613.0102568015
 20
-888.5175034653
 30
0.0
 11
597.3386839263
 21
-888.5175034653
 31
0.0
  0
LINE
  5
244
  8
0
  6
HIDDEN
 62
     7
 10
594.5102568015
 20
1080.6540694099
 30
0.0
 11
594.5102568015
 21
-885.6890763406
 31
0.0
  0
LINE
  5
245
  8
0
  6
HIDDEN
 62
     7
 10
613.0102568015
 20
1083.4824965347
 30
0.0
 11
597.3386839263
 21
1083.4824965347
 31
0.0
  0
LINE
  5
246
  8
0
  6
HIDDEN
 62
     7
 10
603.7602568015
 20
1083.4824965347
 30
0.0
 11
603.7602568015
 21
1085.4824965347
 31
0.0
  0
LINE
  5
247
  8
0
  6
HIDDEN
 62
     7
 10
603.7602568015
 20
-888.5175034653
 30
0.0
 11
603.7602568015
 21
-890.5175034653
 31
0.0
  0
LINE
  5
248
  8
0
  6
HIDDEN
 62
     7
 10
603.7602568015
 20
1083.4824965347
 30
0.0
 11
603.7602568015
 21
1085.4824965347
 31
0.0
  0
LINE
  5
249
  8
0
  6
HIDDEN
 62
     7
 10
603.7602568015
 20
-888.5175034653
 30
0.0
 11
603.7602568015
 21
-890.5175034653
 31
0.0
  0
LINE
  5
24A
  8
0
  6
HIDDEN
 62
     7
 10
597.0137902881
 20
989.4824965347
 30
0.0
 11
597.0137902881
 21
993.9993355009
 31
0.0
  0
LINE
  5
24B
  8
0
  6
HIDDEN
 62
     7
 10
597.0137902881
 20
984.9656575685
 30
0.0
 11
597.0137902881
 21
989.4824965347
 31
0.0
  0
LINE
  5
24C
  8
0
  6
HIDDEN
 62
     7
 10
597.0137902881
 20
-810.5175034653
 30
0.0
 11
597.0137902881
 21
-806.0006644991
 31
0.0
  0
LINE
  5
24D
  8
0
  6
HIDDEN
 62
     7
 10
597.0137902881
 20
-815.0343424315
 30
0.0
 11
597.0137902881
 21
-810.5175034653
 31
0.0
  0
LINE
  5
24E
  8
0
  6
HIDDEN
 62
     7
 10
597.0137902881
 20
89.4824965347
 30
0.0
 11
597.0137902881
 21
93.9993355009
 31
0.0
  0
LINE
  5
24F
  8
0
  6
HIDDEN
 62
     7
 10
597.0137902881
 20
84.9656575685
 30
0.0
 11
597.0137902881
 21
89.4824965347
 31
0.0
  0
LINE
  5
250
  8
0
  6
HIDDEN
 62
     7
 10
595.7102568015
 20
-810.5175034653
 30
0.0
 11
595.7102568015
 21
-807.5175034653
 31
0.0
  0
LINE
  5
251
  8
0
  6
HIDDEN
 62
     7
 10
595.7102568015
 20
-813.5175034653
 30
0.0
 11
595.7102568015
 21
-810.5175034653
 31
0.0
  0
LINE
  5
252
  8
0
  6
HIDDEN
 62
     7
 10
595.7102568015
 20
989.4824965347
 30
0.0
 11
595.7102568015
 21
992.4824965347
 31
0.0
  0
LINE
  5
253
  8
0
  6
HIDDEN
 62
     7
 10
595.7102568015
 20
986.4824965347
 30
0.0
 11
595.7102568015
 21
989.4824965347
 31
0.0
  0
LINE
  5
254
  8
0
  6
HIDDEN
 62
     7
 10
595.7102568015
 20
89.4824965347
 30
0.0
 11
595.7102568015
 21
92.4824965347
 31
0.0
  0
LINE
  5
255
  8
0
  6
HIDDEN
 62
     7
 10
595.7102568015
 20
86.4824965347
 30
0.0
 11
595.7102568015
 21
89.4824965347
 31
0.0
  0
LINE
  5
256
  8
0
  6
HIDDEN
 62
     7
 10
597.0137902881
 20
-869.5175034653
 30
0.0
 11
597.0137902881
 21
-874.0343424315
 31
0.0
  0
LINE
  5
257
  8
0
  6
HIDDEN
 62
     7
 10
597.0137902881
 20
-865.0006644991
 30
0.0
 11
597.0137902881
 21
-869.5175034653
 31
0.0
  0
LINE
  5
258
  8
0
  6
HIDDEN
 62
     7
 10
597.0137902881
 20
1064.4824965347
 30
0.0
 11
597.0137902881
 21
1068.9993355009
 31
0.0
  0
LINE
  5
259
  8
0
  6
HIDDEN
 62
     7
 10
597.0137902881
 20
1059.9656575685
 30
0.0
 11
597.0137902881
 21
1064.4824965347
 31
0.0
  0
LINE
  5
25A
  8
0
  6
HIDDEN
 62
     7
 10
595.7102568015
 20
1064.4824965347
 30
0.0
 11
595.7102568015
 21
1067.4824965347
 31
0.0
  0
LINE
  5
25B
  8
0
  6
HIDDEN
 62
     7
 10
595.7102568015
 20
1061.4824965347
 30
0.0
 11
595.7102568015
 21
1064.4824965347
 31
0.0
  0
LINE
  5
25C
  8
0
  6
HIDDEN
 62
     7
 10
595.7102568015
 20
-869.5175034653
 30
0.0
 11
595.7102568015
 21
-872.5175034653
 31
0.0
  0
LINE
  5
25D
  8
0
  6
HIDDEN
 62
     7
 10
595.7102568015
 20
-866.5175034653
 30
0.0
 11
595.7102568015
 21
-869.5175034653
 31
0.0
  0
POLYLINE
  5
25E
  8
0
  6
HIDDEN
 62
     7
 66
     1
 10
0.0
 20
0.0
 30
0.0
  0
VERTEX
  5
58B
  8
0
  6
HIDDEN
 62
     7
 10
597.3386839263
 20
-887.5175034653
 30
0.0
  0
VERTEX
  5
58C
  8
0
  6
HIDDEN
 62
     7
 10
597.3386839263
 20
-887.5175034653
 30
0.0
  0
SEQEND
  5
58A
  8
0
  6
HIDDEN
 62
     7
  0
POLYLINE
  5
25F
  8
0
  6
HIDDEN
 62
     7
 66
     1
 10
0.0
 20
0.0
 30
0.0
  0
VERTEX
  5
58E
  8
0
  6
HIDDEN
 62
     7
 10
595.5102568015
 20
-885.6890763406
 30
0.0
  0
VERTEX
  5
58F
  8
0
  6
HIDDEN
 62
     7
 10
595.5102568015
 20
-885.6890763406
 30
0.0
  0
SEQEND
  5
58D
  8
0
  6
HIDDEN
 62
     7
  0
POLYLINE
  5
260
  8
0
  6
HIDDEN
 62
     7
 66
     1
 10
0.0
 20
0.0
 30
0.0
  0
VERTEX
  5
591
  8
0
  6
HIDDEN
 62
     7
 10
595.5102568015
 20
1080.6540694099
 30
0.0
  0
VERTEX
  5
592
  8
0
  6
HIDDEN
 62
     7
 10
595.5102568015
 20
1080.6540694099
 30
0.0
  0
SEQEND
  5
590
  8
0
  6
HIDDEN
 62
     7
  0
POLYLINE
  5
261
  8
0
  6
HIDDEN
 62
     7
 66
     1
 10
0.0
 20
0.0
 30
0.0
  0
VERTEX
  5
594
  8
0
  6
HIDDEN
 62
     7
 10
597.3386839263
 20
1082.4824965347
 30
0.0
  0
VERTEX
  5
595
  8
0
  6
HIDDEN
 62
     7
 10
597.3386839263
 20
1082.4824965347
 30
0.0
  0
SEQEND
  5
593
  8
0
  6
HIDDEN
 62
     7
  0
ARC
  5
262
  8
0
  6
HIDDEN
 62
     7
 10
613.0102568015
 20
1065.8430286165
 30
0.0
 40
2.000000000000067
 50
90.0
 51
147.0647695028
  0
ARC
  5
263
  8
0
  6
HIDDEN
 62
     7
 10
601.2602568015
 20
1073.4546972903
 30
0.0
 40
11.99999999999992
 50
273.1847385367
 51
327.0647695028
  0
ARC
  5
264
  8
0
  6
HIDDEN
 62
     7
 10
602.2602568015
 20
1055.4824965347
 30
0.0
 40
6.0
 50
93.1847385367
 51
180.0
  0
LINE
  5
265
  8
0
  6
HIDDEN
 62
     7
 10
596.2602568015
 20
1055.4824965347
 30
0.0
 11
596.2602568015
 21
1053.4824965347
 31
0.0
  0
ARC
  5
266
  8
0
  6
HIDDEN
 62
     7
 10
602.2602568015
 20
1053.4824965347
 30
0.0
 40
6.000000000000306
 50
180.0
 51
257.6311073949
  0
LINE
  5
267
  8
0
  6
HIDDEN
 62
     7
 10
600.9750265956
 20
1047.6217642154
 30
0.0
 11
613.0102568015
 21
1044.9824965347
 31
0.0
  0
LINE
  5
268
  8
0
  6
HIDDEN
 62
     7
 10
600.9750265956
 20
-852.6567711461
 30
0.0
 11
613.0102568015
 21
-850.0175034653
 31
0.0
  0
ARC
  5
269
  8
0
  6
HIDDEN
 62
     7
 10
602.2602568015
 20
-858.5175034653
 30
0.0
 40
6.0
 50
102.3688926051
 51
180.0
  0
LINE
  5
26A
  8
0
  6
HIDDEN
 62
     7
 10
596.2602568015
 20
-860.5175034653
 30
0.0
 11
596.2602568015
 21
-858.5175034653
 31
0.0
  0
ARC
  5
26B
  8
0
  6
HIDDEN
 62
     7
 10
602.2602568015
 20
-860.5175034653
 30
0.0
 40
6.000000000000083
 50
180.0
 51
266.8152614633
  0
ARC
  5
26C
  8
0
  6
HIDDEN
 62
     7
 10
601.2602568015
 20
-878.4897042209
 30
0.0
 40
11.99999999999991
 50
32.9352304972
 51
86.8152614633
  0
ARC
  5
26D
  8
0
  6
HIDDEN
 62
     7
 10
613.0102568015
 20
-870.8780355471
 30
0.0
 40
2.000000000000067
 50
212.9352304972
 51
270.0
  0
LINE
  5
26E
  8
0
  6
HIDDEN
 62
     7
 10
612.0102568015
 20
-849.0175034653
 30
0.0
 11
613.0102568015
 21
-849.0175034653
 31
0.0
  0
LINE
  5
26F
  8
0
  6
HIDDEN
 62
     7
 10
612.0102568015
 20
1043.9824965347
 30
0.0
 11
613.0102568015
 21
1043.9824965347
 31
0.0
  0
LINE
  5
270
  8
0
  6
HIDDEN
 62
     7
 10
620.0102568015
 20
95.9824965347
 30
0.0
 11
620.0102568015
 21
82.9824965347
 31
0.0
  0
LINE
  5
271
  8
0
  6
HIDDEN
 62
     7
 10
625.0102568015
 20
95.9824965347
 30
0.0
 11
625.0102568015
 21
82.9824965347
 31
0.0
  0
ARC
  5
272
  8
0
  6
HIDDEN
 62
     7
 10
617.5102568015
 20
96.5449965347
 30
0.0
 40
2.562499999977327
 50
305.8288401004
 51
321.3052600782
  0
ARC
  5
273
  8
0
  6
HIDDEN
 62
     7
 10
617.5102568015
 20
82.4199965347
 30
0.0
 40
2.562499999977361
 50
38.6947399218
 51
54.1711598996
  0
ARC
  5
274
  8
0
  6
HIDDEN
 62
     7
 10
617.5102568015
 20
96.5449965347
 30
0.0
 40
2.562500000019966
 50
270.0
 51
281.2518477292
  0
ARC
  5
275
  8
0
  6
HIDDEN
 62
     7
 10
617.5102568015
 20
82.4199965347
 30
0.0
 40
2.562500000019966
 50
78.7481522708
 51
90.0
  0
ARC
  5
276
  8
0
  6
HIDDEN
 62
     7
 10
617.5102568015
 20
96.5449965347
 30
0.0
 40
2.562500000000005
 50
281.2518477293
 51
305.8288401004
  0
ARC
  5
277
  8
0
  6
HIDDEN
 62
     7
 10
617.5102568015
 20
82.4199965347
 30
0.0
 40
2.562500000000016
 50
54.1711598996
 51
78.7481522707
  0
LINE
  5
278
  8
0
  6
HIDDEN
 62
     7
 10
619.5102568015
 20
84.0082559541
 30
0.0
 11
619.2155045405
 21
84.3319403234
 31
0.0
  0
LINE
  5
279
  8
0
  6
HIDDEN
 62
     7
 10
619.5102568015
 20
94.9567371153
 30
0.0
 11
619.2155045405
 21
94.633052746
 31
0.0
  0
ARC
  5
27A
  8
0
  6
HIDDEN
 62
     7
 10
594.5102568015
 20
1053.4824965347
 30
0.0
 40
7.5
 50
270.0
 51
90.0
  0
ARC
  5
27B
  8
0
  6
HIDDEN
 62
     7
 10
594.5102568015
 20
-858.5175034653
 30
0.0
 40
7.5
 50
270.0
 51
90.0
  0
LINE
  5
27C
  8
0
  6
HIDDEN
 62
     7
 10
595.5102568015
 20
-795.5175034653
 30
0.0
 11
595.5102568015
 21
-785.5175034653
 31
0.0
  0
LINE
  5
27D
  8
0
  6
HIDDEN
 62
     7
 10
619.5102568015
 20
84.9824965347
 30
0.0
 11
617.5102568015
 21
84.9824965347
 31
0.0
  0
LINE
  5
27E
  8
0
  6
HIDDEN
 62
     7
 10
619.5102568015
 20
93.9824965347
 30
0.0
 11
617.5102568015
 21
93.9824965347
 31
0.0
  0
POLYLINE
  5
27F
  8
0
  6
HIDDEN
 62
     7
 66
     1
 10
0.0
 20
0.0
 30
0.0
  0
VERTEX
  5
597
  8
0
  6
HIDDEN
 62
     7
 10
596.746324779
 20
1085.4824972235
 30
0.0
  0
VERTEX
  5
598
  8
0
  6
HIDDEN
 62
     7
 10
597.0804358577
 20
1085.3961406847
 30
0.0
  0
VERTEX
  5
599
  8
0
  6
HIDDEN
 62
     7
 10
597.3191283769
 20
1085.1534335111
 30
0.0
  0
VERTEX
  5
59A
  8
0
  6
HIDDEN
 62
     7
 10
597.4624023367
 20
1084.781878143
 30
0.0
  0
VERTEX
  5
59B
  8
0
  6
HIDDEN
 62
     7
 10
597.510257737
 20
1084.3109278961
 30
0.0
  0
VERTEX
  5
59C
  8
0
  6
HIDDEN
 62
     7
 10
597.4626211511
 20
1083.7454330822
 30
0.0
  0
VERTEX
  5
59D
  8
0
  6
HIDDEN
 62
     7
 10
597.4008594685
 20
1083.455633298
 30
0.0
  0
SEQEND
  5
596
  8
0
  6
HIDDEN
 62
     7
  0
POLYLINE
  5
280
  8
0
  6
HIDDEN
 62
     7
 66
     1
 10
0.0
 20
0.0
 30
0.0
  0
VERTEX
  5
59F
  8
0
  6
HIDDEN
 62
     7
 10
596.746324779
 20
1081.4824965347
 30
0.0
  0
VERTEX
  5
5A0
  8
0
  6
HIDDEN
 62
     7
 10
596.746324779
 20
1081.4824965347
 30
0.0
  0
SEQEND
  5
59E
  8
0
  6
HIDDEN
 62
     7
  0
ARC
  5
281
  8
0
  6
HIDDEN
 62
     7
 10
597.0992597515
 20
1082.9436822459
 30
0.0
 40
0.4136621152473459
 50
353.4514155784
 51
50.8720980143
  0
ARC
  5
282
  8
0
  6
HIDDEN
 62
     7
 10
601.2602568015
 20
1073.4546972903
 30
0.0
 40
12.00000000000001
 50
327.0647695028
 51
348.2841476051
  0
ARC
  5
283
  8
0
  6
HIDDEN
 62
     7
 10
601.2602568015
 20
-878.4897042209
 30
0.0
 40
11.99999999999999
 50
11.7158523949
 51
32.9352304972
  0
LINE
  5
284
  8
0
  6
HIDDEN
 62
     7
 10
600.9705739218
 20
1047.6227424383
 30
0.0
 11
613.0102552821
 21
1044.9729092419
 31
0.0
  0
LINE
  5
285
  8
0
  6
HIDDEN
 62
     7
 10
600.9705739218
 20
-852.657749369
 30
0.0
 11
613.0102552821
 21
-850.0079161725
 31
0.0
  0
ARC
  5
286
  8
0
  6
HIDDEN
 62
     7
 10
593.8131543245
 20
1082.279154855
 30
0.0
 40
1.835864897923879
 50
230.9982844236
 51
293.1768892554
  0
LINE
  5
287
  8
0
  6
HIDDEN
 62
     7
 10
594.5102568015
 20
1081.2464285572
 30
0.0
 11
592.5102566074
 21
1081.2464285572
 31
0.0
  0
ARC
  5
288
  8
0
  6
HIDDEN
 62
     7
 10
595.0446070611
 20
1080.9228935987
 30
0.0
 40
0.4433373106102446
 50
210.7679792559
 51
276.6403736864
  0
POLYLINE
  5
289
  8
0
  6
HIDDEN
 62
     7
 66
     1
 10
0.0
 20
0.0
 30
0.0
  0
VERTEX
  5
5A2
  8
0
  6
HIDDEN
 62
     7
 10
596.5102568015
 20
1081.2464285572
 30
0.0
  0
VERTEX
  5
5A3
  8
0
  6
HIDDEN
 62
     7
 10
596.5102568015
 20
1081.2464285572
 30
0.0
  0
SEQEND
  5
5A1
  8
0
  6
HIDDEN
 62
     7
  0
LINE
  5
28A
  8
0
  6
HIDDEN
 62
     7
 10
596.5102568015
 20
1051.7685828846
 30
0.0
 11
596.1181882212
 21
1053.4824965347
 31
0.0
  0
POLYLINE
  5
28B
  8
0
  6
HIDDEN
 62
     7
 66
     1
 10
0.0
 20
0.0
 30
0.0
  0
VERTEX
  5
5A5
  8
0
  6
HIDDEN
 62
     7
 10
596.5102568015
 20
1051.7685828846
 30
0.0
  0
VERTEX
  5
5A6
  8
0
  6
HIDDEN
 62
     7
 10
596.5102568015
 20
1051.7685828846
 30
0.0
  0
SEQEND
  5
5A4
  8
0
  6
HIDDEN
 62
     7
  0
LINE
  5
28C
  8
0
  6
HIDDEN
 62
     7
 10
596.1181882212
 20
-858.5175034653
 30
0.0
 11
596.5102568015
 21
-856.8035898152
 31
0.0
  0
LINE
  5
28D
  8
0
  6
HIDDEN
 62
     7
 10
596.1181882212
 20
-860.5175034653
 30
0.0
 11
596.1181882212
 21
-858.5175034653
 31
0.0
  0
LINE
  5
28E
  8
0
  6
HIDDEN
 62
     7
 10
596.5102568015
 20
-862.2314171154
 30
0.0
 11
596.1181882212
 21
-860.5175034653
 31
0.0
  0
ARC
  5
28F
  8
0
  6
HIDDEN
 62
     7
 10
593.8306300401
 20
-887.4399023751
 30
0.0
 40
1.945684159765285
 50
68.7538619582
 51
127.0709643514
  0
LINE
  5
290
  8
0
  6
HIDDEN
 62
     7
 10
596.1181882212
 20
1055.4824965347
 30
0.0
 11
596.5102568015
 21
1057.1964101848
 31
0.0
  0
LINE
  5
291
  8
0
  6
HIDDEN
 62
     7
 10
596.1181882212
 20
1053.4824965347
 30
0.0
 11
596.1181882212
 21
1055.4824965347
 31
0.0
  0
POLYLINE
  5
292
  8
0
  6
HIDDEN
 62
     7
 66
     1
 10
0.0
 20
0.0
 30
0.0
  0
VERTEX
  5
5A8
  8
0
  6
HIDDEN
 62
     7
 10
596.5102568015
 20
-862.2314171154
 30
0.0
  0
VERTEX
  5
5A9
  8
0
  6
HIDDEN
 62
     7
 10
596.5102568015
 20
-862.2314171154
 30
0.0
  0
SEQEND
  5
5A7
  8
0
  6
HIDDEN
 62
     7
  0
POLYLINE
  5
293
  8
0
  6
HIDDEN
 62
     7
 66
     1
 10
0.0
 20
0.0
 30
0.0
  0
VERTEX
  5
5AB
  8
0
  6
HIDDEN
 62
     7
 10
596.5102568015
 20
-856.8035898152
 30
0.0
  0
VERTEX
  5
5AC
  8
0
  6
HIDDEN
 62
     7
 10
596.5102568015
 20
-856.8035898152
 30
0.0
  0
SEQEND
  5
5AA
  8
0
  6
HIDDEN
 62
     7
  0
POLYLINE
  5
294
  8
0
  6
HIDDEN
 62
     7
 66
     1
 10
0.0
 20
0.0
 30
0.0
  0
VERTEX
  5
5AE
  8
0
  6
HIDDEN
 62
     7
 10
596.5102568015
 20
1057.1964101848
 30
0.0
  0
VERTEX
  5
5AF
  8
0
  6
HIDDEN
 62
     7
 10
596.5102568015
 20
1057.1964101848
 30
0.0
  0
SEQEND
  5
5AD
  8
0
  6
HIDDEN
 62
     7
  0
POLYLINE
  5
295
  8
0
  6
HIDDEN
 62
     7
 66
     1
 10
0.0
 20
0.0
 30
0.0
  0
VERTEX
  5
5B1
  8
0
  6
HIDDEN
 62
     7
 10
596.5102568015
 20
-886.2814354878
 30
0.0
  0
VERTEX
  5
5B2
  8
0
  6
HIDDEN
 62
     7
 10
596.5102568015
 20
-886.2814354878
 30
0.0
  0
SEQEND
  5
5B0
  8
0
  6
HIDDEN
 62
     7
  0
POLYLINE
  5
296
  8
0
  6
HIDDEN
 62
     7
 66
     1
 10
0.0
 20
0.0
 30
0.0
  0
VERTEX
  5
5B4
  8
0
  6
HIDDEN
 62
     7
 10
594.7281210371
 20
-885.6676088469
 30
0.0
  0
VERTEX
  5
5B5
  8
0
  6
HIDDEN
 62
     7
 10
594.8610810934
 20
-885.5651391158
 30
0.0
  0
VERTEX
  5
5B6
  8
0
  6
HIDDEN
 62
     7
 10
595.0960449767
 20
-885.5175025298
 30
0.0
  0
VERTEX
  5
5B7
  8
0
  6
HIDDEN
 62
     7
 10
595.0958721537
 20
-885.517537568
 30
0.0
  0
SEQEND
  5
5B3
  8
0
  6
HIDDEN
 62
     7
  0
LINE
  5
297
  8
0
  6
HIDDEN
 62
     7
 10
592.5102568015
 20
-886.2814354878
 30
0.0
 11
594.5102568015
 21
-886.2814354878
 31
0.0
  0
POLYLINE
  5
298
  8
0
  6
HIDDEN
 62
     7
 66
     1
 10
0.0
 20
0.0
 30
0.0
  0
VERTEX
  5
5B9
  8
0
  6
HIDDEN
 62
     7
 10
597.3338536546
 20
-888.1762450784
 30
0.0
  0
VERTEX
  5
5BA
  8
0
  6
HIDDEN
 62
     7
 10
597.4626211492
 20
-888.7804478691
 30
0.0
  0
VERTEX
  5
5BB
  8
0
  6
HIDDEN
 62
     7
 10
597.510257737
 20
-889.3459348267
 30
0.0
  0
VERTEX
  5
5BC
  8
0
  6
HIDDEN
 62
     7
 10
597.4624023367
 20
-889.8168850735
 30
0.0
  0
VERTEX
  5
5BD
  8
0
  6
HIDDEN
 62
     7
 10
597.3191283769
 20
-890.1884404417
 30
0.0
  0
VERTEX
  5
5BE
  8
0
  6
HIDDEN
 62
     7
 10
597.0804358577
 20
-890.4311476153
 30
0.0
  0
VERTEX
  5
5BF
  8
0
  6
HIDDEN
 62
     7
 10
596.746324779
 20
-890.5175041541
 30
0.0
  0
SEQEND
  5
5B8
  8
0
  6
HIDDEN
 62
     7
  0
POLYLINE
  5
299
  8
0
  6
HIDDEN
 62
     7
 66
     1
 10
0.0
 20
0.0
 30
0.0
  0
VERTEX
  5
5C1
  8
0
  6
HIDDEN
 62
     7
 10
596.746324779
 20
-886.5175034653
 30
0.0
  0
VERTEX
  5
5C2
  8
0
  6
HIDDEN
 62
     7
 10
596.746324779
 20
-886.5175034653
 30
0.0
  0
SEQEND
  5
5C0
  8
0
  6
HIDDEN
 62
     7
  0
POLYLINE
  5
29A
  8
0
  6
HIDDEN
 62
     7
 66
     1
 10
0.0
 20
0.0
 30
0.0
  0
VERTEX
  5
5C4
  8
0
  6
HIDDEN
 62
     7
 10
597.5102226974
 20
-887.9315114148
 30
0.0
  0
VERTEX
  5
5C5
  8
0
  6
HIDDEN
 62
     7
 10
597.4624023367
 20
-888.1671945535
 30
0.0
  0
VERTEX
  5
5C6
  8
0
  6
HIDDEN
 62
     7
 10
597.3603009995
 20
-888.2995853471
 30
0.0
  0
SEQEND
  5
5C3
  8
0
  6
HIDDEN
 62
     7
  0
LINE
  5
29B
  8
0
  6
HIDDEN
 62
     7
 10
596.3142225018
 20
1053.4824965347
 30
0.0
 11
596.3142225018
 21
1055.4824965347
 31
0.0
  0
LINE
  5
29C
  8
0
  6
HIDDEN
 62
     7
 10
596.3142225018
 20
-860.5175034653
 30
0.0
 11
596.3142225018
 21
-858.5175034653
 31
0.0
  0
LINE
  5
29D
  8
0
  6
HIDDEN
 62
     7
 10
594.5102568015
 20
1081.4824965347
 30
0.0
 11
592.5102561127
 21
1081.4824965347
 31
0.0
  0
LINE
  5
29E
  8
0
  6
HIDDEN
 62
     7
 10
594.5102568015
 20
-886.5175034653
 30
0.0
 11
592.5102561127
 21
-886.5175034653
 31
0.0
  0
ARC
  5
29F
  8
0
  6
HIDDEN
 62
     7
 10
596.5102568015
 20
-886.5175034653
 30
0.0
 40
4.000000688793193
 50
180.0
 51
269.9999999999
  0
ARC
  5
2A0
  8
0
  6
HIDDEN
 62
     7
 10
596.4953894844
 20
1081.5109420237
 30
0.0
 40
3.971583027246611
 50
89.7855171333
 51
169.7765998423
  0
POLYLINE
  5
2A1
  8
0
  6
HIDDEN
 62
     7
 66
     1
 10
0.0
 20
0.0
 30
0.0
  0
VERTEX
  5
5C8
  8
0
  6
HIDDEN
 62
     7
 10
596.5102568015
 20
-886.2814354878
 30
0.0
  0
VERTEX
  5
5C9
  8
0
  6
HIDDEN
 62
     7
 10
596.5102568015
 20
-886.2814354878
 30
0.0
  0
SEQEND
  5
5C7
  8
0
  6
HIDDEN
 62
     7
  0
POLYLINE
  5
2A2
  8
0
  6
HIDDEN
 62
     7
 66
     1
 10
0.0
 20
0.0
 30
0.0
  0
VERTEX
  5
5CB
  8
0
  6
HIDDEN
 62
     7
 10
596.746324779
 20
1081.4824965347
 30
0.0
  0
VERTEX
  5
5CC
  8
0
  6
HIDDEN
 62
     7
 10
596.746324779
 20
1081.4824965347
 30
0.0
  0
SEQEND
  5
5CA
  8
0
  6
HIDDEN
 62
     7
  0
POLYLINE
  5
2A3
  8
0
  6
HIDDEN
 62
     7
 66
     1
 10
0.0
 20
0.0
 30
0.0
  0
VERTEX
  5
5CE
  8
0
  6
HIDDEN
 62
     7
 10
596.5102568015
 20
1081.2464285572
 30
0.0
  0
VERTEX
  5
5CF
  8
0
  6
HIDDEN
 62
     7
 10
596.5102568015
 20
1081.2464285572
 30
0.0
  0
SEQEND
  5
5CD
  8
0
  6
HIDDEN
 62
     7
  0
POLYLINE
  5
2A4
  8
0
  6
HIDDEN
 62
     7
 66
     1
 10
0.0
 20
0.0
 30
0.0
  0
VERTEX
  5
5D1
  8
0
  6
HIDDEN
 62
     7
 10
596.746324779
 20
-886.5175034653
 30
0.0
  0
VERTEX
  5
5D2
  8
0
  6
HIDDEN
 62
     7
 10
596.746324779
 20
-886.5175034653
 30
0.0
  0
SEQEND
  5
5D0
  8
0
  6
HIDDEN
 62
     7
  0
LINE
  5
2A5
  8
0
  6
HIDDEN
 62
     7
 10
597.5098274318
 20
-889.6801096669
 30
0.0
 11
597.5098274321
 21
-888.2383699693
 31
0.0
  0
LINE
  5
2A6
  8
0
  6
HIDDEN
 62
     7
 10
597.5098315661
 20
1083.2033927091
 30
0.0
 11
597.5098315676
 21
1084.645197977
 31
0.0
  0
LINE
  5
2A7
  8
0
  6
HIDDEN
 62
     7
 10
593.4312167071
 20
1080.4829217679
 30
0.0
 11
594.8172426289
 21
1080.4829217681
 31
0.0
  0
LINE
  5
2A8
  8
0
  6
HIDDEN
 62
     7
 10
594.8172115325
 20
-885.5179328401
 30
0.0
 11
593.4311195789
 21
-885.5179328399
 31
0.0
  0
ARC
  5
2A9
  8
0
  6
HIDDEN
 62
     7
 10
594.9802568015
 20
96.3666131591
 30
0.0
 40
2.470000000000053
 50
180.0
 51
229.3250604347
  0
ARC
  5
2AA
  8
0
  6
HIDDEN
 62
     7
 10
594.9802568015
 20
82.5983799102
 30
0.0
 40
2.470000000000053
 50
130.6749395653
 51
180.0
  0
ARC
  5
2AB
  8
0
  6
HIDDEN
 62
     7
 10
594.9802568015
 20
-803.6333868409
 30
0.0
 40
2.470000000000042
 50
180.0
 51
229.3250604347
  0
ARC
  5
2AC
  8
0
  6
HIDDEN
 62
     7
 10
594.9802568015
 20
-817.4016200898
 30
0.0
 40
2.470000000000042
 50
130.6749395653
 51
180.0
  0
ARC
  5
2AD
  8
0
  6
HIDDEN
 62
     7
 10
594.9802568015
 20
-803.6333868409
 30
0.0
 40
0.4700000000000812
 50
180.0
 51
229.3250604347
  0
ARC
  5
2AE
  8
0
  6
HIDDEN
 62
     7
 10
594.9802568015
 20
-817.4016200898
 30
0.0
 40
0.469999999999995
 50
130.6749395653
 51
180.0
  0
ARC
  5
2AF
  8
0
  6
HIDDEN
 62
     7
 10
594.9802568015
 20
96.3666131591
 30
0.0
 40
0.4700000000000058
 50
180.0
 51
229.3250604347
  0
ARC
  5
2B0
  8
0
  6
HIDDEN
 62
     7
 10
594.9802568015
 20
82.5983799102
 30
0.0
 40
0.4700000000000058
 50
130.6749395653
 51
180.0
  0
ARC
  5
2B1
  8
0
  6
HIDDEN
 62
     7
 10
594.9802568015
 20
996.3666131591
 30
0.0
 40
2.470000000000042
 50
180.0
 51
229.3250604347
  0
ARC
  5
2B2
  8
0
  6
HIDDEN
 62
     7
 10
594.9802568015
 20
982.5983799102
 30
0.0
 40
2.470000000000042
 50
130.6749395653
 51
180.0
  0
ARC
  5
2B3
  8
0
  6
HIDDEN
 62
     7
 10
594.9802568015
 20
996.3666131591
 30
0.0
 40
0.469999999999995
 50
180.0
 51
229.3250604347
  0
ARC
  5
2B4
  8
0
  6
HIDDEN
 62
     7
 10
594.9802568015
 20
982.5983799102
 30
0.0
 40
0.4700000000000812
 50
130.6749395653
 51
180.0
  0
LINE
  5
2B5
  8
0
  6
HIDDEN
 62
     7
 10
594.6739264322
 20
982.9548370673
 30
0.0
 11
597.0137902881
 21
984.9656575685
 31
0.0
  0
LINE
  5
2B6
  8
0
  6
HIDDEN
 62
     7
 10
597.0137902881
 20
993.9993355009
 30
0.0
 11
594.6739264322
 21
996.0101560021
 31
0.0
  0
LINE
  5
2B7
  8
0
  6
HIDDEN
 62
     7
 10
594.6739264322
 20
-817.0451629327
 30
0.0
 11
597.0137902881
 21
-815.0343424315
 31
0.0
  0
LINE
  5
2B8
  8
0
  6
HIDDEN
 62
     7
 10
597.0137902881
 20
-806.0006644991
 30
0.0
 11
594.6739264322
 21
-803.9898439979
 31
0.0
  0
LINE
  5
2B9
  8
0
  6
HIDDEN
 62
     7
 10
594.6739264322
 20
82.9548370673
 30
0.0
 11
597.0137902881
 21
84.9656575685
 31
0.0
  0
LINE
  5
2BA
  8
0
  6
HIDDEN
 62
     7
 10
597.0137902881
 20
93.9993355009
 30
0.0
 11
594.6739264322
 21
96.0101560021
 31
0.0
  0
LINE
  5
2BB
  8
0
  6
HIDDEN
 62
     7
 10
593.3703929456
 20
-815.5283239665
 30
0.0
 11
595.7102568015
 21
-813.5175034653
 31
0.0
  0
LINE
  5
2BC
  8
0
  6
HIDDEN
 62
     7
 10
595.7102568015
 20
-807.5175034653
 30
0.0
 11
593.3703929456
 21
-805.5066829641
 31
0.0
  0
LINE
  5
2BD
  8
0
  6
HIDDEN
 62
     7
 10
593.3703929456
 20
984.4716760335
 30
0.0
 11
595.7102568015
 21
986.4824965347
 31
0.0
  0
LINE
  5
2BE
  8
0
  6
HIDDEN
 62
     7
 10
595.7102568015
 20
992.4824965347
 30
0.0
 11
593.3703929456
 21
994.4933170359
 31
0.0
  0
LINE
  5
2BF
  8
0
  6
HIDDEN
 62
     7
 10
593.3703929456
 20
84.4716760335
 30
0.0
 11
595.7102568015
 21
86.4824965347
 31
0.0
  0
LINE
  5
2C0
  8
0
  6
HIDDEN
 62
     7
 10
595.7102568015
 20
92.4824965347
 30
0.0
 11
593.3703929456
 21
94.4933170359
 31
0.0
  0
LINE
  5
2C1
  8
0
  6
HIDDEN
 62
     7
 10
597.0137902881
 20
93.9993355009
 30
0.0
 11
595.7102568015
 21
92.4824965347
 31
0.0
  0
LINE
  5
2C2
  8
0
  6
HIDDEN
 62
     7
 10
595.7102568015
 20
86.4824965347
 30
0.0
 11
597.0137902881
 21
84.9656575685
 31
0.0
  0
LINE
  5
2C3
  8
0
  6
HIDDEN
 62
     7
 10
597.0137902881
 20
993.9993355009
 30
0.0
 11
595.7102568015
 21
992.4824965347
 31
0.0
  0
LINE
  5
2C4
  8
0
  6
HIDDEN
 62
     7
 10
595.7102568015
 20
986.4824965347
 30
0.0
 11
597.0137902881
 21
984.9656575685
 31
0.0
  0
LINE
  5
2C5
  8
0
  6
HIDDEN
 62
     7
 10
597.0137902881
 20
-806.0006644991
 30
0.0
 11
595.7102568015
 21
-807.5175034653
 31
0.0
  0
LINE
  5
2C6
  8
0
  6
HIDDEN
 62
     7
 10
595.7102568015
 20
-813.5175034653
 30
0.0
 11
597.0137902881
 21
-815.0343424315
 31
0.0
  0
ARC
  5
2C7
  8
0
  6
HIDDEN
 62
     7
 10
594.9802568015
 20
-862.6333868409
 30
0.0
 40
0.469999999999995
 50
180.0
 51
229.3250604347
  0
ARC
  5
2C8
  8
0
  6
HIDDEN
 62
     7
 10
594.9802568015
 20
-876.4016200898
 30
0.0
 40
0.4700000000000812
 50
130.6749395653
 51
180.0
  0
ARC
  5
2C9
  8
0
  6
HIDDEN
 62
     7
 10
594.9802568015
 20
1071.3666131591
 30
0.0
 40
2.470000000000128
 50
180.0
 51
229.3250604347
  0
ARC
  5
2CA
  8
0
  6
HIDDEN
 62
     7
 10
594.9802568015
 20
1057.5983799102
 30
0.0
 40
2.470000000000128
 50
130.6749395653
 51
180.0
  0
ARC
  5
2CB
  8
0
  6
HIDDEN
 62
     7
 10
594.9802568015
 20
1071.3666131591
 30
0.0
 40
0.469999999999995
 50
180.0
 51
229.3250604347
  0
ARC
  5
2CC
  8
0
  6
HIDDEN
 62
     7
 10
594.9802568015
 20
1057.5983799102
 30
0.0
 40
0.4700000000001675
 50
130.6749395652
 51
180.0
  0
ARC
  5
2CD
  8
0
  6
HIDDEN
 62
     7
 10
594.9802568015
 20
-862.6333868409
 30
0.0
 40
2.470000000000042
 50
180.0
 51
229.3250604347
  0
ARC
  5
2CE
  8
0
  6
HIDDEN
 62
     7
 10
594.9802568015
 20
-876.4016200898
 30
0.0
 40
2.470000000000128
 50
130.6749395653
 51
180.0
  0
LINE
  5
2CF
  8
0
  6
HIDDEN
 62
     7
 10
594.6739264322
 20
-876.0451629327
 30
0.0
 11
597.0137902881
 21
-874.0343424315
 31
0.0
  0
LINE
  5
2D0
  8
0
  6
HIDDEN
 62
     7
 10
597.0137902881
 20
-865.0006644991
 30
0.0
 11
594.6739264322
 21
-862.9898439979
 31
0.0
  0
LINE
  5
2D1
  8
0
  6
HIDDEN
 62
     7
 10
594.6739264322
 20
1057.9548370673
 30
0.0
 11
597.0137902881
 21
1059.9656575685
 31
0.0
  0
LINE
  5
2D2
  8
0
  6
HIDDEN
 62
     7
 10
597.0137902881
 20
1068.9993355009
 30
0.0
 11
594.6739264322
 21
1071.0101560021
 31
0.0
  0
LINE
  5
2D3
  8
0
  6
HIDDEN
 62
     7
 10
593.3703929456
 20
1059.4716760335
 30
0.0
 11
595.7102568015
 21
1061.4824965347
 31
0.0
  0
LINE
  5
2D4
  8
0
  6
HIDDEN
 62
     7
 10
595.7102568015
 20
1067.4824965347
 30
0.0
 11
593.3703929456
 21
1069.4933170359
 31
0.0
  0
LINE
  5
2D5
  8
0
  6
HIDDEN
 62
     7
 10
593.3703929456
 20
-874.5283239665
 30
0.0
 11
595.7102568015
 21
-872.5175034653
 31
0.0
  0
LINE
  5
2D6
  8
0
  6
HIDDEN
 62
     7
 10
595.7102568015
 20
-866.5175034653
 30
0.0
 11
593.3703929456
 21
-864.5066829641
 31
0.0
  0
LINE
  5
2D7
  8
0
  6
HIDDEN
 62
     7
 10
597.0137902881
 20
1068.9993355009
 30
0.0
 11
595.7102568015
 21
1067.4824965347
 31
0.0
  0
LINE
  5
2D8
  8
0
  6
HIDDEN
 62
     7
 10
595.7102568015
 20
1061.4824965347
 30
0.0
 11
597.0137902881
 21
1059.9656575685
 31
0.0
  0
LINE
  5
2D9
  8
0
  6
HIDDEN
 62
     7
 10
597.0137902881
 20
-865.0006644991
 30
0.0
 11
595.7102568015
 21
-866.5175034653
 31
0.0
  0
LINE
  5
2DA
  8
0
  6
HIDDEN
 62
     7
 10
595.7102568015
 20
-872.5175034653
 30
0.0
 11
597.0137902881
 21
-874.0343424315
 31
0.0
  0
LINE
  5
2DB
  8
0
  6
HIDDEN
 62
     7
 10
592.5102568015
 20
86.9824965347
 30
0.0
 11
594.5102568015
 21
86.9824965347
 31
0.0
  0
LINE
  5
2DC
  8
0
  6
HIDDEN
 62
     7
 10
594.5102568015
 20
91.9824965347
 30
0.0
 11
592.5102568015
 21
91.9824965347
 31
0.0
  0
LINE
  5
2DD
  8
0
  6
HIDDEN
 62
     7
 10
597.5098274269
 20
-889.5966410226
 30
0.0
 11
597.5098274268
 21
-888.2105490697
 31
0.0
  0
LINE
  5
2DE
  8
0
  6
HIDDEN
 62
     7
 10
597.5098274333
 20
-888.2105974502
 30
0.0
 11
597.5098274334
 21
-889.5967880891
 31
0.0
  0
LINE
  5
2DF
  8
0
  6
HIDDEN
 62
     7
 10
594.7893906462
 20
-885.5179328347
 30
0.0
 11
593.3476509474
 21
-885.517932835
 31
0.0
  0
LINE
  5
2E0
  8
0
  6
HIDDEN
 62
     7
 10
593.3475559282
 20
1080.4829217755
 30
0.0
 11
594.7893610465
 21
1080.4829217769
 31
0.0
  0
LINE
  5
2E1
  8
0
  6
HIDDEN
 62
     7
 10
597.5098315794
 20
1084.5614546384
 30
0.0
 11
597.5098315788
 21
1083.1754871144
 31
0.0
  0
LINE
  5
2E2
  8
0
  6
HIDDEN
 62
     7
 10
597.5098315747
 20
1083.1755100555
 30
0.0
 11
597.5098315748
 21
1084.5615340039
 31
0.0
  0
LINE
  5
2E3
  8
0
  6
HIDDEN
 62
     7
 10
612.0102568015
 20
1043.9824965347
 30
0.0
 11
612.0102568015
 21
-849.0175034653
 31
0.0
  0
LINE
  5
2E4
  8
0
  6
HIDDEN
 62
     7
 10
620.0102568015
 20
86.4824965347
 30
0.0
 11
625.5102568015
 21
86.4824965347
 31
0.0
  0
LINE
  5
2E5
  8
0
  6
HIDDEN
 62
     7
 10
625.5102568015
 20
92.4824965347
 30
0.0
 11
620.0102568015
 21
92.4824965347
 31
0.0
  0
LINE
  5
2E6
  8
0
  6
HIDDEN
 62
     7
 10
602.0102568015
 20
-846.0175034653
 30
0.0
 11
602.0102568015
 21
1040.9824965347
 31
0.0
  0
LINE
  5
2E7
  8
0
  6
HIDDEN
 62
     7
 10
602.0102568015
 20
1040.9824965347
 30
0.0
 11
602.0102568015
 21
1053.4824965347
 31
0.0
  0
LINE
  5
2E8
  8
0
  6
HIDDEN
 62
     7
 10
602.0102568015
 20
-858.5175034653
 30
0.0
 11
602.0102568015
 21
-846.0175034653
 31
0.0
  0
LINE
  5
2E9
  8
0
  6
HIDDEN
 62
     7
 10
594.5102568015
 20
-795.5175034653
 30
0.0
 11
595.5102568015
 21
-795.5175034653
 31
0.0
  0
LINE
  5
2EA
  8
0
  6
HIDDEN
 62
     7
 10
595.5102568015
 20
-785.5175034653
 30
0.0
 11
594.5102568015
 21
-785.5175034653
 31
0.0
  0
LINE
  5
2EB
  8
0
  6
HIDDEN
 62
     7
 10
595.5102568015
 20
-794.5175034653
 30
0.0
 11
613.0102568015
 21
-794.5175034653
 31
0.0
  0
LINE
  5
2EC
  8
0
  6
HIDDEN
 62
     7
 10
613.0102568015
 20
-786.5175034653
 30
0.0
 11
595.5102568015
 21
-786.5175034653
 31
0.0
  0
LINE
  5
2ED
  8
0
  6
HIDDEN
 62
     7
 10
597.510257848
 20
1082.8963245051
 30
0.0
 11
597.510257848
 21
1084.3101519793
 31
0.0
  0
LINE
  5
2EE
  8
0
  6
HIDDEN
 62
     7
 10
593.6810575962
 20
1080.4824954882
 30
0.0
 11
595.0956571411
 21
1080.4824954882
 31
0.0
  0
LINE
  5
2EF
  8
0
  6
HIDDEN
 62
     7
 10
595.095654541
 20
-885.5175024181
 30
0.0
 11
593.6810523954
 21
-885.5175024181
 31
0.0
  0
LINE
  5
2F0
  8
0
  6
HIDDEN
 62
     7
 10
597.5102578487
 20
-889.3451537091
 30
0.0
 11
597.5102578487
 21
-887.9313288356
 31
0.0
  0
LINE
  5
2F1
  8
0
  6
HIDDEN
 62
     7
 10
595.095694541
 20
-885.5175024181
 30
0.0
 11
595.0964317727
 21
-885.5175024181
 31
0.0
  0
LINE
  5
2F2
  8
0
  6
HIDDEN
 62
     7
 10
595.0964317665
 20
-885.5175024181
 30
0.0
 11
595.095694541
 21
-885.5175024181
 31
0.0
  0
LINE
  5
2F3
  8
0
  6
HIDDEN
 62
     7
 10
597.5102578479
 20
1084.3101919793
 30
0.0
 11
597.5102578479
 21
1084.3116960645
 31
0.0
  0
LINE
  5
2F4
  8
0
  6
HIDDEN
 62
     7
 10
595.0956971411
 20
1080.4824954882
 30
0.0
 11
595.0964291524
 21
1080.4824954882
 31
0.0
  0
LINE
  5
2F5
  8
0
  6
HIDDEN
 62
     7
 10
595.0964291578
 20
1080.4824954882
 30
0.0
 11
595.0956971411
 21
1080.4824954882
 31
0.0
  0
LINE
  5
2F6
  8
0
  6
HIDDEN
 62
     7
 10
597.5102578487
 20
-889.3467082226
 30
0.0
 11
597.5102578487
 21
-889.3451937091
 31
0.0
  0
LINE
  5
2F7
  8
0
  6
CONTINUOUS
 62
     7
 10
-653.6391411185
 20
-1046.9119170487
 30
0.0
 11
-653.6391411185
 21
-1047.9119170487
 31
0.0
  0
LINE
  5
2F8
  8
0
  6
CONTINUOUS
 62
     7
 10
-645.6391411185
 20
-1047.9119170487
 30
0.0
 11
-645.6391411185
 21
-1046.9119170487
 31
0.0
  0
LINE
  5
2F9
  8
0
  6
CONTINUOUS
 62
     7
 10
-653.6391411185
 20
-1047.9119170487
 30
0.0
 11
-653.1391411185
 21
-1048.4119170487
 31
0.0
  0
LINE
  5
2FA
  8
0
  6
CONTINUOUS
 62
     7
 10
-646.1391411185
 20
-1048.4119170487
 30
0.0
 11
-645.6391411185
 21
-1047.9119170487
 31
0.0
  0
LINE
  5
2FB
  8
0
  6
CONTINUOUS
 62
     7
 10
338.360860401
 20
-1046.9119170487
 30
0.0
 11
338.360860401
 21
-1047.9119170487
 31
0.0
  0
LINE
  5
2FC
  8
0
  6
CONTINUOUS
 62
     7
 10
346.360860401
 20
-1047.9119170487
 30
0.0
 11
346.360860401
 21
-1046.9119170487
 31
0.0
  0
LINE
  5
2FD
  8
0
  6
CONTINUOUS
 62
     7
 10
338.360860401
 20
-1047.9119170487
 30
0.0
 11
338.860860401
 21
-1048.4119170487
 31
0.0
  0
LINE
  5
2FE
  8
0
  6
CONTINUOUS
 62
     7
 10
345.860860401
 20
-1048.4119170487
 30
0.0
 11
346.360860401
 21
-1047.9119170487
 31
0.0
  0
ARC
  5
2FF
  8
0
  6
CONTINUOUS
 62
     7
 10
-747.6391411185
 20
-1028.4119170487
 30
0.0
 40
3.000000000000105
 50
289.4712206345
 51
315.0
  0
LINE
  5
300
  8
0
  6
CONTINUOUS
 62
     7
 10
-745.5178207749
 20
-1030.5332373923
 30
0.0
 11
-738.3891411185
 21
-1037.6619170487
 31
0.0
  0
LINE
  5
301
  8
0
  6
CONTINUOUS
 62
     7
 10
-738.3891411185
 20
-1037.6619170487
 30
0.0
 11
-729.1391411185
 21
-1037.6619170487
 31
0.0
  0
LINE
  5
302
  8
0
  6
CONTINUOUS
 62
     7
 10
-729.1391411185
 20
-1046.9119170487
 30
0.0
 11
-729.1391411185
 21
-1037.6619170487
 31
0.0
  0
LINE
  5
303
  8
0
  6
CONTINUOUS
 62
     7
 10
-746.6391411185
 20
-1046.9119170487
 30
0.0
 11
-729.1391411185
 21
-1046.9119170487
 31
0.0
  0
ARC
  5
304
  8
0
  6
CONTINUOUS
 62
     7
 10
-748.1391414632
 20
-1025.1689515941
 30
0.0
 40
6.25394346691488
 50
256.1223880427
 51
283.8776119573
  0
LINE
  5
305
  8
0
  6
CONTINUOUS
 62
     7
 10
-749.6391411185
 20
-1031.2403441735
 30
0.0
 11
-747.6391411185
 21
-1031.2403441735
 31
0.0
  0
LINE
  5
306
  8
0
  6
CONTINUOUS
 62
     7
 10
-749.639141808
 20
-1046.9119170487
 30
0.0
 11
-746.6391411185
 21
-1046.9119170487
 31
0.0
  0
LINE
  5
307
  8
0
  6
CONTINUOUS
 62
     7
 10
-749.6391411185
 20
-1046.9119170487
 30
0.0
 11
-749.6391411185
 21
-1031.2403441735
 31
0.0
  0
ARC
  5
308
  8
0
  6
CONTINUOUS
 62
     7
 10
-156.3961756587
 20
-1027.911916704
 30
0.0
 40
6.253943471859576
 50
166.1223880539
 51
193.8776119461
  0
LINE
  5
309
  8
0
  6
CONTINUOUS
 62
     7
 10
-162.4675682432
 20
-1026.4119170487
 30
0.0
 11
-162.4675682432
 21
-1028.4119170487
 31
0.0
  0
ARC
  5
30A
  8
0
  6
CONTINUOUS
 62
     7
 10
-750.9730071855
 20
-1027.911916704
 30
0.0
 40
6.342228190091495
 50
346.3193515825
 51
13.6806484175
  0
LINE
  5
30B
  8
0
  6
CONTINUOUS
 62
     7
 10
-744.8107139937
 20
-1026.4119170487
 30
0.0
 11
-162.4675682432
 21
-1026.4119170487
 31
0.0
  0
ARC
  5
30C
  8
0
  6
CONTINUOUS
 62
     7
 10
-159.6391411185
 20
-1028.4119170487
 30
0.0
 40
3.0
 50
199.4712206345
 51
225.0
  0
LINE
  5
30D
  8
0
  6
CONTINUOUS
 62
     7
 10
-161.760461462
 20
-1030.5332373923
 30
0.0
 11
-168.8891411185
 21
-1037.6619170487
 31
0.0
  0
LINE
  5
30E
  8
0
  6
CONTINUOUS
 62
     7
 10
-168.8891411185
 20
-1037.6619170487
 30
0.0
 11
-178.1391411185
 21
-1037.6619170487
 31
0.0
  0
LINE
  5
30F
  8
0
  6
CONTINUOUS
 62
     7
 10
-178.1391411185
 20
-1037.6619170487
 30
0.0
 11
-178.1391411185
 21
-1046.9119170487
 31
0.0
  0
LINE
  5
310
  8
0
  6
CONTINUOUS
 62
     7
 10
-729.1391411185
 20
-1046.9119170487
 30
0.0
 11
-178.1391411185
 21
-1046.9119170487
 31
0.0
  0
LINE
  5
311
  8
0
  6
CONTINUOUS
 62
     7
 10
-729.1391411185
 20
-1046.9119170487
 30
0.0
 11
-729.1391411185
 21
-1037.6619170487
 31
0.0
  0
LINE
  5
312
  8
0
  6
CONTINUOUS
 62
     7
 10
-729.1391411185
 20
-1037.6619170487
 30
0.0
 11
-738.3891411185
 21
-1037.6619170487
 31
0.0
  0
LINE
  5
313
  8
0
  6
CONTINUOUS
 62
     7
 10
-738.3891411185
 20
-1037.6619170487
 30
0.0
 11
-745.5178207749
 21
-1030.5332373923
 31
0.0
  0
ARC
  5
314
  8
0
  6
CONTINUOUS
 62
     7
 10
-747.6391411185
 20
-1028.4119170487
 30
0.0
 40
3.000000000000129
 50
315.0
 51
340.5287793655
  0
ARC
  5
315
  8
0
  6
CONTINUOUS
 62
     7
 10
-159.1391407737
 20
-1025.0780509753
 30
0.0
 40
6.342228196354819
 50
256.3193515963
 51
283.6806484037
  0
LINE
  5
316
  8
0
  6
CONTINUOUS
 62
     7
 10
-157.6391411185
 20
-1031.2403441735
 30
0.0
 11
-157.6391411185
 21
-1046.9119170487
 31
0.0
  0
LINE
  5
317
  8
0
  6
CONTINUOUS
 62
     7
 10
-160.6391411185
 20
-1046.9119170487
 30
0.0
 11
-157.639140429
 21
-1046.9119170487
 31
0.0
  0
LINE
  5
318
  8
0
  6
CONTINUOUS
 62
     7
 10
-159.6391411185
 20
-1031.2403441735
 30
0.0
 11
-157.6391411185
 21
-1031.2403441735
 31
0.0
  0
LINE
  5
319
  8
0
  6
CONTINUOUS
 62
     7
 10
-178.1391411185
 20
-1046.9119170487
 30
0.0
 11
-160.6391411185
 21
-1046.9119170487
 31
0.0
  0
LINE
  5
31A
  8
0
  6
CONTINUOUS
 62
     7
 10
-178.1391411185
 20
-1037.6619170487
 30
0.0
 11
-178.1391411185
 21
-1046.9119170487
 31
0.0
  0
LINE
  5
31B
  8
0
  6
CONTINUOUS
 62
     7
 10
-178.1391411185
 20
-1037.6619170487
 30
0.0
 11
-168.8891411185
 21
-1037.6619170487
 31
0.0
  0
LINE
  5
31C
  8
0
  6
CONTINUOUS
 62
     7
 10
-168.8891411185
 20
-1037.6619170487
 30
0.0
 11
-161.760461462
 21
-1030.5332373923
 31
0.0
  0
ARC
  5
31D
  8
0
  6
CONTINUOUS
 62
     7
 10
-159.6391411185
 20
-1028.4119170487
 30
0.0
 40
3.000000000000255
 50
225.0
 51
250.5287793655
  0
LINE
  5
31E
  8
0
  6
CONTINUOUS
 62
     7
 10
-744.8107139937
 20
-1028.4119170487
 30
0.0
 11
-744.8107139937
 21
-1026.4119163592
 31
0.0
  0
LINE
  5
31F
  8
0
  6
CONTINUOUS
 62
     7
 10
-159.6391411185
 20
-1031.2403441735
 30
0.0
 11
-159.6391411185
 21
-1029.4119170487
 31
0.0
  0
LINE
  5
320
  8
0
  6
CONTINUOUS
 62
     7
 10
-157.6391411185
 20
-1029.4119170487
 30
0.0
 11
-159.6391411185
 21
-1029.4119170487
 31
0.0
  0
LINE
  5
321
  8
0
  6
CONTINUOUS
 62
     7
 10
-157.6391411185
 20
-1031.2403441735
 30
0.0
 11
-157.6391411185
 21
-1029.4119170487
 31
0.0
  0
LINE
  5
322
  8
0
  6
CONTINUOUS
 62
     7
 10
-160.6391411185
 20
-1026.4119170487
 30
0.0
 11
-160.6391411185
 21
-1028.4119170487
 31
0.0
  0
LINE
  5
323
  8
0
  6
CONTINUOUS
 62
     7
 10
-160.6391411185
 20
-1028.4119170487
 30
0.0
 11
-162.4675682432
 21
-1028.4119170487
 31
0.0
  0
LINE
  5
324
  8
0
  6
CONTINUOUS
 62
     7
 10
-160.6391411185
 20
-1026.4119170487
 30
0.0
 11
-162.4675682432
 21
-1026.4119170487
 31
0.0
  0
LINE
  5
325
  8
0
  6
CONTINUOUS
 62
     7
 10
-746.6391411185
 20
-1028.4119170487
 30
0.0
 11
-746.6391411185
 21
-1026.4119168436
 31
0.0
  0
LINE
  5
326
  8
0
  6
CONTINUOUS
 62
     7
 10
-744.8107139937
 20
-1028.4119170487
 30
0.0
 11
-746.6391411185
 21
-1028.4119170487
 31
0.0
  0
LINE
  5
327
  8
0
  6
CONTINUOUS
 62
     7
 10
-744.8107139937
 20
-1026.4119170487
 30
0.0
 11
-746.6391411185
 21
-1026.4119170487
 31
0.0
  0
LINE
  5
328
  8
0
  6
CONTINUOUS
 62
     7
 10
-747.6391411185
 20
-1029.4119170487
 30
0.0
 11
-749.6391413236
 21
-1029.4119170487
 31
0.0
  0
LINE
  5
329
  8
0
  6
CONTINUOUS
 62
     7
 10
-747.6391411185
 20
-1029.4119170487
 30
0.0
 11
-747.6391411185
 21
-1031.2403441735
 31
0.0
  0
LINE
  5
32A
  8
0
  6
CONTINUOUS
 62
     7
 10
-749.6391411185
 20
-1029.4119170487
 30
0.0
 11
-749.6391411185
 21
-1031.2403441735
 31
0.0
  0
ARC
  5
32B
  8
0
  6
CONTINUOUS
 62
     7
 10
-160.6391411185
 20
-1029.4119170487
 30
0.0
 40
1.000000205097905
 50
0.0
 51
90.0
  0
ARC
  5
32C
  8
0
  6
CONTINUOUS
 62
     7
 10
-160.6391411185
 20
-1029.4119170487
 30
0.0
 40
3.000000205097962
 50
0.0
 51
90.0
  0
ARC
  5
32D
  8
0
  6
CONTINUOUS
 62
     7
 10
-746.6391411185
 20
-1029.4119170487
 30
0.0
 40
3.000000205097649
 50
90.0
 51
180.0
  0
ARC
  5
32E
  8
0
  6
CONTINUOUS
 62
     7
 10
-746.6391411185
 20
-1029.4119170487
 30
0.0
 40
1.00000020509799
 50
90.0
 51
180.0
  0
LINE
  5
32F
  8
0
  6
CONTINUOUS
 62
     7
 10
-163.1391411185
 20
-1051.4119170487
 30
0.0
 11
-152.1391411185
 21
-1051.4119170487
 31
0.0
  0
ARC
  5
330
  8
0
  6
CONTINUOUS
 62
     7
 10
-157.6391411185
 20
-1051.4119170487
 30
0.0
 40
5.500000000000028
 50
0.0
 51
90.0
  0
ARC
  5
331
  8
0
  6
CONTINUOUS
 62
     7
 10
-157.6391411185
 20
-1051.4119170487
 30
0.0
 40
5.500000000000082
 50
125.0968012274
 51
180.0
  0
ARC
  5
332
  8
0
  6
CONTINUOUS
 62
     7
 10
-172.6214644766
 20
-1052.9881553663
 30
0.0
 40
0.9239307926655629
 50
268.9037503915
 51
332.6999137426
  0
LINE
  5
333
  8
0
  6
CONTINUOUS
 62
     7
 10
-172.6391411185
 20
-1053.9119170487
 30
0.0
 11
-173.1391411185
 21
-1053.9119170487
 31
0.0
  0
LINE
  5
334
  8
0
  6
CONTINUOUS
 62
     7
 10
-173.1391411185
 20
-1053.9119170487
 30
0.0
 11
-174.0051665223
 21
-1053.9119170487
 31
0.0
  0
ARC
  5
335
  8
0
  6
CONTINUOUS
 62
     7
 10
-173.1391411185
 20
-1054.4119170487
 30
0.0
 40
0.999999999998181
 50
89.9999999999
 51
150.0000000001
  0
ARC
  5
336
  8
0
  6
CONTINUOUS
 62
     7
 10
-162.6822202484
 20
-1053.0088320088
 30
0.0
 40
0.904111940416987
 50
206.4767949502
 51
272.7310636398
  0
ARC
  5
337
  8
0
  6
CONTINUOUS
 62
     7
 10
-162.1391411185
 20
-1054.4119170487
 30
0.0
 40
0.9999999999995839
 50
30.0
 51
90.0
  0
LINE
  5
338
  8
0
  6
CONTINUOUS
 62
     7
 10
-161.2731157147
 20
-1053.9119170487
 30
0.0
 11
-162.1391411185
 21
-1053.9119170487
 31
0.0
  0
LINE
  5
339
  8
0
  6
CONTINUOUS
 62
     7
 10
-162.1391411185
 20
-1053.9119170487
 30
0.0
 11
-162.6391411185
 21
-1053.9119170487
 31
0.0
  0
LINE
  5
33A
  8
0
  6
CONTINUOUS
 62
     7
 10
-172.6391411185
 20
-1053.9119170487
 30
0.0
 11
-162.6391411185
 21
-1053.9119170487
 31
0.0
  0
LINE
  5
33B
  8
0
  6
CONTINUOUS
 62
     7
 10
-162.1391411185
 20
-1059.4119170487
 30
0.0
 11
-173.1391411185
 21
-1059.4119170487
 31
0.0
  0
LINE
  5
33C
  8
0
  6
CONTINUOUS
 62
     7
 10
-173.1391411185
 20
-1053.9119170487
 30
0.0
 11
-173.1391411185
 21
-1058.9119170487
 31
0.0
  0
LINE
  5
33D
  8
0
  6
CONTINUOUS
 62
     7
 10
-162.1391411185
 20
-1053.9119170487
 30
0.0
 11
-162.1391411185
 21
-1058.9119170487
 31
0.0
  0
ARC
  5
33E
  8
0
  6
CONTINUOUS
 62
     7
 10
-173.1391411185
 20
-1054.4119170487
 30
0.0
 40
0.5
 50
90.0
 51
180.0
  0
ARC
  5
33F
  8
0
  6
CONTINUOUS
 62
     7
 10
-173.1391411185
 20
-1054.4119170487
 30
0.0
 40
1.000000000000008
 50
150.0
 51
180.0
  0
ARC
  5
340
  8
0
  6
CONTINUOUS
 62
     7
 10
-162.1391411185
 20
-1054.4119170487
 30
0.0
 40
0.5
 50
0.0
 51
90.0
  0
ARC
  5
341
  8
0
  6
CONTINUOUS
 62
     7
 10
-162.1391411185
 20
-1054.4119170487
 30
0.0
 40
1.000000000000008
 50
0.0
 51
30.0
  0
LINE
  5
342
  8
0
  6
CONTINUOUS
 62
     7
 10
-161.6391411185
 20
-1058.4119170487
 30
0.0
 11
-161.6391411185
 21
-1054.4119170487
 31
0.0
  0
LINE
  5
343
  8
0
  6
CONTINUOUS
 62
     7
 10
-161.1391411185
 20
-1054.4119170487
 30
0.0
 11
-161.1391411185
 21
-1058.4119170487
 31
0.0
  0
LINE
  5
344
  8
0
  6
CONTINUOUS
 62
     7
 10
-174.1391411185
 20
-1058.4119170487
 30
0.0
 11
-174.1391411185
 21
-1054.4119170487
 31
0.0
  0
LINE
  5
345
  8
0
  6
CONTINUOUS
 62
     7
 10
-173.6391411185
 20
-1054.4119170487
 30
0.0
 11
-173.6391411185
 21
-1058.4119170487
 31
0.0
  0
ARC
  5
346
  8
0
  6
CONTINUOUS
 62
     7
 10
-162.1391411185
 20
-1058.4119170487
 30
0.0
 40
1.0
 50
270.0
 51
0.0
  0
ARC
  5
347
  8
0
  6
CONTINUOUS
 62
     7
 10
-162.1391411185
 20
-1058.4119170487
 30
0.0
 40
0.5
 50
270.0
 51
0.0
  0
ARC
  5
348
  8
0
  6
CONTINUOUS
 62
     7
 10
-173.1391411185
 20
-1058.4119170487
 30
0.0
 40
1.0
 50
180.0
 51
270.0
  0
ARC
  5
349
  8
0
  6
CONTINUOUS
 62
     7
 10
-173.1391411185
 20
-1058.4119170487
 30
0.0
 40
0.5000000000002274
 50
180.0
 51
270.0
  0
ARC
  5
34A
  8
0
  6
CONTINUOUS
 62
     7
 10
-162.6391411185
 20
-1051.9119170487
 30
0.0
 40
1.000000000000008
 50
119.1647304528
 51
150.0
  0
LINE
  5
34B
  8
0
  6
CONTINUOUS
 62
     7
 10
-174.1391411185
 20
-1051.4119170487
 30
0.0
 11
-174.1391411185
 21
-1050.9119170487
 31
0.0
  0
LINE
  5
34C
  8
0
  6
CONTINUOUS
 62
     7
 10
-172.6391411185
 20
-1050.9119170487
 30
0.0
 11
-174.1391411185
 21
-1050.9119170487
 31
0.0
  0
ARC
  5
34D
  8
0
  6
CONTINUOUS
 62
     7
 10
-172.6391411185
 20
-1051.9119170487
 30
0.0
 40
1.0
 50
30.0
 51
90.0
  0
LINE
  5
34E
  8
0
  6
CONTINUOUS
 62
     7
 10
-159.6391411185
 20
-1029.4279526753
 30
0.0
 11
-159.6391411185
 21
-1028.4119170487
 31
0.0
  0
LINE
  5
34F
  8
0
  6
CONTINUOUS
 62
     7
 10
-147.6391411185
 20
-1030.4119170487
 30
0.0
 11
-147.6391411185
 21
-1028.4119170487
 31
0.0
  0
LINE
  5
350
  8
0
  6
CONTINUOUS
 62
     7
 10
-653.6391411185
 20
-1047.9119170487
 30
0.0
 11
-645.6391411185
 21
-1047.9119170487
 31
0.0
  0
LINE
  5
351
  8
0
  6
CONTINUOUS
 62
     7
 10
-653.1391411185
 20
-1048.4119170487
 30
0.0
 11
-646.1391411185
 21
-1048.4119170487
 31
0.0
  0
LINE
  5
352
  8
0
  6
CONTINUOUS
 62
     7
 10
338.360860401
 20
-1047.9119170487
 30
0.0
 11
346.360860401
 21
-1047.9119170487
 31
0.0
  0
LINE
  5
353
  8
0
  6
CONTINUOUS
 62
     7
 10
338.860860401
 20
-1048.4119170487
 30
0.0
 11
345.860860401
 21
-1048.4119170487
 31
0.0
  0
LINE
  5
354
  8
0
  6
CONTINUOUS
 62
     7
 10
-145.5178207749
 20
-1030.5332373923
 30
0.0
 11
-138.3891411185
 21
-1037.6619170487
 31
0.0
  0
LINE
  5
355
  8
0
  6
CONTINUOUS
 62
     7
 10
-138.3891411185
 20
-1037.6619170487
 30
0.0
 11
-129.1391411185
 21
-1037.6619170487
 31
0.0
  0
LINE
  5
356
  8
0
  6
CONTINUOUS
 62
     7
 10
-129.1391411185
 20
-1046.9119170487
 30
0.0
 11
-129.1391411185
 21
-1037.6619170487
 31
0.0
  0
LINE
  5
357
  8
0
  6
CONTINUOUS
 62
     7
 10
-129.1391411185
 20
-1046.9119170487
 30
0.0
 11
-145.6391411185
 21
-1046.9119170487
 31
0.0
  0
ARC
  5
358
  8
0
  6
CONTINUOUS
 62
     7
 10
-147.6391411185
 20
-1028.4119170487
 30
0.0
 40
3.000000000000024
 50
311.8103148958
 51
315.0
  0
LINE
  5
359
  8
0
  6
CONTINUOUS
 62
     7
 10
-149.6391418073
 20
-1046.9119170487
 30
0.0
 11
-145.6391411185
 21
-1046.9119170487
 31
0.0
  0
LINE
  5
35A
  8
0
  6
CONTINUOUS
 62
     7
 10
-149.6391411185
 20
-1046.9119170487
 30
0.0
 11
-149.6391411185
 21
-1030.6479850262
 31
0.0
  0
POLYLINE
  5
35B
  8
0
  6
CONTINUOUS
 62
     7
 66
     1
 10
0.0
 20
0.0
 30
0.0
  0
VERTEX
  5
5D4
  8
0
  6
CONTINUOUS
 62
     7
 10
-145.6391411185
 20
-1030.6479850262
 30
0.0
  0
VERTEX
  5
5D5
  8
0
  6
CONTINUOUS
 62
     7
 10
-146.465818188
 20
-1030.9820961049
 30
0.0
  0
VERTEX
  5
5D6
  8
0
  6
CONTINUOUS
 62
     7
 10
-147.2279227981
 20
-1031.2207886242
 30
0.0
  0
VERTEX
  5
5D7
  8
0
  6
CONTINUOUS
 62
     7
 10
-147.9005757324
 20
-1031.3640625839
 30
0.0
  0
VERTEX
  5
5D8
  8
0
  6
CONTINUOUS
 62
     7
 10
-148.4675649806
 20
-1031.4119179842
 30
0.0
  0
VERTEX
  5
5D9
  8
0
  6
CONTINUOUS
 62
     7
 10
-148.9374927814
 20
-1031.3642813984
 30
0.0
  0
VERTEX
  5
5DA
  8
0
  6
CONTINUOUS
 62
     7
 10
-149.3091150573
 20
-1031.2210803768
 30
0.0
  0
VERTEX
  5
5DB
  8
0
  6
CONTINUOUS
 62
     7
 10
-149.5524095852
 20
-1030.9823149194
 30
0.0
  0
VERTEX
  5
5DC
  8
0
  6
CONTINUOUS
 62
     7
 10
-149.6391418073
 20
-1030.6479850262
 30
0.0
  0
SEQEND
  5
5D3
  8
0
  6
CONTINUOUS
 62
     7
  0
ARC
  5
35C
  8
0
  6
CONTINUOUS
 62
     7
 10
440.360860401
 20
-1028.4119170487
 30
0.0
 40
2.999999999999987
 50
221.8103148958
 51
224.9999952942
  0
LINE
  5
35D
  8
0
  6
CONTINUOUS
 62
     7
 10
438.2395398832
 20
-1030.5332372181
 30
0.0
 11
431.1108588815
 21
-1037.6619170487
 31
0.0
  0
LINE
  5
35E
  8
0
  6
CONTINUOUS
 62
     7
 10
431.1108588815
 20
-1037.6619170487
 30
0.0
 11
421.8608588815
 21
-1037.6619170487
 31
0.0
  0
LINE
  5
35F
  8
0
  6
CONTINUOUS
 62
     7
 10
421.8608588815
 20
-1037.6619170487
 30
0.0
 11
421.8608588815
 21
-1046.9119170487
 31
0.0
  0
LINE
  5
360
  8
0
  6
CONTINUOUS
 62
     7
 10
-129.1391411185
 20
-1046.9119170487
 30
0.0
 11
421.8608588815
 21
-1046.9119170487
 31
0.0
  0
LINE
  5
361
  8
0
  6
CONTINUOUS
 62
     7
 10
-129.1391411185
 20
-1046.9119170487
 30
0.0
 11
-129.1391411185
 21
-1037.6619170487
 31
0.0
  0
LINE
  5
362
  8
0
  6
CONTINUOUS
 62
     7
 10
-129.1391411185
 20
-1037.6619170487
 30
0.0
 11
-138.3891411185
 21
-1037.6619170487
 31
0.0
  0
LINE
  5
363
  8
0
  6
CONTINUOUS
 62
     7
 10
-138.3891411185
 20
-1037.6619170487
 30
0.0
 11
-145.5178207749
 21
-1030.5332373923
 31
0.0
  0
ARC
  5
364
  8
0
  6
CONTINUOUS
 62
     7
 10
-147.6391411185
 20
-1028.4119170487
 30
0.0
 40
2.999999999999984
 50
315.0
 51
318.1896851042
  0
LINE
  5
365
  8
0
  6
CONTINUOUS
 62
     7
 10
-149.6391411185
 20
-1030.6479850262
 30
0.0
 11
-147.6391411185
 21
-1030.6479850262
 31
0.0
  0
ARC
  5
366
  8
0
  6
CONTINUOUS
 62
     7
 10
-146.9860522014
 20
-1030.7617481993
 30
0.0
 40
0.6629238967079808
 50
170.1186639414
 51
228.9834968424
  0
POLYLINE
  5
367
  8
0
  6
CONTINUOUS
 62
     7
 66
     1
 10
0.0
 20
0.0
 30
0.0
  0
VERTEX
  5
5DE
  8
0
  6
CONTINUOUS
 62
     7
 10
438.1247924235
 20
-1030.4119170487
 30
0.0
  0
VERTEX
  5
5DF
  8
0
  6
CONTINUOUS
 62
     7
 10
437.7906813448
 20
-1029.5852399793
 30
0.0
  0
VERTEX
  5
5E0
  8
0
  6
CONTINUOUS
 62
     7
 10
437.5519888256
 20
-1028.8231353692
 30
0.0
  0
VERTEX
  5
5E1
  8
0
  6
CONTINUOUS
 62
     7
 10
437.4087148658
 20
-1028.1504824348
 30
0.0
  0
VERTEX
  5
5E2
  8
0
  6
CONTINUOUS
 62
     7
 10
437.3608594655
 20
-1027.5834931866
 30
0.0
  0
VERTEX
  5
5E3
  8
0
  6
CONTINUOUS
 62
     7
 10
437.4084960513
 20
-1027.1135653859
 30
0.0
  0
VERTEX
  5
5E4
  8
0
  6
CONTINUOUS
 62
     7
 10
437.5516970729
 20
-1026.7419431099
 30
0.0
  0
VERTEX
  5
5E5
  8
0
  6
CONTINUOUS
 62
     7
 10
437.7904625303
 20
-1026.498648582
 30
0.0
  0
VERTEX
  5
5E6
  8
0
  6
CONTINUOUS
 62
     7
 10
438.1247924235
 20
-1026.4119163599
 30
0.0
  0
SEQEND
  5
5DD
  8
0
  6
CONTINUOUS
 62
     7
  0
LINE
  5
368
  8
0
  6
CONTINUOUS
 62
     7
 10
438.1247924235
 20
-1026.4119170487
 30
0.0
 11
438.1247924235
 21
-1028.4119170487
 31
0.0
  0
ARC
  5
369
  8
0
  6
CONTINUOUS
 62
     7
 10
438.0110292504
 20
-1029.0650059658
 30
0.0
 40
0.6629238967425158
 50
80.1186639405
 51
138.9834968416
  0
POLYLINE
  5
36A
  8
0
  6
CONTINUOUS
 62
     7
 66
     1
 10
0.0
 20
0.0
 30
0.0
  0
VERTEX
  5
5E8
  8
0
  6
CONTINUOUS
 62
     7
 10
-145.403073141
 20
-1026.4119163599
 30
0.0
  0
VERTEX
  5
5E9
  8
0
  6
CONTINUOUS
 62
     7
 10
-145.0689620641
 20
-1026.498270953
 30
0.0
  0
VERTEX
  5
5EA
  8
0
  6
CONTINUOUS
 62
     7
 10
-144.8302695455
 20
-1026.7409750863
 30
0.0
  0
VERTEX
  5
5EB
  8
0
  6
CONTINUOUS
 62
     7
 10
-144.6869955851
 20
-1027.1125301177
 30
0.0
  0
VERTEX
  5
5EC
  8
0
  6
CONTINUOUS
 62
     7
 10
-144.639140183
 20
-1027.5834856873
 30
0.0
  0
VERTEX
  5
5ED
  8
0
  6
CONTINUOUS
 62
     7
 10
-144.6867767708
 20
-1028.1489726449
 30
0.0
  0
VERTEX
  5
5EE
  8
0
  6
CONTINUOUS
 62
     7
 10
-144.8299777931
 20
-1028.8209004285
 30
0.0
  0
VERTEX
  5
5EF
  8
0
  6
CONTINUOUS
 62
     7
 10
-145.0687432498
 20
-1029.5834540976
 30
0.0
  0
VERTEX
  5
5F0
  8
0
  6
CONTINUOUS
 62
     7
 10
-145.403073141
 20
-1030.4119170487
 30
0.0
  0
SEQEND
  5
5E7
  8
0
  6
CONTINUOUS
 62
     7
  0
LINE
  5
36B
  8
0
  6
CONTINUOUS
 62
     7
 10
-145.403073141
 20
-1026.4119170487
 30
0.0
 11
438.1247924235
 21
-1026.4119170487
 31
0.0
  0
ARC
  5
36C
  8
0
  6
CONTINUOUS
 62
     7
 10
-145.2890492078
 20
-1029.0645854393
 30
0.0
 40
0.6625544388563434
 50
41.0276332391
 51
99.9097920053
  0
LINE
  5
36D
  8
0
  6
CONTINUOUS
 62
     7
 10
-145.403073141
 20
-1028.4119170487
 30
0.0
 11
-145.403073141
 21
-1026.4119163599
 31
0.0
  0
LINE
  5
36E
  8
0
  6
CONTINUOUS
 62
     7
 10
421.860860401
 20
-1046.9119155293
 30
0.0
 11
438.360860401
 21
-1046.9119155293
 31
0.0
  0
LINE
  5
36F
  8
0
  6
CONTINUOUS
 62
     7
 10
421.860860401
 20
-1037.6619155293
 30
0.0
 11
421.860860401
 21
-1046.9119155293
 31
0.0
  0
LINE
  5
370
  8
0
  6
CONTINUOUS
 62
     7
 10
421.860860401
 20
-1037.6619155293
 30
0.0
 11
431.110860401
 21
-1037.6619155293
 31
0.0
  0
LINE
  5
371
  8
0
  6
CONTINUOUS
 62
     7
 10
431.110860401
 20
-1037.6619155293
 30
0.0
 11
438.2395398832
 21
-1030.5332372181
 31
0.0
  0
ARC
  5
372
  8
0
  6
CONTINUOUS
 62
     7
 10
440.360860401
 20
-1028.4119170487
 30
0.0
 40
2.999999999999982
 50
224.9999952942
 51
228.1896851042
  0
POLYLINE
  5
373
  8
0
  6
CONTINUOUS
 62
     7
 66
     1
 10
0.0
 20
0.0
 30
0.0
  0
VERTEX
  5
5F2
  8
0
  6
CONTINUOUS
 62
     7
 10
442.3608610898
 20
-1030.6479850262
 30
0.0
  0
VERTEX
  5
5F3
  8
0
  6
CONTINUOUS
 62
     7
 10
442.2745064968
 20
-1030.9820961031
 30
0.0
  0
VERTEX
  5
5F4
  8
0
  6
CONTINUOUS
 62
     7
 10
442.0318023635
 20
-1031.2207886217
 30
0.0
  0
VERTEX
  5
5F5
  8
0
  6
CONTINUOUS
 62
     7
 10
441.6602473321
 20
-1031.3640625821
 30
0.0
  0
VERTEX
  5
5F6
  8
0
  6
CONTINUOUS
 62
     7
 10
441.1892917624
 20
-1031.4119179842
 30
0.0
  0
VERTEX
  5
5F7
  8
0
  6
CONTINUOUS
 62
     7
 10
440.6238048049
 20
-1031.3642813964
 30
0.0
  0
VERTEX
  5
5F8
  8
0
  6
CONTINUOUS
 62
     7
 10
439.9518770214
 20
-1031.2210803741
 30
0.0
  0
VERTEX
  5
5F9
  8
0
  6
CONTINUOUS
 62
     7
 10
439.1893233523
 20
-1030.9823149174
 30
0.0
  0
VERTEX
  5
5FA
  8
0
  6
CONTINUOUS
 62
     7
 10
438.360860401
 20
-1030.6479850262
 30
0.0
  0
SEQEND
  5
5F1
  8
0
  6
CONTINUOUS
 62
     7
  0
ARC
  5
374
  8
0
  6
CONTINUOUS
 62
     7
 10
439.7081920104
 20
-1030.7620089594
 30
0.0
 40
0.662554438855779
 50
311.0276332323
 51
9.9097920049
  0
LINE
  5
375
  8
0
  6
CONTINUOUS
 62
     7
 10
440.360860401
 20
-1030.6479850262
 30
0.0
 11
442.360860401
 21
-1030.6479850262
 31
0.0
  0
LINE
  5
376
  8
0
  6
CONTINUOUS
 62
     7
 10
442.360860401
 20
-1030.6479850262
 30
0.0
 11
442.360860401
 21
-1046.9119155293
 31
0.0
  0
LINE
  5
377
  8
0
  6
CONTINUOUS
 62
     7
 10
438.360860401
 20
-1046.9119155293
 30
0.0
 11
442.3608610898
 21
-1046.9119155293
 31
0.0
  0
LINE
  5
378
  8
0
  6
CONTINUOUS
 62
     7
 10
438.360860401
 20
-1028.4119170487
 30
0.0
 11
438.1247924235
 21
-1028.4119170487
 31
0.0
  0
LINE
  5
379
  8
0
  6
CONTINUOUS
 62
     7
 10
438.360860401
 20
-1026.4119170487
 30
0.0
 11
438.360860401
 21
-1028.4119170487
 31
0.0
  0
LINE
  5
37A
  8
0
  6
CONTINUOUS
 62
     7
 10
438.360860401
 20
-1026.4119170487
 30
0.0
 11
438.1247924235
 21
-1026.4119170487
 31
0.0
  0
LINE
  5
37B
  8
0
  6
CONTINUOUS
 62
     7
 10
442.360860401
 20
-1030.4119170487
 30
0.0
 11
440.360860401
 21
-1030.4119170487
 31
0.0
  0
LINE
  5
37C
  8
0
  6
CONTINUOUS
 62
     7
 10
442.360860401
 20
-1030.6479850262
 30
0.0
 11
442.360860401
 21
-1030.4119170487
 31
0.0
  0
LINE
  5
37D
  8
0
  6
CONTINUOUS
 62
     7
 10
440.360860401
 20
-1030.6479850262
 30
0.0
 11
440.360860401
 21
-1030.4119170487
 31
0.0
  0
LINE
  5
37E
  8
0
  6
CONTINUOUS
 62
     7
 10
-145.6391411185
 20
-1028.4119170487
 30
0.0
 11
-145.6391411185
 21
-1026.4119168547
 31
0.0
  0
LINE
  5
37F
  8
0
  6
CONTINUOUS
 62
     7
 10
-145.403073141
 20
-1028.4119170487
 30
0.0
 11
-145.6391411185
 21
-1028.4119170487
 31
0.0
  0
LINE
  5
380
  8
0
  6
CONTINUOUS
 62
     7
 10
-145.403073141
 20
-1026.4119170487
 30
0.0
 11
-145.6391411185
 21
-1026.4119170487
 31
0.0
  0
LINE
  5
381
  8
0
  6
CONTINUOUS
 62
     7
 10
-147.6391411185
 20
-1030.4119170487
 30
0.0
 11
-149.6391413125
 21
-1030.4119170487
 31
0.0
  0
LINE
  5
382
  8
0
  6
CONTINUOUS
 62
     7
 10
-149.6391411185
 20
-1030.4119170487
 30
0.0
 11
-149.6391411185
 21
-1030.6479850262
 31
0.0
  0
LINE
  5
383
  8
0
  6
CONTINUOUS
 62
     7
 10
-147.6391411185
 20
-1030.4119170487
 30
0.0
 11
-147.6391411185
 21
-1030.6479850262
 31
0.0
  0
ARC
  5
384
  8
0
  6
CONTINUOUS
 62
     7
 10
-145.6391411185
 20
-1030.4119170487
 30
0.0
 40
4.000000194073493
 50
90.0
 51
180.0
  0
ARC
  5
385
  8
0
  6
CONTINUOUS
 62
     7
 10
-145.6391411185
 20
-1030.4119170487
 30
0.0
 40
2.000000194073181
 50
90.0
 51
180.0
  0
ARC
  5
386
  8
0
  6
CONTINUOUS
 62
     7
 10
438.360860401
 20
-1030.4119170487
 30
0.0
 40
4.000000214723286
 50
0.0
 51
90.0
  0
ARC
  5
387
  8
0
  6
CONTINUOUS
 62
     7
 10
438.360860401
 20
-1030.4119170487
 30
0.0
 40
2.000000214723286
 50
0.0
 51
90.0
  0
LINE
  5
388
  8
0
  6
CONTINUOUS
 62
     7
 10
-147.6391411185
 20
-1049.4119170487
 30
0.0
 11
-149.6391411038
 21
-1049.4119170487
 31
0.0
  0
LINE
  5
389
  8
0
  6
CONTINUOUS
 62
     7
 10
-147.6391411185
 20
-1049.4119170487
 30
0.0
 11
-147.6391411185
 21
-1046.9129220487
 31
0.0
  0
LINE
  5
38A
  8
0
  6
CONTINUOUS
 62
     7
 10
-149.6391411185
 20
-1046.9129220487
 30
0.0
 11
-149.6391411185
 21
-1049.4119170487
 31
0.0
  0
LINE
  5
38B
  8
0
  6
CONTINUOUS
 62
     7
 10
-148.8107139833
 20
-1052.2403441839
 30
0.0
 11
-150.2249275494
 21
-1050.8261306178
 31
0.0
  0
ARC
  5
38C
  8
0
  6
CONTINUOUS
 62
     7
 10
-151.6391411185
 20
-1049.4119170487
 30
0.0
 40
2.000000014699481
 50
314.9999999998
 51
0.0
  0
ARC
  5
38D
  8
0
  6
CONTINUOUS
 62
     7
 10
-151.6391411185
 20
-1049.4119170487
 30
0.0
 40
4.000000014699623
 50
314.9999999998
 51
0.0
  0
ARC
  5
38E
  8
0
  6
CONTINUOUS
 62
     7
 10
-151.6391411332
 20
-1049.4119170487
 30
0.0
 40
2.000000019897032
 50
270.0000004208
 51
315.0000002976
  0
ARC
  5
38F
  8
0
  6
CONTINUOUS
 62
     7
 10
-151.6391411185
 20
-1049.4119170487
 30
0.0
 40
4.000000014699776
 50
269.9999999997
 51
314.9999999998
  0
LINE
  5
390
  8
0
  6
CONTINUOUS
 62
     7
 10
-151.6391411185
 20
-1051.4119170634
 30
0.0
 11
-174.6391411185
 21
-1051.4119170487
 31
0.0
  0
LINE
  5
391
  8
0
  6
CONTINUOUS
 62
     7
 10
-174.6391411185
 20
-1053.4119170487
 30
0.0
 11
-151.6391411185
 21
-1053.4119170487
 31
0.0
  0
LINE
  5
392
  8
0
  6
CONTINUOUS
 62
     7
 10
-174.6391411185
 20
-1053.4119170487
 30
0.0
 11
-174.6391411185
 21
-1051.4119170487
 31
0.0
  0
LINE
  5
393
  8
0
  6
CONTINUOUS
 62
     7
 10
439.9518770216
 20
-1031.2210803742
 30
0.0
 11
440.1431059558
 21
-1031.2618350201
 31
0.0
  0
POLYLINE
  5
394
  8
0
  6
HIDDEN
 62
     7
 66
     1
 10
0.0
 20
0.0
 30
0.0
  0
VERTEX
  5
5FC
  8
0
  6
HIDDEN
 62
     7
 10
-746.6391411185
 20
-1031.2403441735
 30
0.0
  0
VERTEX
  5
5FD
  8
0
  6
HIDDEN
 62
     7
 10
-746.6391411185
 20
-1031.2403441735
 30
0.0
  0
SEQEND
  5
5FB
  8
0
  6
HIDDEN
 62
     7
  0
POLYLINE
  5
395
  8
0
  6
HIDDEN
 62
     7
 66
     1
 10
0.0
 20
0.0
 30
0.0
  0
VERTEX
  5
5FF
  8
0
  6
HIDDEN
 62
     7
 10
-162.4675682432
 20
-1029.4119170487
 30
0.0
  0
VERTEX
  5
600
  8
0
  6
HIDDEN
 62
     7
 10
-162.4675682432
 20
-1029.4119170487
 30
0.0
  0
SEQEND
  5
5FE
  8
0
  6
HIDDEN
 62
     7
  0
POLYLINE
  5
396
  8
0
  6
HIDDEN
 62
     7
 66
     1
 10
0.0
 20
0.0
 30
0.0
  0
VERTEX
  5
602
  8
0
  6
HIDDEN
 62
     7
 10
-160.6391411185
 20
-1031.2403441735
 30
0.0
  0
VERTEX
  5
603
  8
0
  6
HIDDEN
 62
     7
 10
-160.6391411185
 20
-1031.2403441735
 30
0.0
  0
SEQEND
  5
601
  8
0
  6
HIDDEN
 62
     7
  0
POLYLINE
  5
397
  8
0
  6
HIDDEN
 62
     7
 66
     1
 10
0.0
 20
0.0
 30
0.0
  0
VERTEX
  5
605
  8
0
  6
HIDDEN
 62
     7
 10
-744.8107139937
 20
-1029.4119170487
 30
0.0
  0
VERTEX
  5
606
  8
0
  6
HIDDEN
 62
     7
 10
-744.8107139937
 20
-1029.4119170487
 30
0.0
  0
SEQEND
  5
604
  8
0
  6
HIDDEN
 62
     7
  0
LINE
  5
398
  8
0
  6
HIDDEN
 62
     7
 10
-747.6391411185
 20
-1046.9119170487
 30
0.0
 11
-747.6391411185
 21
-1031.2403441735
 31
0.0
  0
LINE
  5
399
  8
0
  6
HIDDEN
 62
     7
 10
-744.8107139937
 20
-1028.4119170487
 30
0.0
 11
-162.4675682432
 21
-1028.4119170487
 31
0.0
  0
LINE
  5
39A
  8
0
  6
HIDDEN
 62
     7
 10
-159.6391411185
 20
-1031.2403441735
 30
0.0
 11
-159.6391411185
 21
-1046.9119170487
 31
0.0
  0
LINE
  5
39B
  8
0
  6
HIDDEN
 62
     7
 10
-242.1559800847
 20
-1030.9154505353
 30
0.0
 11
-233.1223021523
 21
-1030.9154505353
 31
0.0
  0
LINE
  5
39C
  8
0
  6
HIDDEN
 62
     7
 10
-240.6391411185
 20
-1029.6119170487
 30
0.0
 11
-234.6391411185
 21
-1029.6119170487
 31
0.0
  0
LINE
  5
39D
  8
0
  6
HIDDEN
 62
     7
 10
-159.6391411185
 20
-1030.1619170487
 30
0.0
 11
-157.6391411185
 21
-1030.1619170487
 31
0.0
  0
LINE
  5
39E
  8
0
  6
HIDDEN
 62
     7
 10
-733.1559800847
 20
-1030.9154505353
 30
0.0
 11
-724.1223021523
 21
-1030.9154505353
 31
0.0
  0
LINE
  5
39F
  8
0
  6
HIDDEN
 62
     7
 10
-731.6391411185
 20
-1029.6119170487
 30
0.0
 11
-725.6391411185
 21
-1029.6119170487
 31
0.0
  0
ARC
  5
3A0
  8
0
  6
HIDDEN
 62
     7
 10
-158.2559800528
 20
-1030.3519267565
 30
0.0
 40
1.081562124162078
 50
258.0437017486
 51
304.7727441178
  0
POLYLINE
  5
3A1
  8
0
  6
HIDDEN
 62
     7
 66
     1
 10
0.0
 20
0.0
 30
0.0
  0
VERTEX
  5
608
  8
0
  6
HIDDEN
 62
     7
 10
-744.8107139937
 20
-1029.4119170487
 30
0.0
  0
VERTEX
  5
609
  8
0
  6
HIDDEN
 62
     7
 10
-744.8107139937
 20
-1029.4119170487
 30
0.0
  0
SEQEND
  5
607
  8
0
  6
HIDDEN
 62
     7
  0
POLYLINE
  5
3A2
  8
0
  6
HIDDEN
 62
     7
 66
     1
 10
0.0
 20
0.0
 30
0.0
  0
VERTEX
  5
60B
  8
0
  6
HIDDEN
 62
     7
 10
-746.6391411185
 20
-1031.2403441735
 30
0.0
  0
VERTEX
  5
60C
  8
0
  6
HIDDEN
 62
     7
 10
-746.6391411185
 20
-1031.2403441735
 30
0.0
  0
SEQEND
  5
60A
  8
0
  6
HIDDEN
 62
     7
  0
POLYLINE
  5
3A3
  8
0
  6
HIDDEN
 62
     7
 66
     1
 10
0.0
 20
0.0
 30
0.0
  0
VERTEX
  5
60E
  8
0
  6
HIDDEN
 62
     7
 10
-160.6391411185
 20
-1031.2403441735
 30
0.0
  0
VERTEX
  5
60F
  8
0
  6
HIDDEN
 62
     7
 10
-160.6391411185
 20
-1031.2403441735
 30
0.0
  0
SEQEND
  5
60D
  8
0
  6
HIDDEN
 62
     7
  0
POLYLINE
  5
3A4
  8
0
  6
HIDDEN
 62
     7
 66
     1
 10
0.0
 20
0.0
 30
0.0
  0
VERTEX
  5
611
  8
0
  6
HIDDEN
 62
     7
 10
-162.4675682432
 20
-1029.4119170487
 30
0.0
  0
VERTEX
  5
612
  8
0
  6
HIDDEN
 62
     7
 10
-162.4675682432
 20
-1029.4119170487
 30
0.0
  0
SEQEND
  5
610
  8
0
  6
HIDDEN
 62
     7
  0
ARC
  5
3A5
  8
0
  6
HIDDEN
 62
     7
 10
-157.6391411185
 20
-1051.4119170487
 30
0.0
 40
5.500000000000082
 50
90.0
 51
125.0968012274
  0
POLYLINE
  5
3A6
  8
0
  6
HIDDEN
 62
     7
 66
     1
 10
0.0
 20
0.0
 30
0.0
  0
VERTEX
  5
614
  8
0
  6
HIDDEN
 62
     7
 10
-171.6391411185
 20
-1052.9119170487
 30
0.0
  0
VERTEX
  5
615
  8
0
  6
HIDDEN
 62
     7
 10
-171.7127460906
 20
-1053.2884701689
 30
0.0
  0
VERTEX
  5
616
  8
0
  6
HIDDEN
 62
     7
 10
-171.8004442905
 20
-1053.4119170487
 30
0.0
  0
SEQEND
  5
613
  8
0
  6
HIDDEN
 62
     7
  0
ARC
  5
3A7
  8
0
  6
HIDDEN
 62
     7
 10
-172.6391411185
 20
-1052.9119170487
 30
0.0
 40
0.5
 50
270.0
 51
0.0
  0
LINE
  5
3A8
  8
0
  6
HIDDEN
 62
     7
 10
-172.1391411185
 20
-1051.9119170487
 30
0.0
 11
-172.1391411185
 21
-1052.9119170487
 31
0.0
  0
ARC
  5
3A9
  8
0
  6
HIDDEN
 62
     7
 10
-172.6391411185
 20
-1051.9119170487
 30
0.0
 40
0.5000000000001705
 50
0.0
 51
90.0
  0
POLYLINE
  5
3AA
  8
0
  6
HIDDEN
 62
     7
 66
     1
 10
0.0
 20
0.0
 30
0.0
  0
VERTEX
  5
618
  8
0
  6
HIDDEN
 62
     7
 10
-171.7731157147
 20
-1051.4119170487
 30
0.0
  0
VERTEX
  5
619
  8
0
  6
HIDDEN
 62
     7
 10
-171.6600260395
 20
-1051.708610231
 30
0.0
  0
VERTEX
  5
61A
  8
0
  6
HIDDEN
 62
     7
 10
-171.6391411185
 20
-1051.9119170487
 30
0.0
  0
SEQEND
  5
617
  8
0
  6
HIDDEN
 62
     7
  0
LINE
  5
3AB
  8
0
  6
HIDDEN
 62
     7
 10
-171.6391411185
 20
-1052.9119170487
 30
0.0
 11
-171.6391411185
 21
-1051.9119170487
 31
0.0
  0
POLYLINE
  5
3AC
  8
0
  6
HIDDEN
 62
     7
 66
     1
 10
0.0
 20
0.0
 30
0.0
  0
VERTEX
  5
61C
  8
0
  6
HIDDEN
 62
     7
 10
-163.4915044083
 20
-1053.4119170487
 30
0.0
  0
VERTEX
  5
61D
  8
0
  6
HIDDEN
 62
     7
 10
-163.6186348415
 20
-1053.1133917282
 30
0.0
  0
VERTEX
  5
61E
  8
0
  6
HIDDEN
 62
     7
 10
-163.6391411185
 20
-1052.9119170487
 30
0.0
  0
SEQEND
  5
61B
  8
0
  6
HIDDEN
 62
     7
  0
LINE
  5
3AD
  8
0
  6
HIDDEN
 62
     7
 10
-163.6391411185
 20
-1051.9119170487
 30
0.0
 11
-163.6391411185
 21
-1052.9119170487
 31
0.0
  0
POLYLINE
  5
3AE
  8
0
  6
HIDDEN
 62
     7
 66
     1
 10
0.0
 20
0.0
 30
0.0
  0
VERTEX
  5
620
  8
0
  6
HIDDEN
 62
     7
 10
-163.6391411185
 20
-1051.9119170487
 30
0.0
  0
VERTEX
  5
621
  8
0
  6
HIDDEN
 62
     7
 10
-163.5894794067
 20
-1051.6006982543
 30
0.0
  0
VERTEX
  5
622
  8
0
  6
HIDDEN
 62
     7
 10
-163.5051665223
 20
-1051.4119170487
 30
0.0
  0
SEQEND
  5
61F
  8
0
  6
HIDDEN
 62
     7
  0
ARC
  5
3AF
  8
0
  6
HIDDEN
 62
     7
 10
-162.6391411185
 20
-1051.9119170487
 30
0.0
 40
0.4999999999995453
 50
89.9999999999
 51
180.0000000001
  0
LINE
  5
3B0
  8
0
  6
HIDDEN
 62
     7
 10
-163.1391411185
 20
-1052.9119170487
 30
0.0
 11
-163.1391411185
 21
-1051.9119170487
 31
0.0
  0
ARC
  5
3B1
  8
0
  6
HIDDEN
 62
     7
 10
-162.6391411185
 20
-1052.9119170487
 30
0.0
 40
0.5
 50
180.0
 51
270.0
  0
LINE
  5
3B2
  8
0
  6
HIDDEN
 62
     7
 10
-161.1391411185
 20
-1051.4119170487
 30
0.0
 11
-161.1391411185
 21
-1050.9119170487
 31
0.0
  0
LINE
  5
3B3
  8
0
  6
HIDDEN
 62
     7
 10
-161.1391411185
 20
-1050.9119170487
 30
0.0
 11
-162.6391411185
 21
-1050.9119170487
 31
0.0
  0
ARC
  5
3B4
  8
0
  6
HIDDEN
 62
     7
 10
-162.6391411185
 20
-1051.9119170487
 30
0.0
 40
1.000000000000227
 50
90.0
 51
119.1647304528
  0
ARC
  5
3B5
  8
0
  6
HIDDEN
 62
     7
 10
-711.6391411185
 20
-1028.4119170487
 30
0.0
 40
7.5
 50
180.0
 51
0.0
  0
LINE
  5
3B6
  8
0
  6
HIDDEN
 62
     7
 10
-160.6391394837
 20
-1028.4119170487
 30
0.0
 11
-159.6391411185
 21
-1028.4119170487
 31
0.0
  0
LINE
  5
3B7
  8
0
  6
HIDDEN
 62
     7
 10
-145.6391429722
 20
-1028.4119170487
 30
0.0
 11
-147.6391411185
 21
-1028.4119170487
 31
0.0
  0
ARC
  5
3B8
  8
0
  6
HIDDEN
 62
     7
 10
404.3608588815
 20
-1028.4119170487
 30
0.0
 40
7.500000000000057
 50
180.0
 51
0.0
  0
LINE
  5
3B9
  8
0
  6
HIDDEN
 62
     7
 10
-654.6391411185
 20
-1029.4119170487
 30
0.0
 11
-644.6391411185
 21
-1029.4119170487
 31
0.0
  0
LINE
  5
3BA
  8
0
  6
HIDDEN
 62
     7
 10
337.360860401
 20
-1029.4119170487
 30
0.0
 11
347.360860401
 21
-1029.4119170487
 31
0.0
  0
POLYLINE
  5
3BB
  8
0
  6
HIDDEN
 62
     7
 66
     1
 10
0.0
 20
0.0
 30
0.0
  0
VERTEX
  5
624
  8
0
  6
HIDDEN
 62
     7
 10
-147.0535249657
 20
-1031.4118831793
 30
0.0
  0
VERTEX
  5
625
  8
0
  6
HIDDEN
 62
     7
 10
-147.2883172339
 20
-1031.3642813984
 30
0.0
  0
VERTEX
  5
626
  8
0
  6
HIDDEN
 62
     7
 10
-147.4211134993
 20
-1031.2619379232
 30
0.0
  0
SEQEND
  5
623
  8
0
  6
HIDDEN
 62
     7
  0
POLYLINE
  5
3BC
  8
0
  6
HIDDEN
 62
     7
 66
     1
 10
0.0
 20
0.0
 30
0.0
  0
VERTEX
  5
628
  8
0
  6
HIDDEN
 62
     7
 10
-145.6391411185
 20
-1030.6479850262
 30
0.0
  0
VERTEX
  5
629
  8
0
  6
HIDDEN
 62
     7
 10
-145.6391411185
 20
-1030.6479850262
 30
0.0
  0
SEQEND
  5
627
  8
0
  6
HIDDEN
 62
     7
  0
POLYLINE
  5
3BD
  8
0
  6
HIDDEN
 62
     7
 66
     1
 10
0.0
 20
0.0
 30
0.0
  0
VERTEX
  5
62B
  8
0
  6
HIDDEN
 62
     7
 10
437.3608942704
 20
-1028.9975332014
 30
0.0
  0
VERTEX
  5
62C
  8
0
  6
HIDDEN
 62
     7
 10
437.4084960513
 20
-1028.7627409333
 30
0.0
  0
VERTEX
  5
62D
  8
0
  6
HIDDEN
 62
     7
 10
437.5108395265
 20
-1028.6299446679
 30
0.0
  0
SEQEND
  5
62A
  8
0
  6
HIDDEN
 62
     7
  0
POLYLINE
  5
3BE
  8
0
  6
HIDDEN
 62
     7
 66
     1
 10
0.0
 20
0.0
 30
0.0
  0
VERTEX
  5
62F
  8
0
  6
HIDDEN
 62
     7
 10
438.1247924235
 20
-1030.4119170487
 30
0.0
  0
VERTEX
  5
630
  8
0
  6
HIDDEN
 62
     7
 10
438.1247924235
 20
-1030.4119170487
 30
0.0
  0
SEQEND
  5
62E
  8
0
  6
HIDDEN
 62
     7
  0
POLYLINE
  5
3BF
  8
0
  6
HIDDEN
 62
     7
 66
     1
 10
0.0
 20
0.0
 30
0.0
  0
VERTEX
  5
632
  8
0
  6
HIDDEN
 62
     7
 10
-145.403073141
 20
-1030.4119170487
 30
0.0
  0
VERTEX
  5
633
  8
0
  6
HIDDEN
 62
     7
 10
-145.403073141
 20
-1030.4119170487
 30
0.0
  0
SEQEND
  5
631
  8
0
  6
HIDDEN
 62
     7
  0
ARC
  5
3C0
  8
0
  6
HIDDEN
 62
     7
 10
-145.0503074349
 20
-1028.9507443343
 30
0.0
 40
0.4138287962482244
 50
353.4558770544
 51
50.8834237076
  0
ARC
  5
3C1
  8
0
  6
HIDDEN
 62
     7
 10
439.8220331153
 20
-1031.0007507321
 30
0.0
 40
0.413828796468869
 50
263.455877074
 51
320.8834236822
  0
POLYLINE
  5
3C2
  8
0
  6
HIDDEN
 62
     7
 66
     1
 10
0.0
 20
0.0
 30
0.0
  0
VERTEX
  5
635
  8
0
  6
HIDDEN
 62
     7
 10
438.360860401
 20
-1030.6479850262
 30
0.0
  0
VERTEX
  5
636
  8
0
  6
HIDDEN
 62
     7
 10
438.360860401
 20
-1030.6479850262
 30
0.0
  0
SEQEND
  5
634
  8
0
  6
HIDDEN
 62
     7
  0
LINE
  5
3C3
  8
0
  6
HIDDEN
 62
     7
 10
-145.403073141
 20
-1028.4119170487
 30
0.0
 11
438.1247924235
 21
-1028.4119170487
 31
0.0
  0
LINE
  5
3C4
  8
0
  6
HIDDEN
 62
     7
 10
-147.6391411185
 20
-1046.9119170487
 30
0.0
 11
-147.6391411185
 21
-1030.6479850262
 31
0.0
  0
LINE
  5
3C5
  8
0
  6
HIDDEN
 62
     7
 10
440.360860401
 20
-1030.6479850262
 30
0.0
 11
440.360860401
 21
-1046.9119155293
 31
0.0
  0
LINE
  5
3C6
  8
0
  6
HIDDEN
 62
     7
 10
-74.1559800847
 20
-1030.9154505353
 30
0.0
 11
-65.1223021523
 21
-1030.9154505353
 31
0.0
  0
LINE
  5
3C7
  8
0
  6
HIDDEN
 62
     7
 10
-72.6391411185
 20
-1029.6119170487
 30
0.0
 11
-66.6391411185
 21
-1029.6119170487
 31
0.0
  0
LINE
  5
3C8
  8
0
  6
HIDDEN
 62
     7
 10
-147.6295107649
 20
-1030.2158827491
 30
0.0
 11
-149.6198802183
 21
-1030.0198484684
 31
0.0
  0
LINE
  5
3C9
  8
0
  6
HIDDEN
 62
     7
 10
416.8440199153
 20
-1030.9154505353
 30
0.0
 11
425.8776978477
 21
-1030.9154505353
 31
0.0
  0
LINE
  5
3CA
  8
0
  6
HIDDEN
 62
     7
 10
418.3608588815
 20
-1029.6119170487
 30
0.0
 11
424.3608588815
 21
-1029.6119170487
 31
0.0
  0
LINE
  5
3CB
  8
0
  6
HIDDEN
 62
     7
 10
-163.1391411185
 20
-1053.4119170487
 30
0.0
 11
-163.1391411185
 21
-1052.9119170487
 31
0.0
  0
LINE
  5
3CC
  8
0
  6
HIDDEN
 62
     7
 10
-163.1391411185
 20
-1051.9119170487
 30
0.0
 11
-163.1391411185
 21
-1051.4119170487
 31
0.0
  0
LINE
  5
3CD
  8
0
  6
HIDDEN
 62
     7
 10
-172.1391411185
 20
-1053.4119170487
 30
0.0
 11
-172.1391411185
 21
-1052.9119170487
 31
0.0
  0
LINE
  5
3CE
  8
0
  6
HIDDEN
 62
     7
 10
-172.1391411185
 20
-1051.9119170487
 30
0.0
 11
-172.1391411185
 21
-1051.4119170487
 31
0.0
  0
POLYLINE
  5
3CF
  8
0
  6
HIDDEN
 62
     7
 66
     1
 10
0.0
 20
0.0
 30
0.0
  0
VERTEX
  5
638
  8
0
  6
HIDDEN
 62
     7
 10
438.1247924235
 20
-1030.4119170487
 30
0.0
  0
VERTEX
  5
639
  8
0
  6
HIDDEN
 62
     7
 10
438.1247924235
 20
-1030.4119170487
 30
0.0
  0
SEQEND
  5
637
  8
0
  6
HIDDEN
 62
     7
  0
POLYLINE
  5
3D0
  8
0
  6
HIDDEN
 62
     7
 66
     1
 10
0.0
 20
0.0
 30
0.0
  0
VERTEX
  5
63B
  8
0
  6
HIDDEN
 62
     7
 10
-149.6391418073
 20
-1030.6479850262
 30
0.0
  0
VERTEX
  5
63C
  8
0
  6
HIDDEN
 62
     7
 10
-149.5524076119
 20
-1030.9823149175
 30
0.0
  0
VERTEX
  5
63D
  8
0
  6
HIDDEN
 62
     7
 10
-149.3091100045
 20
-1031.2210803742
 30
0.0
  0
VERTEX
  5
63E
  8
0
  6
HIDDEN
 62
     7
 10
-148.9374873913
 20
-1031.3642813964
 30
0.0
  0
VERTEX
  5
63F
  8
0
  6
HIDDEN
 62
     7
 10
-148.4682708884
 20
-1031.4118464255
 30
0.0
  0
SEQEND
  5
63A
  8
0
  6
HIDDEN
 62
     7
  0
LINE
  5
3D1
  8
0
  6
HIDDEN
 62
     7
 10
-146.4658181882
 20
-1030.9820961049
 30
0.0
 11
-145.6391411185
 21
-1030.6479850262
 31
0.0
  0
POLYLINE
  5
3D2
  8
0
  6
HIDDEN
 62
     7
 66
     1
 10
0.0
 20
0.0
 30
0.0
  0
VERTEX
  5
641
  8
0
  6
HIDDEN
 62
     7
 10
-145.6391411185
 20
-1030.6479850262
 30
0.0
  0
VERTEX
  5
642
  8
0
  6
HIDDEN
 62
     7
 10
-145.6391411185
 20
-1030.6479850262
 30
0.0
  0
SEQEND
  5
640
  8
0
  6
HIDDEN
 62
     7
  0
POLYLINE
  5
3D3
  8
0
  6
HIDDEN
 62
     7
 66
     1
 10
0.0
 20
0.0
 30
0.0
  0
VERTEX
  5
644
  8
0
  6
HIDDEN
 62
     7
 10
-147.6391418073
 20
-1030.6479850262
 30
0.0
  0
VERTEX
  5
645
  8
0
  6
HIDDEN
 62
     7
 10
-147.5957747021
 20
-1030.9823149175
 30
0.0
  0
VERTEX
  5
646
  8
0
  6
HIDDEN
 62
     7
 10
-147.4741258775
 20
-1031.2210803742
 30
0.0
  0
VERTEX
  5
647
  8
0
  6
HIDDEN
 62
     7
 10
-147.2883145389
 20
-1031.3642813964
 30
0.0
  0
VERTEX
  5
648
  8
0
  6
HIDDEN
 62
     7
 10
-147.0533532931
 20
-1031.4119179842
 30
0.0
  0
VERTEX
  5
649
  8
0
  6
HIDDEN
 62
     7
 10
-147.0535261165
 20
-1031.4118829456
 30
0.0
  0
SEQEND
  5
643
  8
0
  6
HIDDEN
 62
     7
  0
POLYLINE
  5
3D4
  8
0
  6
HIDDEN
 62
     7
 66
     1
 10
0.0
 20
0.0
 30
0.0
  0
VERTEX
  5
64B
  8
0
  6
HIDDEN
 62
     7
 10
438.360860401
 20
-1030.6479850262
 30
0.0
  0
VERTEX
  5
64C
  8
0
  6
HIDDEN
 62
     7
 10
439.1893233525
 20
-1030.9823149175
 30
0.0
  0
VERTEX
  5
64D
  8
0
  6
HIDDEN
 62
     7
 10
439.9518770216
 20
-1031.2210803742
 30
0.0
  0
SEQEND
  5
64A
  8
0
  6
HIDDEN
 62
     7
  0
POLYLINE
  5
3D5
  8
0
  6
HIDDEN
 62
     7
 66
     1
 10
0.0
 20
0.0
 30
0.0
  0
VERTEX
  5
64F
  8
0
  6
HIDDEN
 62
     7
 10
440.1431059558
 20
-1031.2618350201
 30
0.0
  0
VERTEX
  5
650
  8
0
  6
HIDDEN
 62
     7
 10
440.6238048051
 20
-1031.3642813965
 30
0.0
  0
VERTEX
  5
651
  8
0
  6
HIDDEN
 62
     7
 10
441.1884422906
 20
-1031.4118464248
 30
0.0
  0
SEQEND
  5
64E
  8
0
  6
HIDDEN
 62
     7
  0
POLYLINE
  5
3D6
  8
0
  6
HIDDEN
 62
     7
 66
     1
 10
0.0
 20
0.0
 30
0.0
  0
VERTEX
  5
653
  8
0
  6
HIDDEN
 62
     7
 10
438.360860401
 20
-1030.6479850262
 30
0.0
  0
VERTEX
  5
654
  8
0
  6
HIDDEN
 62
     7
 10
438.360860401
 20
-1030.6479850262
 30
0.0
  0
SEQEND
  5
652
  8
0
  6
HIDDEN
 62
     7
  0
POLYLINE
  5
3D7
  8
0
  6
HIDDEN
 62
     7
 66
     1
 10
0.0
 20
0.0
 30
0.0
  0
VERTEX
  5
656
  8
0
  6
HIDDEN
 62
     7
 10
-145.403073141
 20
-1030.4119170487
 30
0.0
  0
VERTEX
  5
657
  8
0
  6
HIDDEN
 62
     7
 10
-145.403073141
 20
-1030.4119170487
 30
0.0
  0
SEQEND
  5
655
  8
0
  6
HIDDEN
 62
     7
  0
LINE
  5
3D8
  8
0
  6
HIDDEN
 62
     7
 10
-748.7181813447
 20
-1031.4114918224
 30
0.0
 11
-747.3321555606
 21
-1031.4114918222
 31
0.0
  0
LINE
  5
3D9
  8
0
  6
HIDDEN
 62
     7
 10
-162.6387158921
 20
-1027.3328768218
 30
0.0
 11
-162.6387158919
 21
-1028.7189026064
 31
0.0
  0
LINE
  5
3DA
  8
0
  6
HIDDEN
 62
     7
 10
-159.918244069
 20
-1031.4114918131
 30
0.0
 11
-158.476437063
 21
-1031.4114918146
 31
0.0
  0
LINE
  5
3DB
  8
0
  6
HIDDEN
 62
     7
 10
-744.6395663541
 20
-1028.6910199992
 30
0.0
 11
-744.6395663526
 21
-1027.2492129932
 31
0.0
  0
ARC
  5
3DC
  8
0
  6
HIDDEN
 62
     7
 10
-230.755024494
 20
-1028.8819170487
 30
0.0
 40
2.470000000000027
 50
90.0
 51
139.3250604347
  0
ARC
  5
3DD
  8
0
  6
HIDDEN
 62
     7
 10
-244.5232577429
 20
-1028.8819170487
 30
0.0
 40
2.470000000000255
 50
40.6749395653
 51
90.0
  0
ARC
  5
3DE
  8
0
  6
HIDDEN
 62
     7
 10
-230.755024494
 20
-1028.8819170487
 30
0.0
 40
0.469999999999964
 50
90.0
 51
139.3250604348
  0
ARC
  5
3DF
  8
0
  6
HIDDEN
 62
     7
 10
-244.5232577429
 20
-1028.8819170487
 30
0.0
 40
0.4699999999999425
 50
40.6749395652
 51
90.0
  0
LINE
  5
3E0
  8
0
  6
HIDDEN
 62
     7
 10
-244.1668005858
 20
-1028.5755866794
 30
0.0
 11
-242.1559800847
 21
-1030.9154505353
 31
0.0
  0
LINE
  5
3E1
  8
0
  6
HIDDEN
 62
     7
 10
-233.1223021523
 20
-1030.9154505353
 30
0.0
 11
-231.1114816511
 21
-1028.5755866794
 31
0.0
  0
LINE
  5
3E2
  8
0
  6
HIDDEN
 62
     7
 10
-242.6499616196
 20
-1027.2720531928
 30
0.0
 11
-240.6391411185
 21
-1029.6119170487
 31
0.0
  0
LINE
  5
3E3
  8
0
  6
HIDDEN
 62
     7
 10
-234.6391411185
 20
-1029.6119170487
 30
0.0
 11
-232.6283206173
 21
-1027.2720531928
 31
0.0
  0
LINE
  5
3E4
  8
0
  6
HIDDEN
 62
     7
 10
-233.1223021523
 20
-1030.9154505353
 30
0.0
 11
-234.6391411185
 21
-1029.6119170487
 31
0.0
  0
LINE
  5
3E5
  8
0
  6
HIDDEN
 62
     7
 10
-240.6391411185
 20
-1029.6119170487
 30
0.0
 11
-242.1559800847
 21
-1030.9154505353
 31
0.0
  0
ARC
  5
3E6
  8
0
  6
HIDDEN
 62
     7
 10
-721.755024494
 20
-1028.8819170487
 30
0.0
 40
0.4700000000001553
 50
90.0
 51
139.3250604347
  0
ARC
  5
3E7
  8
0
  6
HIDDEN
 62
     7
 10
-735.5232577429
 20
-1028.8819170487
 30
0.0
 40
0.4700000000000691
 50
40.6749395653
 51
90.0
  0
ARC
  5
3E8
  8
0
  6
HIDDEN
 62
     7
 10
-721.755024494
 20
-1028.8819170487
 30
0.0
 40
2.470000000000027
 50
90.0
 51
139.3250604347
  0
ARC
  5
3E9
  8
0
  6
HIDDEN
 62
     7
 10
-735.5232577429
 20
-1028.8819170487
 30
0.0
 40
2.470000000000116
 50
40.6749395653
 51
90.0
  0
LINE
  5
3EA
  8
0
  6
HIDDEN
 62
     7
 10
-735.1668005858
 20
-1028.5755866794
 30
0.0
 11
-733.1559800847
 21
-1030.9154505353
 31
0.0
  0
LINE
  5
3EB
  8
0
  6
HIDDEN
 62
     7
 10
-724.1223021523
 20
-1030.9154505353
 30
0.0
 11
-722.1114816511
 21
-1028.5755866794
 31
0.0
  0
LINE
  5
3EC
  8
0
  6
HIDDEN
 62
     7
 10
-733.6499616196
 20
-1027.2720531928
 30
0.0
 11
-731.6391411185
 21
-1029.6119170487
 31
0.0
  0
LINE
  5
3ED
  8
0
  6
HIDDEN
 62
     7
 10
-725.6391411185
 20
-1029.6119170487
 30
0.0
 11
-723.6283206173
 21
-1027.2720531928
 31
0.0
  0
LINE
  5
3EE
  8
0
  6
HIDDEN
 62
     7
 10
-724.1223021523
 20
-1030.9154505353
 30
0.0
 11
-725.6391411185
 21
-1029.6119170487
 31
0.0
  0
LINE
  5
3EF
  8
0
  6
HIDDEN
 62
     7
 10
-731.6391411185
 20
-1029.6119170487
 30
0.0
 11
-733.1559800847
 21
-1030.9154505353
 31
0.0
  0
LINE
  5
3F0
  8
0
  6
HIDDEN
 62
     7
 10
-171.1391411185
 20
-1026.4119170487
 30
0.0
 11
-171.1391411185
 21
-1028.4119170487
 31
0.0
  0
LINE
  5
3F1
  8
0
  6
HIDDEN
 62
     7
 10
-166.1391411185
 20
-1028.4119170487
 30
0.0
 11
-166.1391411185
 21
-1026.4119170487
 31
0.0
  0
LINE
  5
3F2
  8
0
  6
HIDDEN
 62
     7
 10
-744.6395704879
 20
-1028.6910505442
 30
0.0
 11
-744.6395704882
 21
-1027.2493108453
 31
0.0
  0
LINE
  5
3F3
  8
0
  6
HIDDEN
 62
     7
 10
-748.7182786758
 20
-1031.4114876741
 30
0.0
 11
-747.3321867228
 21
-1031.411487674
 31
0.0
  0
LINE
  5
3F4
  8
0
  6
HIDDEN
 62
     7
 10
-747.3322351033
 20
-1031.4114876806
 30
0.0
 11
-748.7184257422
 21
-1031.4114876806
 31
0.0
  0
LINE
  5
3F5
  8
0
  6
HIDDEN
 62
     7
 10
-159.9182746145
 20
-1031.4114876793
 30
0.0
 11
-158.4765349169
 21
-1031.411487679
 31
0.0
  0
LINE
  5
3F6
  8
0
  6
HIDDEN
 62
     7
 10
-162.6387117439
 20
-1027.3327794924
 30
0.0
 11
-162.6387117437
 21
-1028.7188714447
 31
0.0
  0
LINE
  5
3F7
  8
0
  6
HIDDEN
 62
     7
 10
-162.6387117503
 20
-1028.7188230642
 30
0.0
 11
-162.6387117504
 21
-1027.332632426
 31
0.0
  0
LINE
  5
3F8
  8
0
  6
HIDDEN
 62
     7
 10
-170.6391411185
 20
-1053.9119170487
 30
0.0
 11
-170.6391411185
 21
-1059.4119170487
 31
0.0
  0
LINE
  5
3F9
  8
0
  6
HIDDEN
 62
     7
 10
-164.6391411185
 20
-1059.4119170487
 30
0.0
 11
-164.6391411185
 21
-1053.9119170487
 31
0.0
  0
LINE
  5
3FA
  8
0
  6
HIDDEN
 62
     7
 10
-711.6391411185
 20
-1035.9119170487
 30
0.0
 11
-699.1391411185
 21
-1035.9119170487
 31
0.0
  0
LINE
  5
3FB
  8
0
  6
HIDDEN
 62
     7
 10
-699.1391411185
 20
-1035.9119170487
 30
0.0
 11
-159.6391411185
 21
-1035.9119170487
 31
0.0
  0
LINE
  5
3FC
  8
0
  6
HIDDEN
 62
     7
 10
-147.6391411185
 20
-1035.9119170487
 30
0.0
 11
391.8608588815
 21
-1035.9119170487
 31
0.0
  0
LINE
  5
3FD
  8
0
  6
HIDDEN
 62
     7
 10
391.8608588815
 20
-1035.9119170487
 30
0.0
 11
404.3608588815
 21
-1035.9119170487
 31
0.0
  0
LINE
  5
3FE
  8
0
  6
HIDDEN
 62
     7
 10
-654.6391411185
 20
-1028.4119170487
 30
0.0
 11
-654.6391411185
 21
-1029.4119170487
 31
0.0
  0
LINE
  5
3FF
  8
0
  6
HIDDEN
 62
     7
 10
-644.6391411185
 20
-1029.4119170487
 30
0.0
 11
-644.6391411185
 21
-1028.4119170487
 31
0.0
  0
LINE
  5
400
  8
0
  6
HIDDEN
 62
     7
 10
-653.6391411185
 20
-1029.4119170487
 30
0.0
 11
-653.6391411185
 21
-1046.9119170487
 31
0.0
  0
LINE
  5
401
  8
0
  6
HIDDEN
 62
     7
 10
-645.6391411185
 20
-1046.9119170487
 30
0.0
 11
-645.6391411185
 21
-1029.4119170487
 31
0.0
  0
LINE
  5
402
  8
0
  6
HIDDEN
 62
     7
 10
337.360860401
 20
-1028.4119170487
 30
0.0
 11
337.360860401
 21
-1029.4119170487
 31
0.0
  0
LINE
  5
403
  8
0
  6
HIDDEN
 62
     7
 10
347.360860401
 20
-1029.4119170487
 30
0.0
 11
347.360860401
 21
-1028.4119170487
 31
0.0
  0
LINE
  5
404
  8
0
  6
HIDDEN
 62
     7
 10
338.360860401
 20
-1029.4119170487
 30
0.0
 11
338.360860401
 21
-1046.9119170487
 31
0.0
  0
LINE
  5
405
  8
0
  6
HIDDEN
 62
     7
 10
346.360860401
 20
-1046.9119170487
 30
0.0
 11
346.360860401
 21
-1029.4119170487
 31
0.0
  0
LINE
  5
406
  8
0
  6
HIDDEN
 62
     7
 10
-148.4683406759
 20
-1031.4119180952
 30
0.0
 11
-147.0537411299
 21
-1031.4119180952
 31
0.0
  0
LINE
  5
407
  8
0
  6
HIDDEN
 62
     7
 10
437.3608593545
 20
-1027.582717491
 30
0.0
 11
437.3608593545
 21
-1028.9973170371
 31
0.0
  0
LINE
  5
408
  8
0
  6
HIDDEN
 62
     7
 10
-144.639140072
 20
-1028.9980890645
 30
0.0
 11
-144.639140072
 21
-1027.5842615764
 31
0.0
  0
LINE
  5
409
  8
0
  6
HIDDEN
 62
     7
 10
439.7746883852
 20
-1031.4119180952
 30
0.0
 11
441.1885158733
 21
-1031.4119180952
 31
0.0
  0
ARC
  5
40A
  8
0
  6
HIDDEN
 62
     7
 10
-62.755024494
 20
-1028.8819170487
 30
0.0
 40
0.4699999999999371
 50
90.0
 51
139.3250604348
  0
ARC
  5
40B
  8
0
  6
HIDDEN
 62
     7
 10
-76.5232577429
 20
-1028.8819170487
 30
0.0
 40
0.4699999999999317
 50
40.6749395652
 51
90.0
  0
ARC
  5
40C
  8
0
  6
HIDDEN
 62
     7
 10
-62.755024494
 20
-1028.8819170487
 30
0.0
 40
2.470000000000116
 50
90.0
 51
139.3250604347
  0
ARC
  5
40D
  8
0
  6
HIDDEN
 62
     7
 10
-76.5232577429
 20
-1028.8819170487
 30
0.0
 40
2.470000000000027
 50
40.6749395653
 51
90.0
  0
LINE
  5
40E
  8
0
  6
HIDDEN
 62
     7
 10
-76.1668005858
 20
-1028.5755866794
 30
0.0
 11
-74.1559800847
 21
-1030.9154505353
 31
0.0
  0
LINE
  5
40F
  8
0
  6
HIDDEN
 62
     7
 10
-65.1223021523
 20
-1030.9154505353
 30
0.0
 11
-63.1114816511
 21
-1028.5755866794
 31
0.0
  0
LINE
  5
410
  8
0
  6
HIDDEN
 62
     7
 10
-74.6499616196
 20
-1027.2720531928
 30
0.0
 11
-72.6391411185
 21
-1029.6119170487
 31
0.0
  0
LINE
  5
411
  8
0
  6
HIDDEN
 62
     7
 10
-66.6391411185
 20
-1029.6119170487
 30
0.0
 11
-64.6283206173
 21
-1027.2720531928
 31
0.0
  0
LINE
  5
412
  8
0
  6
HIDDEN
 62
     7
 10
-65.1223021523
 20
-1030.9154505353
 30
0.0
 11
-66.6391411185
 21
-1029.6119170487
 31
0.0
  0
LINE
  5
413
  8
0
  6
HIDDEN
 62
     7
 10
-72.6391411185
 20
-1029.6119170487
 30
0.0
 11
-74.1559800847
 21
-1030.9154505353
 31
0.0
  0
ARC
  5
414
  8
0
  6
HIDDEN
 62
     7
 10
428.244975506
 20
-1028.8819170487
 30
0.0
 40
2.470000000000027
 50
90.0
 51
139.3250604347
  0
ARC
  5
415
  8
0
  6
HIDDEN
 62
     7
 10
414.4767422571
 20
-1028.8819170487
 30
0.0
 40
2.470000000000027
 50
40.6749395653
 51
90.0
  0
ARC
  5
416
  8
0
  6
HIDDEN
 62
     7
 10
428.244975506
 20
-1028.8819170487
 30
0.0
 40
0.470000000000026
 50
90.0
 51
139.3250604347
  0
ARC
  5
417
  8
0
  6
HIDDEN
 62
     7
 10
414.4767422571
 20
-1028.8819170487
 30
0.0
 40
0.4700000000001122
 50
40.6749395653
 51
90.0
  0
LINE
  5
418
  8
0
  6
HIDDEN
 62
     7
 10
414.8331994142
 20
-1028.5755866794
 30
0.0
 11
416.8440199153
 21
-1030.9154505353
 31
0.0
  0
LINE
  5
419
  8
0
  6
HIDDEN
 62
     7
 10
425.8776978477
 20
-1030.9154505353
 30
0.0
 11
427.8885183489
 21
-1028.5755866794
 31
0.0
  0
LINE
  5
41A
  8
0
  6
HIDDEN
 62
     7
 10
416.3500383804
 20
-1027.2720531928
 30
0.0
 11
418.3608588815
 21
-1029.6119170487
 31
0.0
  0
LINE
  5
41B
  8
0
  6
HIDDEN
 62
     7
 10
424.3608588815
 20
-1029.6119170487
 30
0.0
 11
426.3716793827
 21
-1027.2720531928
 31
0.0
  0
LINE
  5
41C
  8
0
  6
HIDDEN
 62
     7
 10
425.8776978477
 20
-1030.9154505353
 30
0.0
 11
424.3608588815
 21
-1029.6119170487
 31
0.0
  0
LINE
  5
41D
  8
0
  6
HIDDEN
 62
     7
 10
418.3608588815
 20
-1029.6119170487
 30
0.0
 11
416.8440199153
 21
-1030.9154505353
 31
0.0
  0
ENDSEC
  0
EOF
