  0
SECTION
  2
HEADER
  9
$ACADVER
  1
AC1009
  9
$DWGCODEPAGE
  3
ansi_1252
  9
$INSBASE
 10
0.0
 20
0.0
 30
0.0
  9
$EXTMIN
 10
0.0
 20
0.0
 30
0.0
  9
$EXTMAX
 10
297.0
 20
210.0
 30
0.0
  9
$LIMMIN
 10
0.0
 20
0.0
  9
$LIMMAX
 10
0.0
 20
0.0
  9
$ORTHOMODE
 70
     0
  9
$REGENMODE
 70
     1
  9
$FILLMODE
 70
     1
  9
$QTEXTMODE
 70
     0
  9
$MIRRTEXT
 70
     1
  9
$DRAGMODE
 70
     2
  9
$LTSCALE
 40
1.0
  9
$OSMODE
 70
    37
  9
$ATTMODE
 70
     1
  9
$TEXTSIZE
 40
3.5277777778
  9
$TRACEWID
 40
1.0
  9
$TEXTSTYLE
  7
STANDARD
  9
$CLAYER
  8
0
  9
$CELTYPE
  6
BYLAYER
  9
$CECOLOR
 62
   256
  9
$DIMSCALE
 40
1.0
  9
$DIMASZ
 40
1.8
  9
$DIMEXO
 40
0.7
  9
$DIMDLI
 40
3.75
  9
$DIMRND
 40
0.0
  9
$DIMDLE
 40
0.0
  9
$DIMEXE
 40
0.5
  9
$DIMTP
 40
0.0
  9
$DIMTM
 40
0.0
  9
$DIMTXT
 40
2.4694444444
  9
$DIMCEN
 40
2.5
  9
$DIMTSZ
 40
0.0
  9
$DIMTOL
 70
     0
  9
$DIMLIM
 70
     0
  9
$DIMTIH
 70
     1
  9
$DIMTOH
 70
     1
  9
$DIMSE1
 70
     0
  9
$DIMSE2
 70
     0
  9
$DIMTAD
 70
     1
  9
$DIMZIN
 70
     0
  9
$DIMBLK
  1

  9
$DIMASO
 70
     1
  9
$DIMSHO
 70
     1
  9
$DIMPOST
  1

  9
$DIMAPOST
  1

  9
$DIMALT
 70
     0
  9
$DIMALTD
 70
     3
  9
$DIMALTF
 40
0.0393700787
  9
$DIMLFAC
 40
1.0
  9
$DIMTOFL
 70
     1
  9
$DIMTVP
 40
0.0
  9
$DIMTIX
 70
     0
  9
$DIMSOXD
 70
     0
  9
$DIMSAH
 70
     0
  9
$DIMBLK1
  1

  9
$DIMBLK2
  1

  9
$DIMSTYLE
  2
ISO-25
  9
$DIMCLRD
 70
     0
  9
$DIMCLRE
 70
     0
  9
$DIMCLRT
 70
     0
  9
$DIMTFAC
 40
1.0
  9
$DIMGAP
 40
2.0
  9
$LUNITS
 70
     2
  9
$LUPREC
 70
     2
  9
$SKETCHINC
 40
1.0
  9
$FILLETRAD
 40
10.0
  9
$AUNITS
 70
     0
  9
$AUPREC
 70
     0
  9
$MENU
  1
.
  9
$ELEVATION
 40
0.0
  9
$PELEVATION
 40
0.0
  9
$THICKNESS
 40
0.0
  9
$LIMCHECK
 70
     0
  9
$CHAMFERA
 40
10.0
  9
$CHAMFERB
 40
10.0
  9
$SKPOLY
 70
     0
  9
$TDCREATE
 40
2455112.45658022
  9
$TDUPDATE
 40
2455112.456580231
  9
$TDINDWG
 40
0.0000000116
  9
$TDUSRTIMER
 40
0.0000000116
  9
$USRTIMER
 70
     1
  9
$ANGBASE
 50
0.0
  9
$ANGDIR
 70
     0
  9
$PDMODE
 70
     0
  9
$PDSIZE
 40
-1.0
  9
$PLINEWID
 40
0.0
  9
$COORDS
 70
     1
  9
$SPLFRAME
 70
     0
  9
$SPLINETYPE
 70
     6
  9
$SPLINESEGS
 70
     8
  9
$ATTDIA
 70
     0
  9
$ATTREQ
 70
     1
  9
$HANDLING
 70
     1
  9
$HANDSEED
  5
6E9
  9
$SURFTAB1
 70
     6
  9
$SURFTAB2
 70
     6
  9
$SURFTYPE
 70
     6
  9
$SURFU
 70
     6
  9
$SURFV
 70
     6
  9
$UCSNAME
  2

  9
$UCSORG
 10
0.0
 20
0.0
 30
0.0
  9
$UCSXDIR
 10
1.0
 20
0.0
 30
0.0
  9
$UCSYDIR
 10
0.0
 20
1.0
 30
0.0
  9
$PUCSNAME
  2

  9
$PUCSORG
 10
0.0
 20
0.0
 30
0.0
  9
$PUCSXDIR
 10
1.0
 20
0.0
 30
0.0
  9
$PUCSYDIR
 10
0.0
 20
1.0
 30
0.0
  9
$USERI1
 70
     0
  9
$USERI2
 70
     0
  9
$USERI3
 70
     0
  9
$USERI4
 70
     0
  9
$USERI5
 70
     0
  9
$USERR1
 40
0.0
  9
$USERR2
 40
0.0
  9
$USERR3
 40
0.0
  9
$USERR4
 40
0.0
  9
$USERR5
 40
0.0
  9
$WORLDVIEW
 70
     1
  9
$SHADEDGE
 70
     3
  9
$SHADEDIF
 70
    70
  9
$TILEMODE
 70
     1
  9
$MAXACTVP
 70
    64
  9
$PLIMCHECK
 70
     0
  9
$PEXTMIN
 10
1.0000000000E+20
 20
1.0000000000E+20
 30
1.0000000000E+20
  9
$PEXTMAX
 10
-1.0000000000E+20
 20
-1.0000000000E+20
 30
-1.0000000000E+20
  9
$PLIMMIN
 10
0.0
 20
0.0
  9
$PLIMMAX
 10
420.0
 20
297.0
  9
$UNITMODE
 70
     0
  9
$VISRETAIN
 70
     1
  9
$PLINEGEN
 70
     0
  9
$PSLTSCALE
 70
     1
  0
ENDSEC
  0
SECTION
  2
TABLES
  0
TABLE
  2
VPORT
 70
     1
  0
VPORT
  2
*ACTIVE
 70
     0
 10
0.0
 20
0.0
 11
1.0
 21
1.0
 12
148.5
 22
105.0
 13
0.0
 23
0.0
 14
10.0
 24
10.0
 15
10.0
 25
10.0
 16
0.0
 26
0.0
 36
1.0
 17
0.0
 27
0.0
 37
0.0
 40
210.0
 41
1.4142857143
 42
50.0
 43
0.0
 44
0.0
 50
0.0
 51
0.0
 71
     0
 72
  2000
 73
     1
 74
     3
 75
     0
 76
     0
 77
     0
 78
     0
  0
ENDTAB
  0
TABLE
  2
LTYPE
 70
     6
  0
LTYPE
  2
CONTINUOUS
 70
     0
  3
Solid line
 72
    65
 73
     0
 40
0.0
  0
LTYPE
  2
HIDDEN
 70
     0
  3
Hidden __ __ __ __ __ __ __ __ __ __ __ __ __ __
 72
    65
 73
     2
 40
1.905
 49
1.27
 49
-0.635
  0
LTYPE
  2
PHANTOM
 70
     0
  3
Phantom ______  __  __  ______  __  __  ______
 72
    65
 73
     6
 40
12.7
 49
6.35
 49
-1.27
 49
1.27
 49
-1.27
 49
1.27
 49
-1.27
  0
LTYPE
  2
CENTER
 70
     0
  3
Center ____ _ ____ _ ____ _ ____ _ ____ _ ____
 72
    65
 73
     4
 40
10.16
 49
6.35
 49
-1.27
 49
1.27
 49
-1.27
  0
LTYPE
  2
CENTERX2
 70
     0
  3
Center (2x) ________  __  ________  __  _____
 72
    65
 73
     4
 40
20.32
 49
12.7
 49
-2.54
 49
2.54
 49
-2.54
  0
LTYPE
  2
DOT2
 70
     0
  3
Dot (.5x) ........................................
 72
    65
 73
     2
 40
0.635
 49
0.0
 49
-0.635
  0
ENDTAB
  0
TABLE
  2
LAYER
 70
     5
  0
LAYER
  2
0
 70
     0
 62
     7
  6
CONTINUOUS
  0
LAYER
  2
SLD-0
 70
     0
 62
     7
  6
CONTINUOUS
  0
LAYER
  2
AM_BOR
 70
     0
 62
     7
  6
CONTINUOUS
  0
LAYER
  2
BIEGLINIE__ZU_
 70
     0
 62
     8
  6
CONTINUOUS
  0
LAYER
  2
BIEGELINIE__WEG_
 70
     0
 62
     8
  6
HIDDEN
  0
ENDTAB
  0
TABLE
  2
STYLE
 70
     1
  0
STYLE
  2
STANDARD
 70
     0
 40
0.0
 41
1.0
 50
0.0
 71
     0
 42
2.5
  3
txt
  4

  0
ENDTAB
  0
TABLE
  2
VIEW
 70
     0
  0
ENDTAB
  0
TABLE
  2
UCS
 70
     0
  0
ENDTAB
  0
TABLE
  2
APPID
 70
     1
  0
APPID
  2
ACAD
 70
     0
  0
ENDTAB
  0
TABLE
  2
DIMSTYLE
 70
     1
  0
DIMSTYLE
  2
ISO-25
 70
     0
  3

  4

  5

  6

  7

 40
1.0
 41
2.5
 42
0.625
 43
3.75
 44
1.25
 45
0.0
 46
0.0
 47
0.0
 48
0.0
140
2.5
141
2.5
142
0.0
143
0.0393700787
144
1.0
145
0.0
146
1.0
147
0.625
 71
     0
 72
     0
 73
     0
 74
     0
 75
     0
 76
     0
 77
     1
 78
     8
170
     0
171
     3
172
     1
173
     0
174
     0
175
     0
176
     0
177
     0
178
     0
  0
ENDTAB
  0
ENDSEC
  0
SECTION
  2
BLOCKS
  0
BLOCK
  8
0
  2
$MODEL_SPACE
 70
     0
 10
0.0
 20
0.0
 30
0.0
  3
$MODEL_SPACE
  1

  0
ENDBLK
  5
21
  8
0
  0
BLOCK
 67
     1
  8
0
  2
$PAPER_SPACE
 70
     0
 10
0.0
 20
0.0
 30
0.0
  3
$PAPER_SPACE
  1

  0
ENDBLK
  5
1D
 67
     1
  8
0
  0
ENDSEC
  0
SECTION
  2
ENTITIES
  0
TEXT
  5
33
  8
SLD-0
 10
609.2601018782
 20
-1127.646772381
 30
0.0
 40
19.05
  1
Rückwandsatz RS  BxH 1200 x 2200
 41
0.634375
 11
609.2601018782
 21
-1133.0896295239
 31
0.0
 73
     1
  0
LINE
  5
34
  8
0
  6
CONTINUOUS
 62
     7
 10
-736.568885047
 20
-962.2043034958
 30
0.0
 11
-736.5688858065
 21
1207.7956965042
 31
0.0
  0
LINE
  5
35
  8
0
  6
CONTINUOUS
 62
     7
 10
-738.5688854268
 20
-962.2043034958
 30
0.0
 11
-738.5688858065
 21
1207.7956965042
 31
0.0
  0
ARC
  5
36
  8
0
  6
CONTINUOUS
 62
     7
 10
-735.568885047
 20
1207.7956965042
 30
0.0
 40
1.000000759492423
 50
90.0
 51
180.0
  0
ARC
  5
37
  8
0
  6
CONTINUOUS
 62
     7
 10
-735.5688842875
 20
1207.7956965042
 30
0.0
 40
3.000001518984845
 50
90.0000145052
 51
180.0
  0
LINE
  5
38
  8
0
  6
CONTINUOUS
 62
     7
 10
-718.068885047
 20
1210.7956965042
 30
0.0
 11
-718.068885047
 21
1208.7956965042
 31
0.0
  0
LINE
  5
39
  8
0
  6
CONTINUOUS
 62
     7
 10
-735.568885047
 20
1210.7956965042
 30
0.0
 11
-718.068885047
 21
1210.7956965042
 31
0.0
  0
LINE
  5
3A
  8
0
  6
CONTINUOUS
 62
     7
 10
-735.568885047
 20
1208.7956965042
 30
0.0
 11
-718.068885047
 21
1208.7956965042
 31
0.0
  0
ARC
  5
3B
  8
0
  6
CONTINUOUS
 62
     7
 10
-735.568885047
 20
-962.2043034958
 30
0.0
 40
1.000000000000341
 50
180.0
 51
270.0
  0
ARC
  5
3C
  8
0
  6
CONTINUOUS
 62
     7
 10
-735.5688842875
 20
-962.2043034958
 30
0.0
 40
3.000001139238634
 50
180.0
 51
269.9999854948
  0
LINE
  5
3D
  8
0
  6
CONTINUOUS
 62
     7
 10
-718.068885047
 20
-965.2043034958
 30
0.0
 11
-718.068885047
 21
-963.2043034958
 31
0.0
  0
LINE
  5
3E
  8
0
  6
CONTINUOUS
 62
     7
 10
-718.068885047
 20
-963.2043034958
 30
0.0
 11
-735.568885047
 21
-963.2043034958
 31
0.0
  0
LINE
  5
3F
  8
0
  6
CONTINUOUS
 62
     7
 10
-718.068885047
 20
-965.2043034958
 30
0.0
 11
-735.568885047
 21
-965.2043042552
 31
0.0
  0
LINE
  5
40
  8
0
  6
CONTINUOUS
 62
     7
 10
-718.068885047
 20
1208.7956965042
 30
0.0
 11
-718.068885047
 21
1210.7956965043
 31
0.0
  0
LINE
  5
41
  8
0
  6
CONTINUOUS
 62
     7
 10
-167.068885047
 20
1208.7956965042
 30
0.0
 11
-167.068885047
 21
1210.7956965043
 31
0.0
  0
LINE
  5
42
  8
0
  6
CONTINUOUS
 62
     7
 10
-718.068885047
 20
1208.7956965042
 30
0.0
 11
-167.068885047
 21
1208.7956965042
 31
0.0
  0
LINE
  5
43
  8
0
  6
CONTINUOUS
 62
     7
 10
-718.068885047
 20
1210.7956965043
 30
0.0
 11
-167.068885047
 21
1210.7956965043
 31
0.0
  0
LINE
  5
44
  8
0
  6
CONTINUOUS
 62
     7
 10
-167.068885047
 20
-963.2043034958
 30
0.0
 11
-167.068885047
 21
-965.2043034958
 31
0.0
  0
LINE
  5
45
  8
0
  6
CONTINUOUS
 62
     7
 10
-718.068885047
 20
-963.2043034958
 30
0.0
 11
-718.068885047
 21
-965.2043034958
 31
0.0
  0
LINE
  5
46
  8
0
  6
CONTINUOUS
 62
     7
 10
-167.068885047
 20
-963.2043034958
 30
0.0
 11
-718.068885047
 21
-963.2043034958
 31
0.0
  0
LINE
  5
47
  8
0
  6
CONTINUOUS
 62
     7
 10
-167.068885047
 20
-965.2043034958
 30
0.0
 11
-718.068885047
 21
-965.2043034958
 31
0.0
  0
LINE
  5
48
  8
0
  6
CONTINUOUS
 62
     7
 10
-167.068885047
 20
-965.2043034958
 30
0.0
 11
-167.068885047
 21
-963.2043034958
 31
0.0
  0
LINE
  5
49
  8
0
  6
CONTINUOUS
 62
     7
 10
-149.568885047
 20
-963.2043034958
 30
0.0
 11
-167.068885047
 21
-963.2043034958
 31
0.0
  0
LINE
  5
4A
  8
0
  6
CONTINUOUS
 62
     7
 10
-149.568885047
 20
-965.2043034958
 30
0.0
 11
-167.068885047
 21
-965.2043034958
 31
0.0
  0
ARC
  5
4B
  8
0
  6
CONTINUOUS
 62
     7
 10
-149.5688858065
 20
-962.2043034958
 30
0.0
 40
3.000000759492423
 50
270.0000145052
 51
0.0
  0
ARC
  5
4C
  8
0
  6
CONTINUOUS
 62
     7
 10
-149.568885047
 20
-962.2043034958
 30
0.0
 40
1.000000000000341
 50
270.0
 51
0.0
  0
LINE
  5
4D
  8
0
  6
CONTINUOUS
 62
     7
 10
-148.568885047
 20
-947.5648355775
 30
0.0
 11
-146.568885047
 21
-947.5648355775
 31
0.0
  0
LINE
  5
4E
  8
0
  6
CONTINUOUS
 62
     7
 10
-146.568885047
 20
-946.6522168167
 30
0.0
 11
-146.568885047
 21
-947.5648355775
 31
0.0
  0
LINE
  5
4F
  8
0
  6
CONTINUOUS
 62
     7
 10
-148.568885047
 20
-947.5648355775
 30
0.0
 11
-148.568885047
 21
-946.6522168167
 31
0.0
  0
LINE
  5
50
  8
0
  6
CONTINUOUS
 62
     7
 10
-148.568885047
 20
-924.7043034958
 30
0.0
 11
-146.568885047
 21
-924.7043034958
 31
0.0
  0
LINE
  5
51
  8
0
  6
CONTINUOUS
 62
     7
 10
-146.568885047
 20
-924.7043034958
 30
0.0
 11
-146.568885047
 21
-927.3435711765
 31
0.0
  0
LINE
  5
52
  8
0
  6
CONTINUOUS
 62
     7
 10
-148.568885047
 20
-927.3435711765
 30
0.0
 11
-148.568885047
 21
-924.7043034958
 31
0.0
  0
LINE
  5
53
  8
0
  6
CONTINUOUS
 62
     7
 10
-148.568885047
 20
1170.2956965042
 30
0.0
 11
-146.568885047
 21
1170.2956965042
 31
0.0
  0
LINE
  5
54
  8
0
  6
CONTINUOUS
 62
     7
 10
-146.568885047
 20
1170.2956965042
 30
0.0
 11
-146.568885047
 21
1169.2956965042
 31
0.0
  0
LINE
  5
55
  8
0
  6
CONTINUOUS
 62
     7
 10
-146.568885047
 20
-923.7043034958
 30
0.0
 11
-146.568885047
 21
-924.7043034958
 31
0.0
  0
LINE
  5
56
  8
0
  6
CONTINUOUS
 62
     7
 10
-148.568885047
 20
1170.2956965042
 30
0.0
 11
-148.568885047
 21
1169.2956965042
 31
0.0
  0
LINE
  5
57
  8
0
  6
CONTINUOUS
 62
     7
 10
-148.568885047
 20
-923.7043034958
 30
0.0
 11
-148.568885047
 21
-924.7043034958
 31
0.0
  0
LINE
  5
58
  8
0
  6
CONTINUOUS
 62
     7
 10
-146.568885047
 20
-947.5648355775
 30
0.0
 11
-146.568885047
 21
-962.2043034958
 31
0.0
  0
LINE
  5
59
  8
0
  6
CONTINUOUS
 62
     7
 10
-148.568885047
 20
-947.5648355775
 30
0.0
 11
-148.568885047
 21
-962.2043034958
 31
0.0
  0
LINE
  5
5A
  8
0
  6
CONTINUOUS
 62
     7
 10
-167.068885047
 20
1210.7956965042
 30
0.0
 11
-167.068885047
 21
1208.7956965042
 31
0.0
  0
LINE
  5
5B
  8
0
  6
CONTINUOUS
 62
     7
 10
-167.068885047
 20
1208.7956965042
 30
0.0
 11
-149.568885047
 21
1208.7956965042
 31
0.0
  0
LINE
  5
5C
  8
0
  6
CONTINUOUS
 62
     7
 10
-167.068885047
 20
1210.7956965042
 30
0.0
 11
-149.568885047
 21
1210.7956972637
 31
0.0
  0
ARC
  5
5D
  8
0
  6
CONTINUOUS
 62
     7
 10
-149.568885047
 20
1207.7956965042
 30
0.0
 40
1.000000000000227
 50
0.0
 51
90.0
  0
ARC
  5
5E
  8
0
  6
CONTINUOUS
 62
     7
 10
-149.5688858065
 20
1207.7956965042
 30
0.0
 40
3.000001518984874
 50
0.0
 51
89.9999854948
  0
LINE
  5
5F
  8
0
  6
CONTINUOUS
 62
     7
 10
-148.568885047
 20
1193.156228586
 30
0.0
 11
-146.568885047
 21
1193.156228586
 31
0.0
  0
LINE
  5
60
  8
0
  6
CONTINUOUS
 62
     7
 10
-146.568885047
 20
1192.2436098252
 30
0.0
 11
-146.568885047
 21
1193.156228586
 31
0.0
  0
LINE
  5
61
  8
0
  6
CONTINUOUS
 62
     7
 10
-148.568885047
 20
1193.156228586
 30
0.0
 11
-148.568885047
 21
1192.2436098252
 31
0.0
  0
LINE
  5
62
  8
0
  6
CONTINUOUS
 62
     7
 10
-146.5688842875
 20
1207.7956965042
 30
0.0
 11
-146.568885047
 21
1193.156228586
 31
0.0
  0
LINE
  5
63
  8
0
  6
CONTINUOUS
 62
     7
 10
-148.568885047
 20
1207.7956965042
 30
0.0
 11
-148.568885047
 21
1193.156228586
 31
0.0
  0
LINE
  5
64
  8
0
  6
CONTINUOUS
 62
     7
 10
-146.568885047
 20
1170.2956965042
 30
0.0
 11
-146.568885047
 21
1172.934964185
 31
0.0
  0
LINE
  5
65
  8
0
  6
CONTINUOUS
 62
     7
 10
-148.568885047
 20
1172.934964185
 30
0.0
 11
-148.568885047
 21
1170.2956965042
 31
0.0
  0
LINE
  5
66
  8
0
  6
CONTINUOUS
 62
     7
 10
-146.568885047
 20
-941.195037081
 30
0.0
 11
-146.568885047
 21
-946.6522168167
 31
0.0
  0
LINE
  5
67
  8
0
  6
CONTINUOUS
 62
     7
 10
-148.568885047
 20
-946.6522168167
 30
0.0
 11
-148.568885047
 21
-941.195037081
 31
0.0
  0
LINE
  5
68
  8
0
  6
CONTINUOUS
 62
     7
 10
-146.568885047
 20
1186.7864300895
 30
0.0
 11
-146.568885047
 21
1192.2436098252
 31
0.0
  0
LINE
  5
69
  8
0
  6
CONTINUOUS
 62
     7
 10
-148.568885047
 20
1192.2436098252
 30
0.0
 11
-148.568885047
 21
1186.7864300895
 31
0.0
  0
LINE
  5
6A
  8
0
  6
CONTINUOUS
 62
     7
 10
-146.568885047
 20
-935.2043034958
 30
0.0
 11
-146.568885047
 21
-941.195037081
 31
0.0
  0
LINE
  5
6B
  8
0
  6
CONTINUOUS
 62
     7
 10
-148.568885047
 20
-941.195037081
 30
0.0
 11
-148.568885047
 21
-939.6904154441
 31
0.0
  0
LINE
  5
6C
  8
0
  6
CONTINUOUS
 62
     7
 10
-146.568885047
 20
1180.7956965042
 30
0.0
 11
-146.568885047
 21
1186.7864300895
 31
0.0
  0
LINE
  5
6D
  8
0
  6
CONTINUOUS
 62
     7
 10
-148.568885047
 20
1186.7864300895
 30
0.0
 11
-148.568885047
 21
1185.2818084526
 31
0.0
  0
LINE
  5
6E
  8
0
  6
CONTINUOUS
 62
     7
 10
-146.568885047
 20
-927.3435711765
 30
0.0
 11
-146.568885047
 21
-933.2043034958
 31
0.0
  0
LINE
  5
6F
  8
0
  6
CONTINUOUS
 62
     7
 10
-148.568885047
 20
-927.781890824
 30
0.0
 11
-148.568885047
 21
-927.3435711765
 31
0.0
  0
LINE
  5
70
  8
0
  6
CONTINUOUS
 62
     7
 10
-146.568885047
 20
1172.934964185
 30
0.0
 11
-146.568885047
 21
1178.7956965042
 31
0.0
  0
LINE
  5
71
  8
0
  6
CONTINUOUS
 62
     7
 10
-148.568885047
 20
1173.3732838325
 30
0.0
 11
-148.568885047
 21
1172.934964185
 31
0.0
  0
CIRCLE
  5
72
  8
0
  6
CONTINUOUS
 62
     7
 10
-717.568885047
 20
-885.2043034958
 30
0.0
 40
4.516838966197497
  0
CIRCLE
  5
73
  8
0
  6
CONTINUOUS
 62
     7
 10
-717.568885047
 20
509.7956965042
 30
0.0
 40
4.516838966197497
  0
CIRCLE
  5
74
  8
0
  6
CONTINUOUS
 62
     7
 10
-717.568885047
 20
1114.7956965042
 30
0.0
 40
4.516838966197497
  0
CIRCLE
  5
75
  8
0
  6
CONTINUOUS
 62
     7
 10
-717.568885047
 20
-280.2043034958
 30
0.0
 40
4.516838966197497
  0
CIRCLE
  5
76
  8
0
  6
CONTINUOUS
 62
     7
 10
-717.568885047
 20
1114.7956965042
 30
0.0
 40
3.0
  0
CIRCLE
  5
77
  8
0
  6
CONTINUOUS
 62
     7
 10
-717.568885047
 20
-885.2043034958
 30
0.0
 40
3.0
  0
CIRCLE
  5
78
  8
0
  6
CONTINUOUS
 62
     7
 10
-717.568885047
 20
509.7956965042
 30
0.0
 40
3.0
  0
CIRCLE
  5
79
  8
0
  6
CONTINUOUS
 62
     7
 10
-717.568885047
 20
-280.2043034958
 30
0.0
 40
3.0
  0
ARC
  5
7A
  8
0
  6
CONTINUOUS
 62
     7
 10
-226.568885047
 20
-944.2043034958
 30
0.0
 40
4.516838966197493
 50
180.0
 51
60.4723436901
  0
ARC
  5
7B
  8
0
  6
CONTINUOUS
 62
     7
 10
-226.568885047
 20
-944.2043034958
 30
0.0
 40
4.516838966197493
 50
119.5276563099
 51
180.0
  0
ARC
  5
7C
  8
0
  6
CONTINUOUS
 62
     7
 10
-226.568885047
 20
1189.7956965042
 30
0.0
 40
4.516838966197589
 50
299.5276563099
 51
180.0
  0
ARC
  5
7D
  8
0
  6
CONTINUOUS
 62
     7
 10
-226.568885047
 20
1189.7956965042
 30
0.0
 40
4.516838966197589
 50
180.0
 51
240.4723436901
  0
CIRCLE
  5
7E
  8
0
  6
CONTINUOUS
 62
     7
 10
-226.568885047
 20
-944.2043034958
 30
0.0
 40
3.0
  0
CIRCLE
  5
7F
  8
0
  6
CONTINUOUS
 62
     7
 10
-226.568885047
 20
1189.7956965042
 30
0.0
 40
3.0
  0
LINE
  5
80
  8
0
  6
CONTINUOUS
 62
     7
 10
-146.568885047
 20
-933.2043034958
 30
0.0
 11
-146.568885047
 21
-935.2043034958
 31
0.0
  0
LINE
  5
81
  8
0
  6
CONTINUOUS
 62
     7
 10
-146.568885047
 20
1178.7956965042
 30
0.0
 11
-146.568885047
 21
1180.7956965042
 31
0.0
  0
POLYLINE
  5
82
  8
0
  6
CONTINUOUS
 62
     7
 66
     1
 10
0.0
 20
0.0
 30
0.0
  0
VERTEX
  5
486
  8
0
  6
CONTINUOUS
 62
     7
 10
-733.6463481194
 20
-963.1426792277
 30
0.0
  0
VERTEX
  5
487
  8
0
  6
CONTINUOUS
 62
     7
 10
-733.6641832648
 20
-962.9453858366
 30
0.0
  0
VERTEX
  5
488
  8
0
  6
CONTINUOUS
 62
     7
 10
-733.7404579223
 20
-962.2043034958
 30
0.0
  0
SEQEND
  5
485
  8
0
  6
CONTINUOUS
 62
     7
  0
POLYLINE
  5
83
  8
0
  6
CONTINUOUS
 62
     7
 66
     1
 10
0.0
 20
0.0
 30
0.0
  0
VERTEX
  5
48A
  8
0
  6
CONTINUOUS
 62
     7
 10
-733.7404579223
 20
-963.2043042552
 30
0.0
  0
VERTEX
  5
48B
  8
0
  6
CONTINUOUS
 62
     7
 10
-733.6671376433
 20
-963.1726250672
 30
0.0
  0
VERTEX
  5
48C
  8
0
  6
CONTINUOUS
 62
     7
 10
-733.6141872929
 20
-963.0963538305
 30
0.0
  0
VERTEX
  5
48D
  8
0
  6
CONTINUOUS
 62
     7
 10
-733.5693963774
 20
-962.9048919076
 30
0.0
  0
VERTEX
  5
48E
  8
0
  6
CONTINUOUS
 62
     7
 10
-733.6102481215
 20
-962.6502090414
 30
0.0
  0
VERTEX
  5
48F
  8
0
  6
CONTINUOUS
 62
     7
 10
-733.6641832648
 20
-962.4513310678
 30
0.0
  0
VERTEX
  5
490
  8
0
  6
CONTINUOUS
 62
     7
 10
-733.7404579223
 20
-962.2043034958
 30
0.0
  0
SEQEND
  5
489
  8
0
  6
CONTINUOUS
 62
     7
  0
POLYLINE
  5
84
  8
0
  6
CONTINUOUS
 62
     7
 66
     1
 10
0.0
 20
0.0
 30
0.0
  0
VERTEX
  5
492
  8
0
  6
CONTINUOUS
 62
     7
 10
-151.3973121718
 20
-962.2043034958
 30
0.0
  0
VERTEX
  5
493
  8
0
  6
CONTINUOUS
 62
     7
 10
-151.4706324507
 20
-962.9534317285
 30
0.0
  0
VERTEX
  5
494
  8
0
  6
CONTINUOUS
 62
     7
 10
-151.4880884344
 20
-963.1534355247
 30
0.0
  0
SEQEND
  5
491
  8
0
  6
CONTINUOUS
 62
     7
  0
POLYLINE
  5
85
  8
0
  6
CONTINUOUS
 62
     7
 66
     1
 10
0.0
 20
0.0
 30
0.0
  0
VERTEX
  5
496
  8
0
  6
CONTINUOUS
 62
     7
 10
-733.7404579223
 20
1207.7956965042
 30
0.0
  0
VERTEX
  5
497
  8
0
  6
CONTINUOUS
 62
     7
 10
-733.6641831595
 20
1208.5367596616
 30
0.0
  0
VERTEX
  5
498
  8
0
  6
CONTINUOUS
 62
     7
 10
-733.6463463641
 20
1208.7340697078
 30
0.0
  0
SEQEND
  5
495
  8
0
  6
CONTINUOUS
 62
     7
  0
POLYLINE
  5
86
  8
0
  6
CONTINUOUS
 62
     7
 66
     1
 10
0.0
 20
0.0
 30
0.0
  0
VERTEX
  5
49A
  8
0
  6
CONTINUOUS
 62
     7
 10
-151.4880904464
 20
1208.7448257754
 30
0.0
  0
VERTEX
  5
49B
  8
0
  6
CONTINUOUS
 62
     7
 10
-151.4706323097
 20
1208.5447990655
 30
0.0
  0
VERTEX
  5
49C
  8
0
  6
CONTINUOUS
 62
     7
 10
-151.3973121718
 20
1207.7956965042
 30
0.0
  0
SEQEND
  5
499
  8
0
  6
CONTINUOUS
 62
     7
  0
POLYLINE
  5
87
  8
0
  6
CONTINUOUS
 62
     7
 66
     1
 10
0.0
 20
0.0
 30
0.0
  0
VERTEX
  5
49E
  8
0
  6
CONTINUOUS
 62
     7
 10
-733.7404579223
 20
1207.7956965042
 30
0.0
  0
VERTEX
  5
49F
  8
0
  6
CONTINUOUS
 62
     7
 10
-733.6641831595
 20
1208.0427176818
 30
0.0
  0
VERTEX
  5
4A0
  8
0
  6
CONTINUOUS
 62
     7
 10
-733.6102479811
 20
1208.2415941744
 30
0.0
  0
VERTEX
  5
4A1
  8
0
  6
CONTINUOUS
 62
     7
 10
-733.5693963774
 20
1208.4962849161
 30
0.0
  0
VERTEX
  5
4A2
  8
0
  6
CONTINUOUS
 62
     7
 10
-733.6141872929
 20
1208.6877468393
 30
0.0
  0
VERTEX
  5
4A3
  8
0
  6
CONTINUOUS
 62
     7
 10
-733.6671376434
 20
1208.7640180758
 30
0.0
  0
VERTEX
  5
4A4
  8
0
  6
CONTINUOUS
 62
     7
 10
-733.7404579223
 20
1208.7956972637
 30
0.0
  0
SEQEND
  5
49D
  8
0
  6
CONTINUOUS
 62
     7
  0
POLYLINE
  5
88
  8
0
  6
CONTINUOUS
 62
     7
 66
     1
 10
0.0
 20
0.0
 30
0.0
  0
VERTEX
  5
4A6
  8
0
  6
CONTINUOUS
 62
     7
 10
-151.3973121718
 20
1208.7956972637
 30
0.0
  0
VERTEX
  5
4A7
  8
0
  6
CONTINUOUS
 62
     7
 10
-151.4735868293
 20
1208.7647057393
 30
0.0
  0
VERTEX
  5
4A8
  8
0
  6
CONTINUOUS
 62
     7
 10
-151.5275219727
 20
1208.6907773738
 30
0.0
  0
VERTEX
  5
4A9
  8
0
  6
CONTINUOUS
 62
     7
 10
-151.5683737167
 20
1208.5092631767
 30
0.0
  0
VERTEX
  5
4AA
  8
0
  6
CONTINUOUS
 62
     7
 10
-151.5235826132
 20
1208.2476237312
 30
0.0
  0
VERTEX
  5
4AB
  8
0
  6
CONTINUOUS
 62
     7
 10
-151.4706323097
 20
1208.0453974844
 30
0.0
  0
VERTEX
  5
4AC
  8
0
  6
CONTINUOUS
 62
     7
 10
-151.3973121718
 20
1207.7956965042
 30
0.0
  0
SEQEND
  5
4A5
  8
0
  6
CONTINUOUS
 62
     7
  0
POLYLINE
  5
89
  8
0
  6
CONTINUOUS
 62
     7
 66
     1
 10
0.0
 20
0.0
 30
0.0
  0
VERTEX
  5
4AE
  8
0
  6
CONTINUOUS
 62
     7
 10
-735.568885047
 20
-960.375876371
 30
0.0
  0
VERTEX
  5
4AF
  8
0
  6
CONTINUOUS
 62
     7
 10
-736.3180131394
 20
-960.3025560921
 30
0.0
  0
VERTEX
  5
4B0
  8
0
  6
CONTINUOUS
 62
     7
 10
-736.5180165874
 20
-960.2851001356
 30
0.0
  0
SEQEND
  5
4AD
  8
0
  6
CONTINUOUS
 62
     7
  0
POLYLINE
  5
8A
  8
0
  6
CONTINUOUS
 62
     7
 66
     1
 10
0.0
 20
0.0
 30
0.0
  0
VERTEX
  5
4B2
  8
0
  6
CONTINUOUS
 62
     7
 10
-735.568885047
 20
-960.375876371
 30
0.0
  0
VERTEX
  5
4B3
  8
0
  6
CONTINUOUS
 62
     7
 10
-735.8185944453
 20
-960.3025560921
 30
0.0
  0
VERTEX
  5
4B4
  8
0
  6
CONTINUOUS
 62
     7
 10
-736.0208225336
 20
-960.2496057416
 30
0.0
  0
VERTEX
  5
4B5
  8
0
  6
CONTINUOUS
 62
     7
 10
-736.282451324
 20
-960.2048148261
 30
0.0
  0
VERTEX
  5
4B6
  8
0
  6
CONTINUOUS
 62
     7
 10
-736.463965421
 20
-960.2456665702
 30
0.0
  0
VERTEX
  5
4B7
  8
0
  6
CONTINUOUS
 62
     7
 10
-736.5378937451
 20
-960.2996017135
 30
0.0
  0
VERTEX
  5
4B8
  8
0
  6
CONTINUOUS
 62
     7
 10
-736.5688852521
 20
-960.375876371
 30
0.0
  0
SEQEND
  5
4B1
  8
0
  6
CONTINUOUS
 62
     7
  0
POLYLINE
  5
8B
  8
0
  6
CONTINUOUS
 62
     7
 66
     1
 10
0.0
 20
0.0
 30
0.0
  0
VERTEX
  5
4BA
  8
0
  6
CONTINUOUS
 62
     7
 10
-736.5180165876
 20
1205.8764931443
 30
0.0
  0
VERTEX
  5
4BB
  8
0
  6
CONTINUOUS
 62
     7
 10
-736.3180131436
 20
1205.8939491004
 30
0.0
  0
VERTEX
  5
4BC
  8
0
  6
CONTINUOUS
 62
     7
 10
-735.568885047
 20
1205.9672693795
 30
0.0
  0
SEQEND
  5
4B9
  8
0
  6
CONTINUOUS
 62
     7
  0
POLYLINE
  5
8C
  8
0
  6
CONTINUOUS
 62
     7
 66
     1
 10
0.0
 20
0.0
 30
0.0
  0
VERTEX
  5
4BE
  8
0
  6
CONTINUOUS
 62
     7
 10
-736.5688852521
 20
1205.9672693795
 30
0.0
  0
VERTEX
  5
4BF
  8
0
  6
CONTINUOUS
 62
     7
 10
-736.5378937452
 20
1205.8909947221
 30
0.0
  0
VERTEX
  5
4C0
  8
0
  6
CONTINUOUS
 62
     7
 10
-736.4639654213
 20
1205.8370595788
 30
0.0
  0
VERTEX
  5
4C1
  8
0
  6
CONTINUOUS
 62
     7
 10
-736.282451324
 20
1205.7962078346
 30
0.0
  0
VERTEX
  5
4C2
  8
0
  6
CONTINUOUS
 62
     7
 10
-736.0208225353
 20
1205.8409987499
 30
0.0
  0
VERTEX
  5
4C3
  8
0
  6
CONTINUOUS
 62
     7
 10
-735.8185944467
 20
1205.8939491004
 30
0.0
  0
VERTEX
  5
4C4
  8
0
  6
CONTINUOUS
 62
     7
 10
-735.568885047
 20
1205.9672693795
 30
0.0
  0
SEQEND
  5
4BD
  8
0
  6
CONTINUOUS
 62
     7
  0
POLYLINE
  5
8D
  8
0
  6
CONTINUOUS
 62
     7
 66
     1
 10
0.0
 20
0.0
 30
0.0
  0
VERTEX
  5
4C6
  8
0
  6
CONTINUOUS
 62
     7
 10
-151.3973121718
 20
-962.2043034958
 30
0.0
  0
VERTEX
  5
4C7
  8
0
  6
CONTINUOUS
 62
     7
 10
-151.4706324507
 20
-962.4540130331
 30
0.0
  0
VERTEX
  5
4C8
  8
0
  6
CONTINUOUS
 62
     7
 10
-151.5235828012
 20
-962.6562412336
 30
0.0
  0
VERTEX
  5
4C9
  8
0
  6
CONTINUOUS
 62
     7
 10
-151.5683737167
 20
-962.9178701683
 30
0.0
  0
VERTEX
  5
4CA
  8
0
  6
CONTINUOUS
 62
     7
 10
-151.5275219726
 20
-963.0993843653
 30
0.0
  0
VERTEX
  5
4CB
  8
0
  6
CONTINUOUS
 62
     7
 10
-151.4735868293
 20
-963.1733127308
 30
0.0
  0
VERTEX
  5
4CC
  8
0
  6
CONTINUOUS
 62
     7
 10
-151.3973121718
 20
-963.2043042552
 30
0.0
  0
SEQEND
  5
4C5
  8
0
  6
CONTINUOUS
 62
     7
  0
POLYLINE
  5
8E
  8
0
  6
CONTINUOUS
 62
     7
 66
     1
 10
0.0
 20
0.0
 30
0.0
  0
VERTEX
  5
4CE
  8
0
  6
CONTINUOUS
 62
     7
 10
-148.6305097956
 20
-960.2817665957
 30
0.0
  0
VERTEX
  5
4CF
  8
0
  6
CONTINUOUS
 62
     7
 10
-148.8278028468
 20
-960.2996017136
 30
0.0
  0
VERTEX
  5
4D0
  8
0
  6
CONTINUOUS
 62
     7
 10
-149.568885047
 20
-960.375876371
 30
0.0
  0
SEQEND
  5
4CD
  8
0
  6
CONTINUOUS
 62
     7
  0
POLYLINE
  5
8F
  8
0
  6
CONTINUOUS
 62
     7
 66
     1
 10
0.0
 20
0.0
 30
0.0
  0
VERTEX
  5
4D2
  8
0
  6
CONTINUOUS
 62
     7
 10
-149.568885047
 20
1205.9672693795
 30
0.0
  0
VERTEX
  5
4D3
  8
0
  6
CONTINUOUS
 62
     7
 10
-148.8278028456
 20
1205.890994722
 30
0.0
  0
VERTEX
  5
4D4
  8
0
  6
CONTINUOUS
 62
     7
 10
-148.6305097954
 20
1205.8731596041
 30
0.0
  0
SEQEND
  5
4D1
  8
0
  6
CONTINUOUS
 62
     7
  0
POLYLINE
  5
90
  8
0
  6
CONTINUOUS
 62
     7
 66
     1
 10
0.0
 20
0.0
 30
0.0
  0
VERTEX
  5
4D6
  8
0
  6
CONTINUOUS
 62
     7
 10
-149.568885047
 20
1205.9672693795
 30
0.0
  0
VERTEX
  5
4D7
  8
0
  6
CONTINUOUS
 62
     7
 10
-149.3218576128
 20
1205.890994722
 30
0.0
  0
VERTEX
  5
4D8
  8
0
  6
CONTINUOUS
 62
     7
 10
-149.1229797496
 20
1205.8370595787
 30
0.0
  0
VERTEX
  5
4D9
  8
0
  6
CONTINUOUS
 62
     7
 10
-148.8682970236
 20
1205.7962078346
 30
0.0
  0
VERTEX
  5
4DA
  8
0
  6
CONTINUOUS
 62
     7
 10
-148.6768352063
 20
1205.8409987501
 30
0.0
  0
VERTEX
  5
4DB
  8
0
  6
CONTINUOUS
 62
     7
 10
-148.6005640121
 20
1205.8939491006
 30
0.0
  0
VERTEX
  5
4DC
  8
0
  6
CONTINUOUS
 62
     7
 10
-148.5688848419
 20
1205.9672693795
 30
0.0
  0
SEQEND
  5
4D5
  8
0
  6
CONTINUOUS
 62
     7
  0
POLYLINE
  5
91
  8
0
  6
CONTINUOUS
 62
     7
 66
     1
 10
0.0
 20
0.0
 30
0.0
  0
VERTEX
  5
4DE
  8
0
  6
CONTINUOUS
 62
     7
 10
-148.5688848419
 20
-960.375876371
 30
0.0
  0
VERTEX
  5
4DF
  8
0
  6
CONTINUOUS
 62
     7
 10
-148.6005640125
 20
-960.3025560919
 30
0.0
  0
VERTEX
  5
4E0
  8
0
  6
CONTINUOUS
 62
     7
 10
-148.6768352071
 20
-960.2496057414
 30
0.0
  0
VERTEX
  5
4E1
  8
0
  6
CONTINUOUS
 62
     7
 10
-148.8682970236
 20
-960.2048148261
 30
0.0
  0
VERTEX
  5
4E2
  8
0
  6
CONTINUOUS
 62
     7
 10
-149.1229797501
 20
-960.2456665704
 30
0.0
  0
VERTEX
  5
4E3
  8
0
  6
CONTINUOUS
 62
     7
 10
-149.3218576132
 20
-960.2996017136
 30
0.0
  0
VERTEX
  5
4E4
  8
0
  6
CONTINUOUS
 62
     7
 10
-149.568885047
 20
-960.375876371
 30
0.0
  0
SEQEND
  5
4DD
  8
0
  6
CONTINUOUS
 62
     7
  0
ARC
  5
92
  8
0
  6
CONTINUOUS
 62
     7
 10
-148.568885047
 20
1208.7956965042
 30
0.0
 40
3.000000000000003
 50
199.4712206345
 51
250.5287793655
  0
ARC
  5
93
  8
0
  6
CONTINUOUS
 62
     7
 10
-148.568885047
 20
-963.2043034958
 30
0.0
 40
3.000000000000195
 50
109.4712206345
 51
160.5287793655
  0
ARC
  5
94
  8
0
  6
CONTINUOUS
 62
     7
 10
-736.568885047
 20
1208.7956965042
 30
0.0
 40
3.000000000000021
 50
289.4712206345
 51
340.5287793655
  0
ARC
  5
95
  8
0
  6
CONTINUOUS
 62
     7
 10
-157.568885047
 20
509.7956965042
 30
0.0
 40
2.50000000000003
 50
249.5127042957
 51
110.4872952287
  0
ARC
  5
96
  8
0
  6
CONTINUOUS
 62
     7
 10
-157.568885047
 20
-280.2043034958
 30
0.0
 40
2.499999999999992
 50
249.5127124317
 51
110.4872882012
  0
ARC
  5
97
  8
0
  6
CONTINUOUS
 62
     7
 10
-736.568885047
 20
-963.2043034958
 30
0.0
 40
3.000000000000135
 50
19.4712206345
 51
70.5287793655
  0
LINE
  5
98
  8
0
  6
CONTINUOUS
 62
     7
 10
-163.068885047
 20
503.2956965042
 30
0.0
 11
-162.068885047
 21
503.2956965042
 31
0.0
  0
LINE
  5
99
  8
0
  6
CONTINUOUS
 62
     7
 10
-163.068885047
 20
503.2956965042
 30
0.0
 11
-163.068885047
 21
516.2956965042
 31
0.0
  0
LINE
  5
9A
  8
0
  6
CONTINUOUS
 62
     7
 10
-162.068885047
 20
516.2956965042
 30
0.0
 11
-163.068885047
 21
516.2956965042
 31
0.0
  0
LINE
  5
9B
  8
0
  6
CONTINUOUS
 62
     7
 10
-151.068885047
 20
516.2956965042
 30
0.0
 11
-162.068885047
 21
516.2956965042
 31
0.0
  0
CIRCLE
  5
9C
  8
0
  6
CONTINUOUS
 62
     7
 10
-156.568885047
 20
509.7956965042
 30
0.0
 40
3.0
  0
LINE
  5
9D
  8
0
  6
CONTINUOUS
 62
     7
 10
-151.068885047
 20
503.2956965042
 30
0.0
 11
-162.068885047
 21
503.2956965042
 31
0.0
  0
LINE
  5
9E
  8
0
  6
CONTINUOUS
 62
     7
 10
-150.068885047
 20
516.2956965042
 30
0.0
 11
-151.068885047
 21
516.2956965042
 31
0.0
  0
LINE
  5
9F
  8
0
  6
CONTINUOUS
 62
     7
 10
-150.068885047
 20
516.2956965042
 30
0.0
 11
-150.068885047
 21
503.2956965042
 31
0.0
  0
LINE
  5
A0
  8
0
  6
CONTINUOUS
 62
     7
 10
-151.068885047
 20
503.2956965042
 30
0.0
 11
-150.068885047
 21
503.2956965042
 31
0.0
  0
LINE
  5
A1
  8
0
  6
CONTINUOUS
 62
     7
 10
-163.068885047
 20
-286.7043034958
 30
0.0
 11
-162.068885047
 21
-286.7043034958
 31
0.0
  0
LINE
  5
A2
  8
0
  6
CONTINUOUS
 62
     7
 10
-163.068885047
 20
-286.7043034958
 30
0.0
 11
-163.068885047
 21
-273.7043034958
 31
0.0
  0
LINE
  5
A3
  8
0
  6
CONTINUOUS
 62
     7
 10
-162.068885047
 20
-273.7043034958
 30
0.0
 11
-163.068885047
 21
-273.7043034958
 31
0.0
  0
LINE
  5
A4
  8
0
  6
CONTINUOUS
 62
     7
 10
-151.068885047
 20
-286.7043034958
 30
0.0
 11
-162.068885047
 21
-286.7043034958
 31
0.0
  0
LINE
  5
A5
  8
0
  6
CONTINUOUS
 62
     7
 10
-151.068885047
 20
-273.7043034958
 30
0.0
 11
-162.068885047
 21
-273.7043034958
 31
0.0
  0
CIRCLE
  5
A6
  8
0
  6
CONTINUOUS
 62
     7
 10
-156.568885047
 20
-280.2043034958
 30
0.0
 40
3.0
  0
LINE
  5
A7
  8
0
  6
CONTINUOUS
 62
     7
 10
-150.068885047
 20
-273.7043034958
 30
0.0
 11
-151.068885047
 21
-273.7043034958
 31
0.0
  0
LINE
  5
A8
  8
0
  6
CONTINUOUS
 62
     7
 10
-150.068885047
 20
-273.7043034958
 30
0.0
 11
-150.068885047
 21
-286.7043034958
 31
0.0
  0
LINE
  5
A9
  8
0
  6
CONTINUOUS
 62
     7
 10
-151.068885047
 20
-286.7043034958
 30
0.0
 11
-150.068885047
 21
-286.7043034958
 31
0.0
  0
LINE
  5
AA
  8
0
  6
CONTINUOUS
 62
     7
 10
402.931114953
 20
-925.7043034958
 30
0.0
 11
-134.568885047
 21
-925.7043034958
 31
0.0
  0
LINE
  5
AB
  8
0
  6
CONTINUOUS
 62
     7
 10
402.931114953
 20
-940.7043034958
 30
0.0
 11
-52.6408953626
 21
-940.7043034958
 31
0.0
  0
LINE
  5
AC
  8
0
  6
CONTINUOUS
 62
     7
 10
-64.4968747315
 20
-940.7043034958
 30
0.0
 11
-134.568885047
 21
-940.7043034958
 31
0.0
  0
LINE
  5
AD
  8
0
  6
CONTINUOUS
 62
     7
 10
-136.568885047
 20
-927.781890824
 30
0.0
 11
-136.568885047
 21
-939.6904154441
 31
0.0
  0
LINE
  5
AE
  8
0
  6
CONTINUOUS
 62
     7
 10
402.931114953
 20
1171.2956965042
 30
0.0
 11
-134.568885047
 21
1171.2956965042
 31
0.0
  0
LINE
  5
AF
  8
0
  6
CONTINUOUS
 62
     7
 10
-136.568885047
 20
1173.3732838325
 30
0.0
 11
-136.568885047
 21
1185.2818084526
 31
0.0
  0
LINE
  5
B0
  8
0
  6
CONTINUOUS
 62
     7
 10
402.931114953
 20
1186.2956965042
 30
0.0
 11
-52.6408953626
 21
1186.2956965042
 31
0.0
  0
LINE
  5
B1
  8
0
  6
CONTINUOUS
 62
     7
 10
-64.4968747315
 20
1186.2956965042
 30
0.0
 11
-134.568885047
 21
1186.2956965042
 31
0.0
  0
ARC
  5
B2
  8
0
  6
CONTINUOUS
 62
     7
 10
402.931114953
 20
-920.7043034958
 30
0.0
 40
4.999999999999886
 50
270.0
 51
0.0
  0
ARC
  5
B3
  8
0
  6
CONTINUOUS
 62
     7
 10
402.931114953
 20
-920.7043034958
 30
0.0
 40
20.00000000000011
 50
270.0
 51
0.0
  0
LINE
  5
B4
  8
0
  6
CONTINUOUS
 62
     7
 10
407.931114953
 20
-920.7043034958
 30
0.0
 11
407.931114953
 21
1166.2956965042
 31
0.0
  0
LINE
  5
B5
  8
0
  6
CONTINUOUS
 62
     7
 10
422.931114953
 20
-920.7043034958
 30
0.0
 11
422.931114953
 21
1166.2956965042
 31
0.0
  0
ARC
  5
B6
  8
0
  6
CONTINUOUS
 62
     7
 10
402.931114953
 20
1166.2956965042
 30
0.0
 40
4.999999999999886
 50
0.0
 51
90.0
  0
ARC
  5
B7
  8
0
  6
CONTINUOUS
 62
     7
 10
402.931114953
 20
1166.2956965042
 30
0.0
 40
20.0
 50
0.0
 51
90.0
  0
ARC
  5
B8
  8
0
  6
CONTINUOUS
 62
     7
 10
-688.068885047
 20
1166.2956965042
 30
0.0
 40
5.0
 50
90.0
 51
180.0
  0
ARC
  5
B9
  8
0
  6
CONTINUOUS
 62
     7
 10
-688.068885047
 20
1166.2956965042
 30
0.0
 40
20.0
 50
90.0
 51
180.0
  0
LINE
  5
BA
  8
0
  6
CONTINUOUS
 62
     7
 10
-693.068885047
 20
1166.2956965042
 30
0.0
 11
-693.068885047
 21
-920.7043034958
 31
0.0
  0
LINE
  5
BB
  8
0
  6
CONTINUOUS
 62
     7
 10
-708.068885047
 20
1166.2956965042
 30
0.0
 11
-708.068885047
 21
-920.7043034958
 31
0.0
  0
ARC
  5
BC
  8
0
  6
CONTINUOUS
 62
     7
 10
-688.068885047
 20
-920.7043034958
 30
0.0
 40
4.999999999999886
 50
180.0
 51
270.0
  0
ARC
  5
BD
  8
0
  6
CONTINUOUS
 62
     7
 10
-688.068885047
 20
-920.7043034958
 30
0.0
 40
20.0
 50
180.0
 51
270.0
  0
LINE
  5
BE
  8
0
  6
CONTINUOUS
 62
     7
 10
-688.068885047
 20
1171.2956965042
 30
0.0
 11
-149.568885047
 21
1171.2956965042
 31
0.0
  0
LINE
  5
BF
  8
0
  6
CONTINUOUS
 62
     7
 10
-688.068885047
 20
1186.2956965042
 30
0.0
 11
-232.4968747315
 21
1186.2956965042
 31
0.0
  0
LINE
  5
C0
  8
0
  6
CONTINUOUS
 62
     7
 10
-220.6408953626
 20
1186.2956965042
 30
0.0
 11
-149.568885047
 21
1186.2956965042
 31
0.0
  0
LINE
  5
C1
  8
0
  6
CONTINUOUS
 62
     7
 10
-148.568885047
 20
1173.3732838325
 30
0.0
 11
-148.568885047
 21
1185.2818084526
 31
0.0
  0
LINE
  5
C2
  8
0
  6
CONTINUOUS
 62
     7
 10
-688.068885047
 20
-925.7043034958
 30
0.0
 11
-149.568885047
 21
-925.7043034958
 31
0.0
  0
LINE
  5
C3
  8
0
  6
CONTINUOUS
 62
     7
 10
-148.568885047
 20
-927.781890824
 30
0.0
 11
-148.568885047
 21
-939.6904154441
 31
0.0
  0
LINE
  5
C4
  8
0
  6
CONTINUOUS
 62
     7
 10
-688.068885047
 20
-940.7043034958
 30
0.0
 11
-232.4968747315
 21
-940.7043034958
 31
0.0
  0
LINE
  5
C5
  8
0
  6
CONTINUOUS
 62
     7
 10
-220.6408953626
 20
-940.7043034958
 30
0.0
 11
-149.568885047
 21
-940.7043034958
 31
0.0
  0
CIRCLE
  5
C6
  8
0
  6
CONTINUOUS
 62
     7
 10
-638.568885047
 20
-865.2043034958
 30
0.0
 40
4.000000000000034
  0
CIRCLE
  5
C7
  8
0
  6
CONTINUOUS
 62
     7
 10
-638.568885047
 20
-865.2043034958
 30
0.0
 40
3.499999999999999
  0
CIRCLE
  5
C8
  8
0
  6
CONTINUOUS
 62
     7
 10
-638.568885047
 20
-865.2043034958
 30
0.0
 40
4.999999999999992
  0
CIRCLE
  5
C9
  8
0
  6
CONTINUOUS
 62
     7
 10
353.4311164724
 20
-865.2043034957
 30
0.0
 40
4.000000000000128
  0
CIRCLE
  5
CA
  8
0
  6
CONTINUOUS
 62
     7
 10
353.4311164724
 20
-865.2043034957
 30
0.0
 40
3.500000000000003
  0
CIRCLE
  5
CB
  8
0
  6
CONTINUOUS
 62
     7
 10
353.4311164724
 20
-865.2043034957
 30
0.0
 40
5.000000000000065
  0
ARC
  5
CC
  8
0
  6
CONTINUOUS
 62
     7
 10
-137.735558732
 20
1171.0618526928
 30
0.0
 40
1.766162983474911
 50
269.841066373
 51
311.3433335688
  0
LINE
  5
CD
  8
0
  6
CONTINUOUS
 62
     7
 10
-136.568885047
 20
-924.1444867726
 30
0.0
 11
-136.568885047
 21
1169.7358797811
 31
0.0
  0
ARC
  5
CE
  8
0
  6
CONTINUOUS
 62
     7
 10
-137.735558732
 20
-925.4704596843
 30
0.0
 40
1.766162983478658
 50
48.6566664313
 51
90.1589336269
  0
LINE
  5
CF
  8
0
  6
CONTINUOUS
 62
     7
 10
-137.7404579119
 20
-923.7043034958
 30
0.0
 11
-140.5688850471
 21
-923.7043034958
 31
0.0
  0
LINE
  5
D0
  8
0
  6
CONTINUOUS
 62
     7
 10
-140.5688850471
 20
1169.2956965042
 30
0.0
 11
-137.7404579119
 21
1169.2956965042
 31
0.0
  0
LINE
  5
D1
  8
0
  6
CONTINUOUS
 62
     7
 10
-163.568885047
 20
-923.7043034958
 30
0.0
 11
-163.568885047
 21
1169.2956965042
 31
0.0
  0
LINE
  5
D2
  8
0
  6
CONTINUOUS
 62
     7
 10
-163.568885047
 20
1169.2956965042
 30
0.0
 11
-140.568885047
 21
1169.2956965042
 31
0.0
  0
LINE
  5
D3
  8
0
  6
CONTINUOUS
 62
     7
 10
-163.568885047
 20
-923.7043034958
 30
0.0
 11
-140.568885047
 21
-923.7043034958
 31
0.0
  0
ARC
  5
D4
  8
0
  6
CONTINUOUS
 62
     7
 10
-139.2817147031
 20
-924.4832375339
 30
0.0
 40
0.7892263412778749
 50
25.4179916906
 51
80.736689305
  0
LINE
  5
D5
  8
0
  6
CONTINUOUS
 62
     7
 10
-136.568885047
 20
-924.1444867726
 30
0.0
 11
-138.568885047
 21
-924.1444867726
 31
0.0
  0
ARC
  5
D6
  8
0
  6
CONTINUOUS
 62
     7
 10
-139.2817147031
 20
1170.0746305424
 30
0.0
 40
0.7892263412763825
 50
279.2633106949
 51
334.5820083094
  0
LINE
  5
D7
  8
0
  6
CONTINUOUS
 62
     7
 10
-136.568885047
 20
1169.7358797811
 30
0.0
 11
-138.5688850323
 21
1169.7358797811
 31
0.0
  0
LINE
  5
D8
  8
0
  6
CONTINUOUS
 62
     7
 10
-138.568885047
 20
-927.3445493994
 30
0.0
 11
-138.568885047
 21
-924.1444867726
 31
0.0
  0
LINE
  5
D9
  8
0
  6
CONTINUOUS
 62
     7
 10
-136.568885047
 20
-924.1444867726
 30
0.0
 11
-136.568885047
 21
-927.3445493994
 31
0.0
  0
LINE
  5
DA
  8
0
  6
CONTINUOUS
 62
     7
 10
-136.568885047
 20
1169.7358797811
 30
0.0
 11
-136.568885047
 21
1172.9359424079
 31
0.0
  0
LINE
  5
DB
  8
0
  6
CONTINUOUS
 62
     7
 10
-138.568885047
 20
1172.9359424079
 30
0.0
 11
-138.568885047
 21
1169.7358797811
 31
0.0
  0
LINE
  5
DC
  8
0
  6
CONTINUOUS
 62
     7
 10
432.931114953
 20
1208.7956965042
 30
0.0
 11
432.931114953
 21
1210.7956965043
 31
0.0
  0
LINE
  5
DD
  8
0
  6
CONTINUOUS
 62
     7
 10
-118.068885047
 20
1208.7956965042
 30
0.0
 11
-118.068885047
 21
1210.7956965043
 31
0.0
  0
LINE
  5
DE
  8
0
  6
CONTINUOUS
 62
     7
 10
-118.068885047
 20
1208.7956965042
 30
0.0
 11
432.931114953
 21
1208.7956965042
 31
0.0
  0
LINE
  5
DF
  8
0
  6
CONTINUOUS
 62
     7
 10
-118.068885047
 20
1210.7956965043
 30
0.0
 11
432.931114953
 21
1210.7956965043
 31
0.0
  0
LINE
  5
E0
  8
0
  6
CONTINUOUS
 62
     7
 10
-136.568885047
 20
1196.3311986737
 30
0.0
 11
-138.568885047
 21
1196.3311986737
 31
0.0
  0
LINE
  5
E1
  8
0
  6
CONTINUOUS
 62
     7
 10
-136.568885047
 20
1186.7864300895
 30
0.0
 11
-136.568885047
 21
1196.3311986737
 31
0.0
  0
LINE
  5
E2
  8
0
  6
CONTINUOUS
 62
     7
 10
-138.568885047
 20
1196.3311986737
 30
0.0
 11
-138.568885047
 21
1186.7864300895
 31
0.0
  0
LINE
  5
E3
  8
0
  6
CONTINUOUS
 62
     7
 10
-136.568885047
 20
1196.3311986737
 30
0.0
 11
-136.5688858058
 21
1206.7956965042
 31
0.0
  0
LINE
  5
E4
  8
0
  6
CONTINUOUS
 62
     7
 10
-138.5688858058
 20
1206.7956965042
 30
0.0
 11
-138.568885047
 21
1196.3311986737
 31
0.0
  0
ARC
  5
E5
  8
0
  6
CONTINUOUS
 62
     7
 10
-134.568885047
 20
-961.2043034958
 30
0.0
 40
2.0
 50
180.0
 51
269.9999999997
  0
ARC
  5
E6
  8
0
  6
CONTINUOUS
 62
     7
 10
-134.5688842882
 20
-961.2043034958
 30
0.0
 40
4.000001138188651
 50
180.0
 51
269.999989131
  0
LINE
  5
E7
  8
0
  6
CONTINUOUS
 62
     7
 10
-136.568885047
 20
-950.7398056652
 30
0.0
 11
-138.568885047
 21
-950.7398056652
 31
0.0
  0
LINE
  5
E8
  8
0
  6
CONTINUOUS
 62
     7
 10
-136.568885047
 20
-950.7398056652
 30
0.0
 11
-136.568885047
 21
-961.2043034958
 31
0.0
  0
LINE
  5
E9
  8
0
  6
CONTINUOUS
 62
     7
 10
-138.5688854264
 20
-961.2043034958
 30
0.0
 11
-138.568885047
 21
-950.7398056652
 31
0.0
  0
ARC
  5
EA
  8
0
  6
CONTINUOUS
 62
     7
 10
-134.568885047
 20
1206.7956965042
 30
0.0
 40
2.000000758792481
 50
90.0
 51
180.0
  0
ARC
  5
EB
  8
0
  6
CONTINUOUS
 62
     7
 10
-134.5688842882
 20
1206.7956965042
 30
0.0
 40
4.000001517584877
 50
90.0000108689
 51
180.0
  0
LINE
  5
EC
  8
0
  6
CONTINUOUS
 62
     7
 10
-118.068885047
 20
-963.2043034957
 30
0.0
 11
-118.068885047
 21
-965.2043034958
 31
0.0
  0
LINE
  5
ED
  8
0
  6
CONTINUOUS
 62
     7
 10
-118.068885047
 20
-965.2043034958
 30
0.0
 11
-134.568885047
 21
-965.2043042545
 31
0.0
  0
LINE
  5
EE
  8
0
  6
CONTINUOUS
 62
     7
 10
-134.568885047
 20
-963.2043034957
 30
0.0
 11
-118.068885047
 21
-963.2043034957
 31
0.0
  0
LINE
  5
EF
  8
0
  6
CONTINUOUS
 62
     7
 10
-118.068885047
 20
1208.7956965042
 30
0.0
 11
-118.068885047
 21
1210.7956965043
 31
0.0
  0
LINE
  5
F0
  8
0
  6
CONTINUOUS
 62
     7
 10
-134.568885047
 20
1208.7956965042
 30
0.0
 11
-118.068885047
 21
1208.7956965042
 31
0.0
  0
LINE
  5
F1
  8
0
  6
CONTINUOUS
 62
     7
 10
-118.068885047
 20
1210.7956965043
 30
0.0
 11
-134.568885047
 21
1210.7956965043
 31
0.0
  0
LINE
  5
F2
  8
0
  6
CONTINUOUS
 62
     7
 10
-136.568885047
 20
-941.195037081
 30
0.0
 11
-136.568885047
 21
-950.7398056652
 31
0.0
  0
LINE
  5
F3
  8
0
  6
CONTINUOUS
 62
     7
 10
-138.568885047
 20
-950.7398056652
 30
0.0
 11
-138.568885047
 21
-941.195037081
 31
0.0
  0
LINE
  5
F4
  8
0
  6
CONTINUOUS
 62
     7
 10
432.931114953
 20
-963.2043034957
 30
0.0
 11
432.931114953
 21
-965.2043034958
 31
0.0
  0
LINE
  5
F5
  8
0
  6
CONTINUOUS
 62
     7
 10
-118.068885047
 20
-963.2043034957
 30
0.0
 11
-118.068885047
 21
-965.2043034957
 31
0.0
  0
LINE
  5
F6
  8
0
  6
CONTINUOUS
 62
     7
 10
432.931114953
 20
-963.2043034957
 30
0.0
 11
-118.068885047
 21
-963.2043034957
 31
0.0
  0
LINE
  5
F7
  8
0
  6
CONTINUOUS
 62
     7
 10
432.931114953
 20
-965.2043034958
 30
0.0
 11
-118.068885047
 21
-965.2043034957
 31
0.0
  0
LINE
  5
F8
  8
0
  6
CONTINUOUS
 62
     7
 10
432.9311164724
 20
1210.7956965042
 30
0.0
 11
432.9311164724
 21
1208.7956965042
 31
0.0
  0
LINE
  5
F9
  8
0
  6
CONTINUOUS
 62
     7
 10
432.9311164724
 20
1210.7956965042
 30
0.0
 11
449.4311164724
 21
1210.795697263
 31
0.0
  0
LINE
  5
FA
  8
0
  6
CONTINUOUS
 62
     7
 10
432.9311164724
 20
1208.7956965042
 30
0.0
 11
449.4311164724
 21
1208.7956965042
 31
0.0
  0
LINE
  5
FB
  8
0
  6
CONTINUOUS
 62
     7
 10
432.9311164724
 20
-965.2043034957
 30
0.0
 11
432.9311164724
 21
-963.2043034957
 31
0.0
  0
LINE
  5
FC
  8
0
  6
CONTINUOUS
 62
     7
 10
449.4311164724
 20
-963.2043034957
 30
0.0
 11
432.9311164724
 21
-963.2043034957
 31
0.0
  0
LINE
  5
FD
  8
0
  6
CONTINUOUS
 62
     7
 10
449.4311164724
 20
-965.2043034957
 30
0.0
 11
432.9311164724
 21
-965.2043034957
 31
0.0
  0
ARC
  5
FE
  8
0
  6
CONTINUOUS
 62
     7
 10
449.4311157136
 20
1206.7956965042
 30
0.0
 40
4.000001517584792
 50
0.0
 51
89.9999891311
  0
ARC
  5
FF
  8
0
  6
CONTINUOUS
 62
     7
 10
449.4311164724
 20
1206.7956965042
 30
0.0
 40
2.0
 50
0.0
 51
90.0
  0
ARC
  5
100
  8
0
  6
CONTINUOUS
 62
     7
 10
449.4311157136
 20
-961.2043034958
 30
0.0
 40
4.000000758792339
 50
270.000010869
 51
360.0
  0
ARC
  5
101
  8
0
  6
CONTINUOUS
 62
     7
 10
449.4311164724
 20
-961.2043034958
 30
0.0
 40
2.0
 50
270.0000000003
 51
360.0
  0
LINE
  5
102
  8
0
  6
CONTINUOUS
 62
     7
 10
453.4311172312
 20
1206.7956965042
 30
0.0
 11
453.4311164724
 21
-961.2043034958
 31
0.0
  0
LINE
  5
103
  8
0
  6
CONTINUOUS
 62
     7
 10
451.4311164724
 20
1206.7956965042
 30
0.0
 11
451.4311164724
 21
-961.2043034958
 31
0.0
  0
LINE
  5
104
  8
0
  6
CONTINUOUS
 62
     7
 10
-136.568885047
 20
-936.9182171459
 30
0.0
 11
-138.5688852411
 21
-936.9182171459
 31
0.0
  0
LINE
  5
105
  8
0
  6
CONTINUOUS
 62
     7
 10
-136.568885047
 20
-939.6904154441
 30
0.0
 11
-136.568885047
 21
-941.195037081
 31
0.0
  0
LINE
  5
106
  8
0
  6
CONTINUOUS
 62
     7
 10
-138.568885047
 20
-941.195037081
 30
0.0
 11
-138.568885047
 21
-936.9182171459
 31
0.0
  0
LINE
  5
107
  8
0
  6
CONTINUOUS
 62
     7
 10
-136.568885047
 20
1182.5096101543
 30
0.0
 11
-138.568885047
 21
1182.5096101543
 31
0.0
  0
LINE
  5
108
  8
0
  6
CONTINUOUS
 62
     7
 10
-136.568885047
 20
1185.2818084526
 30
0.0
 11
-136.568885047
 21
1186.7864300895
 31
0.0
  0
LINE
  5
109
  8
0
  6
CONTINUOUS
 62
     7
 10
-138.568885047
 20
1186.7864300895
 30
0.0
 11
-138.568885047
 21
1182.5096101543
 31
0.0
  0
LINE
  5
10A
  8
0
  6
CONTINUOUS
 62
     7
 10
-138.5688852411
 20
1177.0817828541
 30
0.0
 11
-136.568885047
 21
1177.0817828541
 31
0.0
  0
LINE
  5
10B
  8
0
  6
CONTINUOUS
 62
     7
 10
-136.568885047
 20
1172.9359424079
 30
0.0
 11
-136.568885047
 21
1173.3732838325
 31
0.0
  0
LINE
  5
10C
  8
0
  6
CONTINUOUS
 62
     7
 10
-138.568885047
 20
1177.0817828541
 30
0.0
 11
-138.568885047
 21
1172.9359424079
 31
0.0
  0
LINE
  5
10D
  8
0
  6
CONTINUOUS
 62
     7
 10
-138.568885047
 20
-931.4903898457
 30
0.0
 11
-136.568885047
 21
-931.4903898457
 31
0.0
  0
LINE
  5
10E
  8
0
  6
CONTINUOUS
 62
     7
 10
-136.568885047
 20
-927.3445493994
 30
0.0
 11
-136.568885047
 21
-927.781890824
 31
0.0
  0
LINE
  5
10F
  8
0
  6
CONTINUOUS
 62
     7
 10
-138.568885047
 20
-931.4903898457
 30
0.0
 11
-138.568885047
 21
-927.3445493994
 31
0.0
  0
ARC
  5
110
  8
0
  6
CONTINUOUS
 62
     7
 10
-58.568885047
 20
1189.7956965042
 30
0.0
 40
4.516838966197504
 50
299.5276563099
 51
180.0
  0
ARC
  5
111
  8
0
  6
CONTINUOUS
 62
     7
 10
-58.568885047
 20
1189.7956965042
 30
0.0
 40
4.516838966197504
 50
180.0
 51
240.4723436901
  0
ARC
  5
112
  8
0
  6
CONTINUOUS
 62
     7
 10
-58.568885047
 20
-944.2043034958
 30
0.0
 40
4.51683896619767
 50
180.0
 51
60.4723436901
  0
ARC
  5
113
  8
0
  6
CONTINUOUS
 62
     7
 10
-58.568885047
 20
-944.2043034958
 30
0.0
 40
4.516838966197698
 50
119.5276563099
 51
180.0
  0
CIRCLE
  5
114
  8
0
  6
CONTINUOUS
 62
     7
 10
-58.568885047
 20
1189.7956965042
 30
0.0
 40
3.0
  0
CIRCLE
  5
115
  8
0
  6
CONTINUOUS
 62
     7
 10
-58.568885047
 20
-944.2043034958
 30
0.0
 40
3.0
  0
CIRCLE
  5
116
  8
0
  6
CONTINUOUS
 62
     7
 10
432.431114953
 20
1114.7956965042
 30
0.0
 40
4.516838966197326
  0
CIRCLE
  5
117
  8
0
  6
CONTINUOUS
 62
     7
 10
432.431114953
 20
-280.2043034958
 30
0.0
 40
4.516838966197326
  0
CIRCLE
  5
118
  8
0
  6
CONTINUOUS
 62
     7
 10
432.431114953
 20
509.7956965042
 30
0.0
 40
4.516838966197326
  0
CIRCLE
  5
119
  8
0
  6
CONTINUOUS
 62
     7
 10
432.431114953
 20
-885.2043034958
 30
0.0
 40
4.516838966197326
  0
CIRCLE
  5
11A
  8
0
  6
CONTINUOUS
 62
     7
 10
432.431114953
 20
-280.2043034958
 30
0.0
 40
2.999999999999886
  0
CIRCLE
  5
11B
  8
0
  6
CONTINUOUS
 62
     7
 10
432.431114953
 20
1114.7956965042
 30
0.0
 40
2.999999999999886
  0
CIRCLE
  5
11C
  8
0
  6
CONTINUOUS
 62
     7
 10
432.431114953
 20
509.7956965042
 30
0.0
 40
2.999999999999886
  0
CIRCLE
  5
11D
  8
0
  6
CONTINUOUS
 62
     7
 10
432.431114953
 20
-885.2043034958
 30
0.0
 40
2.999999999999886
  0
ARC
  5
11E
  8
0
  6
CONTINUOUS
 62
     7
 10
-138.1365520209
 20
1214.0237229418
 30
0.0
 40
8.272904754246753
 50
282.4633967634
 51
295.546736369
  0
POLYLINE
  5
11F
  8
0
  6
CONTINUOUS
 62
     7
 66
     1
 10
0.0
 20
0.0
 30
0.0
  0
VERTEX
  5
4E6
  8
0
  6
CONTINUOUS
 62
     7
 10
-136.5688852411
 20
1206.5596285267
 30
0.0
  0
VERTEX
  5
4E7
  8
0
  6
CONTINUOUS
 62
     7
 10
-136.5257069751
 20
1206.2255174481
 30
0.0
  0
VERTEX
  5
4E8
  8
0
  6
CONTINUOUS
 62
     7
 10
-136.4043533976
 20
1205.9868249289
 30
0.0
  0
VERTEX
  5
4E9
  8
0
  6
CONTINUOUS
 62
     7
 10
-136.2185757275
 20
1205.8435509691
 30
0.0
  0
VERTEX
  5
4EA
  8
0
  6
CONTINUOUS
 62
     7
 10
-135.9831006214
 20
1205.7956955688
 30
0.0
  0
VERTEX
  5
4EB
  8
0
  6
CONTINUOUS
 62
     7
 10
-135.7003532351
 20
1205.8433321546
 30
0.0
  0
VERTEX
  5
4EC
  8
0
  6
CONTINUOUS
 62
     7
 10
-135.3643874687
 20
1205.9865331762
 30
0.0
  0
VERTEX
  5
4ED
  8
0
  6
CONTINUOUS
 62
     7
 10
-134.9831118302
 20
1206.2252986336
 30
0.0
  0
VERTEX
  5
4EE
  8
0
  6
CONTINUOUS
 62
     7
 10
-134.568885047
 20
1206.5596285267
 30
0.0
  0
SEQEND
  5
4E5
  8
0
  6
CONTINUOUS
 62
     7
  0
LINE
  5
120
  8
0
  6
CONTINUOUS
 62
     7
 10
-138.5688852411
 20
1177.0817828541
 30
0.0
 11
-138.5496241469
 21
1178.7956965042
 31
0.0
  0
LINE
  5
121
  8
0
  6
CONTINUOUS
 62
     7
 10
-138.5496241469
 20
-933.2043034958
 30
0.0
 11
-138.5688852411
 21
-931.4903898457
 31
0.0
  0
LINE
  5
122
  8
0
  6
CONTINUOUS
 62
     7
 10
-138.5496241469
 20
-935.2043034958
 30
0.0
 11
-138.5496241469
 21
-933.2043034958
 31
0.0
  0
LINE
  5
123
  8
0
  6
CONTINUOUS
 62
     7
 10
-138.5688852411
 20
-936.9182171459
 30
0.0
 11
-138.5496241469
 21
-935.2043034958
 31
0.0
  0
ARC
  5
124
  8
0
  6
CONTINUOUS
 62
     7
 10
-138.1365520209
 20
-968.4323299332
 30
0.0
 40
8.272904754215514
 50
64.4532636309
 51
77.5366032366
  0
LINE
  5
125
  8
0
  6
CONTINUOUS
 62
     7
 10
-138.5496241469
 20
1180.7956965042
 30
0.0
 11
-138.5688852411
 21
1182.5096101543
 31
0.0
  0
LINE
  5
126
  8
0
  6
CONTINUOUS
 62
     7
 10
-138.5496241469
 20
1178.7956965042
 30
0.0
 11
-138.5496241469
 21
1180.7956965042
 31
0.0
  0
POLYLINE
  5
127
  8
0
  6
CONTINUOUS
 62
     7
 66
     1
 10
0.0
 20
0.0
 30
0.0
  0
VERTEX
  5
4F0
  8
0
  6
CONTINUOUS
 62
     7
 10
-134.568885047
 20
-960.9682355183
 30
0.0
  0
VERTEX
  5
4F1
  8
0
  6
CONTINUOUS
 62
     7
 10
-134.9831118302
 20
-960.6339056251
 30
0.0
  0
VERTEX
  5
4F2
  8
0
  6
CONTINUOUS
 62
     7
 10
-135.3643874687
 20
-960.3951401677
 30
0.0
  0
VERTEX
  5
4F3
  8
0
  6
CONTINUOUS
 62
     7
 10
-135.7003532351
 20
-960.2519391461
 30
0.0
  0
VERTEX
  5
4F4
  8
0
  6
CONTINUOUS
 62
     7
 10
-135.9831006214
 20
-960.2043025603
 30
0.0
  0
VERTEX
  5
4F5
  8
0
  6
CONTINUOUS
 62
     7
 10
-136.2185757275
 20
-960.2521579606
 30
0.0
  0
VERTEX
  5
4F6
  8
0
  6
CONTINUOUS
 62
     7
 10
-136.4043533976
 20
-960.3954319204
 30
0.0
  0
VERTEX
  5
4F7
  8
0
  6
CONTINUOUS
 62
     7
 10
-136.5257069751
 20
-960.6341244396
 30
0.0
  0
VERTEX
  5
4F8
  8
0
  6
CONTINUOUS
 62
     7
 10
-136.5688852411
 20
-960.9682355183
 30
0.0
  0
SEQEND
  5
4EF
  8
0
  6
CONTINUOUS
 62
     7
  0
ARC
  5
128
  8
0
  6
CONTINUOUS
 62
     7
 10
-141.7566625747
 20
1210.3502360955
 30
0.0
 40
8.230931526231583
 50
334.4148856407
 51
347.563650685
  0
POLYLINE
  5
129
  8
0
  6
CONTINUOUS
 62
     7
 66
     1
 10
0.0
 20
0.0
 30
0.0
  0
VERTEX
  5
4FA
  8
0
  6
CONTINUOUS
 62
     7
 10
-134.3328170695
 20
1206.7956965042
 30
0.0
  0
VERTEX
  5
4FB
  8
0
  6
CONTINUOUS
 62
     7
 10
-133.9987059927
 20
1207.209030519
 30
0.0
  0
VERTEX
  5
4FC
  8
0
  6
CONTINUOUS
 62
     7
 10
-133.7600134741
 20
1207.5900817485
 30
0.0
  0
VERTEX
  5
4FD
  8
0
  6
CONTINUOUS
 62
     7
 10
-133.6167395137
 20
1207.9264101627
 30
0.0
  0
VERTEX
  5
4FE
  8
0
  6
CONTINUOUS
 62
     7
 10
-133.5688841116
 20
1208.2099087284
 30
0.0
  0
VERTEX
  5
4FF
  8
0
  6
CONTINUOUS
 62
     7
 10
-133.6165206994
 20
1208.4448699823
 30
0.0
  0
VERTEX
  5
500
  8
0
  6
CONTINUOUS
 62
     7
 10
-133.7597217216
 20
1208.6306813274
 30
0.0
  0
VERTEX
  5
501
  8
0
  6
CONTINUOUS
 62
     7
 10
-133.9984871784
 20
1208.7523301564
 30
0.0
  0
VERTEX
  5
502
  8
0
  6
CONTINUOUS
 62
     7
 10
-134.3328170695
 20
1208.795697263
 30
0.0
  0
SEQEND
  5
4F9
  8
0
  6
CONTINUOUS
 62
     7
  0
ARC
  5
12A
  8
0
  6
CONTINUOUS
 62
     7
 10
456.6591450998
 20
1210.3633639712
 30
0.0
 40
8.272906942681292
 50
192.4633937264
 51
205.5467329093
  0
POLYLINE
  5
12B
  8
0
  6
CONTINUOUS
 62
     7
 66
     1
 10
0.0
 20
0.0
 30
0.0
  0
VERTEX
  5
504
  8
0
  6
CONTINUOUS
 62
     7
 10
449.1950484949
 20
1208.795697263
 30
0.0
  0
VERTEX
  5
505
  8
0
  6
CONTINUOUS
 62
     7
 10
448.8609374163
 20
1208.7525189847
 30
0.0
  0
VERTEX
  5
506
  8
0
  6
CONTINUOUS
 62
     7
 10
448.622244897
 20
1208.6311653727
 30
0.0
  0
VERTEX
  5
507
  8
0
  6
CONTINUOUS
 62
     7
 10
448.4789709373
 20
1208.4453876502
 30
0.0
  0
VERTEX
  5
508
  8
0
  6
CONTINUOUS
 62
     7
 10
448.4311155369
 20
1208.209912478
 30
0.0
  0
VERTEX
  5
509
  8
0
  6
CONTINUOUS
 62
     7
 10
448.4787521227
 20
1207.9271650126
 30
0.0
  0
VERTEX
  5
50A
  8
0
  6
CONTINUOUS
 62
     7
 10
448.6219531443
 20
1207.5911991517
 30
0.0
  0
VERTEX
  5
50B
  8
0
  6
CONTINUOUS
 62
     7
 10
448.8607186017
 20
1207.2099234053
 30
0.0
  0
VERTEX
  5
50C
  8
0
  6
CONTINUOUS
 62
     7
 10
449.1950484949
 20
1206.7956965042
 30
0.0
  0
SEQEND
  5
503
  8
0
  6
CONTINUOUS
 62
     7
  0
LINE
  5
12C
  8
0
  6
CONTINUOUS
 62
     7
 10
-136.5592546935
 20
-933.2043034958
 30
0.0
 11
-138.5496241469
 21
-933.2043034958
 31
0.0
  0
LINE
  5
12D
  8
0
  6
CONTINUOUS
 62
     7
 10
-136.5592546935
 20
1178.7956965042
 30
0.0
 11
-138.5496241469
 21
1178.7956965042
 31
0.0
  0
LINE
  5
12E
  8
0
  6
CONTINUOUS
 62
     7
 10
-136.5592546935
 20
-935.2043034958
 30
0.0
 11
-138.5496241469
 21
-935.2043034958
 31
0.0
  0
LINE
  5
12F
  8
0
  6
CONTINUOUS
 62
     7
 10
-136.5592546935
 20
1180.7956965042
 30
0.0
 11
-138.5496241469
 21
1180.7956965042
 31
0.0
  0
ARC
  5
130
  8
0
  6
CONTINUOUS
 62
     7
 10
452.985742979
 20
1213.983754886
 30
0.0
 40
8.231222375712195
 50
244.4151842196
 51
257.5634906378
  0
POLYLINE
  5
131
  8
0
  6
CONTINUOUS
 62
     7
 66
     1
 10
0.0
 20
0.0
 30
0.0
  0
VERTEX
  5
50E
  8
0
  6
CONTINUOUS
 62
     7
 10
449.4311164724
 20
1206.5596285267
 30
0.0
  0
VERTEX
  5
50F
  8
0
  6
CONTINUOUS
 62
     7
 10
449.8444549799
 20
1206.2255174479
 30
0.0
  0
VERTEX
  5
510
  8
0
  6
CONTINUOUS
 62
     7
 10
450.2255072601
 20
1205.9868249286
 30
0.0
  0
VERTEX
  5
511
  8
0
  6
CONTINUOUS
 62
     7
 10
450.5618337056
 20
1205.8435509689
 30
0.0
  0
VERTEX
  5
512
  8
0
  6
CONTINUOUS
 62
     7
 10
450.8453283118
 20
1205.7956955688
 30
0.0
  0
VERTEX
  5
513
  8
0
  6
CONTINUOUS
 62
     7
 10
451.0802895024
 20
1205.8433321567
 30
0.0
  0
VERTEX
  5
514
  8
0
  6
CONTINUOUS
 62
     7
 10
451.266100797
 20
1205.986533179
 30
0.0
  0
VERTEX
  5
515
  8
0
  6
CONTINUOUS
 62
     7
 10
451.3877495925
 20
1206.2252986357
 30
0.0
  0
VERTEX
  5
516
  8
0
  6
CONTINUOUS
 62
     7
 10
451.4311166871
 20
1206.5596285267
 30
0.0
  0
SEQEND
  5
50D
  8
0
  6
CONTINUOUS
 62
     7
  0
ARC
  5
132
  8
0
  6
CONTINUOUS
 62
     7
 10
452.9857429845
 20
-968.3923618972
 30
0.0
 40
8.231222395866752
 50
102.4365093666
 51
115.5848157557
  0
POLYLINE
  5
133
  8
0
  6
CONTINUOUS
 62
     7
 66
     1
 10
0.0
 20
0.0
 30
0.0
  0
VERTEX
  5
518
  8
0
  6
CONTINUOUS
 62
     7
 10
451.4311166871
 20
-960.9682355183
 30
0.0
  0
VERTEX
  5
519
  8
0
  6
CONTINUOUS
 62
     7
 10
451.3877495925
 20
-960.633905627
 30
0.0
  0
VERTEX
  5
51A
  8
0
  6
CONTINUOUS
 62
     7
 10
451.266100797
 20
-960.3951401702
 30
0.0
  0
VERTEX
  5
51B
  8
0
  6
CONTINUOUS
 62
     7
 10
451.0802895025
 20
-960.251939148
 30
0.0
  0
VERTEX
  5
51C
  8
0
  6
CONTINUOUS
 62
     7
 10
450.8453283118
 20
-960.2043025603
 30
0.0
  0
VERTEX
  5
51D
  8
0
  6
CONTINUOUS
 62
     7
 10
450.5618337057
 20
-960.2521579606
 30
0.0
  0
VERTEX
  5
51E
  8
0
  6
CONTINUOUS
 62
     7
 10
450.2255072602
 20
-960.3954319204
 30
0.0
  0
VERTEX
  5
51F
  8
0
  6
CONTINUOUS
 62
     7
 10
449.84445498
 20
-960.6341244396
 30
0.0
  0
VERTEX
  5
520
  8
0
  6
CONTINUOUS
 62
     7
 10
449.4311164724
 20
-960.9682355183
 30
0.0
  0
SEQEND
  5
517
  8
0
  6
CONTINUOUS
 62
     7
  0
POLYLINE
  5
134
  8
0
  6
CONTINUOUS
 62
     7
 66
     1
 10
0.0
 20
0.0
 30
0.0
  0
VERTEX
  5
522
  8
0
  6
CONTINUOUS
 62
     7
 10
449.1950484949
 20
-961.2043034958
 30
0.0
  0
VERTEX
  5
523
  8
0
  6
CONTINUOUS
 62
     7
 10
448.8607186037
 20
-961.6185350574
 30
0.0
  0
VERTEX
  5
524
  8
0
  6
CONTINUOUS
 62
     7
 10
448.621953147
 20
-961.9998119709
 30
0.0
  0
VERTEX
  5
525
  8
0
  6
CONTINUOUS
 62
     7
 10
448.4787521247
 20
-962.3357759323
 30
0.0
  0
VERTEX
  5
526
  8
0
  6
CONTINUOUS
 62
     7
 10
448.4311155369
 20
-962.6185194695
 30
0.0
  0
VERTEX
  5
527
  8
0
  6
CONTINUOUS
 62
     7
 10
448.4789709372
 20
-962.8539946416
 30
0.0
  0
VERTEX
  5
528
  8
0
  6
CONTINUOUS
 62
     7
 10
448.6222448969
 20
-963.0397723641
 30
0.0
  0
VERTEX
  5
529
  8
0
  6
CONTINUOUS
 62
     7
 10
448.8609374162
 20
-963.1611259762
 30
0.0
  0
VERTEX
  5
52A
  8
0
  6
CONTINUOUS
 62
     7
 10
449.1950484949
 20
-963.2043042545
 30
0.0
  0
SEQEND
  5
521
  8
0
  6
CONTINUOUS
 62
     7
  0
POLYLINE
  5
135
  8
0
  6
CONTINUOUS
 62
     7
 66
     1
 10
0.0
 20
0.0
 30
0.0
  0
VERTEX
  5
52C
  8
0
  6
CONTINUOUS
 62
     7
 10
-134.3328170695
 20
-963.2043042545
 30
0.0
  0
VERTEX
  5
52D
  8
0
  6
CONTINUOUS
 62
     7
 10
-133.9984871783
 20
-963.1609371478
 30
0.0
  0
VERTEX
  5
52E
  8
0
  6
CONTINUOUS
 62
     7
 10
-133.7597217215
 20
-963.0392883188
 30
0.0
  0
VERTEX
  5
52F
  8
0
  6
CONTINUOUS
 62
     7
 10
-133.6165206993
 20
-962.8534769737
 30
0.0
  0
VERTEX
  5
530
  8
0
  6
CONTINUOUS
 62
     7
 10
-133.5688841116
 20
-962.6185157199
 30
0.0
  0
VERTEX
  5
531
  8
0
  6
CONTINUOUS
 62
     7
 10
-133.6167395119
 20
-962.3350210371
 30
0.0
  0
VERTEX
  5
532
  8
0
  6
CONTINUOUS
 62
     7
 10
-133.7600134717
 20
-961.9986945002
 30
0.0
  0
VERTEX
  5
533
  8
0
  6
CONTINUOUS
 62
     7
 10
-133.9987059909
 20
-961.6176421162
 30
0.0
  0
VERTEX
  5
534
  8
0
  6
CONTINUOUS
 62
     7
 10
-134.3328170695
 20
-961.2043034958
 30
0.0
  0
SEQEND
  5
52B
  8
0
  6
CONTINUOUS
 62
     7
  0
ARC
  5
136
  8
0
  6
CONTINUOUS
 62
     7
 10
-141.756945526
 20
-964.758930475
 30
0.0
 40
8.231224471442939
 50
12.4365064316
 51
25.5848124439
  0
ARC
  5
137
  8
0
  6
CONTINUOUS
 62
     7
 10
456.6594340213
 20
-964.7720601668
 30
0.0
 40
8.273206086512173
 50
154.4535725973
 51
167.5364477385
  0
ARC
  5
138
  8
0
  6
CONTINUOUS
 62
     7
 10
451.4311164724
 20
1208.7956965042
 30
0.0
 40
2.999999999999987
 50
221.8103148958
 51
228.1896851042
  0
ARC
  5
139
  8
0
  6
CONTINUOUS
 62
     7
 10
451.4311164724
 20
-963.2043034958
 30
0.0
 40
3.000000000000005
 50
131.8103148958
 51
138.1896851042
  0
ARC
  5
13A
  8
0
  6
CONTINUOUS
 62
     7
 10
-136.568885047
 20
-963.2043034958
 30
0.0
 40
2.99999999999999
 50
41.8103148958
 51
48.1896851042
  0
ARC
  5
13B
  8
0
  6
CONTINUOUS
 62
     7
 10
-136.568885047
 20
1208.7956965042
 30
0.0
 40
2.99999999999999
 50
311.8103148958
 51
318.1896851042
  0
LINE
  5
13C
  8
0
  6
HIDDEN
 62
     7
 10
-146.568885047
 20
1169.2956965042
 30
0.0
 11
-146.568885047
 21
-923.7043034958
 31
0.0
  0
LINE
  5
13D
  8
0
  6
HIDDEN
 62
     7
 10
-148.568885047
 20
1169.2956965042
 30
0.0
 11
-148.568885047
 21
-923.7043034958
 31
0.0
  0
LINE
  5
13E
  8
0
  6
HIDDEN
 62
     7
 10
-727.318885047
 20
1208.7956965042
 30
0.0
 11
-727.318885047
 21
1210.7956965043
 31
0.0
  0
LINE
  5
13F
  8
0
  6
HIDDEN
 62
     7
 10
-727.318885047
 20
1208.7956965042
 30
0.0
 11
-727.318885047
 21
1210.7956965043
 31
0.0
  0
LINE
  5
140
  8
0
  6
HIDDEN
 62
     7
 10
-734.4475647035
 20
1208.7956965042
 30
0.0
 11
-734.4475647035
 21
1210.7956965042
 31
0.0
  0
LINE
  5
141
  8
0
  6
HIDDEN
 62
     7
 10
-727.318885047
 20
-963.2043034958
 30
0.0
 11
-727.318885047
 21
-965.2043034958
 31
0.0
  0
LINE
  5
142
  8
0
  6
HIDDEN
 62
     7
 10
-727.318885047
 20
-963.2043034958
 30
0.0
 11
-727.318885047
 21
-965.2043034958
 31
0.0
  0
LINE
  5
143
  8
0
  6
HIDDEN
 62
     7
 10
-734.4475647035
 20
-965.2043034958
 30
0.0
 11
-734.4475647035
 21
-963.2043034958
 31
0.0
  0
LINE
  5
144
  8
0
  6
HIDDEN
 62
     7
 10
-157.818885047
 20
-963.2043034958
 30
0.0
 11
-157.818885047
 21
-965.2043034958
 31
0.0
  0
LINE
  5
145
  8
0
  6
HIDDEN
 62
     7
 10
-157.818885047
 20
1208.7956965042
 30
0.0
 11
-157.818885047
 21
1210.7956965043
 31
0.0
  0
LINE
  5
146
  8
0
  6
HIDDEN
 62
     7
 10
-157.818885047
 20
1208.7956965042
 30
0.0
 11
-157.818885047
 21
1210.7956965043
 31
0.0
  0
LINE
  5
147
  8
0
  6
HIDDEN
 62
     7
 10
-150.6902053906
 20
1208.7956965042
 30
0.0
 11
-150.6902053906
 21
1210.7956965042
 31
0.0
  0
LINE
  5
148
  8
0
  6
HIDDEN
 62
     7
 10
-157.818885047
 20
-963.2043034958
 30
0.0
 11
-157.818885047
 21
-965.2043034958
 31
0.0
  0
LINE
  5
149
  8
0
  6
HIDDEN
 62
     7
 10
-150.6902053906
 20
-963.2043034958
 30
0.0
 11
-150.6902053906
 21
-965.2043034958
 31
0.0
  0
LINE
  5
14A
  8
0
  6
HIDDEN
 62
     7
 10
-738.568885047
 20
1207.7956965042
 30
0.0
 11
-736.568885047
 21
1207.7956965042
 31
0.0
  0
LINE
  5
14B
  8
0
  6
HIDDEN
 62
     7
 10
-735.568885047
 20
1210.7956972637
 30
0.0
 11
-735.568885047
 21
1208.7956965042
 31
0.0
  0
LINE
  5
14C
  8
0
  6
HIDDEN
 62
     7
 10
-734.4475647035
 20
1208.7956965042
 30
0.0
 11
-734.4475647035
 21
1210.7956965042
 31
0.0
  0
LINE
  5
14D
  8
0
  6
HIDDEN
 62
     7
 10
-738.5688858065
 20
-962.2043034958
 30
0.0
 11
-736.568885047
 21
-962.2043034958
 31
0.0
  0
LINE
  5
14E
  8
0
  6
HIDDEN
 62
     7
 10
-735.568885047
 20
-965.2043034958
 30
0.0
 11
-735.568885047
 21
-963.2043034958
 31
0.0
  0
LINE
  5
14F
  8
0
  6
HIDDEN
 62
     7
 10
-734.4475647035
 20
-965.2043034958
 30
0.0
 11
-734.4475647035
 21
-963.2043034958
 31
0.0
  0
LINE
  5
150
  8
0
  6
HIDDEN
 62
     7
 10
-149.568885047
 20
-963.2043034958
 30
0.0
 11
-149.568885047
 21
-965.2043042552
 31
0.0
  0
LINE
  5
151
  8
0
  6
HIDDEN
 62
     7
 10
-150.6902053906
 20
-963.2043034958
 30
0.0
 11
-150.6902053906
 21
-965.2043034958
 31
0.0
  0
LINE
  5
152
  8
0
  6
HIDDEN
 62
     7
 10
-148.568885047
 20
-962.2043034958
 30
0.0
 11
-146.5688842875
 21
-962.2043034958
 31
0.0
  0
LINE
  5
153
  8
0
  6
HIDDEN
 62
     7
 10
-149.568885047
 20
1208.7956965042
 30
0.0
 11
-149.568885047
 21
1210.7956965042
 31
0.0
  0
LINE
  5
154
  8
0
  6
HIDDEN
 62
     7
 10
-150.6902053906
 20
1208.7956965042
 30
0.0
 11
-150.6902053906
 21
1210.7956965042
 31
0.0
  0
LINE
  5
155
  8
0
  6
HIDDEN
 62
     7
 10
-148.568885047
 20
1207.7956965042
 30
0.0
 11
-146.568885047
 21
1207.7956965042
 31
0.0
  0
ARC
  5
156
  8
0
  6
HIDDEN
 62
     7
 10
-226.568885047
 20
-944.2043034958
 30
0.0
 40
4.516838966197493
 50
60.4723436901
 51
119.5276563099
  0
ARC
  5
157
  8
0
  6
HIDDEN
 62
     7
 10
-226.568885047
 20
1189.7956965042
 30
0.0
 40
4.516838966197589
 50
240.4723436901
 51
299.5276563099
  0
ARC
  5
158
  8
0
  6
HIDDEN
 62
     7
 10
-737.492904786
 20
-964.0000507144
 30
0.0
 40
3.940949638838726
 50
342.2072721335
 51
12.5654398593
  0
POLYLINE
  5
159
  8
0
  6
HIDDEN
 62
     7
 66
     1
 10
0.0
 20
0.0
 30
0.0
  0
VERTEX
  5
536
  8
0
  6
HIDDEN
 62
     7
 10
-733.7404579223
 20
-962.2043034958
 30
0.0
  0
VERTEX
  5
537
  8
0
  6
HIDDEN
 62
     7
 10
-733.7404579223
 20
-962.2043034958
 30
0.0
  0
SEQEND
  5
535
  8
0
  6
HIDDEN
 62
     7
  0
LINE
  5
15A
  8
0
  6
HIDDEN
 62
     7
 10
-733.7404579223
 20
-963.2043034958
 30
0.0
 11
-733.7404579223
 21
-965.2043042552
 31
0.0
  0
ARC
  5
15B
  8
0
  6
HIDDEN
 62
     7
 10
-148.1745151027
 20
-964.0342123439
 30
0.0
 40
3.428634718020272
 50
165.1144836703
 51
199.9542991822
  0
ARC
  5
15C
  8
0
  6
HIDDEN
 62
     7
 10
-737.0058954736
 20
1209.6136709605
 30
0.0
 40
3.472789740711567
 50
345.3280861976
 51
19.8992927715
  0
ARC
  5
15D
  8
0
  6
HIDDEN
 62
     7
 10
-147.6847572971
 20
1209.6039226362
 30
0.0
 40
3.899152531074503
 50
162.2027470066
 51
192.7283647474
  0
POLYLINE
  5
15E
  8
0
  6
HIDDEN
 62
     7
 66
     1
 10
0.0
 20
0.0
 30
0.0
  0
VERTEX
  5
539
  8
0
  6
HIDDEN
 62
     7
 10
-733.7404579223
 20
1207.7956965042
 30
0.0
  0
VERTEX
  5
53A
  8
0
  6
HIDDEN
 62
     7
 10
-733.7404579223
 20
1207.7956965042
 30
0.0
  0
SEQEND
  5
538
  8
0
  6
HIDDEN
 62
     7
  0
LINE
  5
15F
  8
0
  6
HIDDEN
 62
     7
 10
-733.7404579223
 20
1208.7956965042
 30
0.0
 11
-733.7404579223
 21
1210.7956965042
 31
0.0
  0
POLYLINE
  5
160
  8
0
  6
HIDDEN
 62
     7
 66
     1
 10
0.0
 20
0.0
 30
0.0
  0
VERTEX
  5
53C
  8
0
  6
HIDDEN
 62
     7
 10
-735.568885047
 20
-960.375876371
 30
0.0
  0
VERTEX
  5
53D
  8
0
  6
HIDDEN
 62
     7
 10
-735.568885047
 20
-960.375876371
 30
0.0
  0
SEQEND
  5
53B
  8
0
  6
HIDDEN
 62
     7
  0
ARC
  5
161
  8
0
  6
HIDDEN
 62
     7
 10
-737.398793446
 20
-963.5986726933
 30
0.0
 40
3.428633980114158
 50
75.1144797114
 51
109.9543017887
  0
LINE
  5
162
  8
0
  6
HIDDEN
 62
     7
 10
-738.568885047
 20
-960.375876371
 30
0.0
 11
-736.568885047
 21
-960.375876371
 31
0.0
  0
ARC
  5
163
  8
0
  6
HIDDEN
 62
     7
 10
-737.3771167201
 20
1209.6797987091
 30
0.0
 40
3.899126345321445
 50
252.2027175583
 51
282.7285009516
  0
POLYLINE
  5
164
  8
0
  6
HIDDEN
 62
     7
 66
     1
 10
0.0
 20
0.0
 30
0.0
  0
VERTEX
  5
53F
  8
0
  6
HIDDEN
 62
     7
 10
-735.568885047
 20
1205.9672693795
 30
0.0
  0
VERTEX
  5
540
  8
0
  6
HIDDEN
 62
     7
 10
-735.568885047
 20
1205.9672693795
 30
0.0
  0
SEQEND
  5
53E
  8
0
  6
HIDDEN
 62
     7
  0
LINE
  5
165
  8
0
  6
HIDDEN
 62
     7
 10
-736.568885047
 20
1205.9672693795
 30
0.0
 11
-738.5688852521
 21
1205.9672693795
 31
0.0
  0
POLYLINE
  5
166
  8
0
  6
HIDDEN
 62
     7
 66
     1
 10
0.0
 20
0.0
 30
0.0
  0
VERTEX
  5
542
  8
0
  6
HIDDEN
 62
     7
 10
-151.3973121718
 20
1207.7956965042
 30
0.0
  0
VERTEX
  5
543
  8
0
  6
HIDDEN
 62
     7
 10
-151.3973121718
 20
1207.7956965042
 30
0.0
  0
SEQEND
  5
541
  8
0
  6
HIDDEN
 62
     7
  0
LINE
  5
167
  8
0
  6
HIDDEN
 62
     7
 10
-151.3973121718
 20
1210.7956972637
 30
0.0
 11
-151.3973121718
 21
1208.7956965042
 31
0.0
  0
ARC
  5
168
  8
0
  6
HIDDEN
 62
     7
 10
-147.7731382605
 20
-964.1283223557
 30
0.0
 40
3.940948764502371
 50
72.2072699204
 51
102.5654434129
  0
ARC
  5
169
  8
0
  6
HIDDEN
 62
     7
 10
-147.7509066329
 20
1209.2326960503
 30
0.0
 40
3.472777973975853
 50
255.3280027983
 51
289.8992838718
  0
POLYLINE
  5
16A
  8
0
  6
HIDDEN
 62
     7
 66
     1
 10
0.0
 20
0.0
 30
0.0
  0
VERTEX
  5
545
  8
0
  6
HIDDEN
 62
     7
 10
-149.568885047
 20
1205.9672693795
 30
0.0
  0
VERTEX
  5
546
  8
0
  6
HIDDEN
 62
     7
 10
-149.568885047
 20
1205.9672693795
 30
0.0
  0
SEQEND
  5
544
  8
0
  6
HIDDEN
 62
     7
  0
LINE
  5
16B
  8
0
  6
HIDDEN
 62
     7
 10
-146.568885047
 20
1205.9672693795
 30
0.0
 11
-148.568885047
 21
1205.9672693795
 31
0.0
  0
POLYLINE
  5
16C
  8
0
  6
HIDDEN
 62
     7
 66
     1
 10
0.0
 20
0.0
 30
0.0
  0
VERTEX
  5
548
  8
0
  6
HIDDEN
 62
     7
 10
-149.568885047
 20
-960.375876371
 30
0.0
  0
VERTEX
  5
549
  8
0
  6
HIDDEN
 62
     7
 10
-149.568885047
 20
-960.375876371
 30
0.0
  0
SEQEND
  5
547
  8
0
  6
HIDDEN
 62
     7
  0
LINE
  5
16D
  8
0
  6
HIDDEN
 62
     7
 10
-148.568885047
 20
-960.375876371
 30
0.0
 11
-146.5688848419
 21
-960.375876371
 31
0.0
  0
POLYLINE
  5
16E
  8
0
  6
HIDDEN
 62
     7
 66
     1
 10
0.0
 20
0.0
 30
0.0
  0
VERTEX
  5
54B
  8
0
  6
HIDDEN
 62
     7
 10
-151.3973121718
 20
-962.2043034958
 30
0.0
  0
VERTEX
  5
54C
  8
0
  6
HIDDEN
 62
     7
 10
-151.3973121718
 20
-962.2043034958
 30
0.0
  0
SEQEND
  5
54A
  8
0
  6
HIDDEN
 62
     7
  0
LINE
  5
16F
  8
0
  6
HIDDEN
 62
     7
 10
-151.3973121718
 20
-965.2043034958
 30
0.0
 11
-151.3973121718
 21
-963.2043034958
 31
0.0
  0
ARC
  5
170
  8
0
  6
HIDDEN
 62
     7
 10
-157.568885047
 20
509.7956965042
 30
0.0
 40
2.500000000000018
 50
110.4872952287
 51
180.0
  0
ARC
  5
171
  8
0
  6
HIDDEN
 62
     7
 10
-157.568885047
 20
509.7956965042
 30
0.0
 40
2.50000000000003
 50
180.0
 51
249.5127042957
  0
ARC
  5
172
  8
0
  6
HIDDEN
 62
     7
 10
-157.568885047
 20
-280.2043034958
 30
0.0
 40
2.5
 50
110.4872882012
 51
180.0
  0
ARC
  5
173
  8
0
  6
HIDDEN
 62
     7
 10
-157.568885047
 20
-280.2043034958
 30
0.0
 40
2.5
 50
180.0
 51
249.5127124317
  0
LINE
  5
174
  8
0
  6
HIDDEN
 62
     7
 10
-141.068885047
 20
1169.2956965042
 30
0.0
 11
-141.068885047
 21
-923.7043034958
 31
0.0
  0
LINE
  5
175
  8
0
  6
HIDDEN
 62
     7
 10
-152.068885047
 20
1169.2956965042
 30
0.0
 11
-152.068885047
 21
514.7806002369
 31
0.0
  0
LINE
  5
176
  8
0
  6
HIDDEN
 62
     7
 10
-152.068885047
 20
504.8107927716
 30
0.0
 11
-152.068885047
 21
-275.2193997631
 31
0.0
  0
LINE
  5
177
  8
0
  6
HIDDEN
 62
     7
 10
-152.068885047
 20
-285.1892072284
 30
0.0
 11
-152.068885047
 21
-923.7043034958
 31
0.0
  0
LINE
  5
178
  8
0
  6
HIDDEN
 62
     7
 10
-162.568885047
 20
516.2956965042
 30
0.0
 11
-162.568885047
 21
503.2956965042
 31
0.0
  0
LINE
  5
179
  8
0
  6
HIDDEN
 62
     7
 10
-162.068885047
 20
516.2956965042
 30
0.0
 11
-162.068885047
 21
503.2956965042
 31
0.0
  0
LINE
  5
17A
  8
0
  6
HIDDEN
 62
     7
 10
-150.568885047
 20
503.2956965042
 30
0.0
 11
-150.568885047
 21
516.2956965042
 31
0.0
  0
LINE
  5
17B
  8
0
  6
HIDDEN
 62
     7
 10
-151.068885047
 20
503.2956965042
 30
0.0
 11
-151.068885047
 21
516.2956965042
 31
0.0
  0
POLYLINE
  5
17C
  8
0
  6
HIDDEN
 62
     7
 66
     1
 10
0.0
 20
0.0
 30
0.0
  0
VERTEX
  5
54E
  8
0
  6
HIDDEN
 62
     7
 10
-162.9349104508
 20
503.2956965042
 30
0.0
  0
VERTEX
  5
54F
  8
0
  6
HIDDEN
 62
     7
 10
-162.8255937549
 20
503.7635010632
 30
0.0
  0
VERTEX
  5
550
  8
0
  6
HIDDEN
 62
     7
 10
-162.6666252437
 20
504.0499496508
 30
0.0
  0
VERTEX
  5
551
  8
0
  6
HIDDEN
 62
     7
 10
-162.471991128
 20
504.2231026478
 30
0.0
  0
VERTEX
  5
552
  8
0
  6
HIDDEN
 62
     7
 10
-162.2667486969
 20
504.3101979597
 30
0.0
  0
VERTEX
  5
553
  8
0
  6
HIDDEN
 62
     7
 10
-162.068885047
 20
504.3351972065
 30
0.0
  0
SEQEND
  5
54D
  8
0
  6
HIDDEN
 62
     7
  0
POLYLINE
  5
17D
  8
0
  6
HIDDEN
 62
     7
 66
     1
 10
0.0
 20
0.0
 30
0.0
  0
VERTEX
  5
555
  8
0
  6
HIDDEN
 62
     7
 10
-162.9349104508
 20
516.2956965042
 30
0.0
  0
VERTEX
  5
556
  8
0
  6
HIDDEN
 62
     7
 10
-162.8255937549
 20
515.8278919453
 30
0.0
  0
VERTEX
  5
557
  8
0
  6
HIDDEN
 62
     7
 10
-162.6666252437
 20
515.5414433577
 30
0.0
  0
VERTEX
  5
558
  8
0
  6
HIDDEN
 62
     7
 10
-162.471991128
 20
515.3682903607
 30
0.0
  0
VERTEX
  5
559
  8
0
  6
HIDDEN
 62
     7
 10
-162.2667486969
 20
515.2811950488
 30
0.0
  0
VERTEX
  5
55A
  8
0
  6
HIDDEN
 62
     7
 10
-162.068885047
 20
515.256195802
 30
0.0
  0
SEQEND
  5
554
  8
0
  6
HIDDEN
 62
     7
  0
ARC
  5
17E
  8
0
  6
HIDDEN
 62
     7
 10
-151.183952533
 20
503.3588320932
 30
0.0
 40
0.9831222512093023
 50
356.3179616267
 51
83.2785291508
  0
ARC
  5
17F
  8
0
  6
HIDDEN
 62
     7
 10
-151.183952533
 20
516.2325609153
 30
0.0
 40
0.9831222512097914
 50
276.7214708492
 51
3.6820383732
  0
LINE
  5
180
  8
0
  6
HIDDEN
 62
     7
 10
-161.068885047
 20
505.2956965042
 30
0.0
 11
-161.568885047
 21
505.2956965042
 31
0.0
  0
ARC
  5
181
  8
0
  6
HIDDEN
 62
     7
 10
-161.3986233392
 20
504.461606923
 30
0.0
 40
0.8512898910750605
 50
67.2109370405
 51
101.5372152302
  0
ARC
  5
182
  8
0
  6
HIDDEN
 62
     7
 10
-161.5918751771
 20
504.8599931763
 30
0.0
 40
0.5252993013198375
 50
272.5083953058
 51
354.6257048728
  0
LINE
  5
183
  8
0
  6
HIDDEN
 62
     7
 10
-161.568885047
 20
504.3351972065
 30
0.0
 11
-162.068885047
 21
504.3351972065
 31
0.0
  0
POLYLINE
  5
184
  8
0
  6
HIDDEN
 62
     7
 66
     1
 10
0.0
 20
0.0
 30
0.0
  0
VERTEX
  5
55C
  8
0
  6
HIDDEN
 62
     7
 10
-160.568885047
 20
504.8107927716
 30
0.0
  0
VERTEX
  5
55D
  8
0
  6
HIDDEN
 62
     7
 10
-160.6424900192
 20
504.4781763429
 30
0.0
  0
VERTEX
  5
55E
  8
0
  6
HIDDEN
 62
     7
 10
-160.9083666921
 20
503.9580479457
 30
0.0
  0
VERTEX
  5
55F
  8
0
  6
HIDDEN
 62
     7
 10
-161.3250119357
 20
503.4161744676
 30
0.0
  0
VERTEX
  5
560
  8
0
  6
HIDDEN
 62
     7
 10
-161.4249539636
 20
503.3401225834
 30
0.0
  0
VERTEX
  5
561
  8
0
  6
HIDDEN
 62
     7
 10
-161.514556877
 20
503.3022205783
 30
0.0
  0
VERTEX
  5
562
  8
0
  6
HIDDEN
 62
     7
 10
-161.568885047
 20
503.2956965042
 30
0.0
  0
SEQEND
  5
55B
  8
0
  6
HIDDEN
 62
     7
  0
POLYLINE
  5
185
  8
0
  6
HIDDEN
 62
     7
 66
     1
 10
0.0
 20
0.0
 30
0.0
  0
VERTEX
  5
564
  8
0
  6
HIDDEN
 62
     7
 10
-160.568885047
 20
514.7806002369
 30
0.0
  0
VERTEX
  5
565
  8
0
  6
HIDDEN
 62
     7
 10
-160.6424900192
 20
515.1132166656
 30
0.0
  0
VERTEX
  5
566
  8
0
  6
HIDDEN
 62
     7
 10
-160.9083666921
 20
515.6333450628
 30
0.0
  0
VERTEX
  5
567
  8
0
  6
HIDDEN
 62
     7
 10
-161.3250119357
 20
516.1752185409
 30
0.0
  0
VERTEX
  5
568
  8
0
  6
HIDDEN
 62
     7
 10
-161.4249539636
 20
516.2512704251
 30
0.0
  0
VERTEX
  5
569
  8
0
  6
HIDDEN
 62
     7
 10
-161.514556877
 20
516.2891724302
 30
0.0
  0
VERTEX
  5
56A
  8
0
  6
HIDDEN
 62
     7
 10
-161.568885047
 20
516.2956965042
 30
0.0
  0
SEQEND
  5
563
  8
0
  6
HIDDEN
 62
     7
  0
LINE
  5
186
  8
0
  6
HIDDEN
 62
     7
 10
-161.568885047
 20
515.256195802
 30
0.0
 11
-162.068885047
 21
515.256195802
 31
0.0
  0
ARC
  5
187
  8
0
  6
HIDDEN
 62
     7
 10
-161.5918751771
 20
514.7313998322
 30
0.0
 40
0.5252993013198656
 50
5.3742951272
 51
87.4916046942
  0
ARC
  5
188
  8
0
  6
HIDDEN
 62
     7
 10
-161.3986233392
 20
515.1297860855
 30
0.0
 40
0.8512898910769717
 50
258.4627847698
 51
292.7890629595
  0
LINE
  5
189
  8
0
  6
HIDDEN
 62
     7
 10
-161.068885047
 20
514.2956965042
 30
0.0
 11
-161.568885047
 21
514.2956965042
 31
0.0
  0
LINE
  5
18A
  8
0
  6
HIDDEN
 62
     7
 10
-151.068885047
 20
504.3351972065
 30
0.0
 11
-151.568885047
 21
504.3351972065
 31
0.0
  0
ARC
  5
18B
  8
0
  6
HIDDEN
 62
     7
 10
-151.5439625213
 20
504.8620247298
 30
0.0
 40
0.5274166963779594
 50
185.5743607195
 51
267.291539102
  0
ARC
  5
18C
  8
0
  6
HIDDEN
 62
     7
 10
-151.7052473508
 20
504.1174773834
 30
0.0
 40
1.186083881819106
 50
83.3981908938
 51
107.8536568355
  0
LINE
  5
18D
  8
0
  6
HIDDEN
 62
     7
 10
-151.568885047
 20
505.2956965042
 30
0.0
 11
-152.068885047
 21
505.2956965042
 31
0.0
  0
POLYLINE
  5
18E
  8
0
  6
HIDDEN
 62
     7
 66
     1
 10
0.0
 20
0.0
 30
0.0
  0
VERTEX
  5
56C
  8
0
  6
HIDDEN
 62
     7
 10
-151.568885047
 20
503.2956965042
 30
0.0
  0
VERTEX
  5
56D
  8
0
  6
HIDDEN
 62
     7
 10
-151.6517756413
 20
503.310778655
 30
0.0
  0
VERTEX
  5
56E
  8
0
  6
HIDDEN
 62
     7
 10
-151.756773079
 20
503.3697000795
 30
0.0
  0
VERTEX
  5
56F
  8
0
  6
HIDDEN
 62
     7
 10
-151.9998278948
 20
503.6248131928
 30
0.0
  0
VERTEX
  5
570
  8
0
  6
HIDDEN
 62
     7
 10
-152.3928988655
 20
504.2483519145
 30
0.0
  0
VERTEX
  5
571
  8
0
  6
HIDDEN
 62
     7
 10
-152.5483787701
 20
504.6492837061
 30
0.0
  0
VERTEX
  5
572
  8
0
  6
HIDDEN
 62
     7
 10
-152.568885047
 20
504.8107927716
 30
0.0
  0
SEQEND
  5
56B
  8
0
  6
HIDDEN
 62
     7
  0
POLYLINE
  5
18F
  8
0
  6
HIDDEN
 62
     7
 66
     1
 10
0.0
 20
0.0
 30
0.0
  0
VERTEX
  5
574
  8
0
  6
HIDDEN
 62
     7
 10
-151.568885047
 20
516.2956965042
 30
0.0
  0
VERTEX
  5
575
  8
0
  6
HIDDEN
 62
     7
 10
-151.6517756413
 20
516.2806143535
 30
0.0
  0
VERTEX
  5
576
  8
0
  6
HIDDEN
 62
     7
 10
-151.756773079
 20
516.221692929
 30
0.0
  0
VERTEX
  5
577
  8
0
  6
HIDDEN
 62
     7
 10
-151.9998278948
 20
515.9665798157
 30
0.0
  0
VERTEX
  5
578
  8
0
  6
HIDDEN
 62
     7
 10
-152.3928988655
 20
515.343041094
 30
0.0
  0
VERTEX
  5
579
  8
0
  6
HIDDEN
 62
     7
 10
-152.5483787701
 20
514.9421093024
 30
0.0
  0
VERTEX
  5
57A
  8
0
  6
HIDDEN
 62
     7
 10
-152.568885047
 20
514.7806002369
 30
0.0
  0
SEQEND
  5
573
  8
0
  6
HIDDEN
 62
     7
  0
LINE
  5
190
  8
0
  6
HIDDEN
 62
     7
 10
-151.568885047
 20
514.2956965042
 30
0.0
 11
-152.068885047
 21
514.2956965042
 31
0.0
  0
ARC
  5
191
  8
0
  6
HIDDEN
 62
     7
 10
-151.7052473508
 20
515.4739156251
 30
0.0
 40
1.18608388182212
 50
252.1463431645
 51
276.6018091062
  0
ARC
  5
192
  8
0
  6
HIDDEN
 62
     7
 10
-151.5439625213
 20
514.7293682787
 30
0.0
 40
0.5274166963781515
 50
92.708460898
 51
174.4256392805
  0
LINE
  5
193
  8
0
  6
HIDDEN
 62
     7
 10
-151.068885047
 20
515.256195802
 30
0.0
 11
-151.568885047
 21
515.256195802
 31
0.0
  0
LINE
  5
194
  8
0
  6
HIDDEN
 62
     7
 10
-160.568885047
 20
514.7806002369
 30
0.0
 11
-160.568885047
 21
504.8107927716
 31
0.0
  0
LINE
  5
195
  8
0
  6
HIDDEN
 62
     7
 10
-161.568885047
 20
503.2956965042
 30
0.0
 11
-161.568885047
 21
516.2956965042
 31
0.0
  0
LINE
  5
196
  8
0
  6
HIDDEN
 62
     7
 10
-152.568885047
 20
504.8107927716
 30
0.0
 11
-152.568885047
 21
514.7806002369
 31
0.0
  0
LINE
  5
197
  8
0
  6
HIDDEN
 62
     7
 10
-151.568885047
 20
516.2956965042
 30
0.0
 11
-151.568885047
 21
503.2956965042
 31
0.0
  0
LINE
  5
198
  8
0
  6
HIDDEN
 62
     7
 10
-161.068885047
 20
504.8107927716
 30
0.0
 11
-161.068885047
 21
505.2956965042
 31
0.0
  0
LINE
  5
199
  8
0
  6
HIDDEN
 62
     7
 10
-161.068885047
 20
514.2956965042
 30
0.0
 11
-161.068885047
 21
514.7806002369
 31
0.0
  0
LINE
  5
19A
  8
0
  6
HIDDEN
 62
     7
 10
-152.068885047
 20
514.7806002369
 30
0.0
 11
-152.068885047
 21
514.2956965042
 31
0.0
  0
LINE
  5
19B
  8
0
  6
HIDDEN
 62
     7
 10
-152.068885047
 20
505.2956965042
 30
0.0
 11
-152.068885047
 21
504.8107927716
 31
0.0
  0
LINE
  5
19C
  8
0
  6
HIDDEN
 62
     7
 10
-161.568885047
 20
505.2956965042
 30
0.0
 11
-163.068885047
 21
505.2956965042
 31
0.0
  0
LINE
  5
19D
  8
0
  6
HIDDEN
 62
     7
 10
-161.568885047
 20
514.2956965042
 30
0.0
 11
-163.068885047
 21
514.2956965042
 31
0.0
  0
LINE
  5
19E
  8
0
  6
HIDDEN
 62
     7
 10
-150.068885047
 20
505.2956965042
 30
0.0
 11
-151.568885047
 21
505.2956965042
 31
0.0
  0
LINE
  5
19F
  8
0
  6
HIDDEN
 62
     7
 10
-150.068885047
 20
514.2956965042
 30
0.0
 11
-151.568885047
 21
514.2956965042
 31
0.0
  0
LINE
  5
1A0
  8
0
  6
HIDDEN
 62
     7
 10
-162.568885047
 20
-273.7043034958
 30
0.0
 11
-162.568885047
 21
-286.7043034958
 31
0.0
  0
LINE
  5
1A1
  8
0
  6
HIDDEN
 62
     7
 10
-162.068885047
 20
-273.7043034958
 30
0.0
 11
-162.068885047
 21
-286.7043034958
 31
0.0
  0
LINE
  5
1A2
  8
0
  6
HIDDEN
 62
     7
 10
-150.568885047
 20
-286.7043034958
 30
0.0
 11
-150.568885047
 21
-273.7043034958
 31
0.0
  0
LINE
  5
1A3
  8
0
  6
HIDDEN
 62
     7
 10
-151.068885047
 20
-286.7043034958
 30
0.0
 11
-151.068885047
 21
-273.7043034958
 31
0.0
  0
POLYLINE
  5
1A4
  8
0
  6
HIDDEN
 62
     7
 66
     1
 10
0.0
 20
0.0
 30
0.0
  0
VERTEX
  5
57C
  8
0
  6
HIDDEN
 62
     7
 10
-162.9349104508
 20
-286.7043034958
 30
0.0
  0
VERTEX
  5
57D
  8
0
  6
HIDDEN
 62
     7
 10
-162.8255937549
 20
-286.2364989368
 30
0.0
  0
VERTEX
  5
57E
  8
0
  6
HIDDEN
 62
     7
 10
-162.6666252437
 20
-285.9500503492
 30
0.0
  0
VERTEX
  5
57F
  8
0
  6
HIDDEN
 62
     7
 10
-162.471991128
 20
-285.7768973522
 30
0.0
  0
VERTEX
  5
580
  8
0
  6
HIDDEN
 62
     7
 10
-162.2667486969
 20
-285.6898020403
 30
0.0
  0
VERTEX
  5
581
  8
0
  6
HIDDEN
 62
     7
 10
-162.068885047
 20
-285.6648027935
 30
0.0
  0
SEQEND
  5
57B
  8
0
  6
HIDDEN
 62
     7
  0
POLYLINE
  5
1A5
  8
0
  6
HIDDEN
 62
     7
 66
     1
 10
0.0
 20
0.0
 30
0.0
  0
VERTEX
  5
583
  8
0
  6
HIDDEN
 62
     7
 10
-162.9349104508
 20
-273.7043034958
 30
0.0
  0
VERTEX
  5
584
  8
0
  6
HIDDEN
 62
     7
 10
-162.8255937549
 20
-274.1721080547
 30
0.0
  0
VERTEX
  5
585
  8
0
  6
HIDDEN
 62
     7
 10
-162.6666252437
 20
-274.4585566423
 30
0.0
  0
VERTEX
  5
586
  8
0
  6
HIDDEN
 62
     7
 10
-162.471991128
 20
-274.6317096393
 30
0.0
  0
VERTEX
  5
587
  8
0
  6
HIDDEN
 62
     7
 10
-162.2667486969
 20
-274.7188049512
 30
0.0
  0
VERTEX
  5
588
  8
0
  6
HIDDEN
 62
     7
 10
-162.068885047
 20
-274.743804198
 30
0.0
  0
SEQEND
  5
582
  8
0
  6
HIDDEN
 62
     7
  0
ARC
  5
1A6
  8
0
  6
HIDDEN
 62
     7
 10
-151.183952533
 20
-286.6411679068
 30
0.0
 40
0.9831222512093554
 50
356.3179616267
 51
83.2785291508
  0
ARC
  5
1A7
  8
0
  6
HIDDEN
 62
     7
 10
-151.183952533
 20
-273.7674390847
 30
0.0
 40
0.983122251209735
 50
276.7214708492
 51
3.6820383732
  0
LINE
  5
1A8
  8
0
  6
HIDDEN
 62
     7
 10
-161.068885047
 20
-284.7043034958
 30
0.0
 11
-161.568885047
 21
-284.7043034958
 31
0.0
  0
ARC
  5
1A9
  8
0
  6
HIDDEN
 62
     7
 10
-161.3986233392
 20
-285.538393077
 30
0.0
 40
0.8512898910765111
 50
67.2109370405
 51
101.5372152302
  0
ARC
  5
1AA
  8
0
  6
HIDDEN
 62
     7
 10
-161.5918751771
 20
-285.1400068237
 30
0.0
 40
0.5252993013200622
 50
272.5083953058
 51
354.6257048728
  0
LINE
  5
1AB
  8
0
  6
HIDDEN
 62
     7
 10
-161.568885047
 20
-285.6648027935
 30
0.0
 11
-162.068885047
 21
-285.6648027935
 31
0.0
  0
POLYLINE
  5
1AC
  8
0
  6
HIDDEN
 62
     7
 66
     1
 10
0.0
 20
0.0
 30
0.0
  0
VERTEX
  5
58A
  8
0
  6
HIDDEN
 62
     7
 10
-160.568885047
 20
-285.1892072284
 30
0.0
  0
VERTEX
  5
58B
  8
0
  6
HIDDEN
 62
     7
 10
-160.6424900192
 20
-285.5218236571
 30
0.0
  0
VERTEX
  5
58C
  8
0
  6
HIDDEN
 62
     7
 10
-160.9083666921
 20
-286.0419520543
 30
0.0
  0
VERTEX
  5
58D
  8
0
  6
HIDDEN
 62
     7
 10
-161.3250119357
 20
-286.5838255324
 30
0.0
  0
VERTEX
  5
58E
  8
0
  6
HIDDEN
 62
     7
 10
-161.4249539636
 20
-286.6598774166
 30
0.0
  0
VERTEX
  5
58F
  8
0
  6
HIDDEN
 62
     7
 10
-161.514556877
 20
-286.6977794217
 30
0.0
  0
VERTEX
  5
590
  8
0
  6
HIDDEN
 62
     7
 10
-161.568885047
 20
-286.7043034958
 30
0.0
  0
SEQEND
  5
589
  8
0
  6
HIDDEN
 62
     7
  0
POLYLINE
  5
1AD
  8
0
  6
HIDDEN
 62
     7
 66
     1
 10
0.0
 20
0.0
 30
0.0
  0
VERTEX
  5
592
  8
0
  6
HIDDEN
 62
     7
 10
-160.568885047
 20
-275.2193997631
 30
0.0
  0
VERTEX
  5
593
  8
0
  6
HIDDEN
 62
     7
 10
-160.6424900192
 20
-274.8867833344
 30
0.0
  0
VERTEX
  5
594
  8
0
  6
HIDDEN
 62
     7
 10
-160.9083666921
 20
-274.3666549372
 30
0.0
  0
VERTEX
  5
595
  8
0
  6
HIDDEN
 62
     7
 10
-161.3250119357
 20
-273.8247814591
 30
0.0
  0
VERTEX
  5
596
  8
0
  6
HIDDEN
 62
     7
 10
-161.4249539636
 20
-273.7487295749
 30
0.0
  0
VERTEX
  5
597
  8
0
  6
HIDDEN
 62
     7
 10
-161.514556877
 20
-273.7108275698
 30
0.0
  0
VERTEX
  5
598
  8
0
  6
HIDDEN
 62
     7
 10
-161.568885047
 20
-273.7043034958
 30
0.0
  0
SEQEND
  5
591
  8
0
  6
HIDDEN
 62
     7
  0
LINE
  5
1AE
  8
0
  6
HIDDEN
 62
     7
 10
-161.568885047
 20
-274.743804198
 30
0.0
 11
-162.068885047
 21
-274.743804198
 31
0.0
  0
ARC
  5
1AF
  8
0
  6
HIDDEN
 62
     7
 10
-161.5918751771
 20
-275.2686001678
 30
0.0
 40
0.5252993013197632
 50
5.3742951272
 51
87.4916046942
  0
ARC
  5
1B0
  8
0
  6
HIDDEN
 62
     7
 10
-161.3986233392
 20
-274.8702139145
 30
0.0
 40
0.8512898910747351
 50
258.4627847698
 51
292.7890629595
  0
LINE
  5
1B1
  8
0
  6
HIDDEN
 62
     7
 10
-161.068885047
 20
-275.7043034958
 30
0.0
 11
-161.568885047
 21
-275.7043034958
 31
0.0
  0
LINE
  5
1B2
  8
0
  6
HIDDEN
 62
     7
 10
-151.068885047
 20
-285.6648027935
 30
0.0
 11
-151.568885047
 21
-285.6648027935
 31
0.0
  0
ARC
  5
1B3
  8
0
  6
HIDDEN
 62
     7
 10
-151.5439625213
 20
-285.1379752702
 30
0.0
 40
0.5274166963781174
 50
185.5743607195
 51
267.2915391019
  0
ARC
  5
1B4
  8
0
  6
HIDDEN
 62
     7
 10
-151.7052473508
 20
-285.8825226166
 30
0.0
 40
1.186083881818533
 50
83.3981908938
 51
107.8536568355
  0
LINE
  5
1B5
  8
0
  6
HIDDEN
 62
     7
 10
-151.568885047
 20
-284.7043034958
 30
0.0
 11
-152.068885047
 21
-284.7043034958
 31
0.0
  0
POLYLINE
  5
1B6
  8
0
  6
HIDDEN
 62
     7
 66
     1
 10
0.0
 20
0.0
 30
0.0
  0
VERTEX
  5
59A
  8
0
  6
HIDDEN
 62
     7
 10
-151.568885047
 20
-286.7043034958
 30
0.0
  0
VERTEX
  5
59B
  8
0
  6
HIDDEN
 62
     7
 10
-151.6517756413
 20
-286.689221345
 30
0.0
  0
VERTEX
  5
59C
  8
0
  6
HIDDEN
 62
     7
 10
-151.756773079
 20
-286.6302999205
 30
0.0
  0
VERTEX
  5
59D
  8
0
  6
HIDDEN
 62
     7
 10
-151.9998278948
 20
-286.3751868072
 30
0.0
  0
VERTEX
  5
59E
  8
0
  6
HIDDEN
 62
     7
 10
-152.3928988655
 20
-285.7516480855
 30
0.0
  0
VERTEX
  5
59F
  8
0
  6
HIDDEN
 62
     7
 10
-152.5483787701
 20
-285.3507162939
 30
0.0
  0
VERTEX
  5
5A0
  8
0
  6
HIDDEN
 62
     7
 10
-152.568885047
 20
-285.1892072284
 30
0.0
  0
SEQEND
  5
599
  8
0
  6
HIDDEN
 62
     7
  0
POLYLINE
  5
1B7
  8
0
  6
HIDDEN
 62
     7
 66
     1
 10
0.0
 20
0.0
 30
0.0
  0
VERTEX
  5
5A2
  8
0
  6
HIDDEN
 62
     7
 10
-151.568885047
 20
-273.7043034958
 30
0.0
  0
VERTEX
  5
5A3
  8
0
  6
HIDDEN
 62
     7
 10
-151.6517756413
 20
-273.7193856465
 30
0.0
  0
VERTEX
  5
5A4
  8
0
  6
HIDDEN
 62
     7
 10
-151.756773079
 20
-273.778307071
 30
0.0
  0
VERTEX
  5
5A5
  8
0
  6
HIDDEN
 62
     7
 10
-151.9998278948
 20
-274.0334201843
 30
0.0
  0
VERTEX
  5
5A6
  8
0
  6
HIDDEN
 62
     7
 10
-152.3928988655
 20
-274.656958906
 30
0.0
  0
VERTEX
  5
5A7
  8
0
  6
HIDDEN
 62
     7
 10
-152.5483787701
 20
-275.0578906976
 30
0.0
  0
VERTEX
  5
5A8
  8
0
  6
HIDDEN
 62
     7
 10
-152.568885047
 20
-275.2193997631
 30
0.0
  0
SEQEND
  5
5A1
  8
0
  6
HIDDEN
 62
     7
  0
LINE
  5
1B8
  8
0
  6
HIDDEN
 62
     7
 10
-151.568885047
 20
-275.7043034958
 30
0.0
 11
-152.068885047
 21
-275.7043034958
 31
0.0
  0
ARC
  5
1B9
  8
0
  6
HIDDEN
 62
     7
 10
-151.7052473508
 20
-274.5260843749
 30
0.0
 40
1.186083881815365
 50
252.1463431645
 51
276.6018091063
  0
ARC
  5
1BA
  8
0
  6
HIDDEN
 62
     7
 10
-151.5439625213
 20
-275.2706317213
 30
0.0
 40
0.5274166963780381
 50
92.708460898
 51
174.4256392805
  0
LINE
  5
1BB
  8
0
  6
HIDDEN
 62
     7
 10
-151.068885047
 20
-274.743804198
 30
0.0
 11
-151.568885047
 21
-274.743804198
 31
0.0
  0
LINE
  5
1BC
  8
0
  6
HIDDEN
 62
     7
 10
-160.568885047
 20
-275.2193997631
 30
0.0
 11
-160.568885047
 21
-285.1892072284
 31
0.0
  0
LINE
  5
1BD
  8
0
  6
HIDDEN
 62
     7
 10
-161.568885047
 20
-286.7043034958
 30
0.0
 11
-161.568885047
 21
-273.7043034958
 31
0.0
  0
LINE
  5
1BE
  8
0
  6
HIDDEN
 62
     7
 10
-152.568885047
 20
-285.1892072284
 30
0.0
 11
-152.568885047
 21
-275.2193997631
 31
0.0
  0
LINE
  5
1BF
  8
0
  6
HIDDEN
 62
     7
 10
-151.568885047
 20
-273.7043034958
 30
0.0
 11
-151.568885047
 21
-286.7043034958
 31
0.0
  0
LINE
  5
1C0
  8
0
  6
HIDDEN
 62
     7
 10
-161.068885047
 20
-285.1892072284
 30
0.0
 11
-161.068885047
 21
-284.7043034958
 31
0.0
  0
LINE
  5
1C1
  8
0
  6
HIDDEN
 62
     7
 10
-161.068885047
 20
-275.7043034958
 30
0.0
 11
-161.068885047
 21
-275.2193997631
 31
0.0
  0
LINE
  5
1C2
  8
0
  6
HIDDEN
 62
     7
 10
-152.068885047
 20
-275.2193997631
 30
0.0
 11
-152.068885047
 21
-275.7043034958
 31
0.0
  0
LINE
  5
1C3
  8
0
  6
HIDDEN
 62
     7
 10
-152.068885047
 20
-284.7043034958
 30
0.0
 11
-152.068885047
 21
-285.1892072284
 31
0.0
  0
LINE
  5
1C4
  8
0
  6
HIDDEN
 62
     7
 10
-161.568885047
 20
-284.7043034958
 30
0.0
 11
-163.068885047
 21
-284.7043034958
 31
0.0
  0
LINE
  5
1C5
  8
0
  6
HIDDEN
 62
     7
 10
-161.568885047
 20
-275.7043034958
 30
0.0
 11
-163.068885047
 21
-275.7043034958
 31
0.0
  0
LINE
  5
1C6
  8
0
  6
HIDDEN
 62
     7
 10
-150.068885047
 20
-284.7043034958
 30
0.0
 11
-151.568885047
 21
-284.7043034958
 31
0.0
  0
LINE
  5
1C7
  8
0
  6
HIDDEN
 62
     7
 10
-150.068885047
 20
-275.7043034958
 30
0.0
 11
-151.568885047
 21
-275.7043034958
 31
0.0
  0
LINE
  5
1C8
  8
0
  6
HIDDEN
 62
     7
 10
-134.568885047
 20
-925.7043034958
 30
0.0
 11
-136.568885047
 21
-925.7043034958
 31
0.0
  0
LINE
  5
1C9
  8
0
  6
HIDDEN
 62
     7
 10
-52.6408953626
 20
-940.7043034958
 30
0.0
 11
-64.4968747315
 21
-940.7043034958
 31
0.0
  0
LINE
  5
1CA
  8
0
  6
HIDDEN
 62
     7
 10
-134.568885047
 20
-940.7043034958
 30
0.0
 11
-136.568885047
 21
-940.7043034958
 31
0.0
  0
LINE
  5
1CB
  8
0
  6
HIDDEN
 62
     7
 10
-134.568885047
 20
1171.2956965042
 30
0.0
 11
-136.568885047
 21
1171.2956965042
 31
0.0
  0
LINE
  5
1CC
  8
0
  6
HIDDEN
 62
     7
 10
-52.6408953626
 20
1186.2956965042
 30
0.0
 11
-64.4968747315
 21
1186.2956965042
 31
0.0
  0
LINE
  5
1CD
  8
0
  6
HIDDEN
 62
     7
 10
-134.568885047
 20
1186.2956965042
 30
0.0
 11
-136.568885047
 21
1186.2956965042
 31
0.0
  0
LINE
  5
1CE
  8
0
  6
HIDDEN
 62
     7
 10
-149.568885047
 20
1171.2956965042
 30
0.0
 11
-148.568885047
 21
1171.2956965042
 31
0.0
  0
LINE
  5
1CF
  8
0
  6
HIDDEN
 62
     7
 10
-232.4968747315
 20
1186.2956965042
 30
0.0
 11
-220.6408953626
 21
1186.2956965042
 31
0.0
  0
LINE
  5
1D0
  8
0
  6
HIDDEN
 62
     7
 10
-149.568885047
 20
1186.2956965042
 30
0.0
 11
-148.568885047
 21
1186.2956965042
 31
0.0
  0
LINE
  5
1D1
  8
0
  6
HIDDEN
 62
     7
 10
-149.568885047
 20
-925.7043034958
 30
0.0
 11
-148.568885047
 21
-925.7043034958
 31
0.0
  0
LINE
  5
1D2
  8
0
  6
HIDDEN
 62
     7
 10
-232.4968747315
 20
-940.7043034958
 30
0.0
 11
-220.6408953626
 21
-940.7043034958
 31
0.0
  0
LINE
  5
1D3
  8
0
  6
HIDDEN
 62
     7
 10
-149.568885047
 20
-940.7043034958
 30
0.0
 11
-148.568885047
 21
-940.7043034958
 31
0.0
  0
LINE
  5
1D4
  8
0
  6
HIDDEN
 62
     7
 10
-161.068885047
 20
505.2956965042
 30
0.0
 11
-152.068885047
 21
505.2956965042
 31
0.0
  0
LINE
  5
1D5
  8
0
  6
HIDDEN
 62
     7
 10
-152.068885047
 20
505.2956965042
 30
0.0
 11
-152.068885047
 21
514.2956965042
 31
0.0
  0
LINE
  5
1D6
  8
0
  6
HIDDEN
 62
     7
 10
-152.068885047
 20
514.2956965042
 30
0.0
 11
-161.068885047
 21
514.2956965042
 31
0.0
  0
LINE
  5
1D7
  8
0
  6
HIDDEN
 62
     7
 10
-161.068885047
 20
514.2956965042
 30
0.0
 11
-161.068885047
 21
505.2956965042
 31
0.0
  0
LINE
  5
1D8
  8
0
  6
HIDDEN
 62
     7
 10
-161.068885047
 20
-284.7043034958
 30
0.0
 11
-152.068885047
 21
-284.7043034958
 31
0.0
  0
LINE
  5
1D9
  8
0
  6
HIDDEN
 62
     7
 10
-152.068885047
 20
-284.7043034958
 30
0.0
 11
-152.068885047
 21
-275.7043034958
 31
0.0
  0
LINE
  5
1DA
  8
0
  6
HIDDEN
 62
     7
 10
-152.068885047
 20
-275.7043034958
 30
0.0
 11
-161.068885047
 21
-275.7043034958
 31
0.0
  0
LINE
  5
1DB
  8
0
  6
HIDDEN
 62
     7
 10
-161.068885047
 20
-275.7043034958
 30
0.0
 11
-161.068885047
 21
-284.7043034958
 31
0.0
  0
LINE
  5
1DC
  8
0
  6
HIDDEN
 62
     7
 10
-138.568885047
 20
-924.1444867726
 30
0.0
 11
-138.568885047
 21
1169.7358797811
 31
0.0
  0
LINE
  5
1DD
  8
0
  6
HIDDEN
 62
     7
 10
-127.318885047
 20
1208.7956965042
 30
0.0
 11
-127.318885047
 21
1210.7956965043
 31
0.0
  0
LINE
  5
1DE
  8
0
  6
HIDDEN
 62
     7
 10
-134.4475647035
 20
1208.7956965042
 30
0.0
 11
-134.4475647035
 21
1210.7956965042
 31
0.0
  0
LINE
  5
1DF
  8
0
  6
HIDDEN
 62
     7
 10
-127.318885047
 20
1208.7956965042
 30
0.0
 11
-127.318885047
 21
1210.7956965043
 31
0.0
  0
LINE
  5
1E0
  8
0
  6
HIDDEN
 62
     7
 10
-127.318885047
 20
-963.2043034957
 30
0.0
 11
-127.318885047
 21
-965.2043034958
 31
0.0
  0
LINE
  5
1E1
  8
0
  6
HIDDEN
 62
     7
 10
442.181114953
 20
1208.7956965042
 30
0.0
 11
442.181114953
 21
1210.7956965043
 31
0.0
  0
LINE
  5
1E2
  8
0
  6
HIDDEN
 62
     7
 10
449.3097959546
 20
1208.7956965042
 30
0.0
 11
449.3097959546
 21
1210.7956965042
 31
0.0
  0
LINE
  5
1E3
  8
0
  6
HIDDEN
 62
     7
 10
-127.318885047
 20
-963.2043034957
 30
0.0
 11
-127.318885047
 21
-965.2043034958
 31
0.0
  0
LINE
  5
1E4
  8
0
  6
HIDDEN
 62
     7
 10
-134.4475647035
 20
-965.2043034958
 30
0.0
 11
-134.4475647035
 21
-963.2043034957
 31
0.0
  0
LINE
  5
1E5
  8
0
  6
HIDDEN
 62
     7
 10
442.181114953
 20
-963.2043034957
 30
0.0
 11
442.181114953
 21
-965.2043034958
 31
0.0
  0
LINE
  5
1E6
  8
0
  6
HIDDEN
 62
     7
 10
449.3097956062
 20
-963.2043034957
 30
0.0
 11
449.3097959546
 21
-965.2043034957
 31
0.0
  0
LINE
  5
1E7
  8
0
  6
HIDDEN
 62
     7
 10
442.1811164724
 20
1208.7956965042
 30
0.0
 11
442.1811164724
 21
1210.7956965043
 31
0.0
  0
LINE
  5
1E8
  8
0
  6
HIDDEN
 62
     7
 10
442.1811164724
 20
-963.2043034957
 30
0.0
 11
442.1811164724
 21
-965.2043034958
 31
0.0
  0
ARC
  5
1E9
  8
0
  6
HIDDEN
 62
     7
 10
-58.568885047
 20
1189.7956965042
 30
0.0
 40
4.516838966197406
 50
240.4723436901
 51
299.5276563099
  0
ARC
  5
1EA
  8
0
  6
HIDDEN
 62
     7
 10
-58.568885047
 20
-944.2043034958
 30
0.0
 40
4.516838966197698
 50
60.4723436901
 51
119.5276563099
  0
LINE
  5
1EB
  8
0
  6
HIDDEN
 62
     7
 10
-134.568885047
 20
1210.795697263
 30
0.0
 11
-134.568885047
 21
1208.7956965042
 31
0.0
  0
LINE
  5
1EC
  8
0
  6
HIDDEN
 62
     7
 10
-134.4475647035
 20
1208.7956965042
 30
0.0
 11
-134.4475647035
 21
1210.7956965042
 31
0.0
  0
LINE
  5
1ED
  8
0
  6
HIDDEN
 62
     7
 10
-134.568885047
 20
-965.2043034957
 30
0.0
 11
-134.568885047
 21
-963.2043034957
 31
0.0
  0
LINE
  5
1EE
  8
0
  6
HIDDEN
 62
     7
 10
-134.4475647035
 20
-965.2043034957
 30
0.0
 11
-134.4475647035
 21
-963.2043034957
 31
0.0
  0
LINE
  5
1EF
  8
0
  6
HIDDEN
 62
     7
 10
-138.568885047
 20
1206.7956965042
 30
0.0
 11
-136.568885047
 21
1206.7956965042
 31
0.0
  0
LINE
  5
1F0
  8
0
  6
HIDDEN
 62
     7
 10
-138.568885047
 20
-961.2043034958
 30
0.0
 11
-136.568885047
 21
-961.2043034958
 31
0.0
  0
LINE
  5
1F1
  8
0
  6
HIDDEN
 62
     7
 10
451.4311164724
 20
-961.2043034958
 30
0.0
 11
453.4311172312
 21
-961.2043034958
 31
0.0
  0
LINE
  5
1F2
  8
0
  6
HIDDEN
 62
     7
 10
451.4311164724
 20
1206.7956965042
 30
0.0
 11
453.4311164724
 21
1206.7956965042
 31
0.0
  0
LINE
  5
1F3
  8
0
  6
HIDDEN
 62
     7
 10
449.4311164724
 20
1208.7956965042
 30
0.0
 11
449.4311164724
 21
1210.7956965042
 31
0.0
  0
LINE
  5
1F4
  8
0
  6
HIDDEN
 62
     7
 10
449.3097959546
 20
1208.7956965042
 30
0.0
 11
449.3097959546
 21
1210.7956965042
 31
0.0
  0
LINE
  5
1F5
  8
0
  6
HIDDEN
 62
     7
 10
449.4311164724
 20
-963.2043034957
 30
0.0
 11
449.4311164724
 21
-965.2043042545
 31
0.0
  0
LINE
  5
1F6
  8
0
  6
HIDDEN
 62
     7
 10
449.3097959546
 20
-963.2043034957
 30
0.0
 11
449.3097959546
 21
-965.2043034957
 31
0.0
  0
POLYLINE
  5
1F7
  8
0
  6
HIDDEN
 62
     7
 66
     1
 10
0.0
 20
0.0
 30
0.0
  0
VERTEX
  5
5AA
  8
0
  6
HIDDEN
 62
     7
 10
-138.5688852411
 20
1206.5596285267
 30
0.0
  0
VERTEX
  5
5AB
  8
0
  6
HIDDEN
 62
     7
 10
-138.4825287133
 20
1206.2255174481
 30
0.0
  0
VERTEX
  5
5AC
  8
0
  6
HIDDEN
 62
     7
 10
-138.2398215701
 20
1205.9868249289
 30
0.0
  0
VERTEX
  5
5AD
  8
0
  6
HIDDEN
 62
     7
 10
-137.8682662479
 20
1205.8435509691
 30
0.0
  0
VERTEX
  5
5AE
  8
0
  6
HIDDEN
 62
     7
 10
-137.3973160586
 20
1205.7956955688
 30
0.0
  0
VERTEX
  5
5AF
  8
0
  6
HIDDEN
 62
     7
 10
-136.8318213133
 20
1205.8433321546
 30
0.0
  0
VERTEX
  5
5B0
  8
0
  6
HIDDEN
 62
     7
 10
-136.3511279167
 20
1205.9457768018
 30
0.0
  0
SEQEND
  5
5A9
  8
0
  6
HIDDEN
 62
     7
  0
POLYLINE
  5
1F8
  8
0
  6
HIDDEN
 62
     7
 66
     1
 10
0.0
 20
0.0
 30
0.0
  0
VERTEX
  5
5B2
  8
0
  6
HIDDEN
 62
     7
 10
-134.568885047
 20
1206.5596285267
 30
0.0
  0
VERTEX
  5
5B3
  8
0
  6
HIDDEN
 62
     7
 10
-134.568885047
 20
1206.5596285267
 30
0.0
  0
SEQEND
  5
5B1
  8
0
  6
HIDDEN
 62
     7
  0
LINE
  5
1F9
  8
0
  6
HIDDEN
 62
     7
 10
-136.568885047
 20
1206.5596285267
 30
0.0
 11
-138.5688852411
 21
1206.5596285267
 31
0.0
  0
POLYLINE
  5
1FA
  8
0
  6
HIDDEN
 62
     7
 66
     1
 10
0.0
 20
0.0
 30
0.0
  0
VERTEX
  5
5B5
  8
0
  6
HIDDEN
 62
     7
 10
-136.3511279167
 20
-960.3543837933
 30
0.0
  0
VERTEX
  5
5B6
  8
0
  6
HIDDEN
 62
     7
 10
-136.8318213133
 20
-960.2519391461
 30
0.0
  0
VERTEX
  5
5B7
  8
0
  6
HIDDEN
 62
     7
 10
-137.3973160586
 20
-960.2043025603
 30
0.0
  0
VERTEX
  5
5B8
  8
0
  6
HIDDEN
 62
     7
 10
-137.8682662479
 20
-960.2521579606
 30
0.0
  0
VERTEX
  5
5B9
  8
0
  6
HIDDEN
 62
     7
 10
-138.2398215701
 20
-960.3954319204
 30
0.0
  0
VERTEX
  5
5BA
  8
0
  6
HIDDEN
 62
     7
 10
-138.4825287133
 20
-960.6341244396
 30
0.0
  0
VERTEX
  5
5BB
  8
0
  6
HIDDEN
 62
     7
 10
-138.5688852411
 20
-960.9682355183
 30
0.0
  0
SEQEND
  5
5B4
  8
0
  6
HIDDEN
 62
     7
  0
POLYLINE
  5
1FB
  8
0
  6
HIDDEN
 62
     7
 66
     1
 10
0.0
 20
0.0
 30
0.0
  0
VERTEX
  5
5BD
  8
0
  6
HIDDEN
 62
     7
 10
-134.568885047
 20
-960.9682355183
 30
0.0
  0
VERTEX
  5
5BE
  8
0
  6
HIDDEN
 62
     7
 10
-134.568885047
 20
-960.9682355183
 30
0.0
  0
SEQEND
  5
5BC
  8
0
  6
HIDDEN
 62
     7
  0
LINE
  5
1FC
  8
0
  6
HIDDEN
 62
     7
 10
-138.568885047
 20
-960.9682355183
 30
0.0
 11
-136.568885047
 21
-960.9682355183
 31
0.0
  0
LINE
  5
1FD
  8
0
  6
HIDDEN
 62
     7
 10
-136.5592546935
 20
-935.2043034958
 30
0.0
 11
-136.5592546935
 21
-933.2043034958
 31
0.0
  0
LINE
  5
1FE
  8
0
  6
HIDDEN
 62
     7
 10
-136.5592546935
 20
1178.7956965042
 30
0.0
 11
-136.5592546935
 21
1180.7956965042
 31
0.0
  0
POLYLINE
  5
1FF
  8
0
  6
HIDDEN
 62
     7
 66
     1
 10
0.0
 20
0.0
 30
0.0
  0
VERTEX
  5
5C0
  8
0
  6
HIDDEN
 62
     7
 10
-133.7188628568
 20
1208.5776646624
 30
0.0
  0
VERTEX
  5
5C1
  8
0
  6
HIDDEN
 62
     7
 10
-133.6167395137
 20
1209.0571233921
 30
0.0
  0
VERTEX
  5
5C2
  8
0
  6
HIDDEN
 62
     7
 10
-133.5688841116
 20
1209.6241204159
 30
0.0
  0
VERTEX
  5
5C3
  8
0
  6
HIDDEN
 62
     7
 10
-133.6165206994
 20
1210.0940428347
 30
0.0
  0
VERTEX
  5
5C4
  8
0
  6
HIDDEN
 62
     7
 10
-133.7597217216
 20
1210.4656654544
 30
0.0
  0
VERTEX
  5
5C5
  8
0
  6
HIDDEN
 62
     7
 10
-133.9984871784
 20
1210.7089630661
 30
0.0
  0
VERTEX
  5
5C6
  8
0
  6
HIDDEN
 62
     7
 10
-134.3328170695
 20
1210.795697263
 30
0.0
  0
SEQEND
  5
5BF
  8
0
  6
HIDDEN
 62
     7
  0
POLYLINE
  5
200
  8
0
  6
HIDDEN
 62
     7
 66
     1
 10
0.0
 20
0.0
 30
0.0
  0
VERTEX
  5
5C8
  8
0
  6
HIDDEN
 62
     7
 10
-134.3328170695
 20
1206.7956965042
 30
0.0
  0
VERTEX
  5
5C9
  8
0
  6
HIDDEN
 62
     7
 10
-134.3328170695
 20
1206.7956965042
 30
0.0
  0
SEQEND
  5
5C7
  8
0
  6
HIDDEN
 62
     7
  0
LINE
  5
201
  8
0
  6
HIDDEN
 62
     7
 10
-134.3328170695
 20
1208.7956965042
 30
0.0
 11
-134.3328170695
 21
1210.7956965042
 31
0.0
  0
POLYLINE
  5
202
  8
0
  6
HIDDEN
 62
     7
 66
     1
 10
0.0
 20
0.0
 30
0.0
  0
VERTEX
  5
5CB
  8
0
  6
HIDDEN
 62
     7
 10
449.1950484949
 20
1210.795697263
 30
0.0
  0
VERTEX
  5
5CC
  8
0
  6
HIDDEN
 62
     7
 10
448.8609374163
 20
1210.7093407227
 30
0.0
  0
VERTEX
  5
5CD
  8
0
  6
HIDDEN
 62
     7
 10
448.622244897
 20
1210.4666335448
 30
0.0
  0
VERTEX
  5
5CE
  8
0
  6
HIDDEN
 62
     7
 10
448.4789709373
 20
1210.0950781702
 30
0.0
  0
VERTEX
  5
5CF
  8
0
  6
HIDDEN
 62
     7
 10
448.4311155369
 20
1209.6241279152
 30
0.0
  0
VERTEX
  5
5D0
  8
0
  6
HIDDEN
 62
     7
 10
448.4787521227
 20
1209.0586330916
 30
0.0
  0
VERTEX
  5
5D1
  8
0
  6
HIDDEN
 62
     7
 10
448.5811967283
 20
1208.5779398228
 30
0.0
  0
SEQEND
  5
5CA
  8
0
  6
HIDDEN
 62
     7
  0
POLYLINE
  5
203
  8
0
  6
HIDDEN
 62
     7
 66
     1
 10
0.0
 20
0.0
 30
0.0
  0
VERTEX
  5
5D3
  8
0
  6
HIDDEN
 62
     7
 10
449.1950484949
 20
1206.7956965042
 30
0.0
  0
VERTEX
  5
5D4
  8
0
  6
HIDDEN
 62
     7
 10
449.1950484949
 20
1206.7956965042
 30
0.0
  0
SEQEND
  5
5D2
  8
0
  6
HIDDEN
 62
     7
  0
LINE
  5
204
  8
0
  6
HIDDEN
 62
     7
 10
449.1950484949
 20
1210.795697263
 30
0.0
 11
449.1950484949
 21
1208.7956965042
 31
0.0
  0
POLYLINE
  5
205
  8
0
  6
HIDDEN
 62
     7
 66
     1
 10
0.0
 20
0.0
 30
0.0
  0
VERTEX
  5
5D6
  8
0
  6
HIDDEN
 62
     7
 10
449.4311164724
 20
1206.5596285267
 30
0.0
  0
VERTEX
  5
5D7
  8
0
  6
HIDDEN
 62
     7
 10
449.4311164724
 20
1206.5596285267
 30
0.0
  0
SEQEND
  5
5D5
  8
0
  6
HIDDEN
 62
     7
  0
POLYLINE
  5
206
  8
0
  6
HIDDEN
 62
     7
 66
     1
 10
0.0
 20
0.0
 30
0.0
  0
VERTEX
  5
5D9
  8
0
  6
HIDDEN
 62
     7
 10
451.2130864568
 20
1205.9456760948
 30
0.0
  0
VERTEX
  5
5DA
  8
0
  6
HIDDEN
 62
     7
 10
451.6925508175
 20
1205.8435509689
 30
0.0
  0
VERTEX
  5
5DB
  8
0
  6
HIDDEN
 62
     7
 10
452.2595399994
 20
1205.7956955688
 30
0.0
  0
VERTEX
  5
5DC
  8
0
  6
HIDDEN
 62
     7
 10
452.7294623554
 20
1205.8433321567
 30
0.0
  0
VERTEX
  5
5DD
  8
0
  6
HIDDEN
 62
     7
 10
453.1010849245
 20
1205.986533179
 30
0.0
  0
VERTEX
  5
5DE
  8
0
  6
HIDDEN
 62
     7
 10
453.3443825025
 20
1206.2252986357
 30
0.0
  0
VERTEX
  5
5DF
  8
0
  6
HIDDEN
 62
     7
 10
453.4311166871
 20
1206.5596285267
 30
0.0
  0
SEQEND
  5
5D8
  8
0
  6
HIDDEN
 62
     7
  0
LINE
  5
207
  8
0
  6
HIDDEN
 62
     7
 10
453.4311164724
 20
1206.5596285267
 30
0.0
 11
451.4311164724
 21
1206.5596285267
 31
0.0
  0
POLYLINE
  5
208
  8
0
  6
HIDDEN
 62
     7
 66
     1
 10
0.0
 20
0.0
 30
0.0
  0
VERTEX
  5
5E1
  8
0
  6
HIDDEN
 62
     7
 10
453.4311166871
 20
-960.9682355183
 30
0.0
  0
VERTEX
  5
5E2
  8
0
  6
HIDDEN
 62
     7
 10
453.3443825025
 20
-960.633905627
 30
0.0
  0
VERTEX
  5
5E3
  8
0
  6
HIDDEN
 62
     7
 10
453.1010849246
 20
-960.3951401702
 30
0.0
  0
VERTEX
  5
5E4
  8
0
  6
HIDDEN
 62
     7
 10
452.7294623555
 20
-960.251939148
 30
0.0
  0
VERTEX
  5
5E5
  8
0
  6
HIDDEN
 62
     7
 10
452.2595399994
 20
-960.2043025603
 30
0.0
  0
VERTEX
  5
5E6
  8
0
  6
HIDDEN
 62
     7
 10
451.6925508177
 20
-960.2521579606
 30
0.0
  0
VERTEX
  5
5E7
  8
0
  6
HIDDEN
 62
     7
 10
451.2130864574
 20
-960.3542830865
 30
0.0
  0
SEQEND
  5
5E0
  8
0
  6
HIDDEN
 62
     7
  0
POLYLINE
  5
209
  8
0
  6
HIDDEN
 62
     7
 66
     1
 10
0.0
 20
0.0
 30
0.0
  0
VERTEX
  5
5E9
  8
0
  6
HIDDEN
 62
     7
 10
449.4311164724
 20
-960.9682355183
 30
0.0
  0
VERTEX
  5
5EA
  8
0
  6
HIDDEN
 62
     7
 10
449.4311164724
 20
-960.9682355183
 30
0.0
  0
SEQEND
  5
5E8
  8
0
  6
HIDDEN
 62
     7
  0
LINE
  5
20A
  8
0
  6
HIDDEN
 62
     7
 10
451.4311164724
 20
-960.9682355183
 30
0.0
 11
453.4311166871
 21
-960.9682355183
 31
0.0
  0
POLYLINE
  5
20B
  8
0
  6
HIDDEN
 62
     7
 66
     1
 10
0.0
 20
0.0
 30
0.0
  0
VERTEX
  5
5EC
  8
0
  6
HIDDEN
 62
     7
 10
-134.3328170695
 20
-965.2043042545
 30
0.0
  0
VERTEX
  5
5ED
  8
0
  6
HIDDEN
 62
     7
 10
-133.9984871783
 20
-965.1175700576
 30
0.0
  0
VERTEX
  5
5EE
  8
0
  6
HIDDEN
 62
     7
 10
-133.7597217215
 20
-964.8742724457
 30
0.0
  0
VERTEX
  5
5EF
  8
0
  6
HIDDEN
 62
     7
 10
-133.6165206993
 20
-964.502649826
 30
0.0
  0
VERTEX
  5
5F0
  8
0
  6
HIDDEN
 62
     7
 10
-133.5688841116
 20
-964.0327274074
 30
0.0
  0
VERTEX
  5
5F1
  8
0
  6
HIDDEN
 62
     7
 10
-133.6167395119
 20
-963.4657381494
 30
0.0
  0
VERTEX
  5
5F2
  8
0
  6
HIDDEN
 62
     7
 10
-133.7188645976
 20
-962.9862739127
 30
0.0
  0
SEQEND
  5
5EB
  8
0
  6
HIDDEN
 62
     7
  0
POLYLINE
  5
20C
  8
0
  6
HIDDEN
 62
     7
 66
     1
 10
0.0
 20
0.0
 30
0.0
  0
VERTEX
  5
5F4
  8
0
  6
HIDDEN
 62
     7
 10
448.5811984959
 20
-962.9865491063
 30
0.0
  0
VERTEX
  5
5F5
  8
0
  6
HIDDEN
 62
     7
 10
448.4787521247
 20
-963.4672479395
 30
0.0
  0
VERTEX
  5
5F6
  8
0
  6
HIDDEN
 62
     7
 10
448.4311155369
 20
-964.0327349067
 30
0.0
  0
VERTEX
  5
5F7
  8
0
  6
HIDDEN
 62
     7
 10
448.4789709372
 20
-964.5036851615
 30
0.0
  0
VERTEX
  5
5F8
  8
0
  6
HIDDEN
 62
     7
 10
448.6222448969
 20
-964.8752405362
 30
0.0
  0
VERTEX
  5
5F9
  8
0
  6
HIDDEN
 62
     7
 10
448.8609374162
 20
-965.1179477142
 30
0.0
  0
VERTEX
  5
5FA
  8
0
  6
HIDDEN
 62
     7
 10
449.1950484949
 20
-965.2043042545
 30
0.0
  0
SEQEND
  5
5F3
  8
0
  6
HIDDEN
 62
     7
  0
POLYLINE
  5
20D
  8
0
  6
HIDDEN
 62
     7
 66
     1
 10
0.0
 20
0.0
 30
0.0
  0
VERTEX
  5
5FC
  8
0
  6
HIDDEN
 62
     7
 10
-134.3328170695
 20
-961.2043034958
 30
0.0
  0
VERTEX
  5
5FD
  8
0
  6
HIDDEN
 62
     7
 10
-134.3328170695
 20
-961.2043034958
 30
0.0
  0
SEQEND
  5
5FB
  8
0
  6
HIDDEN
 62
     7
  0
LINE
  5
20E
  8
0
  6
HIDDEN
 62
     7
 10
-134.3328170695
 20
-963.2043034957
 30
0.0
 11
-134.3328170695
 21
-965.2043042545
 31
0.0
  0
POLYLINE
  5
20F
  8
0
  6
HIDDEN
 62
     7
 66
     1
 10
0.0
 20
0.0
 30
0.0
  0
VERTEX
  5
5FF
  8
0
  6
HIDDEN
 62
     7
 10
449.1950484949
 20
-961.2043034958
 30
0.0
  0
VERTEX
  5
600
  8
0
  6
HIDDEN
 62
     7
 10
449.1950484949
 20
-961.2043034958
 30
0.0
  0
SEQEND
  5
5FE
  8
0
  6
HIDDEN
 62
     7
  0
LINE
  5
210
  8
0
  6
HIDDEN
 62
     7
 10
449.1950484949
 20
-965.2043034957
 30
0.0
 11
449.1950484949
 21
-963.2043034957
 31
0.0
  0
LINE
  5
211
  8
0
  6
HIDDEN
 62
     7
 10
-733.5693144216
 20
-964.2834411016
 30
0.0
 11
-733.5693144218
 21
-962.8973491486
 31
0.0
  0
LINE
  5
212
  8
0
  6
HIDDEN
 62
     7
 10
-733.5693144152
 20
-962.8973975291
 30
0.0
 11
-733.5693144151
 21
-964.283588168
 31
0.0
  0
LINE
  5
213
  8
0
  6
HIDDEN
 62
     7
 10
-733.5693102692
 20
1209.874654656
 30
0.0
 11
-733.5693102698
 21
1208.4886871324
 31
0.0
  0
LINE
  5
214
  8
0
  6
HIDDEN
 62
     7
 10
-733.5693102739
 20
1208.4887100734
 30
0.0
 11
-733.5693102737
 21
1209.8747340215
 31
0.0
  0
LINE
  5
215
  8
0
  6
HIDDEN
 62
     7
 10
-736.289751202
 20
-960.2047328652
 30
0.0
 11
-737.7314909
 21
-960.2047328655
 31
0.0
  0
LINE
  5
216
  8
0
  6
HIDDEN
 62
     7
 10
-737.7315859181
 20
1205.796121745
 30
0.0
 11
-736.2897808013
 21
1205.7961217465
 31
0.0
  0
LINE
  5
217
  8
0
  6
HIDDEN
 62
     7
 10
-151.5684598131
 20
1209.9583979975
 30
0.0
 11
-151.5684598117
 21
1208.5165927293
 31
0.0
  0
LINE
  5
218
  8
0
  6
HIDDEN
 62
     7
 10
-147.4899245573
 20
1205.796121733
 30
0.0
 11
-148.8758938898
 21
1205.7961217336
 31
0.0
  0
LINE
  5
219
  8
0
  6
HIDDEN
 62
     7
 10
-148.875870874
 20
1205.7961217377
 30
0.0
 11
-147.4898449514
 21
1205.7961217375
 31
0.0
  0
LINE
  5
21A
  8
0
  6
HIDDEN
 62
     7
 10
-147.489747824
 20
-960.2047328704
 30
0.0
 11
-148.8758397779
 21
-960.2047328705
 31
0.0
  0
LINE
  5
21B
  8
0
  6
HIDDEN
 62
     7
 10
-148.8757913975
 20
-960.2047328639
 30
0.0
 11
-147.4896007577
 21
-960.2047328639
 31
0.0
  0
LINE
  5
21C
  8
0
  6
HIDDEN
 62
     7
 10
-151.5684556776
 20
-962.9251700501
 30
0.0
 11
-151.5684556773
 21
-964.3669097476
 31
0.0
  0
LINE
  5
21D
  8
0
  6
HIDDEN
 62
     7
 10
-137.3965401416
 20
1205.7956954578
 30
0.0
 11
-135.9827126675
 21
1205.7956954578
 31
0.0
  0
LINE
  5
21E
  8
0
  6
HIDDEN
 62
     7
 10
-135.9827126622
 20
1205.7956954578
 30
0.0
 11
-137.3965401364
 21
1205.7956954578
 31
0.0
  0
LINE
  5
21F
  8
0
  6
HIDDEN
 62
     7
 10
-137.396534934
 20
-960.2043024486
 30
0.0
 11
-135.9827100612
 21
-960.2043024486
 31
0.0
  0
LINE
  5
220
  8
0
  6
HIDDEN
 62
     7
 10
-135.9827100674
 20
-960.2043024486
 30
0.0
 11
-137.3965349407
 21
-960.2043024486
 31
0.0
  0
LINE
  5
221
  8
0
  6
HIDDEN
 62
     7
 10
-133.5688840006
 20
1208.2102965514
 30
0.0
 11
-133.5688840006
 21
1209.6248960835
 31
0.0
  0
LINE
  5
222
  8
0
  6
HIDDEN
 62
     7
 10
448.431115426
 20
1209.6233519981
 30
0.0
 11
448.431115426
 21
1208.209524524
 31
0.0
  0
LINE
  5
223
  8
0
  6
HIDDEN
 62
     7
 10
448.431115426
 20
1208.2095245186
 30
0.0
 11
448.431115426
 21
1209.6233519928
 31
0.0
  0
LINE
  5
224
  8
0
  6
HIDDEN
 62
     7
 10
450.8457161344
 20
1205.7956954578
 30
0.0
 11
452.2603156662
 21
1205.7956954578
 31
0.0
  0
LINE
  5
225
  8
0
  6
HIDDEN
 62
     7
 10
452.2603208944
 20
-960.2043024486
 30
0.0
 11
450.8457187481
 21
-960.2043024486
 31
0.0
  0
LINE
  5
226
  8
0
  6
HIDDEN
 62
     7
 10
-133.5688839998
 20
-964.0335083025
 30
0.0
 11
-133.5688839998
 21
-962.6189061563
 31
0.0
  0
LINE
  5
227
  8
0
  6
HIDDEN
 62
     7
 10
448.4311154252
 20
-964.0319537826
 30
0.0
 11
448.4311154252
 21
-962.6181289095
 31
0.0
  0
LINE
  5
228
  8
0
  6
HIDDEN
 62
     7
 10
448.4311154252
 20
-962.6181289157
 30
0.0
 11
448.4311154252
 21
-964.0319537893
 31
0.0
  0
LINE
  5
229
  8
0
  6
CONTINUOUS
 62
     7
 10
624.5026039262
 20
-869.2043034958
 30
0.0
 11
625.5026039262
 21
-869.2043034958
 31
0.0
  0
LINE
  5
22A
  8
0
  6
CONTINUOUS
 62
     7
 10
625.5026039262
 20
-861.2043034958
 30
0.0
 11
624.5026039262
 21
-861.2043034958
 31
0.0
  0
LINE
  5
22B
  8
0
  6
CONTINUOUS
 62
     7
 10
625.5026039262
 20
-869.2043034958
 30
0.0
 11
626.0026039262
 21
-868.7043034958
 31
0.0
  0
LINE
  5
22C
  8
0
  6
CONTINUOUS
 62
     7
 10
626.0026039262
 20
-861.7043034958
 30
0.0
 11
625.5026039262
 21
-861.2043034958
 31
0.0
  0
ARC
  5
22D
  8
0
  6
CONTINUOUS
 62
     7
 10
602.6687066567
 20
-963.7043038755
 30
0.0
 40
6.34225851567493
 50
346.3194179434
 51
13.6805820566
  0
LINE
  5
22E
  8
0
  6
CONTINUOUS
 62
     7
 10
608.831031051
 20
-965.2043034958
 30
0.0
 11
608.831031051
 21
-963.2043034958
 31
0.0
  0
LINE
  5
22F
  8
0
  6
CONTINUOUS
 62
     7
 10
624.5026039262
 20
-962.2043034958
 30
0.0
 11
624.5026039262
 21
1207.7956965042
 31
0.0
  0
ARC
  5
230
  8
0
  6
CONTINUOUS
 62
     7
 10
606.0026039262
 20
-963.2043034958
 30
0.0
 40
3.000000000000167
 50
19.4712206345
 51
70.5287793655
  0
ARC
  5
231
  8
0
  6
CONTINUOUS
 62
     7
 10
606.0026039262
 20
1208.7956965042
 30
0.0
 40
3.000000000000021
 50
289.4712206345
 51
340.5287793655
  0
LINE
  5
232
  8
0
  6
CONTINUOUS
 62
     7
 10
624.5026039262
 20
-965.2043042552
 30
0.0
 11
624.5026039262
 21
-962.2043034958
 31
0.0
  0
LINE
  5
233
  8
0
  6
CONTINUOUS
 62
     7
 10
624.5026039262
 20
-965.2043034958
 30
0.0
 11
608.831031051
 21
-965.2043034958
 31
0.0
  0
LINE
  5
234
  8
0
  6
CONTINUOUS
 62
     7
 10
624.5026039262
 20
1207.7956965042
 30
0.0
 11
624.5026039262
 21
1210.7956965042
 31
0.0
  0
ARC
  5
235
  8
0
  6
CONTINUOUS
 62
     7
 10
602.6687869023
 20
1209.295696884
 30
0.0
 40
6.342180546723932
 50
346.3192464874
 51
13.6807535126
  0
LINE
  5
236
  8
0
  6
CONTINUOUS
 62
     7
 10
624.5026039262
 20
1210.7956965042
 30
0.0
 11
608.831031051
 21
1210.7956965042
 31
0.0
  0
LINE
  5
237
  8
0
  6
CONTINUOUS
 62
     7
 10
608.831031051
 20
1210.7956972637
 30
0.0
 11
608.831031051
 21
1208.7956965042
 31
0.0
  0
ARC
  5
238
  8
0
  6
CONTINUOUS
 62
     7
 10
605.5026038237
 20
1212.0387010315
 30
0.0
 40
6.253981340907928
 50
256.1224760538
 51
283.8775239462
  0
LINE
  5
239
  8
0
  6
CONTINUOUS
 62
     7
 10
606.0026039262
 20
1205.9672693795
 30
0.0
 11
604.0026037211
 21
1205.9672693795
 31
0.0
  0
ARC
  5
23A
  8
0
  6
CONTINUOUS
 62
     7
 10
605.5026038237
 20
-966.4473080151
 30
0.0
 40
6.253981333198477
 50
76.1224760364
 51
103.8775239636
  0
LINE
  5
23B
  8
0
  6
CONTINUOUS
 62
     7
 10
604.0026039262
 20
1205.9672693795
 30
0.0
 11
604.0026039262
 21
-960.375876371
 31
0.0
  0
LINE
  5
23C
  8
0
  6
CONTINUOUS
 62
     7
 10
604.0026039262
 20
-960.375876371
 30
0.0
 11
606.0026039262
 21
-960.375876371
 31
0.0
  0
LINE
  5
23D
  8
0
  6
CONTINUOUS
 62
     7
 10
608.1239242698
 20
-965.2043034958
 30
0.0
 11
608.1239242698
 21
-963.2043034958
 31
0.0
  0
LINE
  5
23E
  8
0
  6
CONTINUOUS
 62
     7
 10
608.831031051
 20
-963.2043034958
 30
0.0
 11
608.1239242698
 21
-963.2043034958
 31
0.0
  0
LINE
  5
23F
  8
0
  6
CONTINUOUS
 62
     7
 10
608.831031051
 20
-965.2043034958
 30
0.0
 11
608.1239242698
 21
-965.2043034958
 31
0.0
  0
LINE
  5
240
  8
0
  6
CONTINUOUS
 62
     7
 10
606.0026039262
 20
1207.7956965042
 30
0.0
 11
604.0026031667
 21
1207.7956965042
 31
0.0
  0
LINE
  5
241
  8
0
  6
CONTINUOUS
 62
     7
 10
606.0026039262
 20
1207.7956965042
 30
0.0
 11
606.0026039262
 21
1205.9672693795
 31
0.0
  0
LINE
  5
242
  8
0
  6
CONTINUOUS
 62
     7
 10
604.0026039262
 20
1207.7956965042
 30
0.0
 11
604.0026039262
 21
1205.9672693795
 31
0.0
  0
LINE
  5
243
  8
0
  6
CONTINUOUS
 62
     7
 10
606.0026039262
 20
-962.2043034958
 30
0.0
 11
606.0026039262
 21
-960.375876371
 31
0.0
  0
LINE
  5
244
  8
0
  6
CONTINUOUS
 62
     7
 10
606.0026039262
 20
-962.2043034958
 30
0.0
 11
604.0026031667
 21
-962.2043034958
 31
0.0
  0
LINE
  5
245
  8
0
  6
CONTINUOUS
 62
     7
 10
604.0026039262
 20
-962.2043034958
 30
0.0
 11
604.0026039262
 21
-960.375876371
 31
0.0
  0
LINE
  5
246
  8
0
  6
CONTINUOUS
 62
     7
 10
608.831031051
 20
1208.7956965042
 30
0.0
 11
608.1239242698
 21
1208.7956965042
 31
0.0
  0
LINE
  5
247
  8
0
  6
CONTINUOUS
 62
     7
 10
608.1239242698
 20
1208.7956965042
 30
0.0
 11
608.1239242698
 21
1210.7956965042
 31
0.0
  0
LINE
  5
248
  8
0
  6
CONTINUOUS
 62
     7
 10
608.831031051
 20
1210.7956965042
 30
0.0
 11
608.1239242698
 21
1210.7956965042
 31
0.0
  0
LINE
  5
249
  8
0
  6
CONTINUOUS
 62
     7
 10
608.1239242698
 20
-965.2043034958
 30
0.0
 11
608.1239242698
 21
-963.2043034958
 31
0.0
  0
LINE
  5
24A
  8
0
  6
CONTINUOUS
 62
     7
 10
608.1239242698
 20
-965.2043034958
 30
0.0
 11
607.0026039262
 21
-965.2043034958
 31
0.0
  0
LINE
  5
24B
  8
0
  6
CONTINUOUS
 62
     7
 10
607.0026039262
 20
-963.2043034958
 30
0.0
 11
607.0026039262
 21
-965.2043042552
 31
0.0
  0
LINE
  5
24C
  8
0
  6
CONTINUOUS
 62
     7
 10
608.1239242698
 20
-963.2043034958
 30
0.0
 11
607.0026039262
 21
-963.2043034958
 31
0.0
  0
LINE
  5
24D
  8
0
  6
CONTINUOUS
 62
     7
 10
608.1239242698
 20
1210.7956965042
 30
0.0
 11
607.0026039262
 21
1210.7956965042
 31
0.0
  0
LINE
  5
24E
  8
0
  6
CONTINUOUS
 62
     7
 10
608.1239242698
 20
1208.7956965042
 30
0.0
 11
608.1239242698
 21
1210.7956965042
 31
0.0
  0
LINE
  5
24F
  8
0
  6
CONTINUOUS
 62
     7
 10
608.1239242698
 20
1208.7956965042
 30
0.0
 11
607.0026039262
 21
1208.7956965042
 31
0.0
  0
LINE
  5
250
  8
0
  6
CONTINUOUS
 62
     7
 10
607.0026039262
 20
1208.7956965042
 30
0.0
 11
607.0026039262
 21
1210.7956965042
 31
0.0
  0
ARC
  5
251
  8
0
  6
CONTINUOUS
 62
     7
 10
607.0026039262
 20
-962.2043034958
 30
0.0
 40
3.000000759492764
 50
180.0
 51
270.0
  0
ARC
  5
252
  8
0
  6
CONTINUOUS
 62
     7
 10
607.0026039262
 20
-962.2043034958
 30
0.0
 40
1.000000759492309
 50
180.0
 51
270.0
  0
ARC
  5
253
  8
0
  6
CONTINUOUS
 62
     7
 10
607.0026039262
 20
1207.7956965042
 30
0.0
 40
1.000000759491968
 50
89.9999999999
 51
180.0
  0
ARC
  5
254
  8
0
  6
CONTINUOUS
 62
     7
 10
607.0026039262
 20
1207.7956965042
 30
0.0
 40
3.000000759491854
 50
90.0
 51
180.0
  0
LINE
  5
255
  8
0
  6
CONTINUOUS
 62
     7
 10
624.5026039262
 20
1169.2956965042
 30
0.0
 11
629.0026039262
 21
1169.2956965042
 31
0.0
  0
LINE
  5
256
  8
0
  6
CONTINUOUS
 62
     7
 10
624.5026039262
 20
-923.7043034958
 30
0.0
 11
629.0026039262
 21
-923.7043034958
 31
0.0
  0
LINE
  5
257
  8
0
  6
CONTINUOUS
 62
     7
 10
629.0026039262
 20
505.2956965042
 30
0.0
 11
628.5026039262
 21
505.2956965042
 31
0.0
  0
LINE
  5
258
  8
0
  6
CONTINUOUS
 62
     7
 10
629.0026039262
 20
514.2956965042
 30
0.0
 11
628.5026039262
 21
514.2956965042
 31
0.0
  0
LINE
  5
259
  8
0
  6
CONTINUOUS
 62
     7
 10
628.5026039262
 20
505.2956965042
 30
0.0
 11
628.5026039262
 21
514.2956965042
 31
0.0
  0
LINE
  5
25A
  8
0
  6
CONTINUOUS
 62
     7
 10
636.0026039262
 20
503.2956965042
 30
0.0
 11
632.0026039262
 21
503.2956965042
 31
0.0
  0
LINE
  5
25B
  8
0
  6
CONTINUOUS
 62
     7
 10
636.0026039262
 20
516.2956965042
 30
0.0
 11
632.0026039262
 21
516.2956965042
 31
0.0
  0
ARC
  5
25C
  8
0
  6
CONTINUOUS
 62
     7
 10
629.0026039262
 20
502.7331965043
 30
0.0
 40
2.562499999994608
 50
12.6803834918
 51
38.6947399219
  0
ARC
  5
25D
  8
0
  6
CONTINUOUS
 62
     7
 10
629.0026039262
 20
516.8581965043
 30
0.0
 40
2.562500000014984
 50
321.3052600782
 51
347.3196165081
  0
LINE
  5
25E
  8
0
  6
CONTINUOUS
 62
     7
 10
631.5026039262
 20
503.2956965042
 30
0.0
 11
632.0026039262
 21
503.2956965042
 31
0.0
  0
LINE
  5
25F
  8
0
  6
CONTINUOUS
 62
     7
 10
632.0026039262
 20
516.2956965042
 30
0.0
 11
631.5026039262
 21
516.2956965042
 31
0.0
  0
LINE
  5
260
  8
0
  6
CONTINUOUS
 62
     7
 10
637.0026039262
 20
503.2956965042
 30
0.0
 11
637.0026039262
 21
516.2956965042
 31
0.0
  0
LINE
  5
261
  8
0
  6
CONTINUOUS
 62
     7
 10
637.0026039262
 20
516.2956965042
 30
0.0
 11
636.0026039262
 21
516.2956965042
 31
0.0
  0
LINE
  5
262
  8
0
  6
CONTINUOUS
 62
     7
 10
636.0026039262
 20
503.2956965042
 30
0.0
 11
637.0026039262
 21
503.2956965042
 31
0.0
  0
LINE
  5
263
  8
0
  6
CONTINUOUS
 62
     7
 10
628.5026039262
 20
-284.7043034958
 30
0.0
 11
628.5026039262
 21
-275.7043034958
 31
0.0
  0
LINE
  5
264
  8
0
  6
CONTINUOUS
 62
     7
 10
629.0026039262
 20
-275.7043034958
 30
0.0
 11
628.5026039262
 21
-275.7043034958
 31
0.0
  0
LINE
  5
265
  8
0
  6
CONTINUOUS
 62
     7
 10
629.0026039262
 20
-284.7043034958
 30
0.0
 11
628.5026039262
 21
-284.7043034958
 31
0.0
  0
LINE
  5
266
  8
0
  6
CONTINUOUS
 62
     7
 10
636.0026039262
 20
-286.7043034958
 30
0.0
 11
632.0026039262
 21
-286.7043034958
 31
0.0
  0
LINE
  5
267
  8
0
  6
CONTINUOUS
 62
     7
 10
636.0026039262
 20
-273.7043034958
 30
0.0
 11
632.0026039262
 21
-273.7043034958
 31
0.0
  0
ARC
  5
268
  8
0
  6
CONTINUOUS
 62
     7
 10
629.0026039262
 20
-287.2668034958
 30
0.0
 40
2.562500000001049
 50
12.6803834918
 51
38.6947399219
  0
ARC
  5
269
  8
0
  6
CONTINUOUS
 62
     7
 10
629.0026039262
 20
-273.1418034958
 30
0.0
 40
2.562500000002838
 50
321.3052600781
 51
347.3196165082
  0
LINE
  5
26A
  8
0
  6
CONTINUOUS
 62
     7
 10
632.0026039262
 20
-273.7043034958
 30
0.0
 11
631.5026039262
 21
-273.7043034958
 31
0.0
  0
LINE
  5
26B
  8
0
  6
CONTINUOUS
 62
     7
 10
631.5026039262
 20
-286.7043034958
 30
0.0
 11
632.0026039262
 21
-286.7043034958
 31
0.0
  0
LINE
  5
26C
  8
0
  6
CONTINUOUS
 62
     7
 10
636.0026039262
 20
-286.7043034958
 30
0.0
 11
637.0026039262
 21
-286.7043034958
 31
0.0
  0
LINE
  5
26D
  8
0
  6
CONTINUOUS
 62
     7
 10
637.0026039262
 20
-286.7043034958
 30
0.0
 11
637.0026039262
 21
-273.7043034958
 31
0.0
  0
LINE
  5
26E
  8
0
  6
CONTINUOUS
 62
     7
 10
637.0026039262
 20
-273.7043034958
 30
0.0
 11
636.0026039262
 21
-273.7043034958
 31
0.0
  0
LINE
  5
26F
  8
0
  6
CONTINUOUS
 62
     7
 10
625.5026039262
 20
-869.2043034958
 30
0.0
 11
625.5026039262
 21
-861.2043034958
 31
0.0
  0
LINE
  5
270
  8
0
  6
CONTINUOUS
 62
     7
 10
626.0026039262
 20
-868.7043034958
 30
0.0
 11
626.0026039262
 21
-861.7043034958
 31
0.0
  0
LINE
  5
271
  8
0
  6
CONTINUOUS
 62
     7
 10
629.0026039262
 20
-923.7043034958
 30
0.0
 11
629.0026039262
 21
1169.2956965042
 31
0.0
  0
LINE
  5
272
  8
0
  6
CONTINUOUS
 62
     7
 10
631.0026039262
 20
-923.7043034958
 30
0.0
 11
631.0026039262
 21
1169.2956965042
 31
0.0
  0
LINE
  5
273
  8
0
  6
CONTINUOUS
 62
     7
 10
631.0026039262
 20
-923.7043034958
 30
0.0
 11
629.0026039262
 21
-923.7043034958
 31
0.0
  0
LINE
  5
274
  8
0
  6
CONTINUOUS
 62
     7
 10
631.0026039262
 20
1169.2956965042
 30
0.0
 11
629.0026039262
 21
1169.2956965042
 31
0.0
  0
ARC
  5
275
  8
0
  6
CONTINUOUS
 62
     7
 10
619.5036457738
 20
1112.2436061187
 30
0.0
 40
57.97927133245521
 50
79.7396077872
 51
82.5686254089
  0
ARC
  5
276
  8
0
  6
CONTINUOUS
 62
     7
 10
619.5036457739
 20
-866.6522131106
 30
0.0
 40
57.97927133201215
 50
277.4313745911
 51
280.2603922128
  0
ARC
  5
277
  8
0
  6
CONTINUOUS
 62
     7
 10
622.9352457798
 20
-908.5850729325
 30
0.0
 40
16.08224988414509
 50
284.6497645351
 51
289.9284297887
  0
ARC
  5
278
  8
0
  6
CONTINUOUS
 62
     7
 10
622.9352457798
 20
1154.1764659409
 30
0.0
 40
16.08224988426749
 50
70.0715702114
 51
75.3502354649
  0
POLYLINE
  5
279
  8
0
  6
CONTINUOUS
 62
     7
 66
     1
 10
0.0
 20
0.0
 30
0.0
  0
VERTEX
  5
602
  8
0
  6
CONTINUOUS
 62
     7
 10
627.0026039262
 20
1169.7358797811
 30
0.0
  0
VERTEX
  5
603
  8
0
  6
CONTINUOUS
 62
     7
 10
627.0026039262
 20
1169.7358797811
 30
0.0
  0
SEQEND
  5
601
  8
0
  6
CONTINUOUS
 62
     7
  0
POLYLINE
  5
27A
  8
0
  6
CONTINUOUS
 62
     7
 66
     1
 10
0.0
 20
0.0
 30
0.0
  0
VERTEX
  5
605
  8
0
  6
CONTINUOUS
 62
     7
 10
627.0026039262
 20
-924.1444867726
 30
0.0
  0
VERTEX
  5
606
  8
0
  6
CONTINUOUS
 62
     7
 10
627.0026039262
 20
-924.1444867726
 30
0.0
  0
SEQEND
  5
604
  8
0
  6
CONTINUOUS
 62
     7
  0
ARC
  5
27B
  8
0
  6
CONTINUOUS
 62
     7
 10
600.5215230194
 20
1210.4507821024
 30
0.0
 40
8.538971696432199
 50
334.6562859143
 51
348.6399831497
  0
ARC
  5
27C
  8
0
  6
CONTINUOUS
 62
     7
 10
608.3526799564
 20
1208.1430259453
 30
0.0
 40
0.6625539110860409
 50
41.0086818029
 51
99.9084058848
  0
POLYLINE
  5
27D
  8
0
  6
CONTINUOUS
 62
     7
 66
     1
 10
0.0
 20
0.0
 30
0.0
  0
VERTEX
  5
608
  8
0
  6
CONTINUOUS
 62
     7
 10
604.0026037322
 20
-960.9682355183
 30
0.0
  0
VERTEX
  5
609
  8
0
  6
CONTINUOUS
 62
     7
 10
604.0893359431
 20
-960.6339056251
 30
0.0
  0
VERTEX
  5
60A
  8
0
  6
CONTINUOUS
 62
     7
 10
604.1501115143
 20
-960.5742614193
 30
0.0
  0
SEQEND
  5
607
  8
0
  6
CONTINUOUS
 62
     7
  0
ARC
  5
27E
  8
0
  6
CONTINUOUS
 62
     7
 10
604.3580125694
 20
-968.6517879521
 30
0.0
 40
8.504118070832533
 50
64.6232952054
 51
78.6746932942
  0
ARC
  5
27F
  8
0
  6
CONTINUOUS
 62
     7
 10
604.3580125694
 20
1214.2431809606
 30
0.0
 40
8.504118070800889
 50
281.325306706
 51
295.3767047946
  0
POLYLINE
  5
280
  8
0
  6
CONTINUOUS
 62
     7
 66
     1
 10
0.0
 20
0.0
 30
0.0
  0
VERTEX
  5
60C
  8
0
  6
CONTINUOUS
 62
     7
 10
604.1501115143
 20
1206.1656544278
 30
0.0
  0
VERTEX
  5
60D
  8
0
  6
CONTINUOUS
 62
     7
 10
604.0893359431
 20
1206.2252986336
 30
0.0
  0
VERTEX
  5
60E
  8
0
  6
CONTINUOUS
 62
     7
 10
604.0026037322
 20
1206.5596285267
 30
0.0
  0
SEQEND
  5
60B
  8
0
  6
CONTINUOUS
 62
     7
  0
LINE
  5
281
  8
0
  6
CONTINUOUS
 62
     7
 10
624.5026024068
 20
1170.2861092115
 30
0.0
 11
627.0026039262
 21
1169.7358797811
 31
0.0
  0
LINE
  5
282
  8
0
  6
CONTINUOUS
 62
     7
 10
624.5026024068
 20
-924.694716203
 30
0.0
 11
627.0026039262
 21
-924.1444867726
 31
0.0
  0
POLYLINE
  5
283
  8
0
  6
CONTINUOUS
 62
     7
 66
     1
 10
0.0
 20
0.0
 30
0.0
  0
VERTEX
  5
610
  8
0
  6
CONTINUOUS
 62
     7
 10
606.1560184077
 20
1206.0092987185
 30
0.0
  0
VERTEX
  5
611
  8
0
  6
CONTINUOUS
 62
     7
 10
606.0459698397
 20
1206.2252986336
 30
0.0
  0
VERTEX
  5
612
  8
0
  6
CONTINUOUS
 62
     7
 10
606.0026037322
 20
1206.5596285267
 30
0.0
  0
SEQEND
  5
60F
  8
0
  6
CONTINUOUS
 62
     7
  0
ARC
  5
284
  8
0
  6
CONTINUOUS
 62
     7
 10
600.7732661003
 20
-964.7819845109
 30
0.0
 40
8.278410792901
 50
13.4030950947
 51
25.6053545285
  0
ARC
  5
285
  8
0
  6
CONTINUOUS
 62
     7
 10
608.3526801402
 20
-962.5516329451
 30
0.0
 40
0.662553934504183
 50
260.091578339
 51
318.9910622166
  0
ARC
  5
286
  8
0
  6
CONTINUOUS
 62
     7
 10
606.6556933651
 20
-960.8544590504
 30
0.0
 40
0.6629262050492201
 50
131.0351072586
 51
189.8824676634
  0
ARC
  5
287
  8
0
  6
CONTINUOUS
 62
     7
 10
608.0026039262
 20
-961.2043034958
 30
0.0
 40
2.000000758792339
 50
180.0
 51
269.9999999999
  0
LINE
  5
288
  8
0
  6
CONTINUOUS
 62
     7
 10
604.0026031674
 20
1206.7956965042
 30
0.0
 11
604.0792095312
 21
1207.5290450891
 31
0.0
  0
ARC
  5
289
  8
0
  6
CONTINUOUS
 62
     7
 10
608.0026039262
 20
1206.7956965042
 30
0.0
 40
2.000000758792339
 50
90.0
 51
180.0
  0
POLYLINE
  5
28A
  8
0
  6
HIDDEN
 62
     7
 66
     1
 10
0.0
 20
0.0
 30
0.0
  0
VERTEX
  5
614
  8
0
  6
HIDDEN
 62
     7
 10
608.831031051
 20
-962.2043034958
 30
0.0
  0
VERTEX
  5
615
  8
0
  6
HIDDEN
 62
     7
 10
608.831031051
 20
-962.2043034958
 30
0.0
  0
SEQEND
  5
613
  8
0
  6
HIDDEN
 62
     7
  0
POLYLINE
  5
28B
  8
0
  6
HIDDEN
 62
     7
 66
     1
 10
0.0
 20
0.0
 30
0.0
  0
VERTEX
  5
617
  8
0
  6
HIDDEN
 62
     7
 10
608.831031051
 20
1207.7956965042
 30
0.0
  0
VERTEX
  5
618
  8
0
  6
HIDDEN
 62
     7
 10
608.831031051
 20
1207.7956965042
 30
0.0
  0
SEQEND
  5
616
  8
0
  6
HIDDEN
 62
     7
  0
POLYLINE
  5
28C
  8
0
  6
HIDDEN
 62
     7
 66
     1
 10
0.0
 20
0.0
 30
0.0
  0
VERTEX
  5
61A
  8
0
  6
HIDDEN
 62
     7
 10
607.0026039262
 20
1205.9672693795
 30
0.0
  0
VERTEX
  5
61B
  8
0
  6
HIDDEN
 62
     7
 10
607.0026039262
 20
1205.9672693795
 30
0.0
  0
SEQEND
  5
619
  8
0
  6
HIDDEN
 62
     7
  0
POLYLINE
  5
28D
  8
0
  6
HIDDEN
 62
     7
 66
     1
 10
0.0
 20
0.0
 30
0.0
  0
VERTEX
  5
61D
  8
0
  6
HIDDEN
 62
     7
 10
607.0026039262
 20
-960.375876371
 30
0.0
  0
VERTEX
  5
61E
  8
0
  6
HIDDEN
 62
     7
 10
607.0026039262
 20
-960.375876371
 30
0.0
  0
SEQEND
  5
61C
  8
0
  6
HIDDEN
 62
     7
  0
LINE
  5
28E
  8
0
  6
HIDDEN
 62
     7
 10
624.5026039262
 20
-963.2043034958
 30
0.0
 11
608.831031051
 21
-963.2043034958
 31
0.0
  0
LINE
  5
28F
  8
0
  6
HIDDEN
 62
     7
 10
606.0026039262
 20
1205.9672693795
 30
0.0
 11
606.0026039262
 21
-960.375876371
 31
0.0
  0
LINE
  5
290
  8
0
  6
HIDDEN
 62
     7
 10
624.5026039262
 20
1208.7956965042
 30
0.0
 11
608.831031051
 21
1208.7956965042
 31
0.0
  0
LINE
  5
291
  8
0
  6
HIDDEN
 62
     7
 10
615.2526039262
 20
1208.7956965042
 30
0.0
 11
615.2526039262
 21
1210.7956965043
 31
0.0
  0
LINE
  5
292
  8
0
  6
HIDDEN
 62
     7
 10
615.2526039262
 20
-963.2043034958
 30
0.0
 11
615.2526039262
 21
-965.2043034958
 31
0.0
  0
LINE
  5
293
  8
0
  6
HIDDEN
 62
     7
 10
615.2526039262
 20
-963.2043034958
 30
0.0
 11
615.2526039262
 21
-965.2043034958
 31
0.0
  0
LINE
  5
294
  8
0
  6
HIDDEN
 62
     7
 10
615.2526039262
 20
1208.7956965042
 30
0.0
 11
615.2526039262
 21
1210.7956965043
 31
0.0
  0
LINE
  5
295
  8
0
  6
HIDDEN
 62
     7
 10
608.5061374128
 20
509.7956965042
 30
0.0
 11
608.5061374128
 21
514.3125354704
 31
0.0
  0
LINE
  5
296
  8
0
  6
HIDDEN
 62
     7
 10
608.5061374128
 20
505.2788575381
 30
0.0
 11
608.5061374128
 21
509.7956965042
 31
0.0
  0
LINE
  5
297
  8
0
  6
HIDDEN
 62
     7
 10
608.5061374128
 20
1114.7956965042
 30
0.0
 11
608.5061374128
 21
1119.3125354704
 31
0.0
  0
LINE
  5
298
  8
0
  6
HIDDEN
 62
     7
 10
608.5061374128
 20
1110.2788575381
 30
0.0
 11
608.5061374128
 21
1114.7956965042
 31
0.0
  0
LINE
  5
299
  8
0
  6
HIDDEN
 62
     7
 10
608.5061374128
 20
-885.2043034958
 30
0.0
 11
608.5061374128
 21
-880.6874645296
 31
0.0
  0
LINE
  5
29A
  8
0
  6
HIDDEN
 62
     7
 10
608.5061374128
 20
-889.7211424619
 30
0.0
 11
608.5061374128
 21
-885.2043034958
 31
0.0
  0
LINE
  5
29B
  8
0
  6
HIDDEN
 62
     7
 10
608.5061374128
 20
-280.2043034958
 30
0.0
 11
608.5061374128
 21
-275.6874645296
 31
0.0
  0
LINE
  5
29C
  8
0
  6
HIDDEN
 62
     7
 10
608.5061374128
 20
-284.7211424619
 30
0.0
 11
608.5061374128
 21
-280.2043034958
 31
0.0
  0
LINE
  5
29D
  8
0
  6
HIDDEN
 62
     7
 10
607.2026039262
 20
509.7956965042
 30
0.0
 11
607.2026039262
 21
512.7956965042
 31
0.0
  0
LINE
  5
29E
  8
0
  6
HIDDEN
 62
     7
 10
607.2026039262
 20
506.7956965042
 30
0.0
 11
607.2026039262
 21
509.7956965042
 31
0.0
  0
LINE
  5
29F
  8
0
  6
HIDDEN
 62
     7
 10
607.2026039262
 20
-280.2043034958
 30
0.0
 11
607.2026039262
 21
-277.2043034958
 31
0.0
  0
LINE
  5
2A0
  8
0
  6
HIDDEN
 62
     7
 10
607.2026039262
 20
-283.2043034958
 30
0.0
 11
607.2026039262
 21
-280.2043034958
 31
0.0
  0
LINE
  5
2A1
  8
0
  6
HIDDEN
 62
     7
 10
607.2026039262
 20
-885.2043034958
 30
0.0
 11
607.2026039262
 21
-882.2043034958
 31
0.0
  0
LINE
  5
2A2
  8
0
  6
HIDDEN
 62
     7
 10
607.2026039262
 20
-888.2043034958
 30
0.0
 11
607.2026039262
 21
-885.2043034958
 31
0.0
  0
LINE
  5
2A3
  8
0
  6
HIDDEN
 62
     7
 10
607.2026039262
 20
1114.7956965042
 30
0.0
 11
607.2026039262
 21
1117.7956965042
 31
0.0
  0
LINE
  5
2A4
  8
0
  6
HIDDEN
 62
     7
 10
607.2026039262
 20
1111.7956965042
 30
0.0
 11
607.2026039262
 21
1114.7956965042
 31
0.0
  0
LINE
  5
2A5
  8
0
  6
HIDDEN
 62
     7
 10
608.5061374128
 20
1189.7956965042
 30
0.0
 11
608.5061374128
 21
1194.3125354704
 31
0.0
  0
LINE
  5
2A6
  8
0
  6
HIDDEN
 62
     7
 10
608.5061374128
 20
1185.2788575381
 30
0.0
 11
608.5061374128
 21
1189.7956965042
 31
0.0
  0
LINE
  5
2A7
  8
0
  6
HIDDEN
 62
     7
 10
608.5061374128
 20
-944.2043034958
 30
0.0
 11
608.5061374128
 21
-948.7211424619
 31
0.0
  0
LINE
  5
2A8
  8
0
  6
HIDDEN
 62
     7
 10
608.5061374128
 20
-939.6874645296
 30
0.0
 11
608.5061374128
 21
-944.2043034958
 31
0.0
  0
LINE
  5
2A9
  8
0
  6
HIDDEN
 62
     7
 10
607.2026039262
 20
1189.7956965042
 30
0.0
 11
607.2026039262
 21
1192.7956965042
 31
0.0
  0
LINE
  5
2AA
  8
0
  6
HIDDEN
 62
     7
 10
607.2026039262
 20
1186.7956965042
 30
0.0
 11
607.2026039262
 21
1189.7956965042
 31
0.0
  0
LINE
  5
2AB
  8
0
  6
HIDDEN
 62
     7
 10
607.2026039262
 20
-944.2043034958
 30
0.0
 11
607.2026039262
 21
-947.2043034958
 31
0.0
  0
LINE
  5
2AC
  8
0
  6
HIDDEN
 62
     7
 10
607.2026039262
 20
-941.2043034958
 30
0.0
 11
607.2026039262
 21
-944.2043034958
 31
0.0
  0
POLYLINE
  5
2AD
  8
0
  6
HIDDEN
 62
     7
 66
     1
 10
0.0
 20
0.0
 30
0.0
  0
VERTEX
  5
620
  8
0
  6
HIDDEN
 62
     7
 10
608.831031051
 20
-962.2043034958
 30
0.0
  0
VERTEX
  5
621
  8
0
  6
HIDDEN
 62
     7
 10
608.831031051
 20
-962.2043034958
 30
0.0
  0
SEQEND
  5
61F
  8
0
  6
HIDDEN
 62
     7
  0
POLYLINE
  5
2AE
  8
0
  6
HIDDEN
 62
     7
 66
     1
 10
0.0
 20
0.0
 30
0.0
  0
VERTEX
  5
623
  8
0
  6
HIDDEN
 62
     7
 10
607.0026039262
 20
-960.375876371
 30
0.0
  0
VERTEX
  5
624
  8
0
  6
HIDDEN
 62
     7
 10
607.0026039262
 20
-960.375876371
 30
0.0
  0
SEQEND
  5
622
  8
0
  6
HIDDEN
 62
     7
  0
POLYLINE
  5
2AF
  8
0
  6
HIDDEN
 62
     7
 66
     1
 10
0.0
 20
0.0
 30
0.0
  0
VERTEX
  5
626
  8
0
  6
HIDDEN
 62
     7
 10
608.831031051
 20
1207.7956965042
 30
0.0
  0
VERTEX
  5
627
  8
0
  6
HIDDEN
 62
     7
 10
608.831031051
 20
1207.7956965042
 30
0.0
  0
SEQEND
  5
625
  8
0
  6
HIDDEN
 62
     7
  0
POLYLINE
  5
2B0
  8
0
  6
HIDDEN
 62
     7
 66
     1
 10
0.0
 20
0.0
 30
0.0
  0
VERTEX
  5
629
  8
0
  6
HIDDEN
 62
     7
 10
607.0026039262
 20
1205.9672693795
 30
0.0
  0
VERTEX
  5
62A
  8
0
  6
HIDDEN
 62
     7
 10
607.0026039262
 20
1205.9672693795
 30
0.0
  0
SEQEND
  5
628
  8
0
  6
HIDDEN
 62
     7
  0
ARC
  5
2B1
  8
0
  6
HIDDEN
 62
     7
 10
624.5026039262
 20
1191.156228586
 30
0.0
 40
2.000000000000227
 50
90.0
 51
147.0647695028
  0
ARC
  5
2B2
  8
0
  6
HIDDEN
 62
     7
 10
612.7526039262
 20
1198.7678972599
 30
0.0
 40
12.00000000000015
 50
273.1847385367
 51
327.0647695028
  0
ARC
  5
2B3
  8
0
  6
HIDDEN
 62
     7
 10
613.7526039262
 20
1180.7956965042
 30
0.0
 40
6.0
 50
93.1847385367
 51
180.0
  0
LINE
  5
2B4
  8
0
  6
HIDDEN
 62
     7
 10
607.7526039262
 20
1180.7956965042
 30
0.0
 11
607.7526039262
 21
1178.7956965042
 31
0.0
  0
ARC
  5
2B5
  8
0
  6
HIDDEN
 62
     7
 10
613.7526039262
 20
1178.7956965042
 30
0.0
 40
6.00000000000006
 50
180.0
 51
257.6311073949
  0
LINE
  5
2B6
  8
0
  6
HIDDEN
 62
     7
 10
612.4673737203
 20
1172.934964185
 30
0.0
 11
624.5026039262
 21
1170.2956965042
 31
0.0
  0
LINE
  5
2B7
  8
0
  6
HIDDEN
 62
     7
 10
612.4673737203
 20
-927.3435711765
 30
0.0
 11
624.5026039262
 21
-924.7043034958
 31
0.0
  0
ARC
  5
2B8
  8
0
  6
HIDDEN
 62
     7
 10
613.7526039262
 20
-933.2043034958
 30
0.0
 40
5.999999999999886
 50
102.3688926051
 51
180.0
  0
LINE
  5
2B9
  8
0
  6
HIDDEN
 62
     7
 10
607.7526039262
 20
-935.2043034958
 30
0.0
 11
607.7526039262
 21
-933.2043034958
 31
0.0
  0
ARC
  5
2BA
  8
0
  6
HIDDEN
 62
     7
 10
613.7526039262
 20
-935.2043034958
 30
0.0
 40
6.000000000000076
 50
180.0
 51
266.8152614633
  0
ARC
  5
2BB
  8
0
  6
HIDDEN
 62
     7
 10
612.7526039262
 20
-953.1765042514
 30
0.0
 40
11.99999999999987
 50
32.9352304972
 51
86.8152614633
  0
ARC
  5
2BC
  8
0
  6
HIDDEN
 62
     7
 10
624.5026039262
 20
-945.5648355775
 30
0.0
 40
2.000000000000114
 50
212.9352304972
 51
270.0
  0
LINE
  5
2BD
  8
0
  6
HIDDEN
 62
     7
 10
623.5026039262
 20
1169.2956965042
 30
0.0
 11
624.5026039262
 21
1169.2956965042
 31
0.0
  0
LINE
  5
2BE
  8
0
  6
HIDDEN
 62
     7
 10
623.5026039262
 20
-923.7043034958
 30
0.0
 11
624.5026039262
 21
-923.7043034958
 31
0.0
  0
LINE
  5
2BF
  8
0
  6
HIDDEN
 62
     7
 10
631.5026039262
 20
516.2956965042
 30
0.0
 11
631.5026039262
 21
503.2956965042
 31
0.0
  0
LINE
  5
2C0
  8
0
  6
HIDDEN
 62
     7
 10
636.5026039262
 20
516.2956965042
 30
0.0
 11
636.5026039262
 21
503.2956965042
 31
0.0
  0
ARC
  5
2C1
  8
0
  6
HIDDEN
 62
     7
 10
629.0026039262
 20
502.7331965042
 30
0.0
 40
2.562499999997281
 50
38.6947399219
 51
54.1711598996
  0
ARC
  5
2C2
  8
0
  6
HIDDEN
 62
     7
 10
629.0026039262
 20
516.8581965043
 30
0.0
 40
2.562500000026163
 50
305.8288401005
 51
321.305260078
  0
ARC
  5
2C3
  8
0
  6
HIDDEN
 62
     7
 10
629.0026039262
 20
502.7331965043
 30
0.0
 40
2.562499999982776
 50
78.7481522707
 51
90.0
  0
ARC
  5
2C4
  8
0
  6
HIDDEN
 62
     7
 10
629.0026039262
 20
516.8581965043
 30
0.0
 40
2.562500000010573
 50
270.0
 51
281.2518477293
  0
ARC
  5
2C5
  8
0
  6
HIDDEN
 62
     7
 10
629.0026039262
 20
502.7331965042
 30
0.0
 40
2.562500000000051
 50
54.1711598996
 51
78.7481522707
  0
ARC
  5
2C6
  8
0
  6
HIDDEN
 62
     7
 10
629.0026039262
 20
516.8581965042
 30
0.0
 40
2.562499999999913
 50
281.2518477293
 51
305.8288401004
  0
LINE
  5
2C7
  8
0
  6
HIDDEN
 62
     7
 10
631.0026039262
 20
504.3214559236
 30
0.0
 11
630.7078516652
 21
504.6451402929
 31
0.0
  0
LINE
  5
2C8
  8
0
  6
HIDDEN
 62
     7
 10
631.0026039262
 20
515.2699370849
 30
0.0
 11
630.7078516652
 21
514.9462527155
 31
0.0
  0
LINE
  5
2C9
  8
0
  6
HIDDEN
 62
     7
 10
631.5026039262
 20
-273.7043034958
 30
0.0
 11
631.5026039262
 21
-286.7043034958
 31
0.0
  0
LINE
  5
2CA
  8
0
  6
HIDDEN
 62
     7
 10
636.5026039262
 20
-273.7043034958
 30
0.0
 11
636.5026039262
 21
-286.7043034958
 31
0.0
  0
ARC
  5
2CB
  8
0
  6
HIDDEN
 62
     7
 10
629.0026039262
 20
-287.2668034958
 30
0.0
 40
2.562500000019784
 50
38.6947399219
 51
54.1711598995
  0
ARC
  5
2CC
  8
0
  6
HIDDEN
 62
     7
 10
629.0026039262
 20
-273.1418034957
 30
0.0
 40
2.562500000019498
 50
305.8288401005
 51
321.3052600781
  0
ARC
  5
2CD
  8
0
  6
HIDDEN
 62
     7
 10
629.0026039262
 20
-287.2668034958
 30
0.0
 40
2.562500000011823
 50
78.7481522708
 51
90.0
  0
ARC
  5
2CE
  8
0
  6
HIDDEN
 62
     7
 10
629.0026039262
 20
-273.1418034957
 30
0.0
 40
2.562500000020293
 50
270.0
 51
281.2518477292
  0
ARC
  5
2CF
  8
0
  6
HIDDEN
 62
     7
 10
629.0026039262
 20
-287.2668034958
 30
0.0
 40
2.562500000000071
 50
54.1711598996
 51
78.7481522707
  0
ARC
  5
2D0
  8
0
  6
HIDDEN
 62
     7
 10
629.0026039262
 20
-273.1418034958
 30
0.0
 40
2.562500000000025
 50
281.2518477293
 51
305.8288401004
  0
LINE
  5
2D1
  8
0
  6
HIDDEN
 62
     7
 10
631.0658927572
 20
-285.7480451729
 30
0.0
 11
630.7078516652
 21
-285.3548597071
 31
0.0
  0
LINE
  5
2D2
  8
0
  6
HIDDEN
 62
     7
 10
631.0658927572
 20
-274.6605618186
 30
0.0
 11
630.7078516652
 21
-275.0537472845
 31
0.0
  0
ARC
  5
2D3
  8
0
  6
HIDDEN
 62
     7
 10
606.0026039262
 20
1178.7956965042
 30
0.0
 40
7.500000000000227
 50
270.0
 51
90.0
  0
ARC
  5
2D4
  8
0
  6
HIDDEN
 62
     7
 10
606.0026039262
 20
-933.2043034958
 30
0.0
 40
7.500000000000341
 50
270.0
 51
90.0
  0
LINE
  5
2D5
  8
0
  6
HIDDEN
 62
     7
 10
607.0026039262
 20
-870.2043034958
 30
0.0
 11
607.0026039262
 21
-860.2043034958
 31
0.0
  0
LINE
  5
2D6
  8
0
  6
HIDDEN
 62
     7
 10
631.0026039262
 20
514.2956965042
 30
0.0
 11
629.0026039262
 21
514.2956965042
 31
0.0
  0
LINE
  5
2D7
  8
0
  6
HIDDEN
 62
     7
 10
631.0026039262
 20
505.2956965042
 30
0.0
 11
629.0026039262
 21
505.2956965042
 31
0.0
  0
LINE
  5
2D8
  8
0
  6
HIDDEN
 62
     7
 10
631.0026039262
 20
-275.7043034958
 30
0.0
 11
629.0026039262
 21
-275.7043034958
 31
0.0
  0
LINE
  5
2D9
  8
0
  6
HIDDEN
 62
     7
 10
631.0026039262
 20
-284.7043034958
 30
0.0
 11
629.0026039262
 21
-284.7043034958
 31
0.0
  0
ARC
  5
2DA
  8
0
  6
HIDDEN
 62
     7
 10
612.7526039262
 20
1198.7678972599
 30
0.0
 40
12.00000000000001
 50
327.0647695028
 51
348.2841476051
  0
POLYLINE
  5
2DB
  8
0
  6
HIDDEN
 62
     7
 66
     1
 10
0.0
 20
0.0
 30
0.0
  0
VERTEX
  5
62C
  8
0
  6
HIDDEN
 62
     7
 10
608.2386719037
 20
1210.795697263
 30
0.0
  0
VERTEX
  5
62D
  8
0
  6
HIDDEN
 62
     7
 10
608.5727829824
 20
1210.7093407227
 30
0.0
  0
VERTEX
  5
62E
  8
0
  6
HIDDEN
 62
     7
 10
608.8114755017
 20
1210.4666335448
 30
0.0
  0
VERTEX
  5
62F
  8
0
  6
HIDDEN
 62
     7
 10
608.9547494614
 20
1210.0950781701
 30
0.0
  0
VERTEX
  5
630
  8
0
  6
HIDDEN
 62
     7
 10
609.0026048617
 20
1209.6241279152
 30
0.0
  0
VERTEX
  5
631
  8
0
  6
HIDDEN
 62
     7
 10
608.9549682759
 20
1209.0586330915
 30
0.0
  0
VERTEX
  5
632
  8
0
  6
HIDDEN
 62
     7
 10
608.8932065998
 20
1208.7688333329
 30
0.0
  0
SEQEND
  5
62B
  8
0
  6
HIDDEN
 62
     7
  0
POLYLINE
  5
2DC
  8
0
  6
HIDDEN
 62
     7
 66
     1
 10
0.0
 20
0.0
 30
0.0
  0
VERTEX
  5
634
  8
0
  6
HIDDEN
 62
     7
 10
608.2386719037
 20
1206.7956965042
 30
0.0
  0
VERTEX
  5
635
  8
0
  6
HIDDEN
 62
     7
 10
608.2386719037
 20
1206.7956965042
 30
0.0
  0
SEQEND
  5
633
  8
0
  6
HIDDEN
 62
     7
  0
ARC
  5
2DD
  8
0
  6
HIDDEN
 62
     7
 10
608.5916068607
 20
1208.2568822676
 30
0.0
 40
0.4136621310208133
 50
353.4514154574
 51
50.8720960917
  0
LINE
  5
2DE
  8
0
  6
HIDDEN
 62
     7
 10
608.0026039262
 20
1177.0817828541
 30
0.0
 11
607.6105353459
 21
1178.7956965042
 31
0.0
  0
LINE
  5
2DF
  8
0
  6
HIDDEN
 62
     7
 10
607.6105353459
 20
-933.2043034958
 30
0.0
 11
608.0026039262
 21
-931.4903898457
 31
0.0
  0
LINE
  5
2E0
  8
0
  6
HIDDEN
 62
     7
 10
607.6105353459
 20
-935.2043034958
 30
0.0
 11
607.6105353459
 21
-933.2043034958
 31
0.0
  0
LINE
  5
2E1
  8
0
  6
HIDDEN
 62
     7
 10
608.0026039262
 20
-936.9182171459
 30
0.0
 11
607.6105353459
 21
-935.2043034958
 31
0.0
  0
ARC
  5
2E2
  8
0
  6
HIDDEN
 62
     7
 10
605.3229771642
 20
-962.1267024045
 30
0.0
 40
1.945684158630179
 50
68.7538619416
 51
127.070964355
  0
ARC
  5
2E3
  8
0
  6
HIDDEN
 62
     7
 10
605.3055014485
 20
1207.5923548238
 30
0.0
 40
1.835864897008683
 50
230.9982844265
 51
293.1768892776
  0
LINE
  5
2E4
  8
0
  6
HIDDEN
 62
     7
 10
607.6105353459
 20
1180.7956965042
 30
0.0
 11
608.0026039262
 21
1182.5096101543
 31
0.0
  0
LINE
  5
2E5
  8
0
  6
HIDDEN
 62
     7
 10
607.6105353459
 20
1178.7956965042
 30
0.0
 11
607.6105353459
 21
1180.7956965042
 31
0.0
  0
LINE
  5
2E6
  8
0
  6
HIDDEN
 62
     7
 10
612.4629210465
 20
1172.9359424079
 30
0.0
 11
624.5026024068
 21
1170.2861092115
 31
0.0
  0
LINE
  5
2E7
  8
0
  6
HIDDEN
 62
     7
 10
612.4629210465
 20
-927.3445493994
 30
0.0
 11
624.5026024068
 21
-924.694716203
 31
0.0
  0
LINE
  5
2E8
  8
0
  6
HIDDEN
 62
     7
 10
606.0026039262
 20
1206.5596285267
 30
0.0
 11
604.0026037322
 21
1206.5596285267
 31
0.0
  0
ARC
  5
2E9
  8
0
  6
HIDDEN
 62
     7
 10
606.536954185
 20
1206.236093567
 30
0.0
 40
0.4433373092800567
 50
210.7679792246
 51
276.6403737457
  0
POLYLINE
  5
2EA
  8
0
  6
HIDDEN
 62
     7
 66
     1
 10
0.0
 20
0.0
 30
0.0
  0
VERTEX
  5
637
  8
0
  6
HIDDEN
 62
     7
 10
608.0026039262
 20
1206.5596285267
 30
0.0
  0
VERTEX
  5
638
  8
0
  6
HIDDEN
 62
     7
 10
608.0026039262
 20
1206.5596285267
 30
0.0
  0
SEQEND
  5
636
  8
0
  6
HIDDEN
 62
     7
  0
ARC
  5
2EB
  8
0
  6
HIDDEN
 62
     7
 10
612.7526039262
 20
-953.1765042514
 30
0.0
 40
12.00000000000001
 50
11.7158523949
 51
32.9352304971
  0
POLYLINE
  5
2EC
  8
0
  6
HIDDEN
 62
     7
 66
     1
 10
0.0
 20
0.0
 30
0.0
  0
VERTEX
  5
63A
  8
0
  6
HIDDEN
 62
     7
 10
608.0026039262
 20
-936.9182171459
 30
0.0
  0
VERTEX
  5
63B
  8
0
  6
HIDDEN
 62
     7
 10
608.0026039262
 20
-936.9182171459
 30
0.0
  0
SEQEND
  5
639
  8
0
  6
HIDDEN
 62
     7
  0
POLYLINE
  5
2ED
  8
0
  6
HIDDEN
 62
     7
 66
     1
 10
0.0
 20
0.0
 30
0.0
  0
VERTEX
  5
63D
  8
0
  6
HIDDEN
 62
     7
 10
608.0026039262
 20
1177.0817828541
 30
0.0
  0
VERTEX
  5
63E
  8
0
  6
HIDDEN
 62
     7
 10
608.0026039262
 20
1177.0817828541
 30
0.0
  0
SEQEND
  5
63C
  8
0
  6
HIDDEN
 62
     7
  0
POLYLINE
  5
2EE
  8
0
  6
HIDDEN
 62
     7
 66
     1
 10
0.0
 20
0.0
 30
0.0
  0
VERTEX
  5
640
  8
0
  6
HIDDEN
 62
     7
 10
608.0026039262
 20
-931.4903898457
 30
0.0
  0
VERTEX
  5
641
  8
0
  6
HIDDEN
 62
     7
 10
608.0026039262
 20
-931.4903898457
 30
0.0
  0
SEQEND
  5
63F
  8
0
  6
HIDDEN
 62
     7
  0
POLYLINE
  5
2EF
  8
0
  6
HIDDEN
 62
     7
 66
     1
 10
0.0
 20
0.0
 30
0.0
  0
VERTEX
  5
643
  8
0
  6
HIDDEN
 62
     7
 10
608.0026039262
 20
1182.5096101543
 30
0.0
  0
VERTEX
  5
644
  8
0
  6
HIDDEN
 62
     7
 10
608.0026039262
 20
1182.5096101543
 30
0.0
  0
SEQEND
  5
642
  8
0
  6
HIDDEN
 62
     7
  0
POLYLINE
  5
2F0
  8
0
  6
HIDDEN
 62
     7
 66
     1
 10
0.0
 20
0.0
 30
0.0
  0
VERTEX
  5
646
  8
0
  6
HIDDEN
 62
     7
 10
608.826200781
 20
-962.8630451463
 30
0.0
  0
VERTEX
  5
647
  8
0
  6
HIDDEN
 62
     7
 10
608.9549682739
 20
-963.4672479394
 30
0.0
  0
VERTEX
  5
648
  8
0
  6
HIDDEN
 62
     7
 10
609.0026048617
 20
-964.0327349067
 30
0.0
  0
VERTEX
  5
649
  8
0
  6
HIDDEN
 62
     7
 10
608.9547494615
 20
-964.5036851615
 30
0.0
  0
VERTEX
  5
64A
  8
0
  6
HIDDEN
 62
     7
 10
608.8114755017
 20
-964.8752405362
 30
0.0
  0
VERTEX
  5
64B
  8
0
  6
HIDDEN
 62
     7
 10
608.5727829825
 20
-965.1179477142
 30
0.0
  0
VERTEX
  5
64C
  8
0
  6
HIDDEN
 62
     7
 10
608.2386719037
 20
-965.2043042545
 30
0.0
  0
SEQEND
  5
645
  8
0
  6
HIDDEN
 62
     7
  0
POLYLINE
  5
2F1
  8
0
  6
HIDDEN
 62
     7
 66
     1
 10
0.0
 20
0.0
 30
0.0
  0
VERTEX
  5
64E
  8
0
  6
HIDDEN
 62
     7
 10
609.0025698222
 20
-962.6183114949
 30
0.0
  0
VERTEX
  5
64F
  8
0
  6
HIDDEN
 62
     7
 10
608.9547494615
 20
-962.8539946416
 30
0.0
  0
VERTEX
  5
650
  8
0
  6
HIDDEN
 62
     7
 10
608.8526481294
 20
-962.9863854332
 30
0.0
  0
SEQEND
  5
64D
  8
0
  6
HIDDEN
 62
     7
  0
POLYLINE
  5
2F2
  8
0
  6
HIDDEN
 62
     7
 66
     1
 10
0.0
 20
0.0
 30
0.0
  0
VERTEX
  5
652
  8
0
  6
HIDDEN
 62
     7
 10
608.2386719037
 20
-961.2043034958
 30
0.0
  0
VERTEX
  5
653
  8
0
  6
HIDDEN
 62
     7
 10
608.2386719037
 20
-961.2043034958
 30
0.0
  0
SEQEND
  5
651
  8
0
  6
HIDDEN
 62
     7
  0
POLYLINE
  5
2F3
  8
0
  6
HIDDEN
 62
     7
 66
     1
 10
0.0
 20
0.0
 30
0.0
  0
VERTEX
  5
655
  8
0
  6
HIDDEN
 62
     7
 10
606.2204681617
 20
-960.3544088773
 30
0.0
  0
VERTEX
  5
656
  8
0
  6
HIDDEN
 62
     7
 10
606.3534282183
 20
-960.2519391461
 30
0.0
  0
VERTEX
  5
657
  8
0
  6
HIDDEN
 62
     7
 10
606.5883921014
 20
-960.2043025603
 30
0.0
  0
VERTEX
  5
658
  8
0
  6
HIDDEN
 62
     7
 10
606.5882192781
 20
-960.2043375985
 30
0.0
  0
SEQEND
  5
654
  8
0
  6
HIDDEN
 62
     7
  0
LINE
  5
2F4
  8
0
  6
HIDDEN
 62
     7
 10
604.0026039262
 20
-960.9682355183
 30
0.0
 11
606.0026039262
 21
-960.9682355183
 31
0.0
  0
POLYLINE
  5
2F5
  8
0
  6
HIDDEN
 62
     7
 66
     1
 10
0.0
 20
0.0
 30
0.0
  0
VERTEX
  5
65A
  8
0
  6
HIDDEN
 62
     7
 10
608.0026039262
 20
-960.9682355183
 30
0.0
  0
VERTEX
  5
65B
  8
0
  6
HIDDEN
 62
     7
 10
608.0026039262
 20
-960.9682355183
 30
0.0
  0
SEQEND
  5
659
  8
0
  6
HIDDEN
 62
     7
  0
LINE
  5
2F6
  8
0
  6
HIDDEN
 62
     7
 10
607.8065696265
 20
1178.7956965042
 30
0.0
 11
607.8065696265
 21
1180.7956965042
 31
0.0
  0
LINE
  5
2F7
  8
0
  6
HIDDEN
 62
     7
 10
607.8065696265
 20
-935.2043034958
 30
0.0
 11
607.8065696265
 21
-933.2043034958
 31
0.0
  0
LINE
  5
2F8
  8
0
  6
HIDDEN
 62
     7
 10
606.0026039262
 20
1206.7956965042
 30
0.0
 11
604.0026031674
 21
1206.7956965042
 31
0.0
  0
LINE
  5
2F9
  8
0
  6
HIDDEN
 62
     7
 10
606.0026039262
 20
-961.2043034958
 30
0.0
 11
604.0026031674
 21
-961.2043034958
 31
0.0
  0
ARC
  5
2FA
  8
0
  6
HIDDEN
 62
     7
 10
608.0026039262
 20
-961.2043034958
 30
0.0
 40
4.000000758792339
 50
180.0
 51
269.9999999999
  0
ARC
  5
2FB
  8
0
  6
HIDDEN
 62
     7
 10
607.9877366081
 20
1206.8241419951
 30
0.0
 40
3.971583095381582
 50
89.7855171231
 51
169.7765999392
  0
POLYLINE
  5
2FC
  8
0
  6
HIDDEN
 62
     7
 66
     1
 10
0.0
 20
0.0
 30
0.0
  0
VERTEX
  5
65D
  8
0
  6
HIDDEN
 62
     7
 10
608.0026039262
 20
-960.9682355183
 30
0.0
  0
VERTEX
  5
65E
  8
0
  6
HIDDEN
 62
     7
 10
608.0026039262
 20
-960.9682355183
 30
0.0
  0
SEQEND
  5
65C
  8
0
  6
HIDDEN
 62
     7
  0
POLYLINE
  5
2FD
  8
0
  6
HIDDEN
 62
     7
 66
     1
 10
0.0
 20
0.0
 30
0.0
  0
VERTEX
  5
660
  8
0
  6
HIDDEN
 62
     7
 10
608.0026039262
 20
1206.5596285267
 30
0.0
  0
VERTEX
  5
661
  8
0
  6
HIDDEN
 62
     7
 10
608.0026039262
 20
1206.5596285267
 30
0.0
  0
SEQEND
  5
65F
  8
0
  6
HIDDEN
 62
     7
  0
POLYLINE
  5
2FE
  8
0
  6
HIDDEN
 62
     7
 66
     1
 10
0.0
 20
0.0
 30
0.0
  0
VERTEX
  5
663
  8
0
  6
HIDDEN
 62
     7
 10
608.2386719037
 20
1206.7956965042
 30
0.0
  0
VERTEX
  5
664
  8
0
  6
HIDDEN
 62
     7
 10
608.2386719037
 20
1206.7956965042
 30
0.0
  0
SEQEND
  5
662
  8
0
  6
HIDDEN
 62
     7
  0
POLYLINE
  5
2FF
  8
0
  6
HIDDEN
 62
     7
 66
     1
 10
0.0
 20
0.0
 30
0.0
  0
VERTEX
  5
666
  8
0
  6
HIDDEN
 62
     7
 10
608.2386719037
 20
-961.2043034958
 30
0.0
  0
VERTEX
  5
667
  8
0
  6
HIDDEN
 62
     7
 10
608.2386719037
 20
-961.2043034958
 30
0.0
  0
SEQEND
  5
665
  8
0
  6
HIDDEN
 62
     7
  0
LINE
  5
300
  8
0
  6
HIDDEN
 62
     7
 10
609.0021745565
 20
-964.3669097486
 30
0.0
 11
609.0021745568
 21
-962.9251700504
 31
0.0
  0
LINE
  5
301
  8
0
  6
HIDDEN
 62
     7
 10
609.0021786909
 20
1208.5165927292
 30
0.0
 11
609.0021786923
 21
1209.9583979974
 31
0.0
  0
LINE
  5
302
  8
0
  6
HIDDEN
 62
     7
 10
604.9235638286
 20
1205.7961217375
 30
0.0
 11
606.3095897526
 21
1205.7961217377
 31
0.0
  0
LINE
  5
303
  8
0
  6
HIDDEN
 62
     7
 10
606.3095586578
 20
-960.2047328705
 30
0.0
 11
604.9234667052
 21
-960.2047328704
 31
0.0
  0
ARC
  5
304
  8
0
  6
HIDDEN
 62
     7
 10
606.4726039262
 20
516.6798131287
 30
0.0
 40
0.469999999999995
 50
180.0
 51
229.3250604347
  0
ARC
  5
305
  8
0
  6
HIDDEN
 62
     7
 10
606.4726039262
 20
502.9115798798
 30
0.0
 40
0.4700000000000381
 50
130.6749395653
 51
180.0
  0
ARC
  5
306
  8
0
  6
HIDDEN
 62
     7
 10
606.4726039262
 20
516.6798131287
 30
0.0
 40
2.470000000000042
 50
180.0
 51
229.3250604347
  0
ARC
  5
307
  8
0
  6
HIDDEN
 62
     7
 10
606.4726039262
 20
502.9115798798
 30
0.0
 40
2.470000000000085
 50
130.6749395653
 51
180.0
  0
ARC
  5
308
  8
0
  6
HIDDEN
 62
     7
 10
606.4726039262
 20
-878.3201868713
 30
0.0
 40
2.470000000000214
 50
180.0
 51
229.3250604347
  0
ARC
  5
309
  8
0
  6
HIDDEN
 62
     7
 10
606.4726039262
 20
-892.0884201202
 30
0.0
 40
2.470000000000027
 50
130.6749395653
 51
180.0
  0
ARC
  5
30A
  8
0
  6
HIDDEN
 62
     7
 10
606.4726039262
 20
-273.3201868713
 30
0.0
 40
0.469999999999995
 50
180.0
 51
229.3250604347
  0
ARC
  5
30B
  8
0
  6
HIDDEN
 62
     7
 10
606.4726039262
 20
-287.0884201202
 30
0.0
 40
0.4699999999999519
 50
130.6749395653
 51
180.0
  0
ARC
  5
30C
  8
0
  6
HIDDEN
 62
     7
 10
606.4726039262
 20
-273.3201868713
 30
0.0
 40
2.470000000000042
 50
180.0
 51
229.3250604347
  0
ARC
  5
30D
  8
0
  6
HIDDEN
 62
     7
 10
606.4726039262
 20
-287.0884201202
 30
0.0
 40
2.470000000000027
 50
130.6749395653
 51
180.0
  0
ARC
  5
30E
  8
0
  6
HIDDEN
 62
     7
 10
606.4726039262
 20
1121.6798131287
 30
0.0
 40
0.469999999999995
 50
180.0
 51
229.3250604347
  0
ARC
  5
30F
  8
0
  6
HIDDEN
 62
     7
 10
606.4726039262
 20
1107.9115798798
 30
0.0
 40
0.469999999999995
 50
130.6749395653
 51
180.0
  0
ARC
  5
310
  8
0
  6
HIDDEN
 62
     7
 10
606.4726039262
 20
-878.3201868713
 30
0.0
 40
0.4699999999998226
 50
180.0
 51
229.3250604347
  0
ARC
  5
311
  8
0
  6
HIDDEN
 62
     7
 10
606.4726039262
 20
-892.0884201202
 30
0.0
 40
0.4699999999998226
 50
130.6749395653
 51
180.0
  0
ARC
  5
312
  8
0
  6
HIDDEN
 62
     7
 10
606.4726039262
 20
1121.6798131287
 30
0.0
 40
2.470000000000027
 50
180.0
 51
229.3250604347
  0
ARC
  5
313
  8
0
  6
HIDDEN
 62
     7
 10
606.4726039262
 20
1107.9115798798
 30
0.0
 40
2.470000000000128
 50
130.6749395653
 51
180.0
  0
LINE
  5
314
  8
0
  6
HIDDEN
 62
     7
 10
606.1662735569
 20
503.2680370369
 30
0.0
 11
608.5061374128
 21
505.2788575381
 31
0.0
  0
LINE
  5
315
  8
0
  6
HIDDEN
 62
     7
 10
608.5061374128
 20
514.3125354704
 30
0.0
 11
606.1662735569
 21
516.3233559716
 31
0.0
  0
LINE
  5
316
  8
0
  6
HIDDEN
 62
     7
 10
606.1662735569
 20
1108.2680370369
 30
0.0
 11
608.5061374128
 21
1110.2788575381
 31
0.0
  0
LINE
  5
317
  8
0
  6
HIDDEN
 62
     7
 10
608.5061374128
 20
1119.3125354704
 30
0.0
 11
606.1662735569
 21
1121.3233559716
 31
0.0
  0
LINE
  5
318
  8
0
  6
HIDDEN
 62
     7
 10
606.1662735569
 20
-891.7319629631
 30
0.0
 11
608.5061374128
 21
-889.7211424619
 31
0.0
  0
LINE
  5
319
  8
0
  6
HIDDEN
 62
     7
 10
608.5061374128
 20
-880.6874645296
 30
0.0
 11
606.1662735569
 21
-878.6766440284
 31
0.0
  0
LINE
  5
31A
  8
0
  6
HIDDEN
 62
     7
 10
606.1662735569
 20
-286.7319629631
 30
0.0
 11
608.5061374128
 21
-284.7211424619
 31
0.0
  0
LINE
  5
31B
  8
0
  6
HIDDEN
 62
     7
 10
608.5061374128
 20
-275.6874645296
 30
0.0
 11
606.1662735569
 21
-273.6766440284
 31
0.0
  0
LINE
  5
31C
  8
0
  6
HIDDEN
 62
     7
 10
604.8627400703
 20
504.7848760031
 30
0.0
 11
607.2026039262
 21
506.7956965042
 31
0.0
  0
LINE
  5
31D
  8
0
  6
HIDDEN
 62
     7
 10
607.2026039262
 20
512.7956965042
 30
0.0
 11
604.8627400703
 21
514.8065170054
 31
0.0
  0
LINE
  5
31E
  8
0
  6
HIDDEN
 62
     7
 10
604.8627400703
 20
-285.2151239969
 30
0.0
 11
607.2026039262
 21
-283.2043034958
 31
0.0
  0
LINE
  5
31F
  8
0
  6
HIDDEN
 62
     7
 10
607.2026039262
 20
-277.2043034958
 30
0.0
 11
604.8627400703
 21
-275.1934829946
 31
0.0
  0
LINE
  5
320
  8
0
  6
HIDDEN
 62
     7
 10
604.8627400703
 20
-890.2151239969
 30
0.0
 11
607.2026039262
 21
-888.2043034958
 31
0.0
  0
LINE
  5
321
  8
0
  6
HIDDEN
 62
     7
 10
607.2026039262
 20
-882.2043034958
 30
0.0
 11
604.8627400703
 21
-880.1934829946
 31
0.0
  0
LINE
  5
322
  8
0
  6
HIDDEN
 62
     7
 10
604.8627400703
 20
1109.7848760031
 30
0.0
 11
607.2026039262
 21
1111.7956965042
 31
0.0
  0
LINE
  5
323
  8
0
  6
HIDDEN
 62
     7
 10
607.2026039262
 20
1117.7956965042
 30
0.0
 11
604.8627400703
 21
1119.8065170054
 31
0.0
  0
LINE
  5
324
  8
0
  6
HIDDEN
 62
     7
 10
608.5061374128
 20
-275.6874645296
 30
0.0
 11
607.2026039262
 21
-277.2043034958
 31
0.0
  0
LINE
  5
325
  8
0
  6
HIDDEN
 62
     7
 10
607.2026039262
 20
-283.2043034958
 30
0.0
 11
608.5061374128
 21
-284.7211424619
 31
0.0
  0
LINE
  5
326
  8
0
  6
HIDDEN
 62
     7
 10
608.5061374128
 20
1119.3125354704
 30
0.0
 11
607.2026039262
 21
1117.7956965042
 31
0.0
  0
LINE
  5
327
  8
0
  6
HIDDEN
 62
     7
 10
607.2026039262
 20
1111.7956965042
 30
0.0
 11
608.5061374128
 21
1110.2788575381
 31
0.0
  0
LINE
  5
328
  8
0
  6
HIDDEN
 62
     7
 10
608.5061374128
 20
-880.6874645296
 30
0.0
 11
607.2026039262
 21
-882.2043034958
 31
0.0
  0
LINE
  5
329
  8
0
  6
HIDDEN
 62
     7
 10
607.2026039262
 20
-888.2043034958
 30
0.0
 11
608.5061374128
 21
-889.7211424619
 31
0.0
  0
LINE
  5
32A
  8
0
  6
HIDDEN
 62
     7
 10
608.5061374128
 20
514.3125354704
 30
0.0
 11
607.2026039262
 21
512.7956965042
 31
0.0
  0
LINE
  5
32B
  8
0
  6
HIDDEN
 62
     7
 10
607.2026039262
 20
506.7956965042
 30
0.0
 11
608.5061374128
 21
505.2788575381
 31
0.0
  0
ARC
  5
32C
  8
0
  6
HIDDEN
 62
     7
 10
606.4726039262
 20
1196.6798131287
 30
0.0
 40
2.470000000000128
 50
180.0
 51
229.3250604347
  0
ARC
  5
32D
  8
0
  6
HIDDEN
 62
     7
 10
606.4726039262
 20
1182.9115798798
 30
0.0
 40
2.470000000000027
 50
130.6749395653
 51
180.0
  0
ARC
  5
32E
  8
0
  6
HIDDEN
 62
     7
 10
606.4726039262
 20
-937.3201868713
 30
0.0
 40
2.4700000000003
 50
180.0
 51
229.3250604347
  0
ARC
  5
32F
  8
0
  6
HIDDEN
 62
     7
 10
606.4726039262
 20
-951.0884201202
 30
0.0
 40
2.470000000000027
 50
130.6749395653
 51
180.0
  0
ARC
  5
330
  8
0
  6
HIDDEN
 62
     7
 10
606.4726039262
 20
1196.6798131287
 30
0.0
 40
0.4699999999998226
 50
180.0
 51
229.3250604347
  0
ARC
  5
331
  8
0
  6
HIDDEN
 62
     7
 10
606.4726039262
 20
1182.9115798798
 30
0.0
 40
0.4699999999998226
 50
130.6749395653
 51
180.0
  0
ARC
  5
332
  8
0
  6
HIDDEN
 62
     7
 10
606.4726039262
 20
-937.3201868713
 30
0.0
 40
0.4699999999999088
 50
180.0
 51
229.3250604347
  0
ARC
  5
333
  8
0
  6
HIDDEN
 62
     7
 10
606.4726039262
 20
-951.0884201202
 30
0.0
 40
0.4699999999999088
 50
130.6749395653
 51
180.0
  0
LINE
  5
334
  8
0
  6
HIDDEN
 62
     7
 10
606.1662735569
 20
1183.2680370369
 30
0.0
 11
608.5061374128
 21
1185.2788575381
 31
0.0
  0
LINE
  5
335
  8
0
  6
HIDDEN
 62
     7
 10
608.5061374128
 20
1194.3125354704
 30
0.0
 11
606.1662735569
 21
1196.3233559716
 31
0.0
  0
LINE
  5
336
  8
0
  6
HIDDEN
 62
     7
 10
606.1662735569
 20
-950.7319629631
 30
0.0
 11
608.5061374128
 21
-948.7211424619
 31
0.0
  0
LINE
  5
337
  8
0
  6
HIDDEN
 62
     7
 10
608.5061374128
 20
-939.6874645296
 30
0.0
 11
606.1662735569
 21
-937.6766440284
 31
0.0
  0
LINE
  5
338
  8
0
  6
HIDDEN
 62
     7
 10
604.8627400703
 20
1184.7848760031
 30
0.0
 11
607.2026039262
 21
1186.7956965042
 31
0.0
  0
LINE
  5
339
  8
0
  6
HIDDEN
 62
     7
 10
607.2026039262
 20
1192.7956965042
 30
0.0
 11
604.8627400703
 21
1194.8065170054
 31
0.0
  0
LINE
  5
33A
  8
0
  6
HIDDEN
 62
     7
 10
604.8627400703
 20
-949.2151239969
 30
0.0
 11
607.2026039262
 21
-947.2043034958
 31
0.0
  0
LINE
  5
33B
  8
0
  6
HIDDEN
 62
     7
 10
607.2026039262
 20
-941.2043034958
 30
0.0
 11
604.8627400703
 21
-939.1934829946
 31
0.0
  0
LINE
  5
33C
  8
0
  6
HIDDEN
 62
     7
 10
608.5061374128
 20
1194.3125354704
 30
0.0
 11
607.2026039262
 21
1192.7956965042
 31
0.0
  0
LINE
  5
33D
  8
0
  6
HIDDEN
 62
     7
 10
607.2026039262
 20
1186.7956965042
 30
0.0
 11
608.5061374128
 21
1185.2788575381
 31
0.0
  0
LINE
  5
33E
  8
0
  6
HIDDEN
 62
     7
 10
608.5061374128
 20
-939.6874645296
 30
0.0
 11
607.2026039262
 21
-941.2043034958
 31
0.0
  0
LINE
  5
33F
  8
0
  6
HIDDEN
 62
     7
 10
607.2026039262
 20
-947.2043034958
 30
0.0
 11
608.5061374128
 21
-948.7211424619
 31
0.0
  0
LINE
  5
340
  8
0
  6
HIDDEN
 62
     7
 10
604.0026039262
 20
-282.7043034958
 30
0.0
 11
606.0026039262
 21
-282.7043034958
 31
0.0
  0
LINE
  5
341
  8
0
  6
HIDDEN
 62
     7
 10
606.0026039262
 20
-277.7043034958
 30
0.0
 11
604.0026039262
 21
-277.7043034958
 31
0.0
  0
LINE
  5
342
  8
0
  6
HIDDEN
 62
     7
 10
604.0026039262
 20
507.2956965042
 30
0.0
 11
606.0026039262
 21
507.2956965042
 31
0.0
  0
LINE
  5
343
  8
0
  6
HIDDEN
 62
     7
 10
606.0026039262
 20
512.2956965042
 30
0.0
 11
604.0026039262
 21
512.2956965042
 31
0.0
  0
LINE
  5
344
  8
0
  6
HIDDEN
 62
     7
 10
609.0021745516
 20
-964.2834411007
 30
0.0
 11
609.0021745515
 21
-962.8973491483
 31
0.0
  0
LINE
  5
345
  8
0
  6
HIDDEN
 62
     7
 10
609.0021745581
 20
-962.8973975288
 30
0.0
 11
609.0021745581
 21
-964.2835881671
 31
0.0
  0
LINE
  5
346
  8
0
  6
HIDDEN
 62
     7
 10
606.2817377719
 20
-960.2047328652
 30
0.0
 11
604.8399980752
 21
-960.2047328655
 31
0.0
  0
LINE
  5
347
  8
0
  6
HIDDEN
 62
     7
 10
609.0021787041
 20
1209.8746546556
 30
0.0
 11
609.0021787035
 21
1208.4886871322
 31
0.0
  0
LINE
  5
348
  8
0
  6
HIDDEN
 62
     7
 10
609.0021786994
 20
1208.4887100733
 30
0.0
 11
609.0021786995
 21
1209.874734021
 31
0.0
  0
LINE
  5
349
  8
0
  6
HIDDEN
 62
     7
 10
604.8399030533
 20
1205.796121745
 30
0.0
 11
606.2817081714
 21
1205.7961217465
 31
0.0
  0
LINE
  5
34A
  8
0
  6
HIDDEN
 62
     7
 10
623.5026039262
 20
1169.2956965042
 30
0.0
 11
623.5026039262
 21
-923.7043034958
 31
0.0
  0
LINE
  5
34B
  8
0
  6
HIDDEN
 62
     7
 10
631.5026039262
 20
506.7956965042
 30
0.0
 11
637.0026039262
 21
506.7956965042
 31
0.0
  0
LINE
  5
34C
  8
0
  6
HIDDEN
 62
     7
 10
637.0026039262
 20
512.7956965042
 30
0.0
 11
631.5026039262
 21
512.7956965042
 31
0.0
  0
LINE
  5
34D
  8
0
  6
HIDDEN
 62
     7
 10
631.5026039262
 20
-283.2043034958
 30
0.0
 11
637.0026039262
 21
-283.2043034958
 31
0.0
  0
LINE
  5
34E
  8
0
  6
HIDDEN
 62
     7
 10
637.0026039262
 20
-277.2043034958
 30
0.0
 11
631.5026039262
 21
-277.2043034958
 31
0.0
  0
LINE
  5
34F
  8
0
  6
HIDDEN
 62
     7
 10
613.5026039262
 20
1166.2956965042
 30
0.0
 11
613.5026039262
 21
1178.7956965042
 31
0.0
  0
LINE
  5
350
  8
0
  6
HIDDEN
 62
     7
 10
613.5026039262
 20
-920.7043034958
 30
0.0
 11
613.5026039262
 21
1166.2956965042
 31
0.0
  0
LINE
  5
351
  8
0
  6
HIDDEN
 62
     7
 10
613.5026039262
 20
-933.2043034958
 30
0.0
 11
613.5026039262
 21
-920.7043034958
 31
0.0
  0
LINE
  5
352
  8
0
  6
HIDDEN
 62
     7
 10
606.0026039262
 20
-870.2043034958
 30
0.0
 11
607.0026039262
 21
-870.2043034958
 31
0.0
  0
LINE
  5
353
  8
0
  6
HIDDEN
 62
     7
 10
607.0026039262
 20
-860.2043034958
 30
0.0
 11
606.0026039262
 21
-860.2043034958
 31
0.0
  0
LINE
  5
354
  8
0
  6
HIDDEN
 62
     7
 10
607.0026039262
 20
-869.2043034958
 30
0.0
 11
624.5026039262
 21
-869.2043034958
 31
0.0
  0
LINE
  5
355
  8
0
  6
HIDDEN
 62
     7
 10
624.5026039262
 20
-861.2043034958
 30
0.0
 11
607.0026039262
 21
-861.2043034958
 31
0.0
  0
LINE
  5
356
  8
0
  6
HIDDEN
 62
     7
 10
609.0026049727
 20
1208.2095245241
 30
0.0
 11
609.0026049727
 21
1209.6233519984
 31
0.0
  0
LINE
  5
357
  8
0
  6
HIDDEN
 62
     7
 10
605.1734047184
 20
1205.7956954578
 30
0.0
 11
606.5880042645
 21
1205.7956954578
 31
0.0
  0
LINE
  5
358
  8
0
  6
HIDDEN
 62
     7
 10
609.0026049734
 20
-964.0319537893
 30
0.0
 11
609.0026049734
 21
-962.6181289157
 31
0.0
  0
LINE
  5
359
  8
0
  6
HIDDEN
 62
     7
 10
606.5880016651
 20
-960.2043024486
 30
0.0
 11
605.1733995188
 21
-960.2043024486
 31
0.0
  0
LINE
  5
35A
  8
0
  6
HIDDEN
 62
     7
 10
606.5880416651
 20
-960.2043024486
 30
0.0
 11
606.5887788974
 21
-960.2043024486
 31
0.0
  0
LINE
  5
35B
  8
0
  6
HIDDEN
 62
     7
 10
606.5887788913
 20
-960.2043024486
 30
0.0
 11
606.5880416651
 21
-960.2043024486
 31
0.0
  0
LINE
  5
35C
  8
0
  6
HIDDEN
 62
     7
 10
606.5880442645
 20
1205.7956954578
 30
0.0
 11
606.5887762768
 21
1205.7956954578
 31
0.0
  0
LINE
  5
35D
  8
0
  6
HIDDEN
 62
     7
 10
606.5887762822
 20
1205.7956954578
 30
0.0
 11
606.5880442645
 21
1205.7956954578
 31
0.0
  0
LINE
  5
35E
  8
0
  6
HIDDEN
 62
     7
 10
609.0026049727
 20
1209.6233919984
 30
0.0
 11
609.0026049727
 21
1209.6248960835
 31
0.0
  0
LINE
  5
35F
  8
0
  6
HIDDEN
 62
     7
 10
609.0026049734
 20
-964.0335083026
 30
0.0
 11
609.0026049734
 21
-964.0319937893
 31
0.0
  0
LINE
  5
360
  8
0
  6
CONTINUOUS
 62
     7
 10
-642.568885047
 20
-1135.2994327019
 30
0.0
 11
-642.568885047
 21
-1136.2994327019
 31
0.0
  0
LINE
  5
361
  8
0
  6
CONTINUOUS
 62
     7
 10
-634.568885047
 20
-1136.2994327019
 30
0.0
 11
-634.568885047
 21
-1135.2994327019
 31
0.0
  0
LINE
  5
362
  8
0
  6
CONTINUOUS
 62
     7
 10
-642.568885047
 20
-1136.2994327019
 30
0.0
 11
-642.068885047
 21
-1136.7994327019
 31
0.0
  0
LINE
  5
363
  8
0
  6
CONTINUOUS
 62
     7
 10
-635.068885047
 20
-1136.7994327019
 30
0.0
 11
-634.568885047
 21
-1136.2994327019
 31
0.0
  0
LINE
  5
364
  8
0
  6
CONTINUOUS
 62
     7
 10
349.4311164724
 20
-1135.2994327019
 30
0.0
 11
349.4311164724
 21
-1136.2994327019
 31
0.0
  0
LINE
  5
365
  8
0
  6
CONTINUOUS
 62
     7
 10
357.4311164724
 20
-1136.2994327019
 30
0.0
 11
357.4311164724
 21
-1135.2994327019
 31
0.0
  0
LINE
  5
366
  8
0
  6
CONTINUOUS
 62
     7
 10
349.4311164724
 20
-1136.2994327019
 30
0.0
 11
349.9311164724
 21
-1136.7994327019
 31
0.0
  0
LINE
  5
367
  8
0
  6
CONTINUOUS
 62
     7
 10
356.9311164724
 20
-1136.7994327019
 30
0.0
 11
357.4311164724
 21
-1136.2994327019
 31
0.0
  0
LINE
  5
368
  8
0
  6
CONTINUOUS
 62
     7
 10
-734.4475647035
 20
-1118.9207530455
 30
0.0
 11
-727.318885047
 21
-1126.0494327019
 31
0.0
  0
LINE
  5
369
  8
0
  6
CONTINUOUS
 62
     7
 10
-727.318885047
 20
-1126.0494327019
 30
0.0
 11
-718.068885047
 21
-1126.0494327019
 31
0.0
  0
LINE
  5
36A
  8
0
  6
CONTINUOUS
 62
     7
 10
-718.068885047
 20
-1135.2994327019
 30
0.0
 11
-718.068885047
 21
-1126.0494327019
 31
0.0
  0
LINE
  5
36B
  8
0
  6
CONTINUOUS
 62
     7
 10
-735.568885047
 20
-1135.299432702
 30
0.0
 11
-718.068885047
 21
-1135.2994327019
 31
0.0
  0
ARC
  5
36C
  8
0
  6
CONTINUOUS
 62
     7
 10
-736.568885047
 20
-1116.799432702
 30
0.0
 40
3.000000000000148
 50
289.4712206345
 51
315.0
  0
ARC
  5
36D
  8
0
  6
CONTINUOUS
 62
     7
 10
-739.9027514072
 20
-1116.2994323222
 30
0.0
 40
6.342228483246202
 50
346.3193519017
 51
13.6806480983
  0
LINE
  5
36E
  8
0
  6
CONTINUOUS
 62
     7
 10
-733.7404579223
 20
-1114.799432702
 30
0.0
 11
-151.3973121718
 21
-1114.7994327019
 31
0.0
  0
ARC
  5
36F
  8
0
  6
CONTINUOUS
 62
     7
 10
-145.3259193075
 20
-1116.2994323222
 30
0.0
 40
6.253943751902762
 50
166.1223883575
 51
193.8776116426
  0
ARC
  5
370
  8
0
  6
CONTINUOUS
 62
     7
 10
-737.0688854268
 20
-1113.5564669603
 30
0.0
 40
6.253943753970954
 50
256.1223883621
 51
283.8776116379
  0
LINE
  5
371
  8
0
  6
CONTINUOUS
 62
     7
 10
-738.568885047
 20
-1119.6278598267
 30
0.0
 11
-736.568885047
 21
-1119.6278598267
 31
0.0
  0
LINE
  5
372
  8
0
  6
CONTINUOUS
 62
     7
 10
-738.5688858065
 20
-1135.299432702
 30
0.0
 11
-735.568885047
 21
-1135.299432702
 31
0.0
  0
LINE
  5
373
  8
0
  6
CONTINUOUS
 62
     7
 10
-738.568885047
 20
-1135.299432702
 30
0.0
 11
-738.568885047
 21
-1119.6278598267
 31
0.0
  0
LINE
  5
374
  8
0
  6
CONTINUOUS
 62
     7
 10
-151.3973121718
 20
-1114.7994327019
 30
0.0
 11
-151.3973121718
 21
-1116.7994327019
 31
0.0
  0
LINE
  5
375
  8
0
  6
CONTINUOUS
 62
     7
 10
-150.6902053906
 20
-1118.9207530455
 30
0.0
 11
-157.818885047
 21
-1126.0494327019
 31
0.0
  0
LINE
  5
376
  8
0
  6
CONTINUOUS
 62
     7
 10
-157.818885047
 20
-1126.0494327019
 30
0.0
 11
-167.068885047
 21
-1126.0494327019
 31
0.0
  0
LINE
  5
377
  8
0
  6
CONTINUOUS
 62
     7
 10
-167.068885047
 20
-1126.0494327019
 30
0.0
 11
-167.068885047
 21
-1135.2994327019
 31
0.0
  0
LINE
  5
378
  8
0
  6
CONTINUOUS
 62
     7
 10
-718.068885047
 20
-1135.2994327019
 30
0.0
 11
-167.068885047
 21
-1135.2994327019
 31
0.0
  0
LINE
  5
379
  8
0
  6
CONTINUOUS
 62
     7
 10
-718.068885047
 20
-1135.2994327019
 30
0.0
 11
-718.068885047
 21
-1126.0494327019
 31
0.0
  0
LINE
  5
37A
  8
0
  6
CONTINUOUS
 62
     7
 10
-718.068885047
 20
-1126.0494327019
 30
0.0
 11
-727.318885047
 21
-1126.0494327019
 31
0.0
  0
LINE
  5
37B
  8
0
  6
CONTINUOUS
 62
     7
 10
-727.318885047
 20
-1126.0494327019
 30
0.0
 11
-734.4475647035
 21
-1118.9207530455
 31
0.0
  0
ARC
  5
37C
  8
0
  6
CONTINUOUS
 62
     7
 10
-736.568885047
 20
-1116.799432702
 30
0.0
 40
3.000000000000097
 50
315.0
 51
340.5287793655
  0
ARC
  5
37D
  8
0
  6
CONTINUOUS
 62
     7
 10
-148.568885047
 20
-1116.7994327019
 30
0.0
 40
3.000000000000004
 50
199.4712206345
 51
225.0
  0
ARC
  5
37E
  8
0
  6
CONTINUOUS
 62
     7
 10
-148.0688846673
 20
-1113.4655663364
 30
0.0
 40
6.342228488413029
 50
256.3193519131
 51
283.6806480869
  0
LINE
  5
37F
  8
0
  6
CONTINUOUS
 62
     7
 10
-148.568885047
 20
-1119.6278598267
 30
0.0
 11
-146.568885047
 21
-1119.6278598267
 31
0.0
  0
LINE
  5
380
  8
0
  6
CONTINUOUS
 62
     7
 10
-146.568885047
 20
-1119.6278598267
 30
0.0
 11
-146.568885047
 21
-1135.2994327019
 31
0.0
  0
LINE
  5
381
  8
0
  6
CONTINUOUS
 62
     7
 10
-149.568885047
 20
-1135.2994327019
 30
0.0
 11
-146.5688842875
 21
-1135.2994327019
 31
0.0
  0
LINE
  5
382
  8
0
  6
CONTINUOUS
 62
     7
 10
-733.7404579223
 20
-1116.799432702
 30
0.0
 11
-733.7404579223
 21
-1114.7994319425
 31
0.0
  0
LINE
  5
383
  8
0
  6
CONTINUOUS
 62
     7
 10
-167.068885047
 20
-1135.2994327019
 30
0.0
 11
-149.568885047
 21
-1135.2994327019
 31
0.0
  0
LINE
  5
384
  8
0
  6
CONTINUOUS
 62
     7
 10
-167.068885047
 20
-1126.0494327019
 30
0.0
 11
-167.068885047
 21
-1135.2994327019
 31
0.0
  0
LINE
  5
385
  8
0
  6
CONTINUOUS
 62
     7
 10
-167.068885047
 20
-1126.0494327019
 30
0.0
 11
-157.818885047
 21
-1126.0494327019
 31
0.0
  0
LINE
  5
386
  8
0
  6
CONTINUOUS
 62
     7
 10
-157.818885047
 20
-1126.0494327019
 30
0.0
 11
-150.6902053906
 21
-1118.9207530455
 31
0.0
  0
ARC
  5
387
  8
0
  6
CONTINUOUS
 62
     7
 10
-148.568885047
 20
-1116.7994327019
 30
0.0
 40
3.000000000000078
 50
225.0
 51
250.5287793655
  0
LINE
  5
388
  8
0
  6
CONTINUOUS
 62
     7
 10
-149.568885047
 20
-1116.7994327019
 30
0.0
 11
-151.3973121718
 21
-1116.7994327019
 31
0.0
  0
LINE
  5
389
  8
0
  6
CONTINUOUS
 62
     7
 10
-149.568885047
 20
-1114.7994327019
 30
0.0
 11
-151.3973121718
 21
-1114.7994327019
 31
0.0
  0
LINE
  5
38A
  8
0
  6
CONTINUOUS
 62
     7
 10
-149.568885047
 20
-1114.7994327019
 30
0.0
 11
-149.568885047
 21
-1116.7994327019
 31
0.0
  0
LINE
  5
38B
  8
0
  6
CONTINUOUS
 62
     7
 10
-148.568885047
 20
-1119.6278598267
 30
0.0
 11
-148.568885047
 21
-1117.7994327019
 31
0.0
  0
LINE
  5
38C
  8
0
  6
CONTINUOUS
 62
     7
 10
-146.568885047
 20
-1117.7994327019
 30
0.0
 11
-148.568885047
 21
-1117.7994327019
 31
0.0
  0
LINE
  5
38D
  8
0
  6
CONTINUOUS
 62
     7
 10
-146.568885047
 20
-1119.6278598267
 30
0.0
 11
-146.568885047
 21
-1117.7994327019
 31
0.0
  0
LINE
  5
38E
  8
0
  6
CONTINUOUS
 62
     7
 10
-738.568885047
 20
-1117.799432702
 30
0.0
 11
-738.568885047
 21
-1119.6278598267
 31
0.0
  0
LINE
  5
38F
  8
0
  6
CONTINUOUS
 62
     7
 10
-736.568885047
 20
-1117.799432702
 30
0.0
 11
-738.5688852521
 21
-1117.799432702
 31
0.0
  0
LINE
  5
390
  8
0
  6
CONTINUOUS
 62
     7
 10
-736.568885047
 20
-1117.799432702
 30
0.0
 11
-736.568885047
 21
-1119.6278598267
 31
0.0
  0
LINE
  5
391
  8
0
  6
CONTINUOUS
 62
     7
 10
-733.7404579223
 20
-1114.799432702
 30
0.0
 11
-735.568885047
 21
-1114.799432702
 31
0.0
  0
LINE
  5
392
  8
0
  6
CONTINUOUS
 62
     7
 10
-733.7404579223
 20
-1116.799432702
 30
0.0
 11
-735.568885047
 21
-1116.799432702
 31
0.0
  0
LINE
  5
393
  8
0
  6
CONTINUOUS
 62
     7
 10
-735.568885047
 20
-1116.799432702
 30
0.0
 11
-735.568885047
 21
-1114.7994324969
 31
0.0
  0
ARC
  5
394
  8
0
  6
CONTINUOUS
 62
     7
 10
-735.568885047
 20
-1117.7994327019
 30
0.0
 40
3.000000205097763
 50
90.0
 51
180.0
  0
ARC
  5
395
  8
0
  6
CONTINUOUS
 62
     7
 10
-735.568885047
 20
-1117.799432702
 30
0.0
 40
1.00000020509799
 50
90.0
 51
180.0
  0
ARC
  5
396
  8
0
  6
CONTINUOUS
 62
     7
 10
-149.568885047
 20
-1117.7994327019
 30
0.0
 40
1.000000205098388
 50
0.0
 51
90.0
  0
ARC
  5
397
  8
0
  6
CONTINUOUS
 62
     7
 10
-149.568885047
 20
-1117.7994327019
 30
0.0
 40
3.000000205098331
 50
0.0
 51
90.0
  0
LINE
  5
398
  8
0
  6
CONTINUOUS
 62
     7
 10
-152.068885047
 20
-1139.799432702
 30
0.0
 11
-141.068885047
 21
-1139.799432702
 31
0.0
  0
ARC
  5
399
  8
0
  6
CONTINUOUS
 62
     7
 10
-146.568885047
 20
-1139.799432702
 30
0.0
 40
5.500000000000028
 50
0.0
 51
90.0
  0
ARC
  5
39A
  8
0
  6
CONTINUOUS
 62
     7
 10
-146.568885047
 20
-1139.799432702
 30
0.0
 40
5.5
 50
125.0968012274
 51
180.0
  0
ARC
  5
39B
  8
0
  6
CONTINUOUS
 62
     7
 10
-161.5512084052
 20
-1141.3756710195
 30
0.0
 40
0.9239307926661859
 50
268.9037503915
 51
332.6999137427
  0
LINE
  5
39C
  8
0
  6
CONTINUOUS
 62
     7
 10
-161.568885047
 20
-1142.299432702
 30
0.0
 11
-162.068885047
 21
-1142.299432702
 31
0.0
  0
LINE
  5
39D
  8
0
  6
CONTINUOUS
 62
     7
 10
-162.068885047
 20
-1142.299432702
 30
0.0
 11
-162.9349104508
 21
-1142.299432702
 31
0.0
  0
ARC
  5
39E
  8
0
  6
CONTINUOUS
 62
     7
 10
-162.068885047
 20
-1142.799432702
 30
0.0
 40
0.9999999999990905
 50
90.0
 51
150.0
  0
ARC
  5
39F
  8
0
  6
CONTINUOUS
 62
     7
 10
-151.611964177
 20
-1141.396347662
 30
0.0
 40
0.9041119404163036
 50
206.4767949501
 51
272.7310636398
  0
ARC
  5
3A0
  8
0
  6
CONTINUOUS
 62
     7
 10
-151.068885047
 20
-1142.799432702
 30
0.0
 40
1.000000000000227
 50
30.0
 51
90.0
  0
LINE
  5
3A1
  8
0
  6
CONTINUOUS
 62
     7
 10
-150.2028596433
 20
-1142.299432702
 30
0.0
 11
-151.068885047
 21
-1142.299432702
 31
0.0
  0
LINE
  5
3A2
  8
0
  6
CONTINUOUS
 62
     7
 10
-151.068885047
 20
-1142.299432702
 30
0.0
 11
-151.568885047
 21
-1142.299432702
 31
0.0
  0
ARC
  5
3A3
  8
0
  6
CONTINUOUS
 62
     7
 10
-151.068885047
 20
-1142.799432702
 30
0.0
 40
0.5
 50
0.0
 51
90.0
  0
ARC
  5
3A4
  8
0
  6
CONTINUOUS
 62
     7
 10
-151.068885047
 20
-1142.799432702
 30
0.0
 40
1.000000000000008
 50
0.0
 51
30.0
  0
ARC
  5
3A5
  8
0
  6
CONTINUOUS
 62
     7
 10
-162.068885047
 20
-1146.799432702
 30
0.0
 40
0.5
 50
180.0
 51
270.0
  0
ARC
  5
3A6
  8
0
  6
CONTINUOUS
 62
     7
 10
-162.068885047
 20
-1146.799432702
 30
0.0
 40
1.0
 50
180.0
 51
270.0
  0
LINE
  5
3A7
  8
0
  6
CONTINUOUS
 62
     7
 10
-163.068885047
 20
-1146.799432702
 30
0.0
 11
-163.068885047
 21
-1142.799432702
 31
0.0
  0
LINE
  5
3A8
  8
0
  6
CONTINUOUS
 62
     7
 10
-162.568885047
 20
-1142.799432702
 30
0.0
 11
-162.568885047
 21
-1146.799432702
 31
0.0
  0
LINE
  5
3A9
  8
0
  6
CONTINUOUS
 62
     7
 10
-150.568885047
 20
-1146.799432702
 30
0.0
 11
-150.568885047
 21
-1142.799432702
 31
0.0
  0
LINE
  5
3AA
  8
0
  6
CONTINUOUS
 62
     7
 10
-150.068885047
 20
-1142.799432702
 30
0.0
 11
-150.068885047
 21
-1146.799432702
 31
0.0
  0
LINE
  5
3AB
  8
0
  6
CONTINUOUS
 62
     7
 10
-151.068885047
 20
-1142.299432702
 30
0.0
 11
-151.068885047
 21
-1147.299432702
 31
0.0
  0
LINE
  5
3AC
  8
0
  6
CONTINUOUS
 62
     7
 10
-161.568885047
 20
-1142.299432702
 30
0.0
 11
-151.568885047
 21
-1142.299432702
 31
0.0
  0
LINE
  5
3AD
  8
0
  6
CONTINUOUS
 62
     7
 10
-162.068885047
 20
-1142.299432702
 30
0.0
 11
-162.068885047
 21
-1147.299432702
 31
0.0
  0
LINE
  5
3AE
  8
0
  6
CONTINUOUS
 62
     7
 10
-151.068885047
 20
-1147.799432702
 30
0.0
 11
-162.068885047
 21
-1147.799432702
 31
0.0
  0
ARC
  5
3AF
  8
0
  6
CONTINUOUS
 62
     7
 10
-162.068885047
 20
-1142.799432702
 30
0.0
 40
0.5
 50
90.0
 51
180.0
  0
ARC
  5
3B0
  8
0
  6
CONTINUOUS
 62
     7
 10
-162.068885047
 20
-1142.799432702
 30
0.0
 40
1.000000000000008
 50
150.0
 51
180.0
  0
ARC
  5
3B1
  8
0
  6
CONTINUOUS
 62
     7
 10
-151.068885047
 20
-1146.799432702
 30
0.0
 40
0.5
 50
270.0
 51
0.0
  0
ARC
  5
3B2
  8
0
  6
CONTINUOUS
 62
     7
 10
-151.068885047
 20
-1146.799432702
 30
0.0
 40
1.0
 50
270.0
 51
0.0
  0
LINE
  5
3B3
  8
0
  6
CONTINUOUS
 62
     7
 10
-161.568885047
 20
-1139.299432702
 30
0.0
 11
-163.068885047
 21
-1139.299432702
 31
0.0
  0
LINE
  5
3B4
  8
0
  6
CONTINUOUS
 62
     7
 10
-163.068885047
 20
-1139.799432702
 30
0.0
 11
-163.068885047
 21
-1139.299432702
 31
0.0
  0
ARC
  5
3B5
  8
0
  6
CONTINUOUS
 62
     7
 10
-161.568885047
 20
-1140.299432702
 30
0.0
 40
0.9999999999999836
 50
30.0
 51
90.0
  0
ARC
  5
3B6
  8
0
  6
CONTINUOUS
 62
     7
 10
-151.568885047
 20
-1140.299432702
 30
0.0
 40
1.000000000000066
 50
119.1647304529
 51
150.0
  0
LINE
  5
3B7
  8
0
  6
CONTINUOUS
 62
     7
 10
-136.568885047
 20
-1118.7994327019
 30
0.0
 11
-136.568885047
 21
-1116.7994327019
 31
0.0
  0
LINE
  5
3B8
  8
0
  6
CONTINUOUS
 62
     7
 10
-148.568885047
 20
-1117.8154683285
 30
0.0
 11
-148.568885047
 21
-1116.7994327019
 31
0.0
  0
LINE
  5
3B9
  8
0
  6
CONTINUOUS
 62
     7
 10
-642.568885047
 20
-1136.2994327019
 30
0.0
 11
-634.568885047
 21
-1136.2994327019
 31
0.0
  0
LINE
  5
3BA
  8
0
  6
CONTINUOUS
 62
     7
 10
-642.068885047
 20
-1136.7994327019
 30
0.0
 11
-635.068885047
 21
-1136.7994327019
 31
0.0
  0
LINE
  5
3BB
  8
0
  6
CONTINUOUS
 62
     7
 10
349.4311164724
 20
-1136.2994327019
 30
0.0
 11
357.4311164724
 21
-1136.2994327019
 31
0.0
  0
LINE
  5
3BC
  8
0
  6
CONTINUOUS
 62
     7
 10
349.9311164724
 20
-1136.7994327019
 30
0.0
 11
356.9311164724
 21
-1136.7994327019
 31
0.0
  0
ARC
  5
3BD
  8
0
  6
CONTINUOUS
 62
     7
 10
-136.568885047
 20
-1116.7994327019
 30
0.0
 40
2.999999999999755
 50
311.8103148958
 51
315.0
  0
LINE
  5
3BE
  8
0
  6
CONTINUOUS
 62
     7
 10
-134.4475647035
 20
-1118.9207530455
 30
0.0
 11
-127.318885047
 21
-1126.0494327019
 31
0.0
  0
LINE
  5
3BF
  8
0
  6
CONTINUOUS
 62
     7
 10
-127.318885047
 20
-1126.0494327019
 30
0.0
 11
-118.068885047
 21
-1126.0494327019
 31
0.0
  0
LINE
  5
3C0
  8
0
  6
CONTINUOUS
 62
     7
 10
-118.068885047
 20
-1135.2994327019
 30
0.0
 11
-118.068885047
 21
-1126.0494327019
 31
0.0
  0
LINE
  5
3C1
  8
0
  6
CONTINUOUS
 62
     7
 10
-118.068885047
 20
-1135.2994327019
 30
0.0
 11
-134.568885047
 21
-1135.2994327019
 31
0.0
  0
POLYLINE
  5
3C2
  8
0
  6
CONTINUOUS
 62
     7
 66
     1
 10
0.0
 20
0.0
 30
0.0
  0
VERTEX
  5
669
  8
0
  6
CONTINUOUS
 62
     7
 10
449.1950484949
 20
-1118.7994327019
 30
0.0
  0
VERTEX
  5
66A
  8
0
  6
CONTINUOUS
 62
     7
 10
448.8609374163
 20
-1117.9727556178
 30
0.0
  0
VERTEX
  5
66B
  8
0
  6
CONTINUOUS
 62
     7
 10
448.622244897
 20
-1117.2106509944
 30
0.0
  0
VERTEX
  5
66C
  8
0
  6
CONTINUOUS
 62
     7
 10
448.4789709373
 20
-1116.5379980483
 30
0.0
  0
VERTEX
  5
66D
  8
0
  6
CONTINUOUS
 62
     7
 10
448.4311155369
 20
-1115.9710087903
 30
0.0
  0
VERTEX
  5
66E
  8
0
  6
CONTINUOUS
 62
     7
 10
448.4787521227
 20
-1115.5010809815
 30
0.0
  0
VERTEX
  5
66F
  8
0
  6
CONTINUOUS
 62
     7
 10
448.6219531443
 20
-1115.129458699
 30
0.0
  0
VERTEX
  5
670
  8
0
  6
CONTINUOUS
 62
     7
 10
448.8607186017
 20
-1114.8861641668
 30
0.0
  0
VERTEX
  5
671
  8
0
  6
CONTINUOUS
 62
     7
 10
449.1950484949
 20
-1114.7994319432
 30
0.0
  0
SEQEND
  5
668
  8
0
  6
CONTINUOUS
 62
     7
  0
LINE
  5
3C3
  8
0
  6
CONTINUOUS
 62
     7
 10
449.1950484949
 20
-1114.7994327019
 30
0.0
 11
449.1950484949
 21
-1116.7994327019
 31
0.0
  0
ARC
  5
3C4
  8
0
  6
CONTINUOUS
 62
     7
 10
449.0812853245
 20
-1117.4525215396
 30
0.0
 40
0.6629238869941463
 50
80.1186640255
 51
138.9834988368
  0
LINE
  5
3C5
  8
0
  6
CONTINUOUS
 62
     7
 10
-138.5688858058
 20
-1135.2994327019
 30
0.0
 11
-134.568885047
 21
-1135.2994327019
 31
0.0
  0
LINE
  5
3C6
  8
0
  6
CONTINUOUS
 62
     7
 10
-138.568885047
 20
-1135.2994327019
 30
0.0
 11
-138.568885047
 21
-1119.0355006794
 31
0.0
  0
POLYLINE
  5
3C7
  8
0
  6
CONTINUOUS
 62
     7
 66
     1
 10
0.0
 20
0.0
 30
0.0
  0
VERTEX
  5
673
  8
0
  6
CONTINUOUS
 62
     7
 10
-134.568885047
 20
-1119.0355006794
 30
0.0
  0
VERTEX
  5
674
  8
0
  6
CONTINUOUS
 62
     7
 10
-135.3955621313
 20
-1119.3696117582
 30
0.0
  0
VERTEX
  5
675
  8
0
  6
CONTINUOUS
 62
     7
 10
-136.1576667547
 20
-1119.6083042774
 30
0.0
  0
VERTEX
  5
676
  8
0
  6
CONTINUOUS
 62
     7
 10
-136.8303197008
 20
-1119.7515782371
 30
0.0
  0
VERTEX
  5
677
  8
0
  6
CONTINUOUS
 62
     7
 10
-137.3973089587
 20
-1119.7994336374
 30
0.0
  0
VERTEX
  5
678
  8
0
  6
CONTINUOUS
 62
     7
 10
-137.8672367676
 20
-1119.7517970516
 30
0.0
  0
VERTEX
  5
679
  8
0
  6
CONTINUOUS
 62
     7
 10
-138.23885905
 20
-1119.60859603
 30
0.0
  0
VERTEX
  5
67A
  8
0
  6
CONTINUOUS
 62
     7
 10
-138.4821535822
 20
-1119.3698305726
 30
0.0
  0
VERTEX
  5
67B
  8
0
  6
CONTINUOUS
 62
     7
 10
-138.5688858058
 20
-1119.0355006794
 30
0.0
  0
SEQEND
  5
672
  8
0
  6
CONTINUOUS
 62
     7
  0
LINE
  5
3C8
  8
0
  6
CONTINUOUS
 62
     7
 10
449.3097959546
 20
-1118.9207528713
 30
0.0
 11
442.181114953
 21
-1126.0494327019
 31
0.0
  0
LINE
  5
3C9
  8
0
  6
CONTINUOUS
 62
     7
 10
442.181114953
 20
-1126.0494327019
 30
0.0
 11
432.931114953
 21
-1126.0494327019
 31
0.0
  0
LINE
  5
3CA
  8
0
  6
CONTINUOUS
 62
     7
 10
432.931114953
 20
-1126.0494327019
 30
0.0
 11
432.931114953
 21
-1135.2994327019
 31
0.0
  0
LINE
  5
3CB
  8
0
  6
CONTINUOUS
 62
     7
 10
-118.068885047
 20
-1135.2994327019
 30
0.0
 11
432.931114953
 21
-1135.2994327019
 31
0.0
  0
LINE
  5
3CC
  8
0
  6
CONTINUOUS
 62
     7
 10
-118.068885047
 20
-1135.2994327019
 30
0.0
 11
-118.068885047
 21
-1126.0494327019
 31
0.0
  0
LINE
  5
3CD
  8
0
  6
CONTINUOUS
 62
     7
 10
-118.068885047
 20
-1126.0494327019
 30
0.0
 11
-127.318885047
 21
-1126.0494327019
 31
0.0
  0
LINE
  5
3CE
  8
0
  6
CONTINUOUS
 62
     7
 10
-127.318885047
 20
-1126.0494327019
 30
0.0
 11
-134.4475647035
 21
-1118.9207530455
 31
0.0
  0
ARC
  5
3CF
  8
0
  6
CONTINUOUS
 62
     7
 10
-136.568885047
 20
-1116.7994327019
 30
0.0
 40
3.000000000000135
 50
315.0
 51
318.1896851042
  0
ARC
  5
3D0
  8
0
  6
CONTINUOUS
 62
     7
 10
451.4311164724
 20
-1116.7994327019
 30
0.0
 40
3.000000000000075
 50
221.8103148958
 51
224.9999952942
  0
LINE
  5
3D1
  8
0
  6
CONTINUOUS
 62
     7
 10
-138.568885047
 20
-1119.0355006794
 30
0.0
 11
-136.568885047
 21
-1119.0355006794
 31
0.0
  0
ARC
  5
3D2
  8
0
  6
CONTINUOUS
 62
     7
 10
-135.9157962094
 20
-1119.1492638498
 30
0.0
 40
0.6629238869558192
 50
170.1186640265
 51
228.9834988414
  0
POLYLINE
  5
3D3
  8
0
  6
CONTINUOUS
 62
     7
 66
     1
 10
0.0
 20
0.0
 30
0.0
  0
VERTEX
  5
67D
  8
0
  6
CONTINUOUS
 62
     7
 10
-134.3328170695
 20
-1114.7994319432
 30
0.0
  0
VERTEX
  5
67E
  8
0
  6
CONTINUOUS
 62
     7
 10
-133.9987059927
 20
-1114.8857865377
 30
0.0
  0
VERTEX
  5
67F
  8
0
  6
CONTINUOUS
 62
     7
 10
-133.7600134741
 20
-1115.1284906754
 30
0.0
  0
VERTEX
  5
680
  8
0
  6
CONTINUOUS
 62
     7
 10
-133.6167395137
 20
-1115.5000457133
 30
0.0
  0
VERTEX
  5
681
  8
0
  6
CONTINUOUS
 62
     7
 10
-133.5688841116
 20
-1115.971001291
 30
0.0
  0
VERTEX
  5
682
  8
0
  6
CONTINUOUS
 62
     7
 10
-133.6165206994
 20
-1116.5364882584
 30
0.0
  0
VERTEX
  5
683
  8
0
  6
CONTINUOUS
 62
     7
 10
-133.7597217216
 20
-1117.2084160536
 30
0.0
  0
VERTEX
  5
684
  8
0
  6
CONTINUOUS
 62
     7
 10
-133.9984871784
 20
-1117.9709697361
 30
0.0
  0
VERTEX
  5
685
  8
0
  6
CONTINUOUS
 62
     7
 10
-134.3328170695
 20
-1118.7994327019
 30
0.0
  0
SEQEND
  5
67C
  8
0
  6
CONTINUOUS
 62
     7
  0
LINE
  5
3D4
  8
0
  6
CONTINUOUS
 62
     7
 10
-134.3328170695
 20
-1114.7994327019
 30
0.0
 11
449.1950484949
 21
-1114.7994327019
 31
0.0
  0
POLYLINE
  5
3D5
  8
0
  6
CONTINUOUS
 62
     7
 66
     1
 10
0.0
 20
0.0
 30
0.0
  0
VERTEX
  5
687
  8
0
  6
CONTINUOUS
 62
     7
 10
453.4311172312
 20
-1119.0355006794
 30
0.0
  0
VERTEX
  5
688
  8
0
  6
CONTINUOUS
 62
     7
 10
453.3447626366
 20
-1119.3696117563
 30
0.0
  0
VERTEX
  5
689
  8
0
  6
CONTINUOUS
 62
     7
 10
453.102058499
 20
-1119.6083042749
 30
0.0
  0
VERTEX
  5
68A
  8
0
  6
CONTINUOUS
 62
     7
 10
452.7305034611
 20
-1119.7515782353
 30
0.0
  0
VERTEX
  5
68B
  8
0
  6
CONTINUOUS
 62
     7
 10
452.2595478833
 20
-1119.7994336374
 30
0.0
  0
VERTEX
  5
68C
  8
0
  6
CONTINUOUS
 62
     7
 10
451.694060916
 20
-1119.7517970496
 30
0.0
  0
VERTEX
  5
68D
  8
0
  6
CONTINUOUS
 62
     7
 10
451.0221331207
 20
-1119.6085960273
 30
0.0
  0
VERTEX
  5
68E
  8
0
  6
CONTINUOUS
 62
     7
 10
450.2595794383
 20
-1119.3698305706
 30
0.0
  0
VERTEX
  5
68F
  8
0
  6
CONTINUOUS
 62
     7
 10
449.4311164724
 20
-1119.0355006794
 30
0.0
  0
SEQEND
  5
686
  8
0
  6
CONTINUOUS
 62
     7
  0
ARC
  5
3D6
  8
0
  6
CONTINUOUS
 62
     7
 10
450.7784481613
 20
-1119.14952461
 30
0.0
 40
0.6625544290914839
 50
311.0276312388
 51
9.9097919217
  0
LINE
  5
3D7
  8
0
  6
CONTINUOUS
 62
     7
 10
451.4311164724
 20
-1119.0355006794
 30
0.0
 11
453.4311164724
 21
-1119.0355006794
 31
0.0
  0
LINE
  5
3D8
  8
0
  6
CONTINUOUS
 62
     7
 10
453.4311164724
 20
-1119.0355006794
 30
0.0
 11
453.4311164724
 21
-1135.2994311825
 31
0.0
  0
LINE
  5
3D9
  8
0
  6
CONTINUOUS
 62
     7
 10
449.4311164724
 20
-1135.2994311825
 30
0.0
 11
453.4311172312
 21
-1135.2994311825
 31
0.0
  0
LINE
  5
3DA
  8
0
  6
CONTINUOUS
 62
     7
 10
432.9311164724
 20
-1135.2994311825
 30
0.0
 11
449.4311164724
 21
-1135.2994311825
 31
0.0
  0
LINE
  5
3DB
  8
0
  6
CONTINUOUS
 62
     7
 10
432.9311164724
 20
-1126.0494311825
 30
0.0
 11
432.9311164724
 21
-1135.2994311825
 31
0.0
  0
LINE
  5
3DC
  8
0
  6
CONTINUOUS
 62
     7
 10
432.9311164724
 20
-1126.0494311825
 30
0.0
 11
442.1811164724
 21
-1126.0494311825
 31
0.0
  0
LINE
  5
3DD
  8
0
  6
CONTINUOUS
 62
     7
 10
442.1811164724
 20
-1126.0494311825
 30
0.0
 11
449.3097959546
 21
-1118.9207528713
 31
0.0
  0
ARC
  5
3DE
  8
0
  6
CONTINUOUS
 62
     7
 10
451.4311164724
 20
-1116.7994327019
 30
0.0
 40
2.999999999999944
 50
224.9999952942
 51
228.1896851042
  0
ARC
  5
3DF
  8
0
  6
CONTINUOUS
 62
     7
 10
-134.218793139
 20
-1117.452101013
 30
0.0
 40
0.6625544290933628
 50
41.0276312388
 51
99.9097919216
  0
LINE
  5
3E0
  8
0
  6
CONTINUOUS
 62
     7
 10
-134.3328170695
 20
-1116.7994327019
 30
0.0
 11
-134.3328170695
 21
-1114.7994319432
 31
0.0
  0
LINE
  5
3E1
  8
0
  6
CONTINUOUS
 62
     7
 10
-138.568885047
 20
-1118.7994327019
 30
0.0
 11
-138.568885047
 21
-1119.0355006794
 31
0.0
  0
LINE
  5
3E2
  8
0
  6
CONTINUOUS
 62
     7
 10
-136.568885047
 20
-1118.7994327019
 30
0.0
 11
-138.5688852411
 21
-1118.7994327019
 31
0.0
  0
LINE
  5
3E3
  8
0
  6
CONTINUOUS
 62
     7
 10
-136.568885047
 20
-1118.7994327019
 30
0.0
 11
-136.568885047
 21
-1119.0355006794
 31
0.0
  0
LINE
  5
3E4
  8
0
  6
CONTINUOUS
 62
     7
 10
451.4311164724
 20
-1119.0355006794
 30
0.0
 11
451.4311164724
 21
-1118.7994327019
 31
0.0
  0
LINE
  5
3E5
  8
0
  6
CONTINUOUS
 62
     7
 10
453.4311164724
 20
-1118.7994327019
 30
0.0
 11
451.4311164724
 21
-1118.7994327019
 31
0.0
  0
LINE
  5
3E6
  8
0
  6
CONTINUOUS
 62
     7
 10
453.4311164724
 20
-1119.0355006794
 30
0.0
 11
453.4311164724
 21
-1118.7994327019
 31
0.0
  0
LINE
  5
3E7
  8
0
  6
CONTINUOUS
 62
     7
 10
449.4311164724
 20
-1116.7994327019
 30
0.0
 11
449.1950484949
 21
-1116.7994327019
 31
0.0
  0
LINE
  5
3E8
  8
0
  6
CONTINUOUS
 62
     7
 10
449.4311164724
 20
-1114.7994327019
 30
0.0
 11
449.1950484949
 21
-1114.7994327019
 31
0.0
  0
LINE
  5
3E9
  8
0
  6
CONTINUOUS
 62
     7
 10
449.4311164724
 20
-1114.7994327019
 30
0.0
 11
449.4311164724
 21
-1116.7994327019
 31
0.0
  0
LINE
  5
3EA
  8
0
  6
CONTINUOUS
 62
     7
 10
-134.3328170695
 20
-1114.7994327019
 30
0.0
 11
-134.568885047
 21
-1114.7994327019
 31
0.0
  0
LINE
  5
3EB
  8
0
  6
CONTINUOUS
 62
     7
 10
-134.3328170695
 20
-1116.7994327019
 30
0.0
 11
-134.568885047
 21
-1116.7994327019
 31
0.0
  0
LINE
  5
3EC
  8
0
  6
CONTINUOUS
 62
     7
 10
-134.568885047
 20
-1116.7994327019
 30
0.0
 11
-134.568885047
 21
-1114.7994325079
 31
0.0
  0
ARC
  5
3ED
  8
0
  6
CONTINUOUS
 62
     7
 10
-134.568885047
 20
-1118.7994327019
 30
0.0
 40
4.000000194072982
 50
90.0
 51
180.0
  0
ARC
  5
3EE
  8
0
  6
CONTINUOUS
 62
     7
 10
-134.568885047
 20
-1118.7994327019
 30
0.0
 40
2.000000194072982
 50
90.0
 51
180.0
  0
ARC
  5
3EF
  8
0
  6
CONTINUOUS
 62
     7
 10
449.4311164724
 20
-1118.7994327019
 30
0.0
 40
4.000000214722888
 50
0.0
 51
90.0
  0
ARC
  5
3F0
  8
0
  6
CONTINUOUS
 62
     7
 10
449.4311164724
 20
-1118.7994327019
 30
0.0
 40
2.000000214722945
 50
0.0
 51
90.0
  0
LINE
  5
3F1
  8
0
  6
CONTINUOUS
 62
     7
 10
-136.568885047
 20
-1137.7994327019
 30
0.0
 11
-138.5688850323
 21
-1137.7994327019
 31
0.0
  0
LINE
  5
3F2
  8
0
  6
CONTINUOUS
 62
     7
 10
-136.568885047
 20
-1137.7994327019
 30
0.0
 11
-136.568885047
 21
-1135.3004377019
 31
0.0
  0
LINE
  5
3F3
  8
0
  6
CONTINUOUS
 62
     7
 10
-138.568885047
 20
-1135.3004377019
 30
0.0
 11
-138.568885047
 21
-1137.7994327019
 31
0.0
  0
LINE
  5
3F4
  8
0
  6
CONTINUOUS
 62
     7
 10
-137.7404579119
 20
-1140.6278598371
 30
0.0
 11
-139.1546714779
 21
-1139.213646271
 31
0.0
  0
ARC
  5
3F5
  8
0
  6
CONTINUOUS
 62
     7
 10
-140.568885047
 20
-1137.7994327019
 30
0.0
 40
4.000000014698657
 50
314.9999999998
 51
0.0
  0
ARC
  5
3F6
  8
0
  6
CONTINUOUS
 62
     7
 10
-140.568885047
 20
-1137.7994327019
 30
0.0
 40
2.000000014700443
 50
314.9999999998
 51
360.0
  0
ARC
  5
3F7
  8
0
  6
CONTINUOUS
 62
     7
 10
-140.568885047
 20
-1137.7994327019
 30
0.0
 40
4.000000014699935
 50
269.9999999997
 51
314.9999999998
  0
ARC
  5
3F8
  8
0
  6
CONTINUOUS
 62
     7
 10
-140.5688850617
 20
-1137.7994327019
 30
0.0
 40
2.000000019897192
 50
270.0000004208
 51
315.0000002976
  0
LINE
  5
3F9
  8
0
  6
CONTINUOUS
 62
     7
 10
-163.568885047
 20
-1141.799432702
 30
0.0
 11
-163.568885047
 21
-1139.7994327019
 31
0.0
  0
LINE
  5
3FA
  8
0
  6
CONTINUOUS
 62
     7
 10
-140.568885047
 20
-1139.7994327166
 30
0.0
 11
-163.568885047
 21
-1139.7994327019
 31
0.0
  0
LINE
  5
3FB
  8
0
  6
CONTINUOUS
 62
     7
 10
-163.568885047
 20
-1141.799432702
 30
0.0
 11
-140.568885047
 21
-1141.799432702
 31
0.0
  0
ARC
  5
3FC
  8
0
  6
CONTINUOUS
 62
     7
 10
456.6191769549
 20
-1115.2448057213
 30
0.0
 40
8.231224475258461
 50
192.4365064366
 51
205.5848124419
  0
POLYLINE
  5
3FD
  8
0
  6
HIDDEN
 62
     7
 66
     1
 10
0.0
 20
0.0
 30
0.0
  0
VERTEX
  5
691
  8
0
  6
HIDDEN
 62
     7
 10
-735.568885047
 20
-1119.6278598267
 30
0.0
  0
VERTEX
  5
692
  8
0
  6
HIDDEN
 62
     7
 10
-735.568885047
 20
-1119.6278598267
 30
0.0
  0
SEQEND
  5
690
  8
0
  6
HIDDEN
 62
     7
  0
POLYLINE
  5
3FE
  8
0
  6
HIDDEN
 62
     7
 66
     1
 10
0.0
 20
0.0
 30
0.0
  0
VERTEX
  5
694
  8
0
  6
HIDDEN
 62
     7
 10
-151.3973121718
 20
-1117.7994327019
 30
0.0
  0
VERTEX
  5
695
  8
0
  6
HIDDEN
 62
     7
 10
-151.3973121718
 20
-1117.7994327019
 30
0.0
  0
SEQEND
  5
693
  8
0
  6
HIDDEN
 62
     7
  0
POLYLINE
  5
3FF
  8
0
  6
HIDDEN
 62
     7
 66
     1
 10
0.0
 20
0.0
 30
0.0
  0
VERTEX
  5
697
  8
0
  6
HIDDEN
 62
     7
 10
-149.568885047
 20
-1119.6278598267
 30
0.0
  0
VERTEX
  5
698
  8
0
  6
HIDDEN
 62
     7
 10
-149.568885047
 20
-1119.6278598267
 30
0.0
  0
SEQEND
  5
696
  8
0
  6
HIDDEN
 62
     7
  0
POLYLINE
  5
400
  8
0
  6
HIDDEN
 62
     7
 66
     1
 10
0.0
 20
0.0
 30
0.0
  0
VERTEX
  5
69A
  8
0
  6
HIDDEN
 62
     7
 10
-733.7404579223
 20
-1117.799432702
 30
0.0
  0
VERTEX
  5
69B
  8
0
  6
HIDDEN
 62
     7
 10
-733.7404579223
 20
-1117.799432702
 30
0.0
  0
SEQEND
  5
699
  8
0
  6
HIDDEN
 62
     7
  0
LINE
  5
401
  8
0
  6
HIDDEN
 62
     7
 10
-148.568885047
 20
-1119.6278598267
 30
0.0
 11
-148.568885047
 21
-1135.2994327019
 31
0.0
  0
LINE
  5
402
  8
0
  6
HIDDEN
 62
     7
 10
-733.7404579223
 20
-1116.799432702
 30
0.0
 11
-151.3973121718
 21
-1116.7994327019
 31
0.0
  0
LINE
  5
403
  8
0
  6
HIDDEN
 62
     7
 10
-736.568885047
 20
-1135.299432702
 30
0.0
 11
-736.568885047
 21
-1119.6278598267
 31
0.0
  0
LINE
  5
404
  8
0
  6
HIDDEN
 62
     7
 10
-231.0857240132
 20
-1119.3029661885
 30
0.0
 11
-222.0520460808
 21
-1119.3029661885
 31
0.0
  0
LINE
  5
405
  8
0
  6
HIDDEN
 62
     7
 10
-229.568885047
 20
-1117.9994327019
 30
0.0
 11
-223.568885047
 21
-1117.9994327019
 31
0.0
  0
LINE
  5
406
  8
0
  6
HIDDEN
 62
     7
 10
-148.568885047
 20
-1118.5494327019
 30
0.0
 11
-146.568885047
 21
-1118.5494327019
 31
0.0
  0
LINE
  5
407
  8
0
  6
HIDDEN
 62
     7
 10
-722.0857240132
 20
-1119.3029661885
 30
0.0
 11
-713.0520460808
 21
-1119.3029661885
 31
0.0
  0
LINE
  5
408
  8
0
  6
HIDDEN
 62
     7
 10
-720.568885047
 20
-1117.9994327019
 30
0.0
 11
-714.568885047
 21
-1117.9994327019
 31
0.0
  0
POLYLINE
  5
409
  8
0
  6
HIDDEN
 62
     7
 66
     1
 10
0.0
 20
0.0
 30
0.0
  0
VERTEX
  5
69D
  8
0
  6
HIDDEN
 62
     7
 10
-733.7404579223
 20
-1117.7994327019
 30
0.0
  0
VERTEX
  5
69E
  8
0
  6
HIDDEN
 62
     7
 10
-733.7404579223
 20
-1117.7994327019
 30
0.0
  0
SEQEND
  5
69C
  8
0
  6
HIDDEN
 62
     7
  0
POLYLINE
  5
40A
  8
0
  6
HIDDEN
 62
     7
 66
     1
 10
0.0
 20
0.0
 30
0.0
  0
VERTEX
  5
6A0
  8
0
  6
HIDDEN
 62
     7
 10
-735.568885047
 20
-1119.6278598267
 30
0.0
  0
VERTEX
  5
6A1
  8
0
  6
HIDDEN
 62
     7
 10
-735.568885047
 20
-1119.6278598267
 30
0.0
  0
SEQEND
  5
69F
  8
0
  6
HIDDEN
 62
     7
  0
ARC
  5
40B
  8
0
  6
HIDDEN
 62
     7
 10
-147.1857239252
 20
-1118.7394423657
 30
0.0
 40
1.081562168196341
 50
258.0437019687
 51
304.7727433911
  0
POLYLINE
  5
40C
  8
0
  6
HIDDEN
 62
     7
 66
     1
 10
0.0
 20
0.0
 30
0.0
  0
VERTEX
  5
6A3
  8
0
  6
HIDDEN
 62
     7
 10
-149.568885047
 20
-1119.6278598267
 30
0.0
  0
VERTEX
  5
6A4
  8
0
  6
HIDDEN
 62
     7
 10
-149.568885047
 20
-1119.6278598267
 30
0.0
  0
SEQEND
  5
6A2
  8
0
  6
HIDDEN
 62
     7
  0
POLYLINE
  5
40D
  8
0
  6
HIDDEN
 62
     7
 66
     1
 10
0.0
 20
0.0
 30
0.0
  0
VERTEX
  5
6A6
  8
0
  6
HIDDEN
 62
     7
 10
-151.3973121718
 20
-1117.7994327019
 30
0.0
  0
VERTEX
  5
6A7
  8
0
  6
HIDDEN
 62
     7
 10
-151.3973121718
 20
-1117.7994327019
 30
0.0
  0
SEQEND
  5
6A5
  8
0
  6
HIDDEN
 62
     7
  0
ARC
  5
40E
  8
0
  6
HIDDEN
 62
     7
 10
-146.568885047
 20
-1139.799432702
 30
0.0
 40
5.5
 50
90.0
 51
125.0968012274
  0
POLYLINE
  5
40F
  8
0
  6
HIDDEN
 62
     7
 66
     1
 10
0.0
 20
0.0
 30
0.0
  0
VERTEX
  5
6A9
  8
0
  6
HIDDEN
 62
     7
 10
-160.568885047
 20
-1141.299432702
 30
0.0
  0
VERTEX
  5
6AA
  8
0
  6
HIDDEN
 62
     7
 10
-160.6424900192
 20
-1141.6759858221
 30
0.0
  0
VERTEX
  5
6AB
  8
0
  6
HIDDEN
 62
     7
 10
-160.730188219
 20
-1141.799432702
 30
0.0
  0
SEQEND
  5
6A8
  8
0
  6
HIDDEN
 62
     7
  0
ARC
  5
410
  8
0
  6
HIDDEN
 62
     7
 10
-161.568885047
 20
-1141.299432702
 30
0.0
 40
0.5
 50
270.0
 51
0.0
  0
LINE
  5
411
  8
0
  6
HIDDEN
 62
     7
 10
-161.068885047
 20
-1140.299432702
 30
0.0
 11
-161.068885047
 21
-1141.299432702
 31
0.0
  0
ARC
  5
412
  8
0
  6
HIDDEN
 62
     7
 10
-161.568885047
 20
-1140.299432702
 30
0.0
 40
0.500000000000199
 50
0.0
 51
90.0
  0
POLYLINE
  5
413
  8
0
  6
HIDDEN
 62
     7
 66
     1
 10
0.0
 20
0.0
 30
0.0
  0
VERTEX
  5
6AD
  8
0
  6
HIDDEN
 62
     7
 10
-160.7028596433
 20
-1139.799432702
 30
0.0
  0
VERTEX
  5
6AE
  8
0
  6
HIDDEN
 62
     7
 10
-160.5897699681
 20
-1140.0961258842
 30
0.0
  0
VERTEX
  5
6AF
  8
0
  6
HIDDEN
 62
     7
 10
-160.568885047
 20
-1140.299432702
 30
0.0
  0
SEQEND
  5
6AC
  8
0
  6
HIDDEN
 62
     7
  0
LINE
  5
414
  8
0
  6
HIDDEN
 62
     7
 10
-160.568885047
 20
-1141.299432702
 30
0.0
 11
-160.568885047
 21
-1140.299432702
 31
0.0
  0
POLYLINE
  5
415
  8
0
  6
HIDDEN
 62
     7
 66
     1
 10
0.0
 20
0.0
 30
0.0
  0
VERTEX
  5
6B1
  8
0
  6
HIDDEN
 62
     7
 10
-152.4212483369
 20
-1141.799432702
 30
0.0
  0
VERTEX
  5
6B2
  8
0
  6
HIDDEN
 62
     7
 10
-152.5483787701
 20
-1141.5009073814
 30
0.0
  0
VERTEX
  5
6B3
  8
0
  6
HIDDEN
 62
     7
 10
-152.568885047
 20
-1141.299432702
 30
0.0
  0
SEQEND
  5
6B0
  8
0
  6
HIDDEN
 62
     7
  0
LINE
  5
416
  8
0
  6
HIDDEN
 62
     7
 10
-152.568885047
 20
-1140.299432702
 30
0.0
 11
-152.568885047
 21
-1141.299432702
 31
0.0
  0
POLYLINE
  5
417
  8
0
  6
HIDDEN
 62
     7
 66
     1
 10
0.0
 20
0.0
 30
0.0
  0
VERTEX
  5
6B5
  8
0
  6
HIDDEN
 62
     7
 10
-152.568885047
 20
-1140.299432702
 30
0.0
  0
VERTEX
  5
6B6
  8
0
  6
HIDDEN
 62
     7
 10
-152.5192233352
 20
-1139.9882139076
 30
0.0
  0
VERTEX
  5
6B7
  8
0
  6
HIDDEN
 62
     7
 10
-152.4349104508
 20
-1139.799432702
 30
0.0
  0
SEQEND
  5
6B4
  8
0
  6
HIDDEN
 62
     7
  0
ARC
  5
418
  8
0
  6
HIDDEN
 62
     7
 10
-151.568885047
 20
-1140.299432702
 30
0.0
 40
0.5000000000000568
 50
90.0
 51
180.0
  0
LINE
  5
419
  8
0
  6
HIDDEN
 62
     7
 10
-152.068885047
 20
-1141.299432702
 30
0.0
 11
-152.068885047
 21
-1140.299432702
 31
0.0
  0
ARC
  5
41A
  8
0
  6
HIDDEN
 62
     7
 10
-151.568885047
 20
-1141.299432702
 30
0.0
 40
0.49999999999946
 50
179.9999999999
 51
270.0000000001
  0
LINE
  5
41B
  8
0
  6
HIDDEN
 62
     7
 10
-150.068885047
 20
-1139.299432702
 30
0.0
 11
-151.568885047
 21
-1139.299432702
 31
0.0
  0
LINE
  5
41C
  8
0
  6
HIDDEN
 62
     7
 10
-150.068885047
 20
-1139.799432702
 30
0.0
 11
-150.068885047
 21
-1139.299432702
 31
0.0
  0
ARC
  5
41D
  8
0
  6
HIDDEN
 62
     7
 10
-151.568885047
 20
-1140.299432702
 30
0.0
 40
1.000000000000066
 50
90.0
 51
119.1647304529
  0
ARC
  5
41E
  8
0
  6
HIDDEN
 62
     7
 10
415.431114953
 20
-1116.7994327019
 30
0.0
 40
7.500000000000057
 50
180.0
 51
0.0
  0
LINE
  5
41F
  8
0
  6
HIDDEN
 62
     7
 10
-134.5688869008
 20
-1116.7994327019
 30
0.0
 11
-136.568885047
 21
-1116.7994327019
 31
0.0
  0
LINE
  5
420
  8
0
  6
HIDDEN
 62
     7
 10
-149.5688834122
 20
-1116.7994327019
 30
0.0
 11
-148.568885047
 21
-1116.7994327019
 31
0.0
  0
ARC
  5
421
  8
0
  6
HIDDEN
 62
     7
 10
-700.568885047
 20
-1116.7994327019
 30
0.0
 40
7.500000000000114
 50
180.0
 51
0.0
  0
LINE
  5
422
  8
0
  6
HIDDEN
 62
     7
 10
-643.568885047
 20
-1117.7994327019
 30
0.0
 11
-633.568885047
 21
-1117.7994327019
 31
0.0
  0
LINE
  5
423
  8
0
  6
HIDDEN
 62
     7
 10
348.4311164724
 20
-1117.7994327019
 30
0.0
 11
358.4311164724
 21
-1117.7994327019
 31
0.0
  0
POLYLINE
  5
424
  8
0
  6
HIDDEN
 62
     7
 66
     1
 10
0.0
 20
0.0
 30
0.0
  0
VERTEX
  5
6B9
  8
0
  6
HIDDEN
 62
     7
 10
448.4311503419
 20
-1117.3850488051
 30
0.0
  0
VERTEX
  5
6BA
  8
0
  6
HIDDEN
 62
     7
 10
448.4787521227
 20
-1117.1502565289
 30
0.0
  0
VERTEX
  5
6BB
  8
0
  6
HIDDEN
 62
     7
 10
448.5810955928
 20
-1117.0174602655
 30
0.0
  0
SEQEND
  5
6B8
  8
0
  6
HIDDEN
 62
     7
  0
POLYLINE
  5
425
  8
0
  6
HIDDEN
 62
     7
 66
     1
 10
0.0
 20
0.0
 30
0.0
  0
VERTEX
  5
6BD
  8
0
  6
HIDDEN
 62
     7
 10
449.1950484949
 20
-1118.7994327019
 30
0.0
  0
VERTEX
  5
6BE
  8
0
  6
HIDDEN
 62
     7
 10
449.1950484949
 20
-1118.7994327019
 30
0.0
  0
SEQEND
  5
6BC
  8
0
  6
HIDDEN
 62
     7
  0
POLYLINE
  5
426
  8
0
  6
HIDDEN
 62
     7
 66
     1
 10
0.0
 20
0.0
 30
0.0
  0
VERTEX
  5
6C0
  8
0
  6
HIDDEN
 62
     7
 10
-135.9832689438
 20
-1119.7993988325
 30
0.0
  0
VERTEX
  5
6C1
  8
0
  6
HIDDEN
 62
     7
 10
-136.2180612201
 20
-1119.7517970516
 30
0.0
  0
VERTEX
  5
6C2
  8
0
  6
HIDDEN
 62
     7
 10
-136.3508574834
 20
-1119.6494535816
 30
0.0
  0
SEQEND
  5
6BF
  8
0
  6
HIDDEN
 62
     7
  0
POLYLINE
  5
427
  8
0
  6
HIDDEN
 62
     7
 66
     1
 10
0.0
 20
0.0
 30
0.0
  0
VERTEX
  5
6C4
  8
0
  6
HIDDEN
 62
     7
 10
-134.568885047
 20
-1119.0355006794
 30
0.0
  0
VERTEX
  5
6C5
  8
0
  6
HIDDEN
 62
     7
 10
-134.568885047
 20
-1119.0355006794
 30
0.0
  0
SEQEND
  5
6C3
  8
0
  6
HIDDEN
 62
     7
  0
ARC
  5
428
  8
0
  6
HIDDEN
 62
     7
 10
450.8922892388
 20
-1119.3882663695
 30
0.0
 40
0.4138288124338123
 50
263.4558769668
 51
320.8834217482
  0
POLYLINE
  5
429
  8
0
  6
HIDDEN
 62
     7
 66
     1
 10
0.0
 20
0.0
 30
0.0
  0
VERTEX
  5
6C7
  8
0
  6
HIDDEN
 62
     7
 10
449.4311164724
 20
-1119.0355006794
 30
0.0
  0
VERTEX
  5
6C8
  8
0
  6
HIDDEN
 62
     7
 10
449.4311164724
 20
-1119.0355006794
 30
0.0
  0
SEQEND
  5
6C6
  8
0
  6
HIDDEN
 62
     7
  0
ARC
  5
42A
  8
0
  6
HIDDEN
 62
     7
 10
-133.9800513792
 20
-1117.3382599355
 30
0.0
 40
0.41382881215294
 50
353.4558769454
 51
50.8834217694
  0
POLYLINE
  5
42B
  8
0
  6
HIDDEN
 62
     7
 66
     1
 10
0.0
 20
0.0
 30
0.0
  0
VERTEX
  5
6CA
  8
0
  6
HIDDEN
 62
     7
 10
-134.3328170695
 20
-1118.7994327019
 30
0.0
  0
VERTEX
  5
6CB
  8
0
  6
HIDDEN
 62
     7
 10
-134.3328170695
 20
-1118.7994327019
 30
0.0
  0
SEQEND
  5
6C9
  8
0
  6
HIDDEN
 62
     7
  0
LINE
  5
42C
  8
0
  6
HIDDEN
 62
     7
 10
-136.568885047
 20
-1135.2994327019
 30
0.0
 11
-136.568885047
 21
-1119.0355006794
 31
0.0
  0
LINE
  5
42D
  8
0
  6
HIDDEN
 62
     7
 10
451.4311164724
 20
-1119.0355006794
 30
0.0
 11
451.4311164724
 21
-1135.2994311825
 31
0.0
  0
LINE
  5
42E
  8
0
  6
HIDDEN
 62
     7
 10
-134.3328170695
 20
-1116.7994327019
 30
0.0
 11
449.1950484949
 21
-1116.7994327019
 31
0.0
  0
LINE
  5
42F
  8
0
  6
HIDDEN
 62
     7
 10
-63.0857240132
 20
-1119.3029661885
 30
0.0
 11
-54.0520460808
 21
-1119.3029661885
 31
0.0
  0
LINE
  5
430
  8
0
  6
HIDDEN
 62
     7
 10
-61.568885047
 20
-1117.9994327019
 30
0.0
 11
-55.568885047
 21
-1117.9994327019
 31
0.0
  0
LINE
  5
431
  8
0
  6
HIDDEN
 62
     7
 10
-136.5592546935
 20
-1118.6033984023
 30
0.0
 11
-138.5496241469
 21
-1118.4073641216
 31
0.0
  0
LINE
  5
432
  8
0
  6
HIDDEN
 62
     7
 10
427.9142759868
 20
-1119.3029661885
 30
0.0
 11
436.9479539192
 21
-1119.3029661885
 31
0.0
  0
LINE
  5
433
  8
0
  6
HIDDEN
 62
     7
 10
429.431114953
 20
-1117.9994327019
 30
0.0
 11
435.431114953
 21
-1117.9994327019
 31
0.0
  0
LINE
  5
434
  8
0
  6
HIDDEN
 62
     7
 10
-152.068885047
 20
-1141.799432702
 30
0.0
 11
-152.068885047
 21
-1141.299432702
 31
0.0
  0
LINE
  5
435
  8
0
  6
HIDDEN
 62
     7
 10
-152.068885047
 20
-1140.299432702
 30
0.0
 11
-152.068885047
 21
-1139.799432702
 31
0.0
  0
LINE
  5
436
  8
0
  6
HIDDEN
 62
     7
 10
-161.068885047
 20
-1141.799432702
 30
0.0
 11
-161.068885047
 21
-1141.299432702
 31
0.0
  0
LINE
  5
437
  8
0
  6
HIDDEN
 62
     7
 10
-161.068885047
 20
-1140.299432702
 30
0.0
 11
-161.068885047
 21
-1139.7994327019
 31
0.0
  0
ARC
  5
438
  8
0
  6
HIDDEN
 62
     7
 10
451.6290061211
 20
-1116.0468204885
 30
0.0
 40
3.198734353441909
 50
178.6292847101
 51
197.6646706109
  0
POLYLINE
  5
439
  8
0
  6
HIDDEN
 62
     7
 66
     1
 10
0.0
 20
0.0
 30
0.0
  0
VERTEX
  5
6CD
  8
0
  6
HIDDEN
 62
     7
 10
-136.5688858058
 20
-1119.0355006794
 30
0.0
  0
VERTEX
  5
6CE
  8
0
  6
HIDDEN
 62
     7
 10
-136.5255186991
 20
-1119.3698305706
 30
0.0
  0
VERTEX
  5
6CF
  8
0
  6
HIDDEN
 62
     7
 10
-136.4038698702
 20
-1119.6085960273
 30
0.0
  0
VERTEX
  5
6D0
  8
0
  6
HIDDEN
 62
     7
 10
-136.2180585251
 20
-1119.7517970496
 30
0.0
  0
VERTEX
  5
6D1
  8
0
  6
HIDDEN
 62
     7
 10
-135.9830972711
 20
-1119.7994336374
 30
0.0
  0
VERTEX
  5
6D2
  8
0
  6
HIDDEN
 62
     7
 10
-135.9832700945
 20
-1119.7993985988
 30
0.0
  0
SEQEND
  5
6CC
  8
0
  6
HIDDEN
 62
     7
  0
POLYLINE
  5
43A
  8
0
  6
HIDDEN
 62
     7
 66
     1
 10
0.0
 20
0.0
 30
0.0
  0
VERTEX
  5
6D4
  8
0
  6
HIDDEN
 62
     7
 10
-138.5688858058
 20
-1119.0355006794
 30
0.0
  0
VERTEX
  5
6D5
  8
0
  6
HIDDEN
 62
     7
 10
-138.4821516089
 20
-1119.3698305706
 30
0.0
  0
VERTEX
  5
6D6
  8
0
  6
HIDDEN
 62
     7
 10
-138.2388539972
 20
-1119.6085960273
 30
0.0
  0
VERTEX
  5
6D7
  8
0
  6
HIDDEN
 62
     7
 10
-137.8672313774
 20
-1119.7517970496
 30
0.0
  0
VERTEX
  5
6D8
  8
0
  6
HIDDEN
 62
     7
 10
-137.3973089587
 20
-1119.7994336374
 30
0.0
  0
VERTEX
  5
6D9
  8
0
  6
HIDDEN
 62
     7
 10
-136.830319701
 20
-1119.7515782372
 30
0.0
  0
VERTEX
  5
6DA
  8
0
  6
HIDDEN
 62
     7
 10
-136.157666755
 20
-1119.6083042774
 30
0.0
  0
VERTEX
  5
6DB
  8
0
  6
HIDDEN
 62
     7
 10
-135.3955621315
 20
-1119.3696117582
 30
0.0
  0
VERTEX
  5
6DC
  8
0
  6
HIDDEN
 62
     7
 10
-134.568885047
 20
-1119.0355006794
 30
0.0
  0
SEQEND
  5
6D3
  8
0
  6
HIDDEN
 62
     7
  0
POLYLINE
  5
43B
  8
0
  6
HIDDEN
 62
     7
 66
     1
 10
0.0
 20
0.0
 30
0.0
  0
VERTEX
  5
6DE
  8
0
  6
HIDDEN
 62
     7
 10
-134.568885047
 20
-1119.0355006794
 30
0.0
  0
VERTEX
  5
6DF
  8
0
  6
HIDDEN
 62
     7
 10
-134.568885047
 20
-1119.0355006794
 30
0.0
  0
SEQEND
  5
6DD
  8
0
  6
HIDDEN
 62
     7
  0
POLYLINE
  5
43C
  8
0
  6
HIDDEN
 62
     7
 66
     1
 10
0.0
 20
0.0
 30
0.0
  0
VERTEX
  5
6E1
  8
0
  6
HIDDEN
 62
     7
 10
-134.3328170695
 20
-1118.7994327019
 30
0.0
  0
VERTEX
  5
6E2
  8
0
  6
HIDDEN
 62
     7
 10
-134.3328170695
 20
-1118.7994327019
 30
0.0
  0
SEQEND
  5
6E0
  8
0
  6
HIDDEN
 62
     7
  0
POLYLINE
  5
43D
  8
0
  6
HIDDEN
 62
     7
 66
     1
 10
0.0
 20
0.0
 30
0.0
  0
VERTEX
  5
6E4
  8
0
  6
HIDDEN
 62
     7
 10
449.4311164724
 20
-1119.0355006794
 30
0.0
  0
VERTEX
  5
6E5
  8
0
  6
HIDDEN
 62
     7
 10
449.4311164724
 20
-1119.0355006794
 30
0.0
  0
SEQEND
  5
6E3
  8
0
  6
HIDDEN
 62
     7
  0
POLYLINE
  5
43E
  8
0
  6
HIDDEN
 62
     7
 66
     1
 10
0.0
 20
0.0
 30
0.0
  0
VERTEX
  5
6E7
  8
0
  6
HIDDEN
 62
     7
 10
449.1950484949
 20
-1118.7994327019
 30
0.0
  0
VERTEX
  5
6E8
  8
0
  6
HIDDEN
 62
     7
 10
449.1950484949
 20
-1118.7994327019
 30
0.0
  0
SEQEND
  5
6E6
  8
0
  6
HIDDEN
 62
     7
  0
LINE
  5
43F
  8
0
  6
HIDDEN
 62
     7
 10
-737.6479253215
 20
-1119.7990074756
 30
0.0
 11
-736.2618995375
 21
-1119.7990074754
 31
0.0
  0
LINE
  5
440
  8
0
  6
HIDDEN
 62
     7
 10
-151.5684598207
 20
-1115.7203924276
 30
0.0
 11
-151.5684598205
 21
-1117.1064182115
 31
0.0
  0
LINE
  5
441
  8
0
  6
HIDDEN
 62
     7
 10
-148.8479879468
 20
-1119.7990074663
 30
0.0
 11
-147.4061809402
 21
-1119.7990074678
 31
0.0
  0
LINE
  5
442
  8
0
  6
HIDDEN
 62
     7
 10
-733.5693102827
 20
-1117.0785356018
 30
0.0
 11
-733.5693102812
 21
-1115.6367285956
 31
0.0
  0
ARC
  5
443
  8
0
  6
HIDDEN
 62
     7
 10
-219.6847684226
 20
-1117.2694327019
 30
0.0
 40
2.469999999999841
 50
90.0
 51
139.3250604347
  0
ARC
  5
444
  8
0
  6
HIDDEN
 62
     7
 10
-233.4530016715
 20
-1117.2694327019
 30
0.0
 40
2.469999999999989
 50
40.6749395653
 51
90.0
  0
ARC
  5
445
  8
0
  6
HIDDEN
 62
     7
 10
-219.6847684226
 20
-1117.2694327019
 30
0.0
 40
0.469999999999964
 50
90.0
 51
139.3250604348
  0
ARC
  5
446
  8
0
  6
HIDDEN
 62
     7
 10
-233.4530016715
 20
-1117.2694327019
 30
0.0
 40
0.469999999999964
 50
40.6749395652
 51
90.0
  0
LINE
  5
447
  8
0
  6
HIDDEN
 62
     7
 10
-233.0965445144
 20
-1116.9631023326
 30
0.0
 11
-231.0857240132
 21
-1119.3029661885
 31
0.0
  0
LINE
  5
448
  8
0
  6
HIDDEN
 62
     7
 10
-222.0520460808
 20
-1119.3029661885
 30
0.0
 11
-220.0412255797
 21
-1116.9631023326
 31
0.0
  0
LINE
  5
449
  8
0
  6
HIDDEN
 62
     7
 10
-231.5797055482
 20
-1115.659568846
 30
0.0
 11
-229.568885047
 21
-1117.9994327019
 31
0.0
  0
LINE
  5
44A
  8
0
  6
HIDDEN
 62
     7
 10
-223.568885047
 20
-1117.9994327019
 30
0.0
 11
-221.5580645459
 21
-1115.659568846
 31
0.0
  0
LINE
  5
44B
  8
0
  6
HIDDEN
 62
     7
 10
-222.0520460808
 20
-1119.3029661885
 30
0.0
 11
-223.568885047
 21
-1117.9994327019
 31
0.0
  0
LINE
  5
44C
  8
0
  6
HIDDEN
 62
     7
 10
-229.568885047
 20
-1117.9994327019
 30
0.0
 11
-231.0857240132
 21
-1119.3029661885
 31
0.0
  0
ARC
  5
44D
  8
0
  6
HIDDEN
 62
     7
 10
-710.6847684226
 20
-1117.2694327019
 30
0.0
 40
2.470000000000255
 50
90.0
 51
139.3250604347
  0
ARC
  5
44E
  8
0
  6
HIDDEN
 62
     7
 10
-724.4530016715
 20
-1117.2694327019
 30
0.0
 40
2.470000000000116
 50
40.6749395653
 51
90.0
  0
ARC
  5
44F
  8
0
  6
HIDDEN
 62
     7
 10
-710.6847684226
 20
-1117.2694327019
 30
0.0
 40
0.4700000000000071
 50
90.0
 51
139.3250604348
  0
ARC
  5
450
  8
0
  6
HIDDEN
 62
     7
 10
-724.4530016715
 20
-1117.2694327019
 30
0.0
 40
0.4699999999999209
 50
40.6749395653
 51
90.0
  0
LINE
  5
451
  8
0
  6
HIDDEN
 62
     7
 10
-724.0965445144
 20
-1116.9631023326
 30
0.0
 11
-722.0857240132
 21
-1119.3029661885
 31
0.0
  0
LINE
  5
452
  8
0
  6
HIDDEN
 62
     7
 10
-713.0520460808
 20
-1119.3029661885
 30
0.0
 11
-711.0412255797
 21
-1116.9631023326
 31
0.0
  0
LINE
  5
453
  8
0
  6
HIDDEN
 62
     7
 10
-722.5797055482
 20
-1115.659568846
 30
0.0
 11
-720.568885047
 21
-1117.9994327019
 31
0.0
  0
LINE
  5
454
  8
0
  6
HIDDEN
 62
     7
 10
-714.568885047
 20
-1117.9994327019
 30
0.0
 11
-712.5580645459
 21
-1115.659568846
 31
0.0
  0
LINE
  5
455
  8
0
  6
HIDDEN
 62
     7
 10
-713.0520460808
 20
-1119.3029661885
 30
0.0
 11
-714.568885047
 21
-1117.9994327019
 31
0.0
  0
LINE
  5
456
  8
0
  6
HIDDEN
 62
     7
 10
-720.568885047
 20
-1117.9994327019
 30
0.0
 11
-722.0857240132
 21
-1119.3029661885
 31
0.0
  0
LINE
  5
457
  8
0
  6
HIDDEN
 62
     7
 10
-160.068885047
 20
-1114.7994327019
 30
0.0
 11
-160.068885047
 21
-1116.7994327019
 31
0.0
  0
LINE
  5
458
  8
0
  6
HIDDEN
 62
     7
 10
-155.068885047
 20
-1116.7994327019
 30
0.0
 11
-155.068885047
 21
-1114.7994327019
 31
0.0
  0
LINE
  5
459
  8
0
  6
HIDDEN
 62
     7
 10
-733.5693144164
 20
-1117.0785661476
 30
0.0
 11
-733.5693144167
 21
-1115.63682645
 31
0.0
  0
LINE
  5
45A
  8
0
  6
HIDDEN
 62
     7
 10
-737.648022652
 20
-1119.7990033273
 30
0.0
 11
-736.2619306996
 21
-1119.7990033272
 31
0.0
  0
LINE
  5
45B
  8
0
  6
HIDDEN
 62
     7
 10
-736.2619790801
 20
-1119.7990033338
 30
0.0
 11
-737.6481697184
 21
-1119.7990033339
 31
0.0
  0
LINE
  5
45C
  8
0
  6
HIDDEN
 62
     7
 10
-148.8480184924
 20
-1119.7990033325
 30
0.0
 11
-147.4062787942
 21
-1119.7990033322
 31
0.0
  0
LINE
  5
45D
  8
0
  6
HIDDEN
 62
     7
 10
-151.5684556724
 20
-1115.720295096
 30
0.0
 11
-151.5684556723
 21
-1117.106387049
 31
0.0
  0
LINE
  5
45E
  8
0
  6
HIDDEN
 62
     7
 10
-151.5684556789
 20
-1117.1063386685
 30
0.0
 11
-151.5684556789
 21
-1115.7201480296
 31
0.0
  0
LINE
  5
45F
  8
0
  6
HIDDEN
 62
     7
 10
-159.568885047
 20
-1142.299432702
 30
0.0
 11
-159.568885047
 21
-1147.799432702
 31
0.0
  0
LINE
  5
460
  8
0
  6
HIDDEN
 62
     7
 10
-153.568885047
 20
-1147.799432702
 30
0.0
 11
-153.568885047
 21
-1142.299432702
 31
0.0
  0
LINE
  5
461
  8
0
  6
HIDDEN
 62
     7
 10
402.931114953
 20
-1124.2994327019
 30
0.0
 11
415.431114953
 21
-1124.2994327019
 31
0.0
  0
LINE
  5
462
  8
0
  6
HIDDEN
 62
     7
 10
-136.568885047
 20
-1124.2994327019
 30
0.0
 11
402.931114953
 21
-1124.2994327019
 31
0.0
  0
LINE
  5
463
  8
0
  6
HIDDEN
 62
     7
 10
-688.068885047
 20
-1124.2994327019
 30
0.0
 11
-148.568885047
 21
-1124.2994327019
 31
0.0
  0
LINE
  5
464
  8
0
  6
HIDDEN
 62
     7
 10
-700.568885047
 20
-1124.2994327019
 30
0.0
 11
-688.068885047
 21
-1124.2994327019
 31
0.0
  0
LINE
  5
465
  8
0
  6
HIDDEN
 62
     7
 10
-643.568885047
 20
-1116.7994327019
 30
0.0
 11
-643.568885047
 21
-1117.7994327019
 31
0.0
  0
LINE
  5
466
  8
0
  6
HIDDEN
 62
     7
 10
-633.568885047
 20
-1117.7994327019
 30
0.0
 11
-633.568885047
 21
-1116.7994327019
 31
0.0
  0
LINE
  5
467
  8
0
  6
HIDDEN
 62
     7
 10
-642.568885047
 20
-1117.7994327019
 30
0.0
 11
-642.568885047
 21
-1135.2994327019
 31
0.0
  0
LINE
  5
468
  8
0
  6
HIDDEN
 62
     7
 10
-634.568885047
 20
-1135.2994327019
 30
0.0
 11
-634.568885047
 21
-1117.7994327019
 31
0.0
  0
LINE
  5
469
  8
0
  6
HIDDEN
 62
     7
 10
348.4311164724
 20
-1116.7994327019
 30
0.0
 11
348.4311164724
 21
-1117.7994327019
 31
0.0
  0
LINE
  5
46A
  8
0
  6
HIDDEN
 62
     7
 10
358.4311164724
 20
-1117.7994327019
 30
0.0
 11
358.4311164724
 21
-1116.7994327019
 31
0.0
  0
LINE
  5
46B
  8
0
  6
HIDDEN
 62
     7
 10
349.4311164724
 20
-1117.7994327019
 30
0.0
 11
349.4311164724
 21
-1135.2994327019
 31
0.0
  0
LINE
  5
46C
  8
0
  6
HIDDEN
 62
     7
 10
357.4311164724
 20
-1135.2994327019
 30
0.0
 11
357.4311164724
 21
-1117.7994327019
 31
0.0
  0
LINE
  5
46D
  8
0
  6
HIDDEN
 62
     7
 10
448.431115426
 20
-1115.9702330947
 30
0.0
 11
448.431115426
 21
-1117.3848326408
 31
0.0
  0
LINE
  5
46E
  8
0
  6
HIDDEN
 62
     7
 10
-137.398084654
 20
-1119.7994337484
 30
0.0
 11
-135.983485108
 21
-1119.7994337484
 31
0.0
  0
LINE
  5
46F
  8
0
  6
HIDDEN
 62
     7
 10
450.8449445061
 20
-1119.7994337484
 30
0.0
 11
452.2587719942
 21
-1119.7994337484
 31
0.0
  0
LINE
  5
470
  8
0
  6
HIDDEN
 62
     7
 10
-133.5688840006
 20
-1117.3856046682
 30
0.0
 11
-133.5688840006
 21
-1115.9717771801
 31
0.0
  0
ARC
  5
471
  8
0
  6
HIDDEN
 62
     7
 10
-51.6847684226
 20
-1117.2694327019
 30
0.0
 40
0.4699999999999371
 50
90.0
 51
139.3250604348
  0
ARC
  5
472
  8
0
  6
HIDDEN
 62
     7
 10
-65.4530016715
 20
-1117.2694327019
 30
0.0
 40
0.4699999999999317
 50
40.6749395652
 51
90.0
  0
ARC
  5
473
  8
0
  6
HIDDEN
 62
     7
 10
-51.6847684226
 20
-1117.2694327019
 30
0.0
 40
2.469999999999968
 50
90.0
 51
139.3250604347
  0
ARC
  5
474
  8
0
  6
HIDDEN
 62
     7
 10
-65.4530016715
 20
-1117.2694327019
 30
0.0
 40
2.469999999999809
 50
40.6749395653
 51
90.0
  0
LINE
  5
475
  8
0
  6
HIDDEN
 62
     7
 10
-65.0965445144
 20
-1116.9631023326
 30
0.0
 11
-63.0857240132
 21
-1119.3029661885
 31
0.0
  0
LINE
  5
476
  8
0
  6
HIDDEN
 62
     7
 10
-54.0520460808
 20
-1119.3029661885
 30
0.0
 11
-52.0412255797
 21
-1116.9631023326
 31
0.0
  0
LINE
  5
477
  8
0
  6
HIDDEN
 62
     7
 10
-63.5797055482
 20
-1115.659568846
 30
0.0
 11
-61.568885047
 21
-1117.9994327019
 31
0.0
  0
LINE
  5
478
  8
0
  6
HIDDEN
 62
     7
 10
-55.568885047
 20
-1117.9994327019
 30
0.0
 11
-53.5580645459
 21
-1115.659568846
 31
0.0
  0
LINE
  5
479
  8
0
  6
HIDDEN
 62
     7
 10
-54.0520460808
 20
-1119.3029661885
 30
0.0
 11
-55.568885047
 21
-1117.9994327019
 31
0.0
  0
LINE
  5
47A
  8
0
  6
HIDDEN
 62
     7
 10
-61.568885047
 20
-1117.9994327019
 30
0.0
 11
-63.0857240132
 21
-1119.3029661885
 31
0.0
  0
ARC
  5
47B
  8
0
  6
HIDDEN
 62
     7
 10
439.3152315774
 20
-1117.2694327019
 30
0.0
 40
0.470000000000026
 50
90.0
 51
139.3250604347
  0
ARC
  5
47C
  8
0
  6
HIDDEN
 62
     7
 10
425.5469983285
 20
-1117.2694327019
 30
0.0
 40
0.4700000000001122
 50
40.6749395653
 51
90.0
  0
ARC
  5
47D
  8
0
  6
HIDDEN
 62
     7
 10
439.3152315774
 20
-1117.2694327019
 30
0.0
 40
2.470000000000027
 50
90.0
 51
139.3250604347
  0
ARC
  5
47E
  8
0
  6
HIDDEN
 62
     7
 10
425.5469983285
 20
-1117.2694327019
 30
0.0
 40
2.470000000000159
 50
40.6749395653
 51
90.0
  0
LINE
  5
47F
  8
0
  6
HIDDEN
 62
     7
 10
425.9034554856
 20
-1116.9631023326
 30
0.0
 11
427.9142759868
 21
-1119.3029661885
 31
0.0
  0
LINE
  5
480
  8
0
  6
HIDDEN
 62
     7
 10
436.9479539192
 20
-1119.3029661885
 30
0.0
 11
438.9587744203
 21
-1116.9631023326
 31
0.0
  0
LINE
  5
481
  8
0
  6
HIDDEN
 62
     7
 10
427.4202944518
 20
-1115.659568846
 30
0.0
 11
429.431114953
 21
-1117.9994327019
 31
0.0
  0
LINE
  5
482
  8
0
  6
HIDDEN
 62
     7
 10
435.431114953
 20
-1117.9994327019
 30
0.0
 11
437.4419354541
 21
-1115.659568846
 31
0.0
  0
LINE
  5
483
  8
0
  6
HIDDEN
 62
     7
 10
436.9479539192
 20
-1119.3029661885
 30
0.0
 11
435.431114953
 21
-1117.9994327019
 31
0.0
  0
LINE
  5
484
  8
0
  6
HIDDEN
 62
     7
 10
429.431114953
 20
-1117.9994327019
 30
0.0
 11
427.9142759868
 21
-1119.3029661885
 31
0.0
  0
ENDSEC
  0
EOF
