  0
SECTION
  2
HEADER
  9
$ACADVER
  1
AC1009
  9
$DWGCODEPAGE
  3
ansi_1252
  9
$INSBASE
 10
0.0
 20
0.0
 30
0.0
  9
$EXTMIN
 10
0.0
 20
0.0
 30
0.0
  9
$EXTMAX
 10
297.0
 20
210.0
 30
0.0
  9
$LIMMIN
 10
0.0
 20
0.0
  9
$LIMMAX
 10
0.0
 20
0.0
  9
$ORTHOMODE
 70
     0
  9
$REGENMODE
 70
     1
  9
$FILLMODE
 70
     1
  9
$QTEXTMODE
 70
     0
  9
$MIRRTEXT
 70
     1
  9
$DRAGMODE
 70
     2
  9
$LTSCALE
 40
1.0
  9
$OSMODE
 70
    37
  9
$ATTMODE
 70
     1
  9
$TEXTSIZE
 40
3.5277777778
  9
$TRACEWID
 40
1.0
  9
$TEXTSTYLE
  7
STANDARD
  9
$CLAYER
  8
0
  9
$CELTYPE
  6
BYLAYER
  9
$CECOLOR
 62
   256
  9
$DIMSCALE
 40
1.0
  9
$DIMASZ
 40
1.8
  9
$DIMEXO
 40
0.7
  9
$DIMDLI
 40
3.75
  9
$DIMRND
 40
0.0
  9
$DIMDLE
 40
0.0
  9
$DIMEXE
 40
0.5
  9
$DIMTP
 40
0.0
  9
$DIMTM
 40
0.0
  9
$DIMTXT
 40
2.4694444444
  9
$DIMCEN
 40
2.5
  9
$DIMTSZ
 40
0.0
  9
$DIMTOL
 70
     0
  9
$DIMLIM
 70
     0
  9
$DIMTIH
 70
     1
  9
$DIMTOH
 70
     1
  9
$DIMSE1
 70
     0
  9
$DIMSE2
 70
     0
  9
$DIMTAD
 70
     1
  9
$DIMZIN
 70
     0
  9
$DIMBLK
  1

  9
$DIMASO
 70
     1
  9
$DIMSHO
 70
     1
  9
$DIMPOST
  1

  9
$DIMAPOST
  1

  9
$DIMALT
 70
     0
  9
$DIMALTD
 70
     3
  9
$DIMALTF
 40
0.0393700787
  9
$DIMLFAC
 40
1.0
  9
$DIMTOFL
 70
     1
  9
$DIMTVP
 40
0.0
  9
$DIMTIX
 70
     0
  9
$DIMSOXD
 70
     0
  9
$DIMSAH
 70
     0
  9
$DIMBLK1
  1

  9
$DIMBLK2
  1

  9
$DIMSTYLE
  2
ISO-25
  9
$DIMCLRD
 70
     0
  9
$DIMCLRE
 70
     0
  9
$DIMCLRT
 70
     0
  9
$DIMTFAC
 40
1.0
  9
$DIMGAP
 40
2.0
  9
$LUNITS
 70
     2
  9
$LUPREC
 70
     2
  9
$SKETCHINC
 40
1.0
  9
$FILLETRAD
 40
10.0
  9
$AUNITS
 70
     0
  9
$AUPREC
 70
     0
  9
$MENU
  1
.
  9
$ELEVATION
 40
0.0
  9
$PELEVATION
 40
0.0
  9
$THICKNESS
 40
0.0
  9
$LIMCHECK
 70
     0
  9
$CHAMFERA
 40
10.0
  9
$CHAMFERB
 40
10.0
  9
$SKPOLY
 70
     0
  9
$TDCREATE
 40
2455104.336784028
  9
$TDUPDATE
 40
2455104.336784039
  9
$TDINDWG
 40
0.0000000116
  9
$TDUSRTIMER
 40
0.0000000116
  9
$USRTIMER
 70
     1
  9
$ANGBASE
 50
0.0
  9
$ANGDIR
 70
     0
  9
$PDMODE
 70
     0
  9
$PDSIZE
 40
-1.0
  9
$PLINEWID
 40
0.0
  9
$COORDS
 70
     1
  9
$SPLFRAME
 70
     0
  9
$SPLINETYPE
 70
     6
  9
$SPLINESEGS
 70
     8
  9
$ATTDIA
 70
     0
  9
$ATTREQ
 70
     1
  9
$HANDLING
 70
     1
  9
$HANDSEED
  5
25D
  9
$SURFTAB1
 70
     6
  9
$SURFTAB2
 70
     6
  9
$SURFTYPE
 70
     6
  9
$SURFU
 70
     6
  9
$SURFV
 70
     6
  9
$UCSNAME
  2

  9
$UCSORG
 10
0.0
 20
0.0
 30
0.0
  9
$UCSXDIR
 10
1.0
 20
0.0
 30
0.0
  9
$UCSYDIR
 10
0.0
 20
1.0
 30
0.0
  9
$PUCSNAME
  2

  9
$PUCSORG
 10
0.0
 20
0.0
 30
0.0
  9
$PUCSXDIR
 10
1.0
 20
0.0
 30
0.0
  9
$PUCSYDIR
 10
0.0
 20
1.0
 30
0.0
  9
$USERI1
 70
     0
  9
$USERI2
 70
     0
  9
$USERI3
 70
     0
  9
$USERI4
 70
     0
  9
$USERI5
 70
     0
  9
$USERR1
 40
0.0
  9
$USERR2
 40
0.0
  9
$USERR3
 40
0.0
  9
$USERR4
 40
0.0
  9
$USERR5
 40
0.0
  9
$WORLDVIEW
 70
     1
  9
$SHADEDGE
 70
     3
  9
$SHADEDIF
 70
    70
  9
$TILEMODE
 70
     1
  9
$MAXACTVP
 70
    64
  9
$PLIMCHECK
 70
     0
  9
$PEXTMIN
 10
1.0000000000E+20
 20
1.0000000000E+20
 30
1.0000000000E+20
  9
$PEXTMAX
 10
-1.0000000000E+20
 20
-1.0000000000E+20
 30
-1.0000000000E+20
  9
$PLIMMIN
 10
0.0
 20
0.0
  9
$PLIMMAX
 10
420.0
 20
297.0
  9
$UNITMODE
 70
     0
  9
$VISRETAIN
 70
     1
  9
$PLINEGEN
 70
     0
  9
$PSLTSCALE
 70
     1
  0
ENDSEC
  0
SECTION
  2
TABLES
  0
TABLE
  2
VPORT
 70
     1
  0
VPORT
  2
*ACTIVE
 70
     0
 10
0.0
 20
0.0
 11
1.0
 21
1.0
 12
148.5
 22
105.0
 13
0.0
 23
0.0
 14
10.0
 24
10.0
 15
10.0
 25
10.0
 16
0.0
 26
0.0
 36
1.0
 17
0.0
 27
0.0
 37
0.0
 40
210.0
 41
1.4142857143
 42
50.0
 43
0.0
 44
0.0
 50
0.0
 51
0.0
 71
     0
 72
  2000
 73
     1
 74
     3
 75
     0
 76
     0
 77
     0
 78
     0
  0
ENDTAB
  0
TABLE
  2
LTYPE
 70
     6
  0
LTYPE
  2
CONTINUOUS
 70
     0
  3
Solid line
 72
    65
 73
     0
 40
0.0
  0
LTYPE
  2
HIDDEN
 70
     0
  3
Hidden __ __ __ __ __ __ __ __ __ __ __ __ __ __
 72
    65
 73
     2
 40
1.905
 49
1.27
 49
-0.635
  0
LTYPE
  2
PHANTOM
 70
     0
  3
Phantom ______  __  __  ______  __  __  ______
 72
    65
 73
     6
 40
12.7
 49
6.35
 49
-1.27
 49
1.27
 49
-1.27
 49
1.27
 49
-1.27
  0
LTYPE
  2
CENTER
 70
     0
  3
Center ____ _ ____ _ ____ _ ____ _ ____ _ ____
 72
    65
 73
     4
 40
10.16
 49
6.35
 49
-1.27
 49
1.27
 49
-1.27
  0
LTYPE
  2
CENTERX2
 70
     0
  3
Center (2x) ________  __  ________  __  _____
 72
    65
 73
     4
 40
20.32
 49
12.7
 49
-2.54
 49
2.54
 49
-2.54
  0
LTYPE
  2
DOT2
 70
     0
  3
Dot (.5x) ........................................
 72
    65
 73
     2
 40
0.635
 49
0.0
 49
-0.635
  0
ENDTAB
  0
TABLE
  2
LAYER
 70
     5
  0
LAYER
  2
0
 70
     0
 62
     7
  6
CONTINUOUS
  0
LAYER
  2
SLD-0
 70
     0
 62
     7
  6
CONTINUOUS
  0
LAYER
  2
AM_BOR
 70
     0
 62
     7
  6
CONTINUOUS
  0
LAYER
  2
BIEGLINIE__ZU_
 70
     0
 62
     8
  6
CONTINUOUS
  0
LAYER
  2
BIEGELINIE__WEG_
 70
     0
 62
     8
  6
HIDDEN
  0
ENDTAB
  0
TABLE
  2
STYLE
 70
     1
  0
STYLE
  2
STANDARD
 70
     0
 40
0.0
 41
1.0
 50
0.0
 71
     0
 42
2.5
  3
txt
  4

  0
ENDTAB
  0
TABLE
  2
VIEW
 70
     0
  0
ENDTAB
  0
TABLE
  2
UCS
 70
     0
  0
ENDTAB
  0
TABLE
  2
APPID
 70
     1
  0
APPID
  2
ACAD
 70
     0
  0
ENDTAB
  0
TABLE
  2
DIMSTYLE
 70
     1
  0
DIMSTYLE
  2
ISO-25
 70
     0
  3

  4

  5

  6

  7

 40
1.0
 41
2.5
 42
0.625
 43
3.75
 44
1.25
 45
0.0
 46
0.0
 47
0.0
 48
0.0
140
2.5
141
2.5
142
0.0
143
0.0393700787
144
1.0
145
0.0
146
1.0
147
0.625
 71
     0
 72
     0
 73
     0
 74
     0
 75
     0
 76
     0
 77
     1
 78
     8
170
     0
171
     3
172
     1
173
     0
174
     0
175
     0
176
     0
177
     0
178
     0
  0
ENDTAB
  0
ENDSEC
  0
SECTION
  2
BLOCKS
  0
BLOCK
  8
0
  2
$MODEL_SPACE
 70
     0
 10
0.0
 20
0.0
 30
0.0
  3
$MODEL_SPACE
  1

  0
ENDBLK
  5
21
  8
0
  0
BLOCK
 67
     1
  8
0
  2
$PAPER_SPACE
 70
     0
 10
0.0
 20
0.0
 30
0.0
  3
$PAPER_SPACE
  1

  0
ENDBLK
  5
1D
 67
     1
  8
0
  0
ENDSEC
  0
SECTION
  2
ENTITIES
  0
TEXT
  5
33
  8
SLD-0
 10
430.5057669982
 20
-892.0397857708
 30
0.0
 40
19.05
  1
S-418
 41
0.7
 11
430.5057669982
 21
-897.4826429136
 31
0.0
 73
     1
  0
ARC
  5
34
  8
0
  6
CONTINUOUS
 62
     7
 10
-30.5511235284
 20
1016.0947541401
 30
0.0
 40
3.000000000000087
 50
300.0
 51
330.0
  0
ARC
  5
35
  8
0
  6
CONTINUOUS
 62
     7
 10
320.9488764716
 20
1016.0947541401
 30
0.0
 40
3.000000000000135
 50
210.0
 51
240.0
  0
LINE
  5
36
  8
0
  6
CONTINUOUS
 62
     7
 10
319.4488764716
 20
-782.4052458599
 30
0.0
 11
-29.0511235284
 21
-782.4052458599
 31
0.0
  0
POLYLINE
  5
37
  8
0
  6
CONTINUOUS
 62
     7
 66
     1
 10
0.0
 20
0.0
 30
0.0
  0
VERTEX
  5
18E
  8
0
  6
CONTINUOUS
 62
     7
 10
-27.953047317
 20
1017.5947541401
 30
0.0
  0
VERTEX
  5
18F
  8
0
  6
CONTINUOUS
 62
     7
 10
-27.7795142008
 20
1017.5439591991
 30
0.0
  0
VERTEX
  5
190
  8
0
  6
CONTINUOUS
 62
     7
 10
-27.6533516463
 20
1017.3820427369
 30
0.0
  0
VERTEX
  5
191
  8
0
  6
CONTINUOUS
 62
     7
 10
-27.5766833044
 20
1017.1035881982
 30
0.0
  0
VERTEX
  5
192
  8
0
  6
CONTINUOUS
 62
     7
 10
-27.5511235417
 20
1016.7160685896
 30
0.0
  0
VERTEX
  5
193
  8
0
  6
CONTINUOUS
 62
     7
 10
-27.5766785485
 20
1016.2397386495
 30
0.0
  0
VERTEX
  5
194
  8
0
  6
CONTINUOUS
 62
     7
 10
-27.6533545118
 20
1015.7042538285
 30
0.0
  0
VERTEX
  5
195
  8
0
  6
CONTINUOUS
 62
     7
 10
-27.7784786983
 20
1015.149606493
 30
0.0
  0
VERTEX
  5
196
  8
0
  6
CONTINUOUS
 62
     7
 10
-27.953047317
 20
1014.5947541401
 30
0.0
  0
SEQEND
  5
18D
  8
0
  6
CONTINUOUS
 62
     7
  0
LINE
  5
38
  8
0
  6
CONTINUOUS
 62
     7
 10
318.3508002603
 20
1017.5947541401
 30
0.0
 11
-27.953047317
 21
1017.5947541401
 31
0.0
  0
POLYLINE
  5
39
  8
0
  6
CONTINUOUS
 62
     7
 66
     1
 10
0.0
 20
0.0
 30
0.0
  0
VERTEX
  5
198
  8
0
  6
CONTINUOUS
 62
     7
 10
318.3508002603
 20
1014.5947541401
 30
0.0
  0
VERTEX
  5
199
  8
0
  6
CONTINUOUS
 62
     7
 10
318.1772671441
 20
1015.1444718127
 30
0.0
  0
VERTEX
  5
19A
  8
0
  6
CONTINUOUS
 62
     7
 10
318.0511045896
 20
1015.7042685735
 30
0.0
  0
VERTEX
  5
19B
  8
0
  6
CONTINUOUS
 62
     7
 10
317.9744362472
 20
1016.2396710589
 30
0.0
  0
VERTEX
  5
19C
  8
0
  6
CONTINUOUS
 62
     7
 10
317.948876485
 20
1016.7160803777
 30
0.0
  0
VERTEX
  5
19D
  8
0
  6
CONTINUOUS
 62
     7
 10
317.9744314923
 20
1017.1035438823
 30
0.0
  0
VERTEX
  5
19E
  8
0
  6
CONTINUOUS
 62
     7
 10
318.0511074551
 20
1017.3820486063
 30
0.0
  0
VERTEX
  5
19F
  8
0
  6
CONTINUOUS
 62
     7
 10
318.1762316411
 20
1017.5429974922
 30
0.0
  0
VERTEX
  5
1A0
  8
0
  6
CONTINUOUS
 62
     7
 10
318.3508002603
 20
1017.5947541401
 30
0.0
  0
SEQEND
  5
197
  8
0
  6
CONTINUOUS
 62
     7
  0
LINE
  5
3A
  8
0
  6
CONTINUOUS
 62
     7
 10
-29.0511235284
 20
-782.4052458599
 30
0.0
 11
-32.0511235284
 21
-782.4052458599
 31
0.0
  0
LINE
  5
3B
  8
0
  6
CONTINUOUS
 62
     7
 10
-32.0511235284
 20
1013.4966779287
 30
0.0
 11
-32.0511235284
 21
-782.4052458599
 31
0.0
  0
POLYLINE
  5
3C
  8
0
  6
CONTINUOUS
 62
     7
 66
     1
 10
0.0
 20
0.0
 30
0.0
  0
VERTEX
  5
1A2
  8
0
  6
CONTINUOUS
 62
     7
 10
-29.0511235284
 20
1013.4966779287
 30
0.0
  0
VERTEX
  5
1A3
  8
0
  6
CONTINUOUS
 62
     7
 10
-29.600841201
 20
1013.3231448125
 30
0.0
  0
VERTEX
  5
1A4
  8
0
  6
CONTINUOUS
 62
     7
 10
-30.1606379618
 20
1013.1969822581
 30
0.0
  0
VERTEX
  5
1A5
  8
0
  6
CONTINUOUS
 62
     7
 10
-30.696040447
 20
1013.1203139165
 30
0.0
  0
VERTEX
  5
1A6
  8
0
  6
CONTINUOUS
 62
     7
 10
-31.1724497659
 20
1013.0947541534
 30
0.0
  0
VERTEX
  5
1A7
  8
0
  6
CONTINUOUS
 62
     7
 10
-31.5599132677
 20
1013.1203091598
 30
0.0
  0
VERTEX
  5
1A8
  8
0
  6
CONTINUOUS
 62
     7
 10
-31.8384179946
 20
1013.1969851236
 30
0.0
  0
VERTEX
  5
1A9
  8
0
  6
CONTINUOUS
 62
     7
 10
-31.9993668813
 20
1013.3221093103
 30
0.0
  0
VERTEX
  5
1AA
  8
0
  6
CONTINUOUS
 62
     7
 10
-32.0511235284
 20
1013.4966779287
 30
0.0
  0
SEQEND
  5
1A1
  8
0
  6
CONTINUOUS
 62
     7
  0
LINE
  5
3D
  8
0
  6
CONTINUOUS
 62
     7
 10
-30.5511235284
 20
1013.4966779287
 30
0.0
 11
-32.0511235284
 21
1013.4966779287
 31
0.0
  0
ARC
  5
3E
  8
0
  6
CONTINUOUS
 62
     7
 10
-30.1732845736
 20
1013.468612723
 30
0.0
 40
0.3788798378509489
 50
175.7519724027
 51
279.3397136419
  0
ARC
  5
3F
  8
0
  6
CONTINUOUS
 62
     7
 10
-27.935150297
 20
1015.7076092743
 30
0.0
 40
0.3875583187196668
 50
352.2577538423
 51
92.6467978145
  0
LINE
  5
40
  8
0
  6
CONTINUOUS
 62
     7
 10
-27.953047317
 20
1017.5947541401
 30
0.0
 11
-27.953047317
 21
1016.0947541401
 31
0.0
  0
LINE
  5
41
  8
0
  6
CONTINUOUS
 62
     7
 10
318.3508002603
 20
1016.0947541401
 30
0.0
 11
318.3508002603
 21
1017.5947541401
 31
0.0
  0
ARC
  5
42
  8
0
  6
CONTINUOUS
 62
     7
 10
318.3227350555
 20
1015.7169151836
 30
0.0
 40
0.3788798394721148
 50
85.7519725633
 51
189.3397138505
  0
POLYLINE
  5
43
  8
0
  6
CONTINUOUS
 62
     7
 66
     1
 10
0.0
 20
0.0
 30
0.0
  0
VERTEX
  5
1AC
  8
0
  6
CONTINUOUS
 62
     7
 10
322.4488764716
 20
1013.4966779287
 30
0.0
  0
VERTEX
  5
1AD
  8
0
  6
CONTINUOUS
 62
     7
 10
322.3980815307
 20
1013.3231448125
 30
0.0
  0
VERTEX
  5
1AE
  8
0
  6
CONTINUOUS
 62
     7
 10
322.2361650685
 20
1013.1969822581
 30
0.0
  0
VERTEX
  5
1AF
  8
0
  6
CONTINUOUS
 62
     7
 10
321.9577105283
 20
1013.1203139157
 30
0.0
  0
VERTEX
  5
1B0
  8
0
  6
CONTINUOUS
 62
     7
 10
321.5701909212
 20
1013.0947541534
 30
0.0
  0
VERTEX
  5
1B1
  8
0
  6
CONTINUOUS
 62
     7
 10
321.0938609789
 20
1013.1203091607
 30
0.0
  0
VERTEX
  5
1B2
  8
0
  6
CONTINUOUS
 62
     7
 10
320.55837616
 20
1013.1969851236
 30
0.0
  0
VERTEX
  5
1B3
  8
0
  6
CONTINUOUS
 62
     7
 10
320.0037288227
 20
1013.3221093104
 30
0.0
  0
VERTEX
  5
1B4
  8
0
  6
CONTINUOUS
 62
     7
 10
319.4488764716
 20
1013.4966779287
 30
0.0
  0
SEQEND
  5
1AB
  8
0
  6
CONTINUOUS
 62
     7
  0
LINE
  5
44
  8
0
  6
CONTINUOUS
 62
     7
 10
322.4488764716
 20
-782.4052458599
 30
0.0
 11
322.4488764716
 21
1013.4966779287
 31
0.0
  0
LINE
  5
45
  8
0
  6
CONTINUOUS
 62
     7
 10
322.4488764716
 20
-782.4052458599
 30
0.0
 11
319.4488764716
 21
-782.4052458599
 31
0.0
  0
LINE
  5
46
  8
0
  6
CONTINUOUS
 62
     7
 10
322.4488764716
 20
1013.4966779287
 30
0.0
 11
320.9488764716
 21
1013.4966779287
 31
0.0
  0
CIRCLE
  5
47
  8
0
  6
CONTINUOUS
 62
     7
 10
-8.8011235284
 20
115.0947541401
 30
0.0
 40
3.000000000000004
  0
CIRCLE
  5
48
  8
0
  6
CONTINUOUS
 62
     7
 10
-8.8011235284
 20
-734.9052458599
 30
0.0
 40
3.000000000000004
  0
CIRCLE
  5
49
  8
0
  6
CONTINUOUS
 62
     7
 10
-8.8011235284
 20
965.0947541401
 30
0.0
 40
3.000000000000003
  0
CIRCLE
  5
4A
  8
0
  6
CONTINUOUS
 62
     7
 10
299.1988764716
 20
115.0947541401
 30
0.0
 40
3.0
  0
CIRCLE
  5
4B
  8
0
  6
CONTINUOUS
 62
     7
 10
299.1988764716
 20
965.0947541401
 30
0.0
 40
3.0
  0
CIRCLE
  5
4C
  8
0
  6
CONTINUOUS
 62
     7
 10
299.1988764716
 20
-734.9052458599
 30
0.0
 40
3.0
  0
LINE
  5
4D
  8
0
  6
CONTINUOUS
 62
     7
 10
-28.4298031848
 20
1016.0947541401
 30
0.0
 11
-27.953047317
 21
1016.0947541401
 31
0.0
  0
LINE
  5
4E
  8
0
  6
CONTINUOUS
 62
     7
 10
-28.4298031848
 20
1017.5947541401
 30
0.0
 11
-28.4298031848
 21
1016.0947541401
 31
0.0
  0
LINE
  5
4F
  8
0
  6
CONTINUOUS
 62
     7
 10
-28.4298031848
 20
1017.5947541401
 30
0.0
 11
-27.953047317
 21
1017.5947541401
 31
0.0
  0
LINE
  5
50
  8
0
  6
CONTINUOUS
 62
     7
 10
-32.0511235284
 20
1013.4966779287
 30
0.0
 11
-32.0511235284
 21
1014.5947541401
 31
0.0
  0
LINE
  5
51
  8
0
  6
CONTINUOUS
 62
     7
 10
-30.5511235284
 20
1014.5947541401
 30
0.0
 11
-32.0511235284
 21
1014.5947541401
 31
0.0
  0
LINE
  5
52
  8
0
  6
CONTINUOUS
 62
     7
 10
-30.5511235284
 20
1013.4966779287
 30
0.0
 11
-30.5511235284
 21
1014.5947541401
 31
0.0
  0
LINE
  5
53
  8
0
  6
CONTINUOUS
 62
     7
 10
320.9488764716
 20
1014.5947541401
 30
0.0
 11
320.9488764716
 21
1013.4966779287
 31
0.0
  0
LINE
  5
54
  8
0
  6
CONTINUOUS
 62
     7
 10
322.4488764716
 20
1014.5947541401
 30
0.0
 11
320.9488764716
 21
1014.5947541401
 31
0.0
  0
LINE
  5
55
  8
0
  6
CONTINUOUS
 62
     7
 10
322.4488764716
 20
1014.5947541401
 30
0.0
 11
322.4488764716
 21
1013.4966779287
 31
0.0
  0
LINE
  5
56
  8
0
  6
CONTINUOUS
 62
     7
 10
318.8275561281
 20
1016.0947541401
 30
0.0
 11
318.8275561281
 21
1017.5947541401
 31
0.0
  0
LINE
  5
57
  8
0
  6
CONTINUOUS
 62
     7
 10
318.3508002603
 20
1016.0947541401
 30
0.0
 11
318.8275561281
 21
1016.0947541401
 31
0.0
  0
LINE
  5
58
  8
0
  6
CONTINUOUS
 62
     7
 10
318.3508002603
 20
1017.5947541401
 30
0.0
 11
318.8275561281
 21
1017.5947541401
 31
0.0
  0
LINE
  5
59
  8
0
  6
CONTINUOUS
 62
     7
 10
-29.0511235284
 20
1017.5947541401
 30
0.0
 11
-28.4298031848
 21
1017.5947541401
 31
0.0
  0
LINE
  5
5A
  8
0
  6
CONTINUOUS
 62
     7
 10
-28.4298031848
 20
1016.0947541401
 30
0.0
 11
-28.4298031848
 21
1017.5947541401
 31
0.0
  0
LINE
  5
5B
  8
0
  6
CONTINUOUS
 62
     7
 10
-29.0511235284
 20
1016.0947541401
 30
0.0
 11
-29.0511235284
 21
1017.5947541401
 31
0.0
  0
LINE
  5
5C
  8
0
  6
CONTINUOUS
 62
     7
 10
-29.0511235284
 20
1016.0947541401
 30
0.0
 11
-28.4298031848
 21
1016.0947541401
 31
0.0
  0
LINE
  5
5D
  8
0
  6
CONTINUOUS
 62
     7
 10
318.8275561281
 20
1017.5947541401
 30
0.0
 11
318.8275561281
 21
1016.0947541401
 31
0.0
  0
LINE
  5
5E
  8
0
  6
CONTINUOUS
 62
     7
 10
319.4488764716
 20
1017.5947541401
 30
0.0
 11
319.4488764716
 21
1016.0947541401
 31
0.0
  0
LINE
  5
5F
  8
0
  6
CONTINUOUS
 62
     7
 10
318.8275561281
 20
1016.0947541401
 30
0.0
 11
319.4488764716
 21
1016.0947541401
 31
0.0
  0
LINE
  5
60
  8
0
  6
CONTINUOUS
 62
     7
 10
318.8275561281
 20
1017.5947541401
 30
0.0
 11
319.4488764716
 21
1017.5947541401
 31
0.0
  0
ARC
  5
61
  8
0
  6
CONTINUOUS
 62
     7
 10
-29.0511235284
 20
1014.5947541401
 30
0.0
 40
2.999999999999886
 50
90.0
 51
180.0
  0
ARC
  5
62
  8
0
  6
CONTINUOUS
 62
     7
 10
-29.0511235284
 20
1014.5947541401
 30
0.0
 40
1.500000000000387
 50
90.0
 51
180.0
  0
ARC
  5
63
  8
0
  6
CONTINUOUS
 62
     7
 10
319.4488764716
 20
1014.5947541401
 30
0.0
 40
3.000000000000114
 50
0.0
 51
90.0
  0
ARC
  5
64
  8
0
  6
CONTINUOUS
 62
     7
 10
319.4488764716
 20
1014.5947541401
 30
0.0
 40
1.500000000000568
 50
0.0
 51
90.0
  0
TEXT
  5
65
  8
SLD-0
 10
658.6030507697
 20
1040.2095408802
 30
0.0
 40
19.05
  1
Innenansicht
 41
0.7
 11
658.6030507697
 21
1034.7666837374
 31
0.0
 73
     1
  0
LINE
  5
66
  8
0
  6
CONTINUOUS
 62
     7
 10
422.5790363073
 20
-643.4052458599
 30
0.0
 11
422.0790363073
 21
-643.9052458599
 31
0.0
  0
LINE
  5
67
  8
0
  6
CONTINUOUS
 62
     7
 10
422.0790363073
 20
-650.9052458599
 30
0.0
 11
422.5790363073
 21
-651.4052458599
 31
0.0
  0
LINE
  5
68
  8
0
  6
CONTINUOUS
 62
     7
 10
426.0790363073
 20
-643.4052458599
 30
0.0
 11
422.5790363073
 21
-643.4052458599
 31
0.0
  0
LINE
  5
69
  8
0
  6
CONTINUOUS
 62
     7
 10
422.5790363073
 20
-651.4052458599
 30
0.0
 11
426.0790363073
 21
-651.4052458599
 31
0.0
  0
LINE
  5
6A
  8
0
  6
CONTINUOUS
 62
     7
 10
422.5790363073
 20
-647.4052458599
 30
0.0
 11
422.5790363073
 21
-651.4052458599
 31
0.0
  0
LINE
  5
6B
  8
0
  6
CONTINUOUS
 62
     7
 10
422.5790363073
 20
-643.4052458599
 30
0.0
 11
422.5790363073
 21
-647.4052458599
 31
0.0
  0
LINE
  5
6C
  8
0
  6
CONTINUOUS
 62
     7
 10
422.0790363073
 20
-647.4052458599
 30
0.0
 11
422.0790363073
 21
-650.9052458599
 31
0.0
  0
LINE
  5
6D
  8
0
  6
CONTINUOUS
 62
     7
 10
422.0790363073
 20
-643.9052458599
 30
0.0
 11
422.0790363073
 21
-647.4052458599
 31
0.0
  0
LINE
  5
6E
  8
0
  6
CONTINUOUS
 62
     7
 10
440.5790363073
 20
-782.4052458599
 30
0.0
 11
426.0790363073
 21
-782.4052458599
 31
0.0
  0
LINE
  5
6F
  8
0
  6
CONTINUOUS
 62
     7
 10
426.0790363073
 20
-782.4052458599
 30
0.0
 11
426.0790363073
 21
1014.5947541401
 31
0.0
  0
ARC
  5
70
  8
0
  6
CONTINUOUS
 62
     7
 10
442.0790363073
 20
1016.0947541401
 30
0.0
 40
3.000000000000078
 50
210.0
 51
240.0
  0
LINE
  5
71
  8
0
  6
CONTINUOUS
 62
     7
 10
426.0790363073
 20
1014.5947541401
 30
0.0
 11
426.0790363073
 21
1017.5947541401
 31
0.0
  0
LINE
  5
72
  8
0
  6
CONTINUOUS
 62
     7
 10
439.4809600959
 20
1017.5947541401
 30
0.0
 11
426.0790363073
 21
1017.5947541401
 31
0.0
  0
POLYLINE
  5
73
  8
0
  6
CONTINUOUS
 62
     7
 66
     1
 10
0.0
 20
0.0
 30
0.0
  0
VERTEX
  5
1B6
  8
0
  6
CONTINUOUS
 62
     7
 10
439.4809600959
 20
1014.5947541401
 30
0.0
  0
VERTEX
  5
1B7
  8
0
  6
CONTINUOUS
 62
     7
 10
439.3074269797
 20
1015.1444718127
 30
0.0
  0
VERTEX
  5
1B8
  8
0
  6
CONTINUOUS
 62
     7
 10
439.1812644253
 20
1015.7042685735
 30
0.0
  0
VERTEX
  5
1B9
  8
0
  6
CONTINUOUS
 62
     7
 10
439.1045960833
 20
1016.2396710589
 30
0.0
  0
VERTEX
  5
1BA
  8
0
  6
CONTINUOUS
 62
     7
 10
439.0790363206
 20
1016.7160803777
 30
0.0
  0
VERTEX
  5
1BB
  8
0
  6
CONTINUOUS
 62
     7
 10
439.1045913274
 20
1017.1035438823
 30
0.0
  0
VERTEX
  5
1BC
  8
0
  6
CONTINUOUS
 62
     7
 10
439.1812672907
 20
1017.3820486063
 30
0.0
  0
VERTEX
  5
1BD
  8
0
  6
CONTINUOUS
 62
     7
 10
439.3063914783
 20
1017.5429974935
 30
0.0
  0
VERTEX
  5
1BE
  8
0
  6
CONTINUOUS
 62
     7
 10
439.4809600959
 20
1017.5947541401
 30
0.0
  0
SEQEND
  5
1B5
  8
0
  6
CONTINUOUS
 62
     7
  0
LINE
  5
74
  8
0
  6
CONTINUOUS
 62
     7
 10
439.4809600959
 20
1016.0947541401
 30
0.0
 11
439.4809600959
 21
1017.5947541401
 31
0.0
  0
ARC
  5
75
  8
0
  6
CONTINUOUS
 62
     7
 10
439.4528948905
 20
1015.7169151846
 30
0.0
 40
0.3788798385155182
 50
85.751972455
 51
189.3397137742
  0
POLYLINE
  5
76
  8
0
  6
CONTINUOUS
 62
     7
 66
     1
 10
0.0
 20
0.0
 30
0.0
  0
VERTEX
  5
1C0
  8
0
  6
CONTINUOUS
 62
     7
 10
443.5790363073
 20
1013.4966779287
 30
0.0
  0
VERTEX
  5
1C1
  8
0
  6
CONTINUOUS
 62
     7
 10
443.5282413663
 20
1013.3231448125
 30
0.0
  0
VERTEX
  5
1C2
  8
0
  6
CONTINUOUS
 62
     7
 10
443.3663249041
 20
1013.1969822581
 30
0.0
  0
VERTEX
  5
1C3
  8
0
  6
CONTINUOUS
 62
     7
 10
443.0878703653
 20
1013.1203139165
 30
0.0
  0
VERTEX
  5
1C4
  8
0
  6
CONTINUOUS
 62
     7
 10
442.7003507568
 20
1013.0947541534
 30
0.0
  0
VERTEX
  5
1C5
  8
0
  6
CONTINUOUS
 62
     7
 10
442.2240208189
 20
1013.1203091598
 30
0.0
  0
VERTEX
  5
1C6
  8
0
  6
CONTINUOUS
 62
     7
 10
441.6885359956
 20
1013.1969851236
 30
0.0
  0
VERTEX
  5
1C7
  8
0
  6
CONTINUOUS
 62
     7
 10
441.1338886584
 20
1013.3221093103
 30
0.0
  0
VERTEX
  5
1C8
  8
0
  6
CONTINUOUS
 62
     7
 10
440.5790363073
 20
1013.4966779287
 30
0.0
  0
SEQEND
  5
1BF
  8
0
  6
CONTINUOUS
 62
     7
  0
LINE
  5
77
  8
0
  6
CONTINUOUS
 62
     7
 10
442.0790363073
 20
1013.4966779287
 30
0.0
 11
443.5790363073
 21
1013.4966779287
 31
0.0
  0
LINE
  5
78
  8
0
  6
CONTINUOUS
 62
     7
 10
443.5790363073
 20
1013.4966779287
 30
0.0
 11
443.5790363073
 21
-782.4052458599
 31
0.0
  0
LINE
  5
79
  8
0
  6
CONTINUOUS
 62
     7
 10
443.5790363073
 20
-782.4052458599
 30
0.0
 11
440.5790363073
 21
-782.4052458599
 31
0.0
  0
LINE
  5
7A
  8
0
  6
CONTINUOUS
 62
     7
 10
439.9577159637
 20
1016.0947541401
 30
0.0
 11
439.9577159637
 21
1017.5947541401
 31
0.0
  0
LINE
  5
7B
  8
0
  6
CONTINUOUS
 62
     7
 10
439.4809600959
 20
1016.0947541401
 30
0.0
 11
439.9577159637
 21
1016.0947541401
 31
0.0
  0
LINE
  5
7C
  8
0
  6
CONTINUOUS
 62
     7
 10
439.4809600959
 20
1017.5947541401
 30
0.0
 11
439.9577159637
 21
1017.5947541401
 31
0.0
  0
LINE
  5
7D
  8
0
  6
CONTINUOUS
 62
     7
 10
443.5790363073
 20
1014.5947541401
 30
0.0
 11
442.0790363073
 21
1014.5947541401
 31
0.0
  0
LINE
  5
7E
  8
0
  6
CONTINUOUS
 62
     7
 10
442.0790363073
 20
1014.5947541401
 30
0.0
 11
442.0790363073
 21
1013.4966779287
 31
0.0
  0
LINE
  5
7F
  8
0
  6
CONTINUOUS
 62
     7
 10
443.5790363073
 20
1014.5947541401
 30
0.0
 11
443.5790363073
 21
1013.4966779287
 31
0.0
  0
LINE
  5
80
  8
0
  6
CONTINUOUS
 62
     7
 10
439.9577159637
 20
1017.5947541401
 30
0.0
 11
439.9577159637
 21
1016.0947541401
 31
0.0
  0
LINE
  5
81
  8
0
  6
CONTINUOUS
 62
     7
 10
440.5790363073
 20
1017.5947541401
 30
0.0
 11
440.5790363073
 21
1016.0947541401
 31
0.0
  0
LINE
  5
82
  8
0
  6
CONTINUOUS
 62
     7
 10
439.9577159637
 20
1017.5947541401
 30
0.0
 11
440.5790363073
 21
1017.5947541401
 31
0.0
  0
LINE
  5
83
  8
0
  6
CONTINUOUS
 62
     7
 10
439.9577159637
 20
1016.0947541401
 30
0.0
 11
440.5790363073
 21
1016.0947541401
 31
0.0
  0
ARC
  5
84
  8
0
  6
CONTINUOUS
 62
     7
 10
440.5790363073
 20
1014.5947541401
 30
0.0
 40
1.500000000000341
 50
0.0
 51
90.0
  0
ARC
  5
85
  8
0
  6
CONTINUOUS
 62
     7
 10
440.5790363073
 20
1014.5947541401
 30
0.0
 40
2.999999999999886
 50
0.0
 51
90.0
  0
LINE
  5
86
  8
0
  6
CONTINUOUS
 62
     7
 10
419.5790363073
 20
1016.0947541401
 30
0.0
 11
419.5790363073
 21
1017.5947541401
 31
0.0
  0
LINE
  5
87
  8
0
  6
CONTINUOUS
 62
     7
 10
426.0790363073
 20
1017.5947541401
 30
0.0
 11
419.5790363073
 21
1017.5947541401
 31
0.0
  0
LINE
  5
88
  8
0
  6
CONTINUOUS
 62
     7
 10
426.0790363073
 20
1016.0947541401
 30
0.0
 11
419.5790363073
 21
1016.0947541401
 31
0.0
  0
ARC
  5
89
  8
0
  6
HIDDEN
 62
     7
 10
442.0790363073
 20
-775.4052458599
 30
0.0
 40
6.0
 50
90.0
 51
270.0
  0
ARC
  5
8A
  8
0
  6
HIDDEN
 62
     7
 10
442.0790363073
 20
1003.5947541401
 30
0.0
 40
6.0
 50
90.0
 51
270.0
  0
LINE
  5
8B
  8
0
  6
HIDDEN
 62
     7
 10
441.0790363073
 20
-647.4052458599
 30
0.0
 11
441.0790363073
 21
-652.4052458599
 31
0.0
  0
LINE
  5
8C
  8
0
  6
HIDDEN
 62
     7
 10
441.0790363073
 20
-642.4052458599
 30
0.0
 11
441.0790363073
 21
-647.4052458599
 31
0.0
  0
POLYLINE
  5
8D
  8
0
  6
HIDDEN
 62
     7
 66
     1
 10
0.0
 20
0.0
 30
0.0
  0
VERTEX
  5
1CA
  8
0
  6
HIDDEN
 62
     7
 10
439.4809600959
 20
1014.5947541401
 30
0.0
  0
VERTEX
  5
1CB
  8
0
  6
HIDDEN
 62
     7
 10
439.4809600959
 20
1014.5947541401
 30
0.0
  0
SEQEND
  5
1C9
  8
0
  6
HIDDEN
 62
     7
  0
ARC
  5
8E
  8
0
  6
HIDDEN
 62
     7
 10
441.6918914402
 20
1013.4787809101
 30
0.0
 40
0.3875583199223794
 50
262.2577537505
 51
2.6467976099
  0
POLYLINE
  5
8F
  8
0
  6
HIDDEN
 62
     7
 66
     1
 10
0.0
 20
0.0
 30
0.0
  0
VERTEX
  5
1CD
  8
0
  6
HIDDEN
 62
     7
 10
440.5790363073
 20
1013.4966779287
 30
0.0
  0
VERTEX
  5
1CE
  8
0
  6
HIDDEN
 62
     7
 10
440.5790363073
 20
1013.4966779287
 30
0.0
  0
SEQEND
  5
1CC
  8
0
  6
HIDDEN
 62
     7
  0
LINE
  5
90
  8
0
  6
HIDDEN
 62
     7
 10
439.4809600959
 20
1016.0947541401
 30
0.0
 11
426.0790363073
 21
1016.0947541401
 31
0.0
  0
LINE
  5
91
  8
0
  6
HIDDEN
 62
     7
 10
442.0790363073
 20
1013.4966779287
 30
0.0
 11
442.0790363073
 21
-782.4052458599
 31
0.0
  0
LINE
  5
92
  8
0
  6
HIDDEN
 62
     7
 10
439.068475778
 20
-730.7132393488
 30
0.0
 11
439.068475778
 21
-739.097252371
 31
0.0
  0
LINE
  5
93
  8
0
  6
HIDDEN
 62
     7
 10
439.068475778
 20
119.2867606512
 30
0.0
 11
439.068475778
 21
110.902747629
 31
0.0
  0
LINE
  5
94
  8
0
  6
HIDDEN
 62
     7
 10
439.068475778
 20
969.2867606512
 30
0.0
 11
439.068475778
 21
960.902747629
 31
0.0
  0
LINE
  5
95
  8
0
  6
HIDDEN
 62
     7
 10
439.9790363073
 20
-731.9052458599
 30
0.0
 11
439.9790363073
 21
-737.9052458599
 31
0.0
  0
LINE
  5
96
  8
0
  6
HIDDEN
 62
     7
 10
439.9790363073
 20
118.0947541401
 30
0.0
 11
439.9790363073
 21
112.0947541401
 31
0.0
  0
LINE
  5
97
  8
0
  6
HIDDEN
 62
     7
 10
439.9790363073
 20
968.0947541401
 30
0.0
 11
439.9790363073
 21
962.0947541401
 31
0.0
  0
POLYLINE
  5
98
  8
0
  6
HIDDEN
 62
     7
 66
     1
 10
0.0
 20
0.0
 30
0.0
  0
VERTEX
  5
1D0
  8
0
  6
HIDDEN
 62
     7
 10
439.4809600959
 20
1014.5947541401
 30
0.0
  0
VERTEX
  5
1D1
  8
0
  6
HIDDEN
 62
     7
 10
439.4809600959
 20
1014.5947541401
 30
0.0
  0
SEQEND
  5
1CF
  8
0
  6
HIDDEN
 62
     7
  0
POLYLINE
  5
99
  8
0
  6
HIDDEN
 62
     7
 66
     1
 10
0.0
 20
0.0
 30
0.0
  0
VERTEX
  5
1D3
  8
0
  6
HIDDEN
 62
     7
 10
440.5790363073
 20
1013.4966779287
 30
0.0
  0
VERTEX
  5
1D4
  8
0
  6
HIDDEN
 62
     7
 10
440.5790363073
 20
1013.4966779287
 30
0.0
  0
SEQEND
  5
1D2
  8
0
  6
HIDDEN
 62
     7
  0
LINE
  5
9A
  8
0
  6
HIDDEN
 62
     7
 10
436.0790363073
 20
967.5947541401
 30
0.0
 11
436.0790363073
 21
-739.4052458599
 31
0.0
  0
LINE
  5
9B
  8
0
  6
HIDDEN
 62
     7
 10
436.0790363073
 20
-739.4052458599
 30
0.0
 11
436.0790363073
 21
-775.4052458599
 31
0.0
  0
LINE
  5
9C
  8
0
  6
HIDDEN
 62
     7
 10
436.0790363073
 20
1003.5947541401
 30
0.0
 11
436.0790363073
 21
967.5947541401
 31
0.0
  0
LINE
  5
9D
  8
0
  6
HIDDEN
 62
     7
 10
442.0790363073
 20
-642.4052458599
 30
0.0
 11
441.0790363073
 21
-642.4052458599
 31
0.0
  0
LINE
  5
9E
  8
0
  6
HIDDEN
 62
     7
 10
441.0790363073
 20
-652.4052458599
 30
0.0
 11
442.0790363073
 21
-652.4052458599
 31
0.0
  0
LINE
  5
9F
  8
0
  6
HIDDEN
 62
     7
 10
441.0790363073
 20
-643.4052458599
 30
0.0
 11
426.0790363073
 21
-643.4052458599
 31
0.0
  0
LINE
  5
A0
  8
0
  6
HIDDEN
 62
     7
 10
426.0790363073
 20
-651.4052458599
 30
0.0
 11
441.0790363073
 21
-651.4052458599
 31
0.0
  0
LINE
  5
A1
  8
0
  6
HIDDEN
 62
     7
 10
439.0790363203
 20
1016.7161273244
 30
0.0
 11
439.0790363203
 21
1015.6554407322
 31
0.0
  0
LINE
  5
A2
  8
0
  6
HIDDEN
 62
     7
 10
441.6396700542
 20
1013.0947541531
 30
0.0
 11
442.7003038012
 21
1013.0947541531
 31
0.0
  0
ARC
  5
A3
  8
0
  6
HIDDEN
 62
     7
 10
441.2790363073
 20
-741.792580908
 30
0.0
 40
0.8000000000000107
 50
0.0
 51
52.6241925045
  0
ARC
  5
A4
  8
0
  6
HIDDEN
 62
     7
 10
441.2790363073
 20
-728.0179108118
 30
0.0
 40
0.8000000000000107
 50
307.3758074955
 51
0.0
  0
ARC
  5
A5
  8
0
  6
HIDDEN
 62
     7
 10
441.2790363073
 20
-741.792580908
 30
0.0
 40
2.299999999999955
 50
0.0
 51
52.6241925045
  0
ARC
  5
A6
  8
0
  6
HIDDEN
 62
     7
 10
441.2790363073
 20
-728.0179108118
 30
0.0
 40
2.299999999999955
 50
307.3758074955
 51
0.0
  0
ARC
  5
A7
  8
0
  6
HIDDEN
 62
     7
 10
441.2790363073
 20
108.207419092
 30
0.0
 40
0.7999999999999994
 50
0.0
 51
52.6241925045
  0
ARC
  5
A8
  8
0
  6
HIDDEN
 62
     7
 10
441.2790363073
 20
121.9820891882
 30
0.0
 40
0.7999999999999994
 50
307.3758074955
 51
0.0
  0
ARC
  5
A9
  8
0
  6
HIDDEN
 62
     7
 10
441.2790363073
 20
108.207419092
 30
0.0
 40
2.299999999999987
 50
0.0
 51
52.6241925045
  0
ARC
  5
AA
  8
0
  6
HIDDEN
 62
     7
 10
441.2790363073
 20
121.9820891882
 30
0.0
 40
2.299999999999987
 50
307.3758074955
 51
0.0
  0
ARC
  5
AB
  8
0
  6
HIDDEN
 62
     7
 10
441.2790363073
 20
958.207419092
 30
0.0
 40
0.8000000000000107
 50
0.0
 51
52.6241925045
  0
ARC
  5
AC
  8
0
  6
HIDDEN
 62
     7
 10
441.2790363073
 20
971.9820891882
 30
0.0
 40
0.8000000000000107
 50
307.3758074955
 51
0.0
  0
ARC
  5
AD
  8
0
  6
HIDDEN
 62
     7
 10
441.2790363073
 20
958.207419092
 30
0.0
 40
2.300000000000044
 50
0.0
 51
52.6241925045
  0
ARC
  5
AE
  8
0
  6
HIDDEN
 62
     7
 10
441.2790363073
 20
971.9820891882
 30
0.0
 40
2.300000000000044
 50
307.3758074955
 51
0.0
  0
LINE
  5
AF
  8
0
  6
HIDDEN
 62
     7
 10
441.7646685896
 20
-728.6536476177
 30
0.0
 11
439.068475778
 21
-730.7132393488
 31
0.0
  0
LINE
  5
B0
  8
0
  6
HIDDEN
 62
     7
 10
439.068475778
 20
-739.097252371
 30
0.0
 11
441.7646685896
 21
-741.1568441021
 31
0.0
  0
LINE
  5
B1
  8
0
  6
HIDDEN
 62
     7
 10
441.7646685896
 20
121.3463523823
 30
0.0
 11
439.068475778
 21
119.2867606512
 31
0.0
  0
LINE
  5
B2
  8
0
  6
HIDDEN
 62
     7
 10
439.068475778
 20
110.902747629
 30
0.0
 11
441.7646685896
 21
108.8431558979
 31
0.0
  0
LINE
  5
B3
  8
0
  6
HIDDEN
 62
     7
 10
441.7646685896
 20
971.3463523823
 30
0.0
 11
439.068475778
 21
969.2867606512
 31
0.0
  0
LINE
  5
B4
  8
0
  6
HIDDEN
 62
     7
 10
439.068475778
 20
960.902747629
 30
0.0
 11
441.7646685896
 21
958.8431558979
 31
0.0
  0
LINE
  5
B5
  8
0
  6
HIDDEN
 62
     7
 10
442.6752291189
 20
-729.8456541288
 30
0.0
 11
439.9790363073
 21
-731.9052458599
 31
0.0
  0
LINE
  5
B6
  8
0
  6
HIDDEN
 62
     7
 10
439.9790363073
 20
-737.9052458599
 30
0.0
 11
442.6752291189
 21
-739.964837591
 31
0.0
  0
LINE
  5
B7
  8
0
  6
HIDDEN
 62
     7
 10
442.6752291189
 20
120.1543458712
 30
0.0
 11
439.9790363073
 21
118.0947541401
 31
0.0
  0
LINE
  5
B8
  8
0
  6
HIDDEN
 62
     7
 10
439.9790363073
 20
112.0947541401
 30
0.0
 11
442.6752291189
 21
110.035162409
 31
0.0
  0
LINE
  5
B9
  8
0
  6
HIDDEN
 62
     7
 10
442.6752291189
 20
970.1543458712
 30
0.0
 11
439.9790363073
 21
968.0947541401
 31
0.0
  0
LINE
  5
BA
  8
0
  6
HIDDEN
 62
     7
 10
439.9790363073
 20
962.0947541401
 30
0.0
 11
442.6752291189
 21
960.035162409
 31
0.0
  0
LINE
  5
BB
  8
0
  6
HIDDEN
 62
     7
 10
439.068475778
 20
-739.097252371
 30
0.0
 11
439.9790363073
 21
-737.9052458599
 31
0.0
  0
LINE
  5
BC
  8
0
  6
HIDDEN
 62
     7
 10
439.9790363073
 20
-731.9052458599
 30
0.0
 11
439.068475778
 21
-730.7132393488
 31
0.0
  0
LINE
  5
BD
  8
0
  6
HIDDEN
 62
     7
 10
439.068475778
 20
110.902747629
 30
0.0
 11
439.9790363073
 21
112.0947541401
 31
0.0
  0
LINE
  5
BE
  8
0
  6
HIDDEN
 62
     7
 10
439.9790363073
 20
118.0947541401
 30
0.0
 11
439.068475778
 21
119.2867606512
 31
0.0
  0
LINE
  5
BF
  8
0
  6
HIDDEN
 62
     7
 10
439.068475778
 20
960.902747629
 30
0.0
 11
439.9790363073
 21
962.0947541401
 31
0.0
  0
LINE
  5
C0
  8
0
  6
HIDDEN
 62
     7
 10
439.9790363073
 20
968.0947541401
 30
0.0
 11
439.068475778
 21
969.2867606512
 31
0.0
  0
LINE
  5
C1
  8
0
  6
HIDDEN
 62
     7
 10
430.0790363073
 20
1016.0947541401
 30
0.0
 11
430.0790363073
 21
1017.5947541401
 31
0.0
  0
LINE
  5
C2
  8
0
  6
HIDDEN
 62
     7
 10
442.7003438012
 20
1013.0947541531
 30
0.0
 11
442.7004094841
 21
1013.0947541531
 31
0.0
  0
LINE
  5
C3
  8
0
  6
CONTINUOUS
 62
     7
 10
560.5692334863
 20
1013.0947541531
 30
0.0
 11
560.5692164118
 21
1013.0947541531
 31
0.0
  0
ARC
  5
C4
  8
0
  6
CONTINUOUS
 62
     7
 10
604.6298672407
 20
967.5947541401
 30
0.0
 40
42.0
 50
90.0
 51
180.0
  0
ARC
  5
C5
  8
0
  6
CONTINUOUS
 62
     7
 10
604.6298672407
 20
967.5947541401
 30
0.0
 40
30.0
 50
90.0
 51
180.0
  0
ARC
  5
C6
  8
0
  6
CONTINUOUS
 62
     7
 10
604.6298672407
 20
-739.4052458599
 30
0.0
 40
41.99999999999989
 50
180.0
 51
270.0
  0
ARC
  5
C7
  8
0
  6
CONTINUOUS
 62
     7
 10
604.6298672407
 20
-739.4052458599
 30
0.0
 40
29.99999999999989
 50
180.0
 51
270.0
  0
LINE
  5
C8
  8
0
  6
CONTINUOUS
 62
     7
 10
574.6298672407
 20
967.5947541401
 30
0.0
 11
574.6298672407
 21
-739.4052458599
 31
0.0
  0
LINE
  5
C9
  8
0
  6
CONTINUOUS
 62
     7
 10
562.6298672407
 20
967.5947541401
 30
0.0
 11
562.6298672407
 21
-739.4052458599
 31
0.0
  0
LINE
  5
CA
  8
0
  6
CONTINUOUS
 62
     7
 10
867.1298672407
 20
-781.4052458599
 30
0.0
 11
604.6298672407
 21
-781.4052458599
 31
0.0
  0
LINE
  5
CB
  8
0
  6
CONTINUOUS
 62
     7
 10
867.1298672407
 20
-769.4052458599
 30
0.0
 11
604.6298672407
 21
-769.4052458599
 31
0.0
  0
LINE
  5
CC
  8
0
  6
CONTINUOUS
 62
     7
 10
604.6298672407
 20
1009.5947541401
 30
0.0
 11
867.1298672407
 21
1009.5947541401
 31
0.0
  0
LINE
  5
CD
  8
0
  6
CONTINUOUS
 62
     7
 10
604.6298672407
 20
997.5947541401
 30
0.0
 11
867.1298672407
 21
997.5947541401
 31
0.0
  0
ARC
  5
CE
  8
0
  6
CONTINUOUS
 62
     7
 10
867.1298672407
 20
-739.4052458599
 30
0.0
 40
42.0
 50
270.0
 51
360.0
  0
ARC
  5
CF
  8
0
  6
CONTINUOUS
 62
     7
 10
867.1298672407
 20
-739.4052458599
 30
0.0
 40
30.0
 50
270.0
 51
360.0
  0
ARC
  5
D0
  8
0
  6
CONTINUOUS
 62
     7
 10
867.1298672407
 20
967.5947541401
 30
0.0
 40
42.0
 50
360.0
 51
90.0
  0
ARC
  5
D1
  8
0
  6
CONTINUOUS
 62
     7
 10
867.1298672407
 20
967.5947541401
 30
0.0
 40
30.0
 50
360.0
 51
90.0
  0
LINE
  5
D2
  8
0
  6
CONTINUOUS
 62
     7
 10
909.1298672407
 20
967.5947541401
 30
0.0
 11
909.1298672407
 21
-739.4052458599
 31
0.0
  0
LINE
  5
D3
  8
0
  6
CONTINUOUS
 62
     7
 10
897.1298672407
 20
967.5947541401
 30
0.0
 11
897.1298672407
 21
-739.4052458599
 31
0.0
  0
CIRCLE
  5
D4
  8
0
  6
CONTINUOUS
 62
     7
 10
735.8798672407
 20
-647.4052458599
 30
0.0
 40
4.0
  0
CIRCLE
  5
D5
  8
0
  6
CONTINUOUS
 62
     7
 10
735.8798672407
 20
-647.4052458599
 30
0.0
 40
3.499999999999886
  0
CIRCLE
  5
D6
  8
0
  6
CONTINUOUS
 62
     7
 10
735.8798672407
 20
-647.4052458599
 30
0.0
 40
5.0
  0
LINE
  5
D7
  8
0
  6
CONTINUOUS
 62
     7
 10
597.9183858439
 20
1017.5947541401
 30
0.0
 11
597.9183858439
 21
1016.0947541401
 31
0.0
  0
LINE
  5
D8
  8
0
  6
CONTINUOUS
 62
     7
 10
630.186601817
 20
1016.0947541401
 30
0.0
 11
630.186601817
 21
1017.5947541401
 31
0.0
  0
LINE
  5
D9
  8
0
  6
CONTINUOUS
 62
     7
 10
630.186601817
 20
1017.5947541401
 30
0.0
 11
597.9183858439
 21
1017.5947541401
 31
0.0
  0
LINE
  5
DA
  8
0
  6
CONTINUOUS
 62
     7
 10
630.186601817
 20
1016.0947541401
 30
0.0
 11
597.9183858439
 21
1016.0947541401
 31
0.0
  0
LINE
  5
DB
  8
0
  6
CONTINUOUS
 62
     7
 10
841.5731326644
 20
1016.0947541401
 30
0.0
 11
841.5731326644
 21
1017.5947541401
 31
0.0
  0
LINE
  5
DC
  8
0
  6
CONTINUOUS
 62
     7
 10
841.5731326644
 20
1017.5947541401
 30
0.0
 11
630.186601817
 21
1017.5947541401
 31
0.0
  0
LINE
  5
DD
  8
0
  6
CONTINUOUS
 62
     7
 10
841.5731326644
 20
1016.0947541401
 30
0.0
 11
630.186601817
 21
1016.0947541401
 31
0.0
  0
LINE
  5
DE
  8
0
  6
CONTINUOUS
 62
     7
 10
873.8413486375
 20
1017.5947541401
 30
0.0
 11
873.8413486375
 21
1016.0947541401
 31
0.0
  0
LINE
  5
DF
  8
0
  6
CONTINUOUS
 62
     7
 10
873.8413486375
 20
1017.5947541401
 30
0.0
 11
841.5731326644
 21
1017.5947541401
 31
0.0
  0
LINE
  5
E0
  8
0
  6
CONTINUOUS
 62
     7
 10
873.8413486375
 20
1016.0947541401
 30
0.0
 11
841.5731326644
 21
1016.0947541401
 31
0.0
  0
LINE
  5
E1
  8
0
  6
CONTINUOUS
 62
     7
 10
576.1298672407
 20
1017.5947541401
 30
0.0
 11
576.1298672407
 21
1016.0947541401
 31
0.0
  0
LINE
  5
E2
  8
0
  6
CONTINUOUS
 62
     7
 10
597.9183858439
 20
1017.5947541401
 30
0.0
 11
576.1298672407
 21
1017.5947541401
 31
0.0
  0
LINE
  5
E3
  8
0
  6
CONTINUOUS
 62
     7
 10
597.9183858439
 20
1016.0947541401
 30
0.0
 11
576.1298672407
 21
1016.0947541401
 31
0.0
  0
LINE
  5
E4
  8
0
  6
CONTINUOUS
 62
     7
 10
558.6298672407
 20
-782.4052458599
 30
0.0
 11
560.1298672407
 21
-782.4052458599
 31
0.0
  0
LINE
  5
E5
  8
0
  6
CONTINUOUS
 62
     7
 10
560.1298672407
 20
1014.5947541401
 30
0.0
 11
560.1298672407
 21
-782.4052458599
 31
0.0
  0
LINE
  5
E6
  8
0
  6
CONTINUOUS
 62
     7
 10
558.6298672407
 20
1014.5947541401
 30
0.0
 11
558.6298672407
 21
-782.4052458599
 31
0.0
  0
ARC
  5
E7
  8
0
  6
CONTINUOUS
 62
     7
 10
561.6298672407
 20
1014.5947541401
 30
0.0
 40
1.500000000000114
 50
90.0
 51
180.0
  0
ARC
  5
E8
  8
0
  6
CONTINUOUS
 62
     7
 10
561.6298672407
 20
1014.5947541401
 30
0.0
 40
2.999999999999886
 50
90.0
 51
180.0
  0
LINE
  5
E9
  8
0
  6
CONTINUOUS
 62
     7
 10
576.1298672407
 20
1017.5947541401
 30
0.0
 11
576.1298672407
 21
1016.0947541401
 31
0.0
  0
LINE
  5
EA
  8
0
  6
CONTINUOUS
 62
     7
 10
576.1298672407
 20
1016.0947541401
 30
0.0
 11
561.6298672407
 21
1016.0947541401
 31
0.0
  0
LINE
  5
EB
  8
0
  6
CONTINUOUS
 62
     7
 10
576.1298672407
 20
1017.5947541401
 30
0.0
 11
561.6298672407
 21
1017.5947541401
 31
0.0
  0
LINE
  5
EC
  8
0
  6
CONTINUOUS
 62
     7
 10
895.6298672407
 20
1017.5947541401
 30
0.0
 11
895.6298672407
 21
1016.0947541401
 31
0.0
  0
LINE
  5
ED
  8
0
  6
CONTINUOUS
 62
     7
 10
895.6298672407
 20
1017.5947541401
 30
0.0
 11
873.8413486375
 21
1017.5947541401
 31
0.0
  0
LINE
  5
EE
  8
0
  6
CONTINUOUS
 62
     7
 10
895.6298672407
 20
1016.0947541401
 30
0.0
 11
873.8413486375
 21
1016.0947541401
 31
0.0
  0
LINE
  5
EF
  8
0
  6
CONTINUOUS
 62
     7
 10
895.6298672407
 20
1017.5947541401
 30
0.0
 11
895.6298672407
 21
1016.0947541401
 31
0.0
  0
LINE
  5
F0
  8
0
  6
CONTINUOUS
 62
     7
 10
910.1298672407
 20
1017.5947541401
 30
0.0
 11
895.6298672407
 21
1017.5947541401
 31
0.0
  0
LINE
  5
F1
  8
0
  6
CONTINUOUS
 62
     7
 10
910.1298672407
 20
1016.0947541401
 30
0.0
 11
895.6298672407
 21
1016.0947541401
 31
0.0
  0
ARC
  5
F2
  8
0
  6
CONTINUOUS
 62
     7
 10
910.1298672407
 20
1014.5947541401
 30
0.0
 40
1.500000000000114
 50
0.0
 51
90.0
  0
ARC
  5
F3
  8
0
  6
CONTINUOUS
 62
     7
 10
910.1298672407
 20
1014.5947541401
 30
0.0
 40
3.000000000000114
 50
0.0
 51
90.0
  0
LINE
  5
F4
  8
0
  6
CONTINUOUS
 62
     7
 10
913.1298672407
 20
-782.4052458599
 30
0.0
 11
911.6298672407
 21
-782.4052458599
 31
0.0
  0
LINE
  5
F5
  8
0
  6
CONTINUOUS
 62
     7
 10
913.1298672407
 20
-782.4052458599
 30
0.0
 11
913.1298672407
 21
1014.5947541401
 31
0.0
  0
LINE
  5
F6
  8
0
  6
CONTINUOUS
 62
     7
 10
911.6298672407
 20
-782.4052458599
 30
0.0
 11
911.6298672407
 21
1014.5947541401
 31
0.0
  0
CIRCLE
  5
F7
  8
0
  6
CONTINUOUS
 62
     7
 10
581.8798672407
 20
115.0947541401
 30
0.0
 40
4.192006511087584
  0
CIRCLE
  5
F8
  8
0
  6
CONTINUOUS
 62
     7
 10
581.8798672407
 20
-734.9052458599
 30
0.0
 40
4.192006511087584
  0
CIRCLE
  5
F9
  8
0
  6
CONTINUOUS
 62
     7
 10
581.8798672407
 20
965.0947541401
 30
0.0
 40
4.192006511087584
  0
CIRCLE
  5
FA
  8
0
  6
CONTINUOUS
 62
     7
 10
581.8798672407
 20
115.0947541401
 30
0.0
 40
3.0
  0
CIRCLE
  5
FB
  8
0
  6
CONTINUOUS
 62
     7
 10
581.8798672407
 20
-734.9052458599
 30
0.0
 40
3.0
  0
CIRCLE
  5
FC
  8
0
  6
CONTINUOUS
 62
     7
 10
581.8798672407
 20
965.0947541401
 30
0.0
 40
3.0
  0
CIRCLE
  5
FD
  8
0
  6
CONTINUOUS
 62
     7
 10
889.8798672407
 20
115.0947541401
 30
0.0
 40
4.192006511087698
  0
CIRCLE
  5
FE
  8
0
  6
CONTINUOUS
 62
     7
 10
889.8798672407
 20
965.0947541401
 30
0.0
 40
4.192006511087698
  0
CIRCLE
  5
FF
  8
0
  6
CONTINUOUS
 62
     7
 10
889.8798672407
 20
-734.9052458599
 30
0.0
 40
4.192006511087698
  0
CIRCLE
  5
100
  8
0
  6
CONTINUOUS
 62
     7
 10
889.8798672407
 20
-734.9052458599
 30
0.0
 40
2.999999999999886
  0
CIRCLE
  5
101
  8
0
  6
CONTINUOUS
 62
     7
 10
889.8798672407
 20
965.0947541401
 30
0.0
 40
3.0
  0
CIRCLE
  5
102
  8
0
  6
CONTINUOUS
 62
     7
 10
889.8798672407
 20
115.0947541401
 30
0.0
 40
3.0
  0
ARC
  5
103
  8
0
  6
CONTINUOUS
 62
     7
 10
559.3864766407
 20
1019.6181778903
 30
0.0
 40
6.519629066422549
 50
276.5473023663
 51
290.1267373011
  0
POLYLINE
  5
104
  8
0
  6
CONTINUOUS
 62
     7
 66
     1
 10
0.0
 20
0.0
 30
0.0
  0
VERTEX
  5
1D6
  8
0
  6
CONTINUOUS
 62
     7
 10
560.1298672407
 20
1013.4966779287
 30
0.0
  0
VERTEX
  5
1D7
  8
0
  6
CONTINUOUS
 62
     7
 10
560.1552647112
 20
1013.3231448125
 30
0.0
  0
VERTEX
  5
1D8
  8
0
  6
CONTINUOUS
 62
     7
 10
560.2362229423
 20
1013.1969822581
 30
0.0
  0
VERTEX
  5
1D9
  8
0
  6
CONTINUOUS
 62
     7
 10
560.3754502124
 20
1013.1203139157
 30
0.0
  0
VERTEX
  5
1DA
  8
0
  6
CONTINUOUS
 62
     7
 10
560.569210016
 20
1013.0947541534
 30
0.0
  0
VERTEX
  5
1DB
  8
0
  6
CONTINUOUS
 62
     7
 10
560.8073749871
 20
1013.1203091607
 30
0.0
  0
VERTEX
  5
1DC
  8
0
  6
CONTINUOUS
 62
     7
 10
561.0751173965
 20
1013.1969851236
 30
0.0
  0
VERTEX
  5
1DD
  8
0
  6
CONTINUOUS
 62
     7
 10
561.3524410652
 20
1013.3221093104
 30
0.0
  0
VERTEX
  5
1DE
  8
0
  6
CONTINUOUS
 62
     7
 10
561.6298672407
 20
1013.4966779287
 30
0.0
  0
SEQEND
  5
1D5
  8
0
  6
CONTINUOUS
 62
     7
  0
ARC
  5
105
  8
0
  6
CONTINUOUS
 62
     7
 10
556.6315032847
 20
1016.8322200789
 30
0.0
 40
6.494061636714028
 50
339.8462635512
 51
353.4794223189
  0
POLYLINE
  5
106
  8
0
  6
CONTINUOUS
 62
     7
 66
     1
 10
0.0
 20
0.0
 30
0.0
  0
VERTEX
  5
1E0
  8
0
  6
CONTINUOUS
 62
     7
 10
562.7279434521
 20
1014.5947541401
 30
0.0
  0
VERTEX
  5
1E1
  8
0
  6
CONTINUOUS
 62
     7
 10
562.9014765683
 20
1014.8696129764
 30
0.0
  0
VERTEX
  5
1E2
  8
0
  6
CONTINUOUS
 62
     7
 10
563.0276391227
 20
1015.1495113568
 30
0.0
  0
VERTEX
  5
1E3
  8
0
  6
CONTINUOUS
 62
     7
 10
563.1043074651
 20
1015.4172125995
 30
0.0
  0
VERTEX
  5
1E4
  8
0
  6
CONTINUOUS
 62
     7
 10
563.1298672274
 20
1015.6554172589
 30
0.0
  0
VERTEX
  5
1E5
  8
0
  6
CONTINUOUS
 62
     7
 10
563.1043122201
 20
1015.8491490112
 30
0.0
  0
VERTEX
  5
1E6
  8
0
  6
CONTINUOUS
 62
     7
 10
563.0276362572
 20
1015.9884013732
 30
0.0
  0
VERTEX
  5
1E7
  8
0
  6
CONTINUOUS
 62
     7
 10
562.9025120713
 20
1016.0688758162
 30
0.0
  0
VERTEX
  5
1E8
  8
0
  6
CONTINUOUS
 62
     7
 10
562.7279434521
 20
1016.0947541401
 30
0.0
  0
SEQEND
  5
1DF
  8
0
  6
CONTINUOUS
 62
     7
  0
POLYLINE
  5
107
  8
0
  6
CONTINUOUS
 62
     7
 66
     1
 10
0.0
 20
0.0
 30
0.0
  0
VERTEX
  5
1EA
  8
0
  6
CONTINUOUS
 62
     7
 10
909.0317910294
 20
1016.0947541401
 30
0.0
  0
VERTEX
  5
1EB
  8
0
  6
CONTINUOUS
 62
     7
 10
908.8582579132
 20
1016.0693566696
 30
0.0
  0
VERTEX
  5
1EC
  8
0
  6
CONTINUOUS
 62
     7
 10
908.7320953587
 20
1015.9883984385
 30
0.0
  0
VERTEX
  5
1ED
  8
0
  6
CONTINUOUS
 62
     7
 10
908.6554270168
 20
1015.8491711691
 30
0.0
  0
VERTEX
  5
1EE
  8
0
  6
CONTINUOUS
 62
     7
 10
908.629867254
 20
1015.6554113648
 30
0.0
  0
VERTEX
  5
1EF
  8
0
  6
CONTINUOUS
 62
     7
 10
908.6554222609
 20
1015.4172463948
 30
0.0
  0
VERTEX
  5
1F0
  8
0
  6
CONTINUOUS
 62
     7
 10
908.7320982242
 20
1015.1495039843
 30
0.0
  0
VERTEX
  5
1F1
  8
0
  6
CONTINUOUS
 62
     7
 10
908.8572224107
 20
1014.8721803166
 30
0.0
  0
VERTEX
  5
1F2
  8
0
  6
CONTINUOUS
 62
     7
 10
909.0317910294
 20
1014.5947541401
 30
0.0
  0
SEQEND
  5
1E9
  8
0
  6
CONTINUOUS
 62
     7
  0
ARC
  5
108
  8
0
  6
CONTINUOUS
 62
     7
 10
915.1532910144
 20
1016.8381447461
 30
0.0
 40
6.519629090448096
 50
186.547302395
 51
200.1267372797
  0
LINE
  5
109
  8
0
  6
CONTINUOUS
 62
     7
 10
560.1298672407
 20
-782.4052458599
 30
0.0
 11
561.6298672407
 21
-782.4052458599
 31
0.0
  0
ARC
  5
10A
  8
0
  6
CONTINUOUS
 62
     7
 10
912.3673331634
 20
1019.5931180392
 30
0.0
 40
6.494061577746176
 50
249.8462635121
 51
263.4794224029
  0
POLYLINE
  5
10B
  8
0
  6
CONTINUOUS
 62
     7
 66
     1
 10
0.0
 20
0.0
 30
0.0
  0
VERTEX
  5
1F4
  8
0
  6
CONTINUOUS
 62
     7
 10
910.1298672407
 20
1013.4966779287
 30
0.0
  0
VERTEX
  5
1F5
  8
0
  6
CONTINUOUS
 62
     7
 10
910.404726077
 20
1013.3231448125
 30
0.0
  0
VERTEX
  5
1F6
  8
0
  6
CONTINUOUS
 62
     7
 10
910.6846244574
 20
1013.1969822581
 30
0.0
  0
VERTEX
  5
1F7
  8
0
  6
CONTINUOUS
 62
     7
 10
910.9523257
 20
1013.1203139165
 30
0.0
  0
VERTEX
  5
1F8
  8
0
  6
CONTINUOUS
 62
     7
 10
911.1905303595
 20
1013.0947541534
 30
0.0
  0
VERTEX
  5
1F9
  8
0
  6
CONTINUOUS
 62
     7
 10
911.3842621104
 20
1013.1203091598
 30
0.0
  0
VERTEX
  5
1FA
  8
0
  6
CONTINUOUS
 62
     7
 10
911.5235144738
 20
1013.1969851236
 30
0.0
  0
VERTEX
  5
1FB
  8
0
  6
CONTINUOUS
 62
     7
 10
911.6039889172
 20
1013.3221093103
 30
0.0
  0
VERTEX
  5
1FC
  8
0
  6
CONTINUOUS
 62
     7
 10
911.6298672407
 20
1013.4966779287
 30
0.0
  0
SEQEND
  5
1F3
  8
0
  6
CONTINUOUS
 62
     7
  0
LINE
  5
10C
  8
0
  6
CONTINUOUS
 62
     7
 10
910.1298672407
 20
-782.4052458599
 30
0.0
 11
911.6298672407
 21
-782.4052458599
 31
0.0
  0
ARC
  5
10D
  8
0
  6
CONTINUOUS
 62
     7
 10
560.1298672407
 20
1016.0947541401
 30
0.0
 40
3.000000000000163
 50
300.0
 51
330.0
  0
ARC
  5
10E
  8
0
  6
CONTINUOUS
 62
     7
 10
911.6298672407
 20
1016.0947541401
 30
0.0
 40
3.000000000000049
 50
210.0
 51
240.0
  0
LINE
  5
10F
  8
0
  6
CONTINUOUS
 62
     7
 10
561.6298672407
 20
-782.4052458599
 30
0.0
 11
910.1298672407
 21
-782.4052458599
 31
0.0
  0
LINE
  5
110
  8
0
  6
HIDDEN
 62
     7
 10
562.2511875843
 20
1016.0947541401
 30
0.0
 11
562.2511875843
 21
1017.5947541401
 31
0.0
  0
LINE
  5
111
  8
0
  6
HIDDEN
 62
     7
 10
909.5085468972
 20
1017.5947541401
 30
0.0
 11
909.5085468972
 21
1016.0947541401
 31
0.0
  0
LINE
  5
112
  8
0
  6
HIDDEN
 62
     7
 10
561.6298672407
 20
1017.5947541401
 30
0.0
 11
561.6298672407
 21
1016.0947541401
 31
0.0
  0
LINE
  5
113
  8
0
  6
HIDDEN
 62
     7
 10
562.2511875843
 20
1017.5947541401
 30
0.0
 11
562.2511875843
 21
1016.0947541401
 31
0.0
  0
LINE
  5
114
  8
0
  6
HIDDEN
 62
     7
 10
558.6298672407
 20
1014.5947541401
 30
0.0
 11
560.1298672407
 21
1014.5947541401
 31
0.0
  0
LINE
  5
115
  8
0
  6
HIDDEN
 62
     7
 10
910.1298672407
 20
1016.0947541401
 30
0.0
 11
910.1298672407
 21
1017.5947541401
 31
0.0
  0
LINE
  5
116
  8
0
  6
HIDDEN
 62
     7
 10
909.5085468972
 20
1016.0947541401
 30
0.0
 11
909.5085468972
 21
1017.5947541401
 31
0.0
  0
LINE
  5
117
  8
0
  6
HIDDEN
 62
     7
 10
911.6298672407
 20
1014.5947541401
 30
0.0
 11
913.1298672407
 21
1014.5947541401
 31
0.0
  0
POLYLINE
  5
118
  8
0
  6
HIDDEN
 62
     7
 66
     1
 10
0.0
 20
0.0
 30
0.0
  0
VERTEX
  5
1FE
  8
0
  6
HIDDEN
 62
     7
 10
558.6298672407
 20
1013.4966779287
 30
0.0
  0
VERTEX
  5
1FF
  8
0
  6
HIDDEN
 62
     7
 10
558.6806621817
 20
1013.3231448125
 30
0.0
  0
VERTEX
  5
200
  8
0
  6
HIDDEN
 62
     7
 10
558.8425786439
 20
1013.1969822581
 30
0.0
  0
VERTEX
  5
201
  8
0
  6
HIDDEN
 62
     7
 10
559.1210331841
 20
1013.1203139157
 30
0.0
  0
VERTEX
  5
202
  8
0
  6
HIDDEN
 62
     7
 10
559.5085527912
 20
1013.0947541534
 30
0.0
  0
VERTEX
  5
203
  8
0
  6
HIDDEN
 62
     7
 10
559.9848827334
 20
1013.1203091607
 30
0.0
  0
VERTEX
  5
204
  8
0
  6
HIDDEN
 62
     7
 10
560.1298672407
 20
1013.141069463
 30
0.0
  0
SEQEND
  5
1FD
  8
0
  6
HIDDEN
 62
     7
  0
POLYLINE
  5
119
  8
0
  6
HIDDEN
 62
     7
 66
     1
 10
0.0
 20
0.0
 30
0.0
  0
VERTEX
  5
206
  8
0
  6
HIDDEN
 62
     7
 10
561.6298672407
 20
1013.4966779287
 30
0.0
  0
VERTEX
  5
207
  8
0
  6
HIDDEN
 62
     7
 10
561.6298672407
 20
1013.4966779287
 30
0.0
  0
SEQEND
  5
205
  8
0
  6
HIDDEN
 62
     7
  0
LINE
  5
11A
  8
0
  6
HIDDEN
 62
     7
 10
558.6298672407
 20
1013.4966779287
 30
0.0
 11
560.1298672407
 21
1013.4966779287
 31
0.0
  0
POLYLINE
  5
11B
  8
0
  6
HIDDEN
 62
     7
 66
     1
 10
0.0
 20
0.0
 30
0.0
  0
VERTEX
  5
209
  8
0
  6
HIDDEN
 62
     7
 10
563.0835557125
 20
1016.0947541401
 30
0.0
  0
VERTEX
  5
20A
  8
0
  6
HIDDEN
 62
     7
 10
563.1043074651
 20
1016.2396710589
 30
0.0
  0
VERTEX
  5
20B
  8
0
  6
HIDDEN
 62
     7
 10
563.1298672274
 20
1016.7160803777
 30
0.0
  0
VERTEX
  5
20C
  8
0
  6
HIDDEN
 62
     7
 10
563.1043122201
 20
1017.1035438823
 30
0.0
  0
VERTEX
  5
20D
  8
0
  6
HIDDEN
 62
     7
 10
563.0276362572
 20
1017.3820486063
 30
0.0
  0
VERTEX
  5
20E
  8
0
  6
HIDDEN
 62
     7
 10
562.9025120713
 20
1017.5429974922
 30
0.0
  0
VERTEX
  5
20F
  8
0
  6
HIDDEN
 62
     7
 10
562.7279434521
 20
1017.5947541401
 30
0.0
  0
SEQEND
  5
208
  8
0
  6
HIDDEN
 62
     7
  0
POLYLINE
  5
11C
  8
0
  6
HIDDEN
 62
     7
 66
     1
 10
0.0
 20
0.0
 30
0.0
  0
VERTEX
  5
211
  8
0
  6
HIDDEN
 62
     7
 10
562.7279434521
 20
1014.5947541401
 30
0.0
  0
VERTEX
  5
212
  8
0
  6
HIDDEN
 62
     7
 10
562.7279434521
 20
1014.5947541401
 30
0.0
  0
SEQEND
  5
210
  8
0
  6
HIDDEN
 62
     7
  0
LINE
  5
11D
  8
0
  6
HIDDEN
 62
     7
 10
562.7279434521
 20
1016.0947541401
 30
0.0
 11
562.7279434521
 21
1017.5947541401
 31
0.0
  0
POLYLINE
  5
11E
  8
0
  6
HIDDEN
 62
     7
 66
     1
 10
0.0
 20
0.0
 30
0.0
  0
VERTEX
  5
214
  8
0
  6
HIDDEN
 62
     7
 10
909.0317910294
 20
1017.5947541401
 30
0.0
  0
VERTEX
  5
215
  8
0
  6
HIDDEN
 62
     7
 10
908.8582579132
 20
1017.5439591991
 30
0.0
  0
VERTEX
  5
216
  8
0
  6
HIDDEN
 62
     7
 10
908.7320953587
 20
1017.3820427369
 30
0.0
  0
VERTEX
  5
217
  8
0
  6
HIDDEN
 62
     7
 10
908.6554270168
 20
1017.1035881982
 30
0.0
  0
VERTEX
  5
218
  8
0
  6
HIDDEN
 62
     7
 10
908.629867254
 20
1016.7160685896
 30
0.0
  0
VERTEX
  5
219
  8
0
  6
HIDDEN
 62
     7
 10
908.6554222609
 20
1016.2397386495
 30
0.0
  0
VERTEX
  5
21A
  8
0
  6
HIDDEN
 62
     7
 10
908.6761825635
 20
1016.0947541401
 30
0.0
  0
SEQEND
  5
213
  8
0
  6
HIDDEN
 62
     7
  0
POLYLINE
  5
11F
  8
0
  6
HIDDEN
 62
     7
 66
     1
 10
0.0
 20
0.0
 30
0.0
  0
VERTEX
  5
21C
  8
0
  6
HIDDEN
 62
     7
 10
909.0317910294
 20
1014.5947541401
 30
0.0
  0
VERTEX
  5
21D
  8
0
  6
HIDDEN
 62
     7
 10
909.0317910294
 20
1014.5947541401
 30
0.0
  0
SEQEND
  5
21B
  8
0
  6
HIDDEN
 62
     7
  0
LINE
  5
120
  8
0
  6
HIDDEN
 62
     7
 10
909.0317910294
 20
1017.5947541401
 30
0.0
 11
909.0317910294
 21
1016.0947541401
 31
0.0
  0
POLYLINE
  5
121
  8
0
  6
HIDDEN
 62
     7
 66
     1
 10
0.0
 20
0.0
 30
0.0
  0
VERTEX
  5
21F
  8
0
  6
HIDDEN
 62
     7
 10
911.6298672407
 20
1013.141065669
 30
0.0
  0
VERTEX
  5
220
  8
0
  6
HIDDEN
 62
     7
 10
911.7747841594
 20
1013.1203139165
 30
0.0
  0
VERTEX
  5
221
  8
0
  6
HIDDEN
 62
     7
 10
912.2511934783
 20
1013.0947541534
 30
0.0
  0
VERTEX
  5
222
  8
0
  6
HIDDEN
 62
     7
 10
912.6386569801
 20
1013.1203091598
 30
0.0
  0
VERTEX
  5
223
  8
0
  6
HIDDEN
 62
     7
 10
912.917161707
 20
1013.1969851236
 30
0.0
  0
VERTEX
  5
224
  8
0
  6
HIDDEN
 62
     7
 10
913.0781105937
 20
1013.3221093103
 30
0.0
  0
VERTEX
  5
225
  8
0
  6
HIDDEN
 62
     7
 10
913.1298672407
 20
1013.4966779287
 30
0.0
  0
SEQEND
  5
21E
  8
0
  6
HIDDEN
 62
     7
  0
POLYLINE
  5
122
  8
0
  6
HIDDEN
 62
     7
 66
     1
 10
0.0
 20
0.0
 30
0.0
  0
VERTEX
  5
227
  8
0
  6
HIDDEN
 62
     7
 10
910.1298672407
 20
1013.4966779287
 30
0.0
  0
VERTEX
  5
228
  8
0
  6
HIDDEN
 62
     7
 10
910.1298672407
 20
1013.4966779287
 30
0.0
  0
SEQEND
  5
226
  8
0
  6
HIDDEN
 62
     7
  0
LINE
  5
123
  8
0
  6
HIDDEN
 62
     7
 10
911.6298672407
 20
1013.4966779287
 30
0.0
 11
913.1298672407
 21
1013.4966779287
 31
0.0
  0
LINE
  5
124
  8
0
  6
HIDDEN
 62
     7
 10
559.5085997317
 20
1013.0947541531
 30
0.0
 11
560.5692334862
 21
1013.0947541531
 31
0.0
  0
LINE
  5
125
  8
0
  6
HIDDEN
 62
     7
 10
560.5692164118
 20
1013.0947541531
 30
0.0
 11
559.5085997318
 21
1013.0947541531
 31
0.0
  0
LINE
  5
126
  8
0
  6
HIDDEN
 62
     7
 10
563.1298672277
 20
1015.6554407285
 30
0.0
 11
563.1298672277
 21
1016.7161273169
 31
0.0
  0
LINE
  5
127
  8
0
  6
HIDDEN
 62
     7
 10
908.6298672538
 20
1016.7160216415
 30
0.0
 11
908.6298672538
 21
1015.6553878908
 31
0.0
  0
LINE
  5
128
  8
0
  6
HIDDEN
 62
     7
 10
908.6298672538
 20
1015.6553878908
 30
0.0
 11
908.6298672538
 21
1016.7160216415
 31
0.0
  0
LINE
  5
129
  8
0
  6
HIDDEN
 62
     7
 10
911.1905538367
 20
1013.0947541531
 30
0.0
 11
912.2512404326
 21
1013.0947541531
 31
0.0
  0
LINE
  5
12A
  8
0
  6
CONTINUOUS
 62
     7
 10
318.4488764716
 20
-891.779845165
 30
0.0
 11
318.3425754266
 21
-890.6554285925
 31
0.0
  0
LINE
  5
12B
  8
0
  6
CONTINUOUS
 62
     7
 10
-28.0511235284
 20
-891.779845165
 30
0.0
 11
-27.9446662307
 21
-890.6546098936
 31
0.0
  0
ARC
  5
12C
  8
0
  6
CONTINUOUS
 62
     7
 10
320.9488764716
 20
-891.779845165
 30
0.0
 40
3.000000000000075
 50
120.0
 51
135.0
  0
LINE
  5
12D
  8
0
  6
CONTINUOUS
 62
     7
 10
318.8275561281
 20
-889.6585248215
 30
0.0
 11
304.9488764716
 21
-875.779845165
 31
0.0
  0
LINE
  5
12E
  8
0
  6
CONTINUOUS
 62
     7
 10
304.9488764716
 20
-875.779845165
 30
0.0
 11
319.4488764716
 21
-875.779845165
 31
0.0
  0
ARC
  5
12F
  8
0
  6
CONTINUOUS
 62
     7
 10
-30.5511235284
 20
-891.779845165
 30
0.0
 40
3.000000000000032
 50
30.0
 51
45.0
  0
LINE
  5
130
  8
0
  6
CONTINUOUS
 62
     7
 10
-28.4298031848
 20
-889.6585248215
 30
0.0
 11
-14.5511235284
 21
-875.779845165
 31
0.0
  0
LINE
  5
131
  8
0
  6
CONTINUOUS
 62
     7
 10
-14.5511235284
 20
-875.779845165
 30
0.0
 11
7.2373950748
 21
-875.779845165
 31
0.0
  0
ARC
  5
132
  8
0
  6
CONTINUOUS
 62
     7
 10
20.1988764716
 20
-856.779845165
 30
0.0
 40
23.00000000000015
 50
235.6988472432
 51
327.0792654719
  0
LINE
  5
133
  8
0
  6
CONTINUOUS
 62
     7
 10
39.505611048
 20
-869.279845165
 30
0.0
 11
250.8921418953
 21
-869.279845165
 31
0.0
  0
ARC
  5
134
  8
0
  6
CONTINUOUS
 62
     7
 10
270.1988764716
 20
-856.779845165
 30
0.0
 40
23.00000000000026
 50
212.9207345281
 51
304.3011527568
  0
LINE
  5
135
  8
0
  6
CONTINUOUS
 62
     7
 10
283.1603578685
 20
-875.779845165
 30
0.0
 11
304.9488764716
 21
-875.779845165
 31
0.0
  0
LINE
  5
136
  8
0
  6
CONTINUOUS
 62
     7
 10
304.9488764716
 20
-875.779845165
 30
0.0
 11
318.8275561281
 21
-889.6585248215
 31
0.0
  0
ARC
  5
137
  8
0
  6
CONTINUOUS
 62
     7
 10
320.9488764716
 20
-891.779845165
 30
0.0
 40
3.000000000000064
 50
135.0
 51
150.0
  0
LINE
  5
138
  8
0
  6
CONTINUOUS
 62
     7
 10
-32.0511235284
 20
-889.1817689537
 30
0.0
 11
-32.0511235284
 21
-875.779845165
 31
0.0
  0
LINE
  5
139
  8
0
  6
CONTINUOUS
 62
     7
 10
-32.0511235284
 20
-875.779845165
 30
0.0
 11
-29.0511235284
 21
-875.779845165
 31
0.0
  0
POLYLINE
  5
13A
  8
0
  6
CONTINUOUS
 62
     7
 66
     1
 10
0.0
 20
0.0
 30
0.0
  0
VERTEX
  5
22A
  8
0
  6
CONTINUOUS
 62
     7
 10
-32.0511235284
 20
-889.1817689537
 30
0.0
  0
VERTEX
  5
22B
  8
0
  6
CONTINUOUS
 62
     7
 10
-32.0003285874
 20
-889.0082358375
 30
0.0
  0
VERTEX
  5
22C
  8
0
  6
CONTINUOUS
 62
     7
 10
-31.8384121252
 20
-888.882073283
 30
0.0
  0
VERTEX
  5
22D
  8
0
  6
CONTINUOUS
 62
     7
 10
-31.5599575863
 20
-888.8054049411
 30
0.0
  0
VERTEX
  5
22E
  8
0
  6
CONTINUOUS
 62
     7
 10
-31.1724379779
 20
-888.7798451783
 30
0.0
  0
VERTEX
  5
22F
  8
0
  6
CONTINUOUS
 62
     7
 10
-30.6961080357
 20
-888.8054001852
 30
0.0
  0
VERTEX
  5
230
  8
0
  6
CONTINUOUS
 62
     7
 10
-30.1606232167
 20
-888.8820761485
 30
0.0
  0
VERTEX
  5
231
  8
0
  6
CONTINUOUS
 62
     7
 10
-29.6059758773
 20
-889.0072003361
 30
0.0
  0
VERTEX
  5
232
  8
0
  6
CONTINUOUS
 62
     7
 10
-29.0511235284
 20
-889.1817689537
 30
0.0
  0
SEQEND
  5
229
  8
0
  6
CONTINUOUS
 62
     7
  0
LINE
  5
13B
  8
0
  6
CONTINUOUS
 62
     7
 10
322.4488764716
 20
-875.779845165
 30
0.0
 11
322.4488764716
 21
-889.1817689537
 31
0.0
  0
POLYLINE
  5
13C
  8
0
  6
CONTINUOUS
 62
     7
 66
     1
 10
0.0
 20
0.0
 30
0.0
  0
VERTEX
  5
234
  8
0
  6
CONTINUOUS
 62
     7
 10
319.4488764716
 20
-889.1817689537
 30
0.0
  0
VERTEX
  5
235
  8
0
  6
CONTINUOUS
 62
     7
 10
319.9985941443
 20
-889.0082358375
 30
0.0
  0
VERTEX
  5
236
  8
0
  6
CONTINUOUS
 62
     7
 10
320.5583909051
 20
-888.882073283
 30
0.0
  0
VERTEX
  5
237
  8
0
  6
CONTINUOUS
 62
     7
 10
321.0937933859
 20
-888.8054049415
 30
0.0
  0
VERTEX
  5
238
  8
0
  6
CONTINUOUS
 62
     7
 10
321.5702027092
 20
-888.7798451783
 30
0.0
  0
VERTEX
  5
239
  8
0
  6
CONTINUOUS
 62
     7
 10
321.9576662141
 20
-888.8054001848
 30
0.0
  0
VERTEX
  5
23A
  8
0
  6
CONTINUOUS
 62
     7
 10
322.2361709379
 20
-888.8820761485
 30
0.0
  0
VERTEX
  5
23B
  8
0
  6
CONTINUOUS
 62
     7
 10
322.3971198247
 20
-889.0072003363
 30
0.0
  0
VERTEX
  5
23C
  8
0
  6
CONTINUOUS
 62
     7
 10
322.4488764716
 20
-889.1817689537
 30
0.0
  0
SEQEND
  5
233
  8
0
  6
CONTINUOUS
 62
     7
  0
LINE
  5
13D
  8
0
  6
CONTINUOUS
 62
     7
 10
319.4488764716
 20
-875.779845165
 30
0.0
 11
322.4488764716
 21
-875.779845165
 31
0.0
  0
LINE
  5
13E
  8
0
  6
CONTINUOUS
 62
     7
 10
-29.0511235284
 20
-875.779845165
 30
0.0
 11
-14.5511235284
 21
-875.779845165
 31
0.0
  0
LINE
  5
13F
  8
0
  6
CONTINUOUS
 62
     7
 10
-14.5511235284
 20
-875.779845165
 30
0.0
 11
-28.4298031848
 21
-889.6585248215
 31
0.0
  0
ARC
  5
140
  8
0
  6
CONTINUOUS
 62
     7
 10
-30.5511235284
 20
-891.779845165
 30
0.0
 40
3.000000000000009
 50
45.0
 51
60.0
  0
POLYLINE
  5
141
  8
0
  6
CONTINUOUS
 62
     7
 66
     1
 10
0.0
 20
0.0
 30
0.0
  0
VERTEX
  5
23E
  8
0
  6
CONTINUOUS
 62
     7
 10
-27.953047317
 20
-890.279845165
 30
0.0
  0
VERTEX
  5
23F
  8
0
  6
CONTINUOUS
 62
     7
 10
-27.7795142008
 20
-890.8295628377
 30
0.0
  0
VERTEX
  5
240
  8
0
  6
CONTINUOUS
 62
     7
 10
-27.6533516463
 20
-891.3893595985
 30
0.0
  0
VERTEX
  5
241
  8
0
  6
CONTINUOUS
 62
     7
 10
-27.5766833044
 20
-891.9247620836
 30
0.0
  0
VERTEX
  5
242
  8
0
  6
CONTINUOUS
 62
     7
 10
-27.5511235417
 20
-892.4011714026
 30
0.0
  0
VERTEX
  5
243
  8
0
  6
CONTINUOUS
 62
     7
 10
-27.5766785485
 20
-892.7886349059
 30
0.0
  0
VERTEX
  5
244
  8
0
  6
CONTINUOUS
 62
     7
 10
-27.6533545118
 20
-893.0671396313
 30
0.0
  0
VERTEX
  5
245
  8
0
  6
CONTINUOUS
 62
     7
 10
-27.7784786983
 20
-893.2280885177
 30
0.0
  0
VERTEX
  5
246
  8
0
  6
CONTINUOUS
 62
     7
 10
-27.953047317
 20
-893.279845165
 30
0.0
  0
SEQEND
  5
23D
  8
0
  6
CONTINUOUS
 62
     7
  0
LINE
  5
142
  8
0
  6
CONTINUOUS
 62
     7
 10
-27.953047317
 20
-893.279845165
 30
0.0
 11
-27.953047317
 21
-891.779845165
 31
0.0
  0
ARC
  5
143
  8
0
  6
CONTINUOUS
 62
     7
 10
-27.9249821118
 20
-891.4020062094
 30
0.0
 40
0.3788798386514907
 50
265.7519724811
 51
9.3397137481
  0
LINE
  5
144
  8
0
  6
CONTINUOUS
 62
     7
 10
322.4488764716
 20
-889.1817689537
 30
0.0
 11
320.9488764716
 21
-889.1817689537
 31
0.0
  0
ARC
  5
145
  8
0
  6
CONTINUOUS
 62
     7
 10
320.5710375171
 20
-889.1537037478
 30
0.0
 40
0.3788798376707301
 50
355.7519723682
 51
99.3397136764
  0
LINE
  5
146
  8
0
  6
CONTINUOUS
 62
     7
 10
318.3508002603
 20
-893.279845165
 30
0.0
 11
-27.953047317
 21
-893.279845165
 31
0.0
  0
POLYLINE
  5
147
  8
0
  6
CONTINUOUS
 62
     7
 66
     1
 10
0.0
 20
0.0
 30
0.0
  0
VERTEX
  5
248
  8
0
  6
CONTINUOUS
 62
     7
 10
318.3508002603
 20
-893.279845165
 30
0.0
  0
VERTEX
  5
249
  8
0
  6
CONTINUOUS
 62
     7
 10
318.1772671441
 20
-893.2290502241
 30
0.0
  0
VERTEX
  5
24A
  8
0
  6
CONTINUOUS
 62
     7
 10
318.0511045896
 20
-893.0671337619
 30
0.0
  0
VERTEX
  5
24B
  8
0
  6
CONTINUOUS
 62
     7
 10
317.9744362472
 20
-892.788679223
 30
0.0
  0
VERTEX
  5
24C
  8
0
  6
CONTINUOUS
 62
     7
 10
317.948876485
 20
-892.4011596146
 30
0.0
  0
VERTEX
  5
24D
  8
0
  6
CONTINUOUS
 62
     7
 10
317.9744314923
 20
-891.9248296724
 30
0.0
  0
VERTEX
  5
24E
  8
0
  6
CONTINUOUS
 62
     7
 10
318.0511074551
 20
-891.3893448534
 30
0.0
  0
VERTEX
  5
24F
  8
0
  6
CONTINUOUS
 62
     7
 10
318.1762316411
 20
-890.8346975207
 30
0.0
  0
VERTEX
  5
250
  8
0
  6
CONTINUOUS
 62
     7
 10
318.3508002603
 20
-890.279845165
 30
0.0
  0
SEQEND
  5
247
  8
0
  6
CONTINUOUS
 62
     7
  0
LINE
  5
148
  8
0
  6
CONTINUOUS
 62
     7
 10
-30.5511235284
 20
-889.1817689537
 30
0.0
 11
-32.0511235284
 21
-889.1817689537
 31
0.0
  0
ARC
  5
149
  8
0
  6
CONTINUOUS
 62
     7
 10
318.3329032396
 20
-891.3927003
 30
0.0
 40
0.3875583180506854
 50
172.2577540285
 51
272.6467979245
  0
LINE
  5
14A
  8
0
  6
CONTINUOUS
 62
     7
 10
318.3508002603
 20
-891.779845165
 30
0.0
 11
318.3508002603
 21
-893.279845165
 31
0.0
  0
LINE
  5
14B
  8
0
  6
CONTINUOUS
 62
     7
 10
-32.0511235284
 20
-890.279845165
 30
0.0
 11
-32.0511235284
 21
-889.1817689537
 31
0.0
  0
LINE
  5
14C
  8
0
  6
CONTINUOUS
 62
     7
 10
-30.5511235284
 20
-890.279845165
 30
0.0
 11
-32.0511235284
 21
-890.279845165
 31
0.0
  0
LINE
  5
14D
  8
0
  6
CONTINUOUS
 62
     7
 10
-30.5511235284
 20
-890.279845165
 30
0.0
 11
-30.5511235284
 21
-889.1817689537
 31
0.0
  0
LINE
  5
14E
  8
0
  6
CONTINUOUS
 62
     7
 10
322.4488764716
 20
-890.279845165
 30
0.0
 11
320.9488764716
 21
-890.279845165
 31
0.0
  0
LINE
  5
14F
  8
0
  6
CONTINUOUS
 62
     7
 10
320.9488764716
 20
-889.1817689537
 30
0.0
 11
320.9488764716
 21
-890.279845165
 31
0.0
  0
LINE
  5
150
  8
0
  6
CONTINUOUS
 62
     7
 10
322.4488764716
 20
-889.1817689537
 30
0.0
 11
322.4488764716
 21
-890.279845165
 31
0.0
  0
LINE
  5
151
  8
0
  6
CONTINUOUS
 62
     7
 10
319.4488764716
 20
-893.279845165
 30
0.0
 11
319.4488764716
 21
-891.779845165
 31
0.0
  0
LINE
  5
152
  8
0
  6
CONTINUOUS
 62
     7
 10
319.4488764716
 20
-891.779845165
 30
0.0
 11
318.3508002603
 21
-891.779845165
 31
0.0
  0
LINE
  5
153
  8
0
  6
CONTINUOUS
 62
     7
 10
319.4488764716
 20
-893.279845165
 30
0.0
 11
318.3508002603
 21
-893.279845165
 31
0.0
  0
LINE
  5
154
  8
0
  6
CONTINUOUS
 62
     7
 10
-29.0511235284
 20
-891.779845165
 30
0.0
 11
-29.0511235284
 21
-893.279845165
 31
0.0
  0
LINE
  5
155
  8
0
  6
CONTINUOUS
 62
     7
 10
-27.953047317
 20
-891.779845165
 30
0.0
 11
-29.0511235284
 21
-891.779845165
 31
0.0
  0
LINE
  5
156
  8
0
  6
CONTINUOUS
 62
     7
 10
-27.953047317
 20
-893.279845165
 30
0.0
 11
-29.0511235284
 21
-893.279845165
 31
0.0
  0
ARC
  5
157
  8
0
  6
CONTINUOUS
 62
     7
 10
-29.0511235284
 20
-890.279845165
 30
0.0
 40
2.999999999999918
 50
180.0
 51
270.0
  0
ARC
  5
158
  8
0
  6
CONTINUOUS
 62
     7
 10
-29.0511235284
 20
-890.279845165
 30
0.0
 40
1.5
 50
180.0
 51
270.0
  0
ARC
  5
159
  8
0
  6
CONTINUOUS
 62
     7
 10
319.4488764716
 20
-890.279845165
 30
0.0
 40
3.000000000000171
 50
270.0
 51
0.0
  0
ARC
  5
15A
  8
0
  6
CONTINUOUS
 62
     7
 10
319.4488764716
 20
-890.279845165
 30
0.0
 40
1.500000000000227
 50
270.0
 51
360.0
  0
ARC
  5
15B
  8
0
  6
HIDDEN
 62
     7
 10
312.4488764716
 20
-891.779845165
 30
0.0
 40
6.00000000000003
 50
10.8012510125
 51
180.0
  0
ARC
  5
15C
  8
0
  6
HIDDEN
 62
     7
 10
-22.0511235284
 20
-891.779845165
 30
0.0
 40
6.000000000000013
 50
0.0
 51
169.1907898743
  0
LINE
  5
15D
  8
0
  6
HIDDEN
 62
     7
 10
150.1988764716
 20
-890.779845165
 30
0.0
 11
140.1988764716
 21
-890.779845165
 31
0.0
  0
LINE
  5
15E
  8
0
  6
HIDDEN
 62
     7
 10
149.1988764716
 20
-872.279845165
 30
0.0
 11
141.1988764716
 21
-872.279845165
 31
0.0
  0
LINE
  5
15F
  8
0
  6
HIDDEN
 62
     7
 10
148.6988764716
 20
-871.779845165
 30
0.0
 11
141.6988764716
 21
-871.779845165
 31
0.0
  0
POLYLINE
  5
160
  8
0
  6
HIDDEN
 62
     7
 66
     1
 10
0.0
 20
0.0
 30
0.0
  0
VERTEX
  5
252
  8
0
  6
HIDDEN
 62
     7
 10
-27.953047317
 20
-890.279845165
 30
0.0
  0
VERTEX
  5
253
  8
0
  6
HIDDEN
 62
     7
 10
-27.953047317
 20
-890.279845165
 30
0.0
  0
SEQEND
  5
251
  8
0
  6
HIDDEN
 62
     7
  0
POLYLINE
  5
161
  8
0
  6
HIDDEN
 62
     7
 66
     1
 10
0.0
 20
0.0
 30
0.0
  0
VERTEX
  5
255
  8
0
  6
HIDDEN
 62
     7
 10
319.4488764716
 20
-889.1817689537
 30
0.0
  0
VERTEX
  5
256
  8
0
  6
HIDDEN
 62
     7
 10
319.4488764716
 20
-889.1817689537
 30
0.0
  0
SEQEND
  5
254
  8
0
  6
HIDDEN
 62
     7
  0
ARC
  5
162
  8
0
  6
HIDDEN
 62
     7
 10
-30.1639786623
 20
-889.163871934
 30
0.0
 40
0.3875583189619346
 50
82.2577538853
 51
182.6467977715
  0
POLYLINE
  5
163
  8
0
  6
HIDDEN
 62
     7
 66
     1
 10
0.0
 20
0.0
 30
0.0
  0
VERTEX
  5
258
  8
0
  6
HIDDEN
 62
     7
 10
-29.0511235284
 20
-889.1817689537
 30
0.0
  0
VERTEX
  5
259
  8
0
  6
HIDDEN
 62
     7
 10
-29.0511235284
 20
-889.1817689537
 30
0.0
  0
SEQEND
  5
257
  8
0
  6
HIDDEN
 62
     7
  0
POLYLINE
  5
164
  8
0
  6
HIDDEN
 62
     7
 66
     1
 10
0.0
 20
0.0
 30
0.0
  0
VERTEX
  5
25B
  8
0
  6
HIDDEN
 62
     7
 10
318.3508002603
 20
-890.279845165
 30
0.0
  0
VERTEX
  5
25C
  8
0
  6
HIDDEN
 62
     7
 10
318.3508002603
 20
-890.279845165
 30
0.0
  0
SEQEND
  5
25A
  8
0
  6
HIDDEN
 62
     7
  0
LINE
  5
165
  8
0
  6
HIDDEN
 62
     7
 10
-30.5511235284
 20
-889.1817689537
 30
0.0
 11
-30.5511235284
 21
-875.779845165
 31
0.0
  0
LINE
  5
166
  8
0
  6
HIDDEN
 62
     7
 10
320.9488764716
 20
-875.779845165
 30
0.0
 11
320.9488764716
 21
-889.1817689537
 31
0.0
  0
LINE
  5
167
  8
0
  6
HIDDEN
 62
     7
 10
318.3508002603
 20
-891.779845165
 30
0.0
 11
-27.953047317
 21
-891.779845165
 31
0.0
  0
LINE
  5
168
  8
0
  6
HIDDEN
 62
     7
 10
-4.6091170173
 20
-888.7692846357
 30
0.0
 11
-12.9931300394
 21
-888.7692846357
 31
0.0
  0
LINE
  5
169
  8
0
  6
HIDDEN
 62
     7
 10
303.3908829827
 20
-888.7692846357
 30
0.0
 11
295.0068699606
 21
-888.7692846357
 31
0.0
  0
LINE
  5
16A
  8
0
  6
HIDDEN
 62
     7
 10
302.1988764716
 20
-889.6798451651
 30
0.0
 11
296.1988764716
 21
-889.6798451651
 31
0.0
  0
LINE
  5
16B
  8
0
  6
HIDDEN
 62
     7
 10
-5.8011235284
 20
-889.6798451651
 30
0.0
 11
-11.8011235284
 21
-889.6798451651
 31
0.0
  0
LINE
  5
16C
  8
0
  6
HIDDEN
 62
     7
 10
312.4488764716
 20
-885.779845165
 30
0.0
 11
276.4488764716
 21
-885.779845165
 31
0.0
  0
LINE
  5
16D
  8
0
  6
HIDDEN
 62
     7
 10
13.9488764716
 20
-885.779845165
 30
0.0
 11
-22.0511235284
 21
-885.779845165
 31
0.0
  0
LINE
  5
16E
  8
0
  6
HIDDEN
 62
     7
 10
276.4488764716
 20
-885.779845165
 30
0.0
 11
13.9488764716
 21
-885.779845165
 31
0.0
  0
LINE
  5
16F
  8
0
  6
HIDDEN
 62
     7
 10
150.1988764716
 20
-891.779845165
 30
0.0
 11
150.1988764716
 21
-890.779845165
 31
0.0
  0
LINE
  5
170
  8
0
  6
HIDDEN
 62
     7
 10
140.1988764716
 20
-890.779845165
 30
0.0
 11
140.1988764716
 21
-891.779845165
 31
0.0
  0
LINE
  5
171
  8
0
  6
HIDDEN
 62
     7
 10
149.1988764716
 20
-890.779845165
 30
0.0
 11
149.1988764716
 21
-872.279845165
 31
0.0
  0
LINE
  5
172
  8
0
  6
HIDDEN
 62
     7
 10
141.1988764716
 20
-872.279845165
 30
0.0
 11
141.1988764716
 21
-890.779845165
 31
0.0
  0
LINE
  5
173
  8
0
  6
HIDDEN
 62
     7
 10
149.1988764716
 20
-872.279845165
 30
0.0
 11
148.6988764716
 21
-871.779845165
 31
0.0
  0
LINE
  5
174
  8
0
  6
HIDDEN
 62
     7
 10
141.6988764716
 20
-871.779845165
 30
0.0
 11
141.1988764716
 21
-872.279845165
 31
0.0
  0
LINE
  5
175
  8
0
  6
HIDDEN
 62
     7
 10
-27.5511235414
 20
-892.4012183494
 30
0.0
 11
-27.5511235414
 21
-891.3405317572
 31
0.0
  0
LINE
  5
176
  8
0
  6
HIDDEN
 62
     7
 10
321.5702496635
 20
-888.7798451781
 30
0.0
 11
320.5095630676
 21
-888.7798451781
 31
0.0
  0
LINE
  5
177
  8
0
  6
HIDDEN
 62
     7
 10
-30.1117572791
 20
-888.7798451781
 30
0.0
 11
-31.1723910298
 21
-888.7798451781
 31
0.0
  0
LINE
  5
178
  8
0
  6
HIDDEN
 62
     7
 10
317.9488764847
 20
-891.3404789195
 30
0.0
 11
317.9488764847
 21
-892.401112674
 31
0.0
  0
ARC
  5
179
  8
0
  6
HIDDEN
 62
     7
 10
292.3115414236
 20
-890.9798451651
 30
0.0
 40
2.299999999999955
 50
270.0
 51
322.6241925045
  0
ARC
  5
17A
  8
0
  6
HIDDEN
 62
     7
 10
306.0862115197
 20
-890.9798451651
 30
0.0
 40
2.299999999999955
 50
217.3758074955
 51
270.0
  0
ARC
  5
17B
  8
0
  6
HIDDEN
 62
     7
 10
292.3115414236
 20
-890.9798451651
 30
0.0
 40
0.7999999999998859
 50
270.0
 51
322.6241925045
  0
ARC
  5
17C
  8
0
  6
HIDDEN
 62
     7
 10
306.0862115197
 20
-890.9798451651
 30
0.0
 40
0.7999999999999762
 50
217.3758074955
 51
270.0
  0
ARC
  5
17D
  8
0
  6
HIDDEN
 62
     7
 10
-15.6884585764
 20
-890.9798451651
 30
0.0
 40
0.8000000000000057
 50
270.0
 51
322.6241925044
  0
ARC
  5
17E
  8
0
  6
HIDDEN
 62
     7
 10
-1.9137884803
 20
-890.9798451651
 30
0.0
 40
0.8000000000000749
 50
217.3758074956
 51
270.0
  0
ARC
  5
17F
  8
0
  6
HIDDEN
 62
     7
 10
-15.6884585764
 20
-890.9798451651
 30
0.0
 40
2.299999999999959
 50
270.0
 51
322.6241925045
  0
ARC
  5
180
  8
0
  6
HIDDEN
 62
     7
 10
-1.9137884803
 20
-890.9798451651
 30
0.0
 40
2.300000000000068
 50
217.3758074956
 51
270.0
  0
LINE
  5
181
  8
0
  6
HIDDEN
 62
     7
 10
-2.5495252862
 20
-891.4654774473
 30
0.0
 11
-4.6091170173
 21
-888.7692846357
 31
0.0
  0
LINE
  5
182
  8
0
  6
HIDDEN
 62
     7
 10
-12.9931300394
 20
-888.7692846357
 30
0.0
 11
-15.0527217705
 21
-891.4654774473
 31
0.0
  0
LINE
  5
183
  8
0
  6
HIDDEN
 62
     7
 10
305.4504747138
 20
-891.4654774473
 30
0.0
 11
303.3908829827
 21
-888.7692846357
 31
0.0
  0
LINE
  5
184
  8
0
  6
HIDDEN
 62
     7
 10
295.0068699606
 20
-888.7692846357
 30
0.0
 11
292.9472782295
 21
-891.4654774473
 31
0.0
  0
LINE
  5
185
  8
0
  6
HIDDEN
 62
     7
 10
304.2584682027
 20
-892.3760379766
 30
0.0
 11
302.1988764716
 21
-889.6798451651
 31
0.0
  0
LINE
  5
186
  8
0
  6
HIDDEN
 62
     7
 10
296.1988764716
 20
-889.6798451651
 30
0.0
 11
294.1392847406
 21
-892.3760379766
 31
0.0
  0
LINE
  5
187
  8
0
  6
HIDDEN
 62
     7
 10
-3.7415317973
 20
-892.3760379767
 30
0.0
 11
-5.8011235284
 21
-889.6798451651
 31
0.0
  0
LINE
  5
188
  8
0
  6
HIDDEN
 62
     7
 10
-11.8011235284
 20
-889.6798451651
 30
0.0
 11
-13.8607152594
 21
-892.3760379767
 31
0.0
  0
LINE
  5
189
  8
0
  6
HIDDEN
 62
     7
 10
-12.9931300394
 20
-888.7692846357
 30
0.0
 11
-11.8011235284
 21
-889.6798451651
 31
0.0
  0
LINE
  5
18A
  8
0
  6
HIDDEN
 62
     7
 10
-5.8011235284
 20
-889.6798451651
 30
0.0
 11
-4.6091170173
 21
-888.7692846357
 31
0.0
  0
LINE
  5
18B
  8
0
  6
HIDDEN
 62
     7
 10
295.0068699606
 20
-888.7692846357
 30
0.0
 11
296.1988764716
 21
-889.6798451651
 31
0.0
  0
LINE
  5
18C
  8
0
  6
HIDDEN
 62
     7
 10
302.1988764716
 20
-889.6798451651
 30
0.0
 11
303.3908829827
 21
-888.7692846357
 31
0.0
  0
ENDSEC
  0
EOF
