  0
SECTION
  2
HEADER
  9
$ACADVER
  1
AC1009
  9
$DWGCODEPAGE
  3
ansi_1252
  9
$INSBASE
 10
0.0
 20
0.0
 30
0.0
  9
$EXTMIN
 10
0.0
 20
0.0
 30
0.0
  9
$EXTMAX
 10
297.0
 20
210.0
 30
0.0
  9
$LIMMIN
 10
0.0
 20
0.0
  9
$LIMMAX
 10
0.0
 20
0.0
  9
$ORTHOMODE
 70
     0
  9
$REGENMODE
 70
     1
  9
$FILLMODE
 70
     1
  9
$QTEXTMODE
 70
     0
  9
$MIRRTEXT
 70
     1
  9
$DRAGMODE
 70
     2
  9
$LTSCALE
 40
1.0
  9
$OSMODE
 70
    37
  9
$ATTMODE
 70
     1
  9
$TEXTSIZE
 40
3.5277777778
  9
$TRACEWID
 40
1.0
  9
$TEXTSTYLE
  7
STANDARD
  9
$CLAYER
  8
0
  9
$CELTYPE
  6
BYLAYER
  9
$CECOLOR
 62
   256
  9
$DIMSCALE
 40
1.0
  9
$DIMASZ
 40
1.8
  9
$DIMEXO
 40
0.7
  9
$DIMDLI
 40
3.75
  9
$DIMRND
 40
0.0
  9
$DIMDLE
 40
0.0
  9
$DIMEXE
 40
0.5
  9
$DIMTP
 40
0.0
  9
$DIMTM
 40
0.0
  9
$DIMTXT
 40
2.4694444444
  9
$DIMCEN
 40
2.5
  9
$DIMTSZ
 40
0.0
  9
$DIMTOL
 70
     0
  9
$DIMLIM
 70
     0
  9
$DIMTIH
 70
     1
  9
$DIMTOH
 70
     1
  9
$DIMSE1
 70
     0
  9
$DIMSE2
 70
     0
  9
$DIMTAD
 70
     1
  9
$DIMZIN
 70
     0
  9
$DIMBLK
  1

  9
$DIMASO
 70
     1
  9
$DIMSHO
 70
     1
  9
$DIMPOST
  1

  9
$DIMAPOST
  1

  9
$DIMALT
 70
     0
  9
$DIMALTD
 70
     3
  9
$DIMALTF
 40
0.0393700787
  9
$DIMLFAC
 40
1.0
  9
$DIMTOFL
 70
     1
  9
$DIMTVP
 40
0.0
  9
$DIMTIX
 70
     0
  9
$DIMSOXD
 70
     0
  9
$DIMSAH
 70
     0
  9
$DIMBLK1
  1

  9
$DIMBLK2
  1

  9
$DIMSTYLE
  2
ISO-25
  9
$DIMCLRD
 70
     0
  9
$DIMCLRE
 70
     0
  9
$DIMCLRT
 70
     0
  9
$DIMTFAC
 40
1.0
  9
$DIMGAP
 40
2.0
  9
$LUNITS
 70
     2
  9
$LUPREC
 70
     2
  9
$SKETCHINC
 40
1.0
  9
$FILLETRAD
 40
10.0
  9
$AUNITS
 70
     0
  9
$AUPREC
 70
     0
  9
$MENU
  1
.
  9
$ELEVATION
 40
0.0
  9
$PELEVATION
 40
0.0
  9
$THICKNESS
 40
0.0
  9
$LIMCHECK
 70
     0
  9
$CHAMFERA
 40
10.0
  9
$CHAMFERB
 40
10.0
  9
$SKPOLY
 70
     0
  9
$TDCREATE
 40
2455104.418354305
  9
$TDUPDATE
 40
2455104.418354317
  9
$TDINDWG
 40
0.0000000116
  9
$TDUSRTIMER
 40
0.0000000116
  9
$USRTIMER
 70
     1
  9
$ANGBASE
 50
0.0
  9
$ANGDIR
 70
     0
  9
$PDMODE
 70
     0
  9
$PDSIZE
 40
-1.0
  9
$PLINEWID
 40
0.0
  9
$COORDS
 70
     1
  9
$SPLFRAME
 70
     0
  9
$SPLINETYPE
 70
     6
  9
$SPLINESEGS
 70
     8
  9
$ATTDIA
 70
     0
  9
$ATTREQ
 70
     1
  9
$HANDLING
 70
     1
  9
$HANDSEED
  5
25C
  9
$SURFTAB1
 70
     6
  9
$SURFTAB2
 70
     6
  9
$SURFTYPE
 70
     6
  9
$SURFU
 70
     6
  9
$SURFV
 70
     6
  9
$UCSNAME
  2

  9
$UCSORG
 10
0.0
 20
0.0
 30
0.0
  9
$UCSXDIR
 10
1.0
 20
0.0
 30
0.0
  9
$UCSYDIR
 10
0.0
 20
1.0
 30
0.0
  9
$PUCSNAME
  2

  9
$PUCSORG
 10
0.0
 20
0.0
 30
0.0
  9
$PUCSXDIR
 10
1.0
 20
0.0
 30
0.0
  9
$PUCSYDIR
 10
0.0
 20
1.0
 30
0.0
  9
$USERI1
 70
     0
  9
$USERI2
 70
     0
  9
$USERI3
 70
     0
  9
$USERI4
 70
     0
  9
$USERI5
 70
     0
  9
$USERR1
 40
0.0
  9
$USERR2
 40
0.0
  9
$USERR3
 40
0.0
  9
$USERR4
 40
0.0
  9
$USERR5
 40
0.0
  9
$WORLDVIEW
 70
     1
  9
$SHADEDGE
 70
     3
  9
$SHADEDIF
 70
    70
  9
$TILEMODE
 70
     1
  9
$MAXACTVP
 70
    64
  9
$PLIMCHECK
 70
     0
  9
$PEXTMIN
 10
1.0000000000E+20
 20
1.0000000000E+20
 30
1.0000000000E+20
  9
$PEXTMAX
 10
-1.0000000000E+20
 20
-1.0000000000E+20
 30
-1.0000000000E+20
  9
$PLIMMIN
 10
0.0
 20
0.0
  9
$PLIMMAX
 10
420.0
 20
297.0
  9
$UNITMODE
 70
     0
  9
$VISRETAIN
 70
     1
  9
$PLINEGEN
 70
     0
  9
$PSLTSCALE
 70
     1
  0
ENDSEC
  0
SECTION
  2
TABLES
  0
TABLE
  2
VPORT
 70
     1
  0
VPORT
  2
*ACTIVE
 70
     0
 10
0.0
 20
0.0
 11
1.0
 21
1.0
 12
148.5
 22
105.0
 13
0.0
 23
0.0
 14
10.0
 24
10.0
 15
10.0
 25
10.0
 16
0.0
 26
0.0
 36
1.0
 17
0.0
 27
0.0
 37
0.0
 40
210.0
 41
1.4142857143
 42
50.0
 43
0.0
 44
0.0
 50
0.0
 51
0.0
 71
     0
 72
  2000
 73
     1
 74
     3
 75
     0
 76
     0
 77
     0
 78
     0
  0
ENDTAB
  0
TABLE
  2
LTYPE
 70
     6
  0
LTYPE
  2
CONTINUOUS
 70
     0
  3
Solid line
 72
    65
 73
     0
 40
0.0
  0
LTYPE
  2
HIDDEN
 70
     0
  3
Hidden __ __ __ __ __ __ __ __ __ __ __ __ __ __
 72
    65
 73
     2
 40
1.905
 49
1.27
 49
-0.635
  0
LTYPE
  2
PHANTOM
 70
     0
  3
Phantom ______  __  __  ______  __  __  ______
 72
    65
 73
     6
 40
12.7
 49
6.35
 49
-1.27
 49
1.27
 49
-1.27
 49
1.27
 49
-1.27
  0
LTYPE
  2
CENTER
 70
     0
  3
Center ____ _ ____ _ ____ _ ____ _ ____ _ ____
 72
    65
 73
     4
 40
10.16
 49
6.35
 49
-1.27
 49
1.27
 49
-1.27
  0
LTYPE
  2
CENTERX2
 70
     0
  3
Center (2x) ________  __  ________  __  _____
 72
    65
 73
     4
 40
20.32
 49
12.7
 49
-2.54
 49
2.54
 49
-2.54
  0
LTYPE
  2
DOT2
 70
     0
  3
Dot (.5x) ........................................
 72
    65
 73
     2
 40
0.635
 49
0.0
 49
-0.635
  0
ENDTAB
  0
TABLE
  2
LAYER
 70
     5
  0
LAYER
  2
0
 70
     0
 62
     7
  6
CONTINUOUS
  0
LAYER
  2
SLD-0
 70
     0
 62
     7
  6
CONTINUOUS
  0
LAYER
  2
AM_BOR
 70
     0
 62
     7
  6
CONTINUOUS
  0
LAYER
  2
BIEGLINIE__ZU_
 70
     0
 62
     8
  6
CONTINUOUS
  0
LAYER
  2
BIEGELINIE__WEG_
 70
     0
 62
     8
  6
HIDDEN
  0
ENDTAB
  0
TABLE
  2
STYLE
 70
     1
  0
STYLE
  2
STANDARD
 70
     0
 40
0.0
 41
1.0
 50
0.0
 71
     0
 42
2.5
  3
txt
  4

  0
ENDTAB
  0
TABLE
  2
VIEW
 70
     0
  0
ENDTAB
  0
TABLE
  2
UCS
 70
     0
  0
ENDTAB
  0
TABLE
  2
APPID
 70
     1
  0
APPID
  2
ACAD
 70
     0
  0
ENDTAB
  0
TABLE
  2
DIMSTYLE
 70
     1
  0
DIMSTYLE
  2
ISO-25
 70
     0
  3

  4

  5

  6

  7

 40
1.0
 41
2.5
 42
0.625
 43
3.75
 44
1.25
 45
0.0
 46
0.0
 47
0.0
 48
0.0
140
2.5
141
2.5
142
0.0
143
0.0393700787
144
1.0
145
0.0
146
1.0
147
0.625
 71
     0
 72
     0
 73
     0
 74
     0
 75
     0
 76
     0
 77
     1
 78
     8
170
     0
171
     3
172
     1
173
     0
174
     0
175
     0
176
     0
177
     0
178
     0
  0
ENDTAB
  0
ENDSEC
  0
SECTION
  2
BLOCKS
  0
BLOCK
  8
0
  2
$MODEL_SPACE
 70
     0
 10
0.0
 20
0.0
 30
0.0
  3
$MODEL_SPACE
  1

  0
ENDBLK
  5
21
  8
0
  0
BLOCK
 67
     1
  8
0
  2
$PAPER_SPACE
 70
     0
 10
0.0
 20
0.0
 30
0.0
  3
$PAPER_SPACE
  1

  0
ENDBLK
  5
1D
 67
     1
  8
0
  0
ENDSEC
  0
SECTION
  2
ENTITIES
  0
TEXT
  5
33
  8
SLD-0
 10
655.361867619
 20
1134.2334276208
 30
0.0
 40
19.05
  1
Innenansicht
 41
0.7
 11
655.361867619
 21
1128.7905704779
 31
0.0
 73
     1
  0
TEXT
  5
34
  8
SLD-0
 10
435.7547574927
 20
-1002.4537412953
 30
0.0
 40
19.05
  1
S-420
 41
0.7
 11
435.7547574927
 21
-1007.8965984381
 31
0.0
 73
     1
  0
POLYLINE
  5
35
  8
0
  6
CONTINUOUS
 62
     7
 66
     1
 10
0.0
 20
0.0
 30
0.0
  0
VERTEX
  5
18D
  8
0
  6
CONTINUOUS
 62
     7
 10
331.4145925755
 20
1108.4528388893
 30
0.0
  0
VERTEX
  5
18E
  8
0
  6
CONTINUOUS
 62
     7
 10
331.3637976346
 20
1108.2793057731
 30
0.0
  0
VERTEX
  5
18F
  8
0
  6
CONTINUOUS
 62
     7
 10
331.2018811723
 20
1108.1531432187
 30
0.0
  0
VERTEX
  5
190
  8
0
  6
CONTINUOUS
 62
     7
 10
330.9234266364
 20
1108.0764748771
 30
0.0
  0
VERTEX
  5
191
  8
0
  6
CONTINUOUS
 62
     7
 10
330.535907025
 20
1108.050915114
 30
0.0
  0
VERTEX
  5
192
  8
0
  6
CONTINUOUS
 62
     7
 10
330.0595770873
 20
1108.0764701204
 30
0.0
  0
VERTEX
  5
193
  8
0
  6
CONTINUOUS
 62
     7
 10
329.5240922639
 20
1108.1531460842
 30
0.0
  0
VERTEX
  5
194
  8
0
  6
CONTINUOUS
 62
     7
 10
328.9694449263
 20
1108.278270271
 30
0.0
  0
VERTEX
  5
195
  8
0
  6
CONTINUOUS
 62
     7
 10
328.4145925755
 20
1108.4528388893
 30
0.0
  0
SEQEND
  5
18C
  8
0
  6
CONTINUOUS
 62
     7
  0
LINE
  5
36
  8
0
  6
CONTINUOUS
 62
     7
 10
331.4145925755
 20
1108.4528388893
 30
0.0
 11
329.9145925755
 21
1108.4528388893
 31
0.0
  0
ARC
  5
37
  8
0
  6
CONTINUOUS
 62
     7
 10
-21.5854074245
 20
1111.0509151007
 30
0.0
 40
3.000000000000064
 50
300.0
 51
330.0
  0
LINE
  5
38
  8
0
  6
CONTINUOUS
 62
     7
 10
328.4145925755
 20
-887.4490848993
 30
0.0
 11
-20.0854074245
 21
-887.4490848993
 31
0.0
  0
ARC
  5
39
  8
0
  6
CONTINUOUS
 62
     7
 10
329.9145925755
 20
1111.0509151007
 30
0.0
 40
3.000000000000132
 50
210.0
 51
240.0
  0
POLYLINE
  5
3A
  8
0
  6
CONTINUOUS
 62
     7
 66
     1
 10
0.0
 20
0.0
 30
0.0
  0
VERTEX
  5
197
  8
0
  6
CONTINUOUS
 62
     7
 10
327.3165163642
 20
1109.5509151007
 30
0.0
  0
VERTEX
  5
198
  8
0
  6
CONTINUOUS
 62
     7
 10
327.1429832479
 20
1110.1006327733
 30
0.0
  0
VERTEX
  5
199
  8
0
  6
CONTINUOUS
 62
     7
 10
327.0168206935
 20
1110.6604295341
 30
0.0
  0
VERTEX
  5
19A
  8
0
  6
CONTINUOUS
 62
     7
 10
326.9401523511
 20
1111.1958320192
 30
0.0
  0
VERTEX
  5
19B
  8
0
  6
CONTINUOUS
 62
     7
 10
326.9145925888
 20
1111.6722413382
 30
0.0
  0
VERTEX
  5
19C
  8
0
  6
CONTINUOUS
 62
     7
 10
326.9401475961
 20
1112.0597048428
 30
0.0
  0
VERTEX
  5
19D
  8
0
  6
CONTINUOUS
 62
     7
 10
327.016823559
 20
1112.3382095669
 30
0.0
  0
VERTEX
  5
19E
  8
0
  6
CONTINUOUS
 62
     7
 10
327.1419477457
 20
1112.4991584536
 30
0.0
  0
VERTEX
  5
19F
  8
0
  6
CONTINUOUS
 62
     7
 10
327.3165163642
 20
1112.5509151007
 30
0.0
  0
SEQEND
  5
196
  8
0
  6
CONTINUOUS
 62
     7
  0
LINE
  5
3B
  8
0
  6
CONTINUOUS
 62
     7
 10
327.3165163642
 20
1111.0509151007
 30
0.0
 11
327.3165163642
 21
1112.5509151007
 31
0.0
  0
ARC
  5
3C
  8
0
  6
CONTINUOUS
 62
     7
 10
327.2884511593
 20
1110.6730761442
 30
0.0
 40
0.3788798394125765
 50
85.7519725518
 51
189.339713862
  0
POLYLINE
  5
3D
  8
0
  6
CONTINUOUS
 62
     7
 66
     1
 10
0.0
 20
0.0
 30
0.0
  0
VERTEX
  5
1A1
  8
0
  6
CONTINUOUS
 62
     7
 10
-18.9873312131
 20
1112.5509151007
 30
0.0
  0
VERTEX
  5
1A2
  8
0
  6
CONTINUOUS
 62
     7
 10
-18.8137980969
 20
1112.5001201597
 30
0.0
  0
VERTEX
  5
1A3
  8
0
  6
CONTINUOUS
 62
     7
 10
-18.6876355425
 20
1112.3382036975
 30
0.0
  0
VERTEX
  5
1A4
  8
0
  6
CONTINUOUS
 62
     7
 10
-18.610967201
 20
1112.0597491615
 30
0.0
  0
VERTEX
  5
1A5
  8
0
  6
CONTINUOUS
 62
     7
 10
-18.5854074378
 20
1111.6722295502
 30
0.0
  0
VERTEX
  5
1A6
  8
0
  6
CONTINUOUS
 62
     7
 10
-18.6109624442
 20
1111.1958996125
 30
0.0
  0
VERTEX
  5
1A7
  8
0
  6
CONTINUOUS
 62
     7
 10
-18.687638408
 20
1110.6604147891
 30
0.0
  0
VERTEX
  5
1A8
  8
0
  6
CONTINUOUS
 62
     7
 10
-18.8127625946
 20
1110.1057674523
 30
0.0
  0
VERTEX
  5
1A9
  8
0
  6
CONTINUOUS
 62
     7
 10
-18.9873312131
 20
1109.5509151007
 30
0.0
  0
SEQEND
  5
1A0
  8
0
  6
CONTINUOUS
 62
     7
  0
LINE
  5
3E
  8
0
  6
CONTINUOUS
 62
     7
 10
327.3165163642
 20
1112.5509151007
 30
0.0
 11
-18.9873312131
 21
1112.5509151007
 31
0.0
  0
LINE
  5
3F
  8
0
  6
CONTINUOUS
 62
     7
 10
331.4145925755
 20
-887.4490848993
 30
0.0
 11
331.4145925755
 21
1108.4528388893
 31
0.0
  0
LINE
  5
40
  8
0
  6
CONTINUOUS
 62
     7
 10
331.4145925755
 20
-887.4490848993
 30
0.0
 11
328.4145925755
 21
-887.4490848993
 31
0.0
  0
LINE
  5
41
  8
0
  6
CONTINUOUS
 62
     7
 10
-20.0854074245
 20
-887.4490848993
 30
0.0
 11
-23.0854074245
 21
-887.4490848993
 31
0.0
  0
LINE
  5
42
  8
0
  6
CONTINUOUS
 62
     7
 10
-23.0854074245
 20
1108.4528388893
 30
0.0
 11
-23.0854074245
 21
-887.4490848993
 31
0.0
  0
POLYLINE
  5
43
  8
0
  6
CONTINUOUS
 62
     7
 66
     1
 10
0.0
 20
0.0
 30
0.0
  0
VERTEX
  5
1AB
  8
0
  6
CONTINUOUS
 62
     7
 10
-20.0854074245
 20
1108.4528388893
 30
0.0
  0
VERTEX
  5
1AC
  8
0
  6
CONTINUOUS
 62
     7
 10
-20.6351250971
 20
1108.2793057731
 30
0.0
  0
VERTEX
  5
1AD
  8
0
  6
CONTINUOUS
 62
     7
 10
-21.1949218579
 20
1108.1531432187
 30
0.0
  0
VERTEX
  5
1AE
  8
0
  6
CONTINUOUS
 62
     7
 10
-21.7303243432
 20
1108.0764748771
 30
0.0
  0
VERTEX
  5
1AF
  8
0
  6
CONTINUOUS
 62
     7
 10
-22.2067336621
 20
1108.050915114
 30
0.0
  0
VERTEX
  5
1B0
  8
0
  6
CONTINUOUS
 62
     7
 10
-22.5941971667
 20
1108.0764701204
 30
0.0
  0
VERTEX
  5
1B1
  8
0
  6
CONTINUOUS
 62
     7
 10
-22.8727018907
 20
1108.1531460842
 30
0.0
  0
VERTEX
  5
1B2
  8
0
  6
CONTINUOUS
 62
     7
 10
-23.0336507775
 20
1108.2782702718
 30
0.0
  0
VERTEX
  5
1B3
  8
0
  6
CONTINUOUS
 62
     7
 10
-23.0854074245
 20
1108.4528388893
 30
0.0
  0
SEQEND
  5
1AA
  8
0
  6
CONTINUOUS
 62
     7
  0
LINE
  5
44
  8
0
  6
CONTINUOUS
 62
     7
 10
-21.5854074245
 20
1108.4528388893
 30
0.0
 11
-23.0854074245
 21
1108.4528388893
 31
0.0
  0
ARC
  5
45
  8
0
  6
CONTINUOUS
 62
     7
 10
-21.2075684699
 20
1108.4247736834
 30
0.0
 40
0.3788798376971839
 50
175.7519723733
 51
279.3397136714
  0
ARC
  5
46
  8
0
  6
CONTINUOUS
 62
     7
 10
-18.9694341939
 20
1110.6637702342
 30
0.0
 40
0.3875583193575123
 50
352.2577536505
 51
92.6467977101
  0
LINE
  5
47
  8
0
  6
CONTINUOUS
 62
     7
 10
-18.9873312131
 20
1112.5509151007
 30
0.0
 11
-18.9873312131
 21
1111.0509151007
 31
0.0
  0
CIRCLE
  5
48
  8
0
  6
CONTINUOUS
 62
     7
 10
0.1645925755
 20
110.0509151007
 30
0.0
 40
3.000000000000003
  0
CIRCLE
  5
49
  8
0
  6
CONTINUOUS
 62
     7
 10
0.1645925755
 20
1060.0509151007
 30
0.0
 40
3.000000000000003
  0
CIRCLE
  5
4A
  8
0
  6
CONTINUOUS
 62
     7
 10
308.1645925755
 20
1060.0509151007
 30
0.0
 40
3.0
  0
CIRCLE
  5
4B
  8
0
  6
CONTINUOUS
 62
     7
 10
0.1645925755
 20
-839.9490848993
 30
0.0
 40
3.000000000000003
  0
CIRCLE
  5
4C
  8
0
  6
CONTINUOUS
 62
     7
 10
308.1645925755
 20
110.0509151007
 30
0.0
 40
3.0
  0
CIRCLE
  5
4D
  8
0
  6
CONTINUOUS
 62
     7
 10
308.1645925755
 20
-839.9490848993
 30
0.0
 40
3.0
  0
LINE
  5
4E
  8
0
  6
CONTINUOUS
 62
     7
 10
331.4145925755
 20
1109.5509151007
 30
0.0
 11
329.9145925755
 21
1109.5509151007
 31
0.0
  0
LINE
  5
4F
  8
0
  6
CONTINUOUS
 62
     7
 10
331.4145925755
 20
1109.5509151007
 30
0.0
 11
331.4145925755
 21
1108.4528388893
 31
0.0
  0
LINE
  5
50
  8
0
  6
CONTINUOUS
 62
     7
 10
329.9145925755
 20
1109.5509151007
 30
0.0
 11
329.9145925755
 21
1108.4528388893
 31
0.0
  0
LINE
  5
51
  8
0
  6
CONTINUOUS
 62
     7
 10
-19.4640870809
 20
1111.0509151007
 30
0.0
 11
-18.9873312131
 21
1111.0509151007
 31
0.0
  0
LINE
  5
52
  8
0
  6
CONTINUOUS
 62
     7
 10
-19.4640870809
 20
1112.5509151007
 30
0.0
 11
-19.4640870809
 21
1111.0509151007
 31
0.0
  0
LINE
  5
53
  8
0
  6
CONTINUOUS
 62
     7
 10
-19.4640870809
 20
1112.5509151007
 30
0.0
 11
-18.9873312131
 21
1112.5509151007
 31
0.0
  0
LINE
  5
54
  8
0
  6
CONTINUOUS
 62
     7
 10
-23.0854074245
 20
1108.4528388893
 30
0.0
 11
-23.0854074245
 21
1109.5509151007
 31
0.0
  0
LINE
  5
55
  8
0
  6
CONTINUOUS
 62
     7
 10
-21.5854074245
 20
1109.5509151007
 30
0.0
 11
-23.0854074245
 21
1109.5509151007
 31
0.0
  0
LINE
  5
56
  8
0
  6
CONTINUOUS
 62
     7
 10
-21.5854074245
 20
1108.4528388893
 30
0.0
 11
-21.5854074245
 21
1109.5509151007
 31
0.0
  0
LINE
  5
57
  8
0
  6
CONTINUOUS
 62
     7
 10
327.7932722319
 20
1111.0509151007
 30
0.0
 11
327.7932722319
 21
1112.5509151007
 31
0.0
  0
LINE
  5
58
  8
0
  6
CONTINUOUS
 62
     7
 10
327.3165163642
 20
1111.0509151007
 30
0.0
 11
327.7932722319
 21
1111.0509151007
 31
0.0
  0
LINE
  5
59
  8
0
  6
CONTINUOUS
 62
     7
 10
327.3165163642
 20
1112.5509151007
 30
0.0
 11
327.7932722319
 21
1112.5509151007
 31
0.0
  0
LINE
  5
5A
  8
0
  6
CONTINUOUS
 62
     7
 10
327.7932722319
 20
1112.5509151007
 30
0.0
 11
327.7932722319
 21
1111.0509151007
 31
0.0
  0
LINE
  5
5B
  8
0
  6
CONTINUOUS
 62
     7
 10
328.4145925755
 20
1112.5509151007
 30
0.0
 11
328.4145925755
 21
1111.0509151007
 31
0.0
  0
LINE
  5
5C
  8
0
  6
CONTINUOUS
 62
     7
 10
327.7932722319
 20
1111.0509151007
 30
0.0
 11
328.4145925755
 21
1111.0509151007
 31
0.0
  0
LINE
  5
5D
  8
0
  6
CONTINUOUS
 62
     7
 10
327.7932722319
 20
1112.5509151007
 30
0.0
 11
328.4145925755
 21
1112.5509151007
 31
0.0
  0
LINE
  5
5E
  8
0
  6
CONTINUOUS
 62
     7
 10
-20.0854074245
 20
1112.5509151007
 30
0.0
 11
-19.4640870809
 21
1112.5509151007
 31
0.0
  0
LINE
  5
5F
  8
0
  6
CONTINUOUS
 62
     7
 10
-19.4640870809
 20
1111.0509151007
 30
0.0
 11
-19.4640870809
 21
1112.5509151007
 31
0.0
  0
LINE
  5
60
  8
0
  6
CONTINUOUS
 62
     7
 10
-20.0854074245
 20
1111.0509151007
 30
0.0
 11
-19.4640870809
 21
1111.0509151007
 31
0.0
  0
LINE
  5
61
  8
0
  6
CONTINUOUS
 62
     7
 10
-20.0854074245
 20
1111.0509151007
 30
0.0
 11
-20.0854074245
 21
1112.5509151007
 31
0.0
  0
ARC
  5
62
  8
0
  6
CONTINUOUS
 62
     7
 10
328.4145925755
 20
1109.5509151007
 30
0.0
 40
3.000000000000341
 50
0.0
 51
90.0
  0
ARC
  5
63
  8
0
  6
CONTINUOUS
 62
     7
 10
328.4145925755
 20
1109.5509151007
 30
0.0
 40
1.500000000000171
 50
0.0
 51
90.0
  0
ARC
  5
64
  8
0
  6
CONTINUOUS
 62
     7
 10
-20.0854074245
 20
1109.5509151007
 30
0.0
 40
3.000000000000227
 50
90.0
 51
180.0
  0
ARC
  5
65
  8
0
  6
CONTINUOUS
 62
     7
 10
-20.0854074245
 20
1109.5509151007
 30
0.0
 40
1.500000000000099
 50
90.0
 51
180.0
  0
LINE
  5
66
  8
0
  6
CONTINUOUS
 62
     7
 10
427.129454982
 20
-748.4490848993
 30
0.0
 11
426.629454982
 21
-748.9490848993
 31
0.0
  0
LINE
  5
67
  8
0
  6
CONTINUOUS
 62
     7
 10
426.629454982
 20
-755.9490848993
 30
0.0
 11
427.129454982
 21
-756.4490848993
 31
0.0
  0
LINE
  5
68
  8
0
  6
CONTINUOUS
 62
     7
 10
430.629454982
 20
-748.4490848993
 30
0.0
 11
427.129454982
 21
-748.4490848993
 31
0.0
  0
LINE
  5
69
  8
0
  6
CONTINUOUS
 62
     7
 10
427.129454982
 20
-756.4490848993
 30
0.0
 11
430.629454982
 21
-756.4490848993
 31
0.0
  0
LINE
  5
6A
  8
0
  6
CONTINUOUS
 62
     7
 10
445.129454982
 20
-887.4490848993
 30
0.0
 11
430.629454982
 21
-887.4490848993
 31
0.0
  0
LINE
  5
6B
  8
0
  6
CONTINUOUS
 62
     7
 10
430.629454982
 20
-887.4490848993
 30
0.0
 11
430.629454982
 21
1109.5509151007
 31
0.0
  0
ARC
  5
6C
  8
0
  6
CONTINUOUS
 62
     7
 10
446.629454982
 20
1111.0509151007
 30
0.0
 40
3.000000000000049
 50
210.0
 51
240.0
  0
LINE
  5
6D
  8
0
  6
CONTINUOUS
 62
     7
 10
430.629454982
 20
1109.5509151007
 30
0.0
 11
430.629454982
 21
1112.5509151007
 31
0.0
  0
LINE
  5
6E
  8
0
  6
CONTINUOUS
 62
     7
 10
444.0313787707
 20
1112.5509151007
 30
0.0
 11
430.629454982
 21
1112.5509151007
 31
0.0
  0
POLYLINE
  5
6F
  8
0
  6
CONTINUOUS
 62
     7
 66
     1
 10
0.0
 20
0.0
 30
0.0
  0
VERTEX
  5
1B5
  8
0
  6
CONTINUOUS
 62
     7
 10
444.0313787707
 20
1109.5509151007
 30
0.0
  0
VERTEX
  5
1B6
  8
0
  6
CONTINUOUS
 62
     7
 10
443.8578456545
 20
1110.1006327733
 30
0.0
  0
VERTEX
  5
1B7
  8
0
  6
CONTINUOUS
 62
     7
 10
443.7316831
 20
1110.6604295341
 30
0.0
  0
VERTEX
  5
1B8
  8
0
  6
CONTINUOUS
 62
     7
 10
443.6550147585
 20
1111.1958320192
 30
0.0
  0
VERTEX
  5
1B9
  8
0
  6
CONTINUOUS
 62
     7
 10
443.6294549954
 20
1111.6722413382
 30
0.0
  0
VERTEX
  5
1BA
  8
0
  6
CONTINUOUS
 62
     7
 10
443.6550100018
 20
1112.059704843
 30
0.0
  0
VERTEX
  5
1BB
  8
0
  6
CONTINUOUS
 62
     7
 10
443.7316859655
 20
1112.3382095669
 30
0.0
  0
VERTEX
  5
1BC
  8
0
  6
CONTINUOUS
 62
     7
 10
443.856810154
 20
1112.4991584545
 30
0.0
  0
VERTEX
  5
1BD
  8
0
  6
CONTINUOUS
 62
     7
 10
444.0313787707
 20
1112.5509151007
 30
0.0
  0
SEQEND
  5
1B4
  8
0
  6
CONTINUOUS
 62
     7
  0
POLYLINE
  5
70
  8
0
  6
CONTINUOUS
 62
     7
 66
     1
 10
0.0
 20
0.0
 30
0.0
  0
VERTEX
  5
1BF
  8
0
  6
CONTINUOUS
 62
     7
 10
448.129454982
 20
1108.4528388893
 30
0.0
  0
VERTEX
  5
1C0
  8
0
  6
CONTINUOUS
 62
     7
 10
448.0786600411
 20
1108.2793057731
 30
0.0
  0
VERTEX
  5
1C1
  8
0
  6
CONTINUOUS
 62
     7
 10
447.9167435789
 20
1108.1531432187
 30
0.0
  0
VERTEX
  5
1C2
  8
0
  6
CONTINUOUS
 62
     7
 10
447.6382890401
 20
1108.0764748771
 30
0.0
  0
VERTEX
  5
1C3
  8
0
  6
CONTINUOUS
 62
     7
 10
447.2507694316
 20
1108.050915114
 30
0.0
  0
VERTEX
  5
1C4
  8
0
  6
CONTINUOUS
 62
     7
 10
446.7744394894
 20
1108.0764701204
 30
0.0
  0
VERTEX
  5
1C5
  8
0
  6
CONTINUOUS
 62
     7
 10
446.2389546704
 20
1108.1531460842
 30
0.0
  0
VERTEX
  5
1C6
  8
0
  6
CONTINUOUS
 62
     7
 10
445.6843073333
 20
1108.2782702718
 30
0.0
  0
VERTEX
  5
1C7
  8
0
  6
CONTINUOUS
 62
     7
 10
445.129454982
 20
1108.4528388893
 30
0.0
  0
SEQEND
  5
1BE
  8
0
  6
CONTINUOUS
 62
     7
  0
LINE
  5
71
  8
0
  6
CONTINUOUS
 62
     7
 10
446.629454982
 20
1108.4528388893
 30
0.0
 11
448.129454982
 21
1108.4528388893
 31
0.0
  0
LINE
  5
72
  8
0
  6
CONTINUOUS
 62
     7
 10
448.129454982
 20
1108.4528388893
 30
0.0
 11
448.129454982
 21
-887.4490848993
 31
0.0
  0
LINE
  5
73
  8
0
  6
CONTINUOUS
 62
     7
 10
448.129454982
 20
-887.4490848993
 30
0.0
 11
445.129454982
 21
-887.4490848993
 31
0.0
  0
LINE
  5
74
  8
0
  6
CONTINUOUS
 62
     7
 10
444.0313787707
 20
1111.0509151007
 30
0.0
 11
444.0313787707
 21
1112.5509151007
 31
0.0
  0
ARC
  5
75
  8
0
  6
CONTINUOUS
 62
     7
 10
444.0033135647
 20
1110.6730761461
 30
0.0
 40
0.3788798376179359
 50
85.7519723581
 51
189.3397136866
  0
LINE
  5
76
  8
0
  6
CONTINUOUS
 62
     7
 10
448.129454982
 20
1109.5509151007
 30
0.0
 11
446.629454982
 21
1109.5509151007
 31
0.0
  0
LINE
  5
77
  8
0
  6
CONTINUOUS
 62
     7
 10
448.129454982
 20
1109.5509151007
 30
0.0
 11
448.129454982
 21
1108.4528388893
 31
0.0
  0
LINE
  5
78
  8
0
  6
CONTINUOUS
 62
     7
 10
446.629454982
 20
1109.5509151007
 30
0.0
 11
446.629454982
 21
1108.4528388893
 31
0.0
  0
LINE
  5
79
  8
0
  6
CONTINUOUS
 62
     7
 10
444.5081346385
 20
1111.0509151007
 30
0.0
 11
444.5081346385
 21
1112.5509151007
 31
0.0
  0
LINE
  5
7A
  8
0
  6
CONTINUOUS
 62
     7
 10
444.0313787707
 20
1112.5509151007
 30
0.0
 11
444.5081346385
 21
1112.5509151007
 31
0.0
  0
LINE
  5
7B
  8
0
  6
CONTINUOUS
 62
     7
 10
444.0313787707
 20
1111.0509151007
 30
0.0
 11
444.5081346385
 21
1111.0509151007
 31
0.0
  0
LINE
  5
7C
  8
0
  6
CONTINUOUS
 62
     7
 10
444.5081346385
 20
1112.5509151007
 30
0.0
 11
444.5081346385
 21
1111.0509151007
 31
0.0
  0
LINE
  5
7D
  8
0
  6
CONTINUOUS
 62
     7
 10
445.129454982
 20
1112.5509151007
 30
0.0
 11
445.129454982
 21
1111.0509151007
 31
0.0
  0
LINE
  5
7E
  8
0
  6
CONTINUOUS
 62
     7
 10
444.5081346385
 20
1112.5509151007
 30
0.0
 11
445.129454982
 21
1112.5509151007
 31
0.0
  0
LINE
  5
7F
  8
0
  6
CONTINUOUS
 62
     7
 10
444.5081346385
 20
1111.0509151007
 30
0.0
 11
445.129454982
 21
1111.0509151007
 31
0.0
  0
ARC
  5
80
  8
0
  6
CONTINUOUS
 62
     7
 10
445.129454982
 20
1109.5509151007
 30
0.0
 40
1.500000000000057
 50
0.0
 51
90.0
  0
ARC
  5
81
  8
0
  6
CONTINUOUS
 62
     7
 10
445.129454982
 20
1109.5509151007
 30
0.0
 40
3.000000000000057
 50
0.0
 51
90.0
  0
LINE
  5
82
  8
0
  6
CONTINUOUS
 62
     7
 10
424.129454982
 20
1111.0509151007
 30
0.0
 11
424.129454982
 21
1112.5509151007
 31
0.0
  0
LINE
  5
83
  8
0
  6
CONTINUOUS
 62
     7
 10
430.629454982
 20
1112.5509151007
 30
0.0
 11
424.129454982
 21
1112.5509151007
 31
0.0
  0
LINE
  5
84
  8
0
  6
CONTINUOUS
 62
     7
 10
430.629454982
 20
1111.0509151007
 30
0.0
 11
424.129454982
 21
1111.0509151007
 31
0.0
  0
LINE
  5
85
  8
0
  6
CONTINUOUS
 62
     7
 10
427.129454982
 20
-752.4490848993
 30
0.0
 11
427.129454982
 21
-756.4490848993
 31
0.0
  0
LINE
  5
86
  8
0
  6
CONTINUOUS
 62
     7
 10
427.129454982
 20
-748.4490848993
 30
0.0
 11
427.129454982
 21
-752.4490848993
 31
0.0
  0
LINE
  5
87
  8
0
  6
CONTINUOUS
 62
     7
 10
426.629454982
 20
-752.4490848993
 30
0.0
 11
426.629454982
 21
-755.9490848993
 31
0.0
  0
LINE
  5
88
  8
0
  6
CONTINUOUS
 62
     7
 10
426.629454982
 20
-748.9490848993
 30
0.0
 11
426.629454982
 21
-752.4490848993
 31
0.0
  0
ARC
  5
89
  8
0
  6
HIDDEN
 62
     7
 10
446.629454982
 20
-880.4490848993
 30
0.0
 40
6.0
 50
90.0
 51
270.0
  0
ARC
  5
8A
  8
0
  6
HIDDEN
 62
     7
 10
446.629454982
 20
1098.5509151007
 30
0.0
 40
6.000000000000227
 50
90.0
 51
270.0
  0
POLYLINE
  5
8B
  8
0
  6
HIDDEN
 62
     7
 66
     1
 10
0.0
 20
0.0
 30
0.0
  0
VERTEX
  5
1C9
  8
0
  6
HIDDEN
 62
     7
 10
445.129454982
 20
1108.4528388893
 30
0.0
  0
VERTEX
  5
1CA
  8
0
  6
HIDDEN
 62
     7
 10
445.129454982
 20
1108.4528388893
 30
0.0
  0
SEQEND
  5
1C8
  8
0
  6
HIDDEN
 62
     7
  0
ARC
  5
8C
  8
0
  6
HIDDEN
 62
     7
 10
446.2423101155
 20
1108.4349418702
 30
0.0
 40
0.3875583194657047
 50
262.2577536694
 51
2.6467976909
  0
POLYLINE
  5
8D
  8
0
  6
HIDDEN
 62
     7
 66
     1
 10
0.0
 20
0.0
 30
0.0
  0
VERTEX
  5
1CC
  8
0
  6
HIDDEN
 62
     7
 10
444.0313787707
 20
1109.5509151007
 30
0.0
  0
VERTEX
  5
1CD
  8
0
  6
HIDDEN
 62
     7
 10
444.0313787707
 20
1109.5509151007
 30
0.0
  0
SEQEND
  5
1CB
  8
0
  6
HIDDEN
 62
     7
  0
LINE
  5
8E
  8
0
  6
HIDDEN
 62
     7
 10
444.0313787707
 20
1111.0509151007
 30
0.0
 11
430.629454982
 21
1111.0509151007
 31
0.0
  0
LINE
  5
8F
  8
0
  6
HIDDEN
 62
     7
 10
446.629454982
 20
1108.4528388893
 30
0.0
 11
446.629454982
 21
-887.4490848993
 31
0.0
  0
LINE
  5
90
  8
0
  6
HIDDEN
 62
     7
 10
443.6188944528
 20
-835.7570783882
 30
0.0
 11
443.6188944528
 21
-844.1410914104
 31
0.0
  0
LINE
  5
91
  8
0
  6
HIDDEN
 62
     7
 10
443.6188944528
 20
114.2429216118
 30
0.0
 11
443.6188944528
 21
105.8589085896
 31
0.0
  0
LINE
  5
92
  8
0
  6
HIDDEN
 62
     7
 10
443.6188944528
 20
1064.2429216118
 30
0.0
 11
443.6188944528
 21
1055.8589085896
 31
0.0
  0
LINE
  5
93
  8
0
  6
HIDDEN
 62
     7
 10
444.5294549821
 20
-836.9490848993
 30
0.0
 11
444.5294549821
 21
-842.9490848993
 31
0.0
  0
LINE
  5
94
  8
0
  6
HIDDEN
 62
     7
 10
444.5294549821
 20
113.0509151007
 30
0.0
 11
444.5294549821
 21
107.0509151007
 31
0.0
  0
LINE
  5
95
  8
0
  6
HIDDEN
 62
     7
 10
444.5294549821
 20
1063.0509151007
 30
0.0
 11
444.5294549821
 21
1057.0509151007
 31
0.0
  0
POLYLINE
  5
96
  8
0
  6
HIDDEN
 62
     7
 66
     1
 10
0.0
 20
0.0
 30
0.0
  0
VERTEX
  5
1CF
  8
0
  6
HIDDEN
 62
     7
 10
444.0313787707
 20
1109.5509151007
 30
0.0
  0
VERTEX
  5
1D0
  8
0
  6
HIDDEN
 62
     7
 10
444.0313787707
 20
1109.5509151007
 30
0.0
  0
SEQEND
  5
1CE
  8
0
  6
HIDDEN
 62
     7
  0
POLYLINE
  5
97
  8
0
  6
HIDDEN
 62
     7
 66
     1
 10
0.0
 20
0.0
 30
0.0
  0
VERTEX
  5
1D2
  8
0
  6
HIDDEN
 62
     7
 10
445.129454982
 20
1108.4528388893
 30
0.0
  0
VERTEX
  5
1D3
  8
0
  6
HIDDEN
 62
     7
 10
445.129454982
 20
1108.4528388893
 30
0.0
  0
SEQEND
  5
1D1
  8
0
  6
HIDDEN
 62
     7
  0
LINE
  5
98
  8
0
  6
HIDDEN
 62
     7
 10
445.629454982
 20
-752.4490848993
 30
0.0
 11
445.629454982
 21
-757.4490848993
 31
0.0
  0
LINE
  5
99
  8
0
  6
HIDDEN
 62
     7
 10
445.629454982
 20
-747.4490848993
 30
0.0
 11
445.629454982
 21
-752.4490848993
 31
0.0
  0
LINE
  5
9A
  8
0
  6
HIDDEN
 62
     7
 10
440.629454982
 20
1062.5509151007
 30
0.0
 11
440.629454982
 21
-844.4490848993
 31
0.0
  0
LINE
  5
9B
  8
0
  6
HIDDEN
 62
     7
 10
440.629454982
 20
-844.4490848993
 30
0.0
 11
440.629454982
 21
-880.4490848993
 31
0.0
  0
LINE
  5
9C
  8
0
  6
HIDDEN
 62
     7
 10
440.629454982
 20
1098.5509151007
 30
0.0
 11
440.629454982
 21
1062.5509151007
 31
0.0
  0
LINE
  5
9D
  8
0
  6
HIDDEN
 62
     7
 10
446.190088729
 20
1108.0509151137
 30
0.0
 11
447.250722476
 21
1108.0509151137
 31
0.0
  0
LINE
  5
9E
  8
0
  6
HIDDEN
 62
     7
 10
443.6294549951
 20
1111.6722882925
 30
0.0
 11
443.6294549951
 21
1110.6116016966
 31
0.0
  0
ARC
  5
9F
  8
0
  6
HIDDEN
 62
     7
 10
445.8294549821
 20
-846.8364199474
 30
0.0
 40
0.8000000000000452
 50
0.0
 51
52.6241925045
  0
ARC
  5
A0
  8
0
  6
HIDDEN
 62
     7
 10
445.8294549821
 20
-833.0617498512
 30
0.0
 40
0.8000000000000452
 50
307.3758074955
 51
0.0
  0
ARC
  5
A1
  8
0
  6
HIDDEN
 62
     7
 10
445.8294549821
 20
-846.8364199474
 30
0.0
 40
2.300000000000078
 50
0.0
 51
52.6241925045
  0
ARC
  5
A2
  8
0
  6
HIDDEN
 62
     7
 10
445.8294549821
 20
-833.0617498512
 30
0.0
 40
2.300000000000078
 50
307.3758074955
 51
0.0
  0
ARC
  5
A3
  8
0
  6
HIDDEN
 62
     7
 10
445.8294549821
 20
103.1635800526
 30
0.0
 40
0.8000000000000227
 50
0.0
 51
52.6241925044
  0
ARC
  5
A4
  8
0
  6
HIDDEN
 62
     7
 10
445.8294549821
 20
116.9382501488
 30
0.0
 40
0.8000000000000339
 50
307.3758074956
 51
0.0
  0
ARC
  5
A5
  8
0
  6
HIDDEN
 62
     7
 10
445.8294549821
 20
103.1635800526
 30
0.0
 40
2.30000000000001
 50
0.0
 51
52.6241925045
  0
ARC
  5
A6
  8
0
  6
HIDDEN
 62
     7
 10
445.8294549821
 20
116.9382501488
 30
0.0
 40
2.300000000000022
 50
307.3758074955
 51
0.0
  0
ARC
  5
A7
  8
0
  6
HIDDEN
 62
     7
 10
445.8294549821
 20
1053.1635800526
 30
0.0
 40
0.7999999999998646
 50
0.0
 51
52.6241925044
  0
ARC
  5
A8
  8
0
  6
HIDDEN
 62
     7
 10
445.8294549821
 20
1066.9382501488
 30
0.0
 40
0.8000000000002259
 50
307.3758074955
 51
0.0
  0
ARC
  5
A9
  8
0
  6
HIDDEN
 62
     7
 10
445.8294549821
 20
1053.1635800526
 30
0.0
 40
2.299999999999955
 50
0.0
 51
52.6241925044
  0
ARC
  5
AA
  8
0
  6
HIDDEN
 62
     7
 10
445.8294549821
 20
1066.9382501488
 30
0.0
 40
2.300000000000349
 50
307.3758074955
 51
0.0
  0
LINE
  5
AB
  8
0
  6
HIDDEN
 62
     7
 10
446.3150872644
 20
-833.6974866572
 30
0.0
 11
443.6188944528
 21
-835.7570783882
 31
0.0
  0
LINE
  5
AC
  8
0
  6
HIDDEN
 62
     7
 10
443.6188944528
 20
-844.1410914104
 30
0.0
 11
446.3150872644
 21
-846.2006831415
 31
0.0
  0
LINE
  5
AD
  8
0
  6
HIDDEN
 62
     7
 10
446.3150872644
 20
116.3025133428
 30
0.0
 11
443.6188944528
 21
114.2429216118
 31
0.0
  0
LINE
  5
AE
  8
0
  6
HIDDEN
 62
     7
 10
443.6188944528
 20
105.8589085896
 30
0.0
 11
446.3150872644
 21
103.7993168585
 31
0.0
  0
LINE
  5
AF
  8
0
  6
HIDDEN
 62
     7
 10
446.3150872644
 20
1066.3025133428
 30
0.0
 11
443.6188944528
 21
1064.2429216118
 31
0.0
  0
LINE
  5
B0
  8
0
  6
HIDDEN
 62
     7
 10
443.6188944528
 20
1055.8589085896
 30
0.0
 11
446.3150872644
 21
1053.7993168585
 31
0.0
  0
LINE
  5
B1
  8
0
  6
HIDDEN
 62
     7
 10
447.2256477937
 20
-834.8894931682
 30
0.0
 11
444.5294549821
 21
-836.9490848993
 31
0.0
  0
LINE
  5
B2
  8
0
  6
HIDDEN
 62
     7
 10
444.5294549821
 20
-842.9490848993
 30
0.0
 11
447.2256477937
 21
-845.0086766304
 31
0.0
  0
LINE
  5
B3
  8
0
  6
HIDDEN
 62
     7
 10
447.2256477937
 20
115.1105068318
 30
0.0
 11
444.5294549821
 21
113.0509151007
 31
0.0
  0
LINE
  5
B4
  8
0
  6
HIDDEN
 62
     7
 10
444.5294549821
 20
107.0509151007
 30
0.0
 11
447.2256477937
 21
104.9913233696
 31
0.0
  0
LINE
  5
B5
  8
0
  6
HIDDEN
 62
     7
 10
447.2256477937
 20
1065.1105068318
 30
0.0
 11
444.5294549821
 21
1063.0509151007
 31
0.0
  0
LINE
  5
B6
  8
0
  6
HIDDEN
 62
     7
 10
444.5294549821
 20
1057.0509151007
 30
0.0
 11
447.2256477937
 21
1054.9913233696
 31
0.0
  0
LINE
  5
B7
  8
0
  6
HIDDEN
 62
     7
 10
443.6188944528
 20
-844.1410914104
 30
0.0
 11
444.5294549821
 21
-842.9490848993
 31
0.0
  0
LINE
  5
B8
  8
0
  6
HIDDEN
 62
     7
 10
444.5294549821
 20
-836.9490848993
 30
0.0
 11
443.6188944528
 21
-835.7570783882
 31
0.0
  0
LINE
  5
B9
  8
0
  6
HIDDEN
 62
     7
 10
443.6188944528
 20
105.8589085896
 30
0.0
 11
444.5294549821
 21
107.0509151007
 31
0.0
  0
LINE
  5
BA
  8
0
  6
HIDDEN
 62
     7
 10
444.5294549821
 20
113.0509151007
 30
0.0
 11
443.6188944528
 21
114.2429216118
 31
0.0
  0
LINE
  5
BB
  8
0
  6
HIDDEN
 62
     7
 10
443.6188944528
 20
1055.8589085896
 30
0.0
 11
444.5294549821
 21
1057.0509151007
 31
0.0
  0
LINE
  5
BC
  8
0
  6
HIDDEN
 62
     7
 10
444.5294549821
 20
1063.0509151007
 30
0.0
 11
443.6188944528
 21
1064.2429216118
 31
0.0
  0
LINE
  5
BD
  8
0
  6
HIDDEN
 62
     7
 10
434.629454982
 20
1111.0509151007
 30
0.0
 11
434.629454982
 21
1112.5509151007
 31
0.0
  0
LINE
  5
BE
  8
0
  6
HIDDEN
 62
     7
 10
447.250762476
 20
1108.0509151137
 30
0.0
 11
447.2508281739
 21
1108.0509151137
 31
0.0
  0
LINE
  5
BF
  8
0
  6
HIDDEN
 62
     7
 10
446.629454982
 20
-747.4490848993
 30
0.0
 11
445.629454982
 21
-747.4490848993
 31
0.0
  0
LINE
  5
C0
  8
0
  6
HIDDEN
 62
     7
 10
445.629454982
 20
-757.4490848993
 30
0.0
 11
446.629454982
 21
-757.4490848993
 31
0.0
  0
LINE
  5
C1
  8
0
  6
HIDDEN
 62
     7
 10
445.629454982
 20
-748.4490848993
 30
0.0
 11
430.629454982
 21
-748.4490848993
 31
0.0
  0
LINE
  5
C2
  8
0
  6
HIDDEN
 62
     7
 10
430.629454982
 20
-756.4490848993
 30
0.0
 11
445.629454982
 21
-756.4490848993
 31
0.0
  0
LINE
  5
C3
  8
0
  6
CONTINUOUS
 62
     7
 10
327.4145925755
 20
-1003.6424286368
 30
0.0
 11
327.3082915303
 21
-1002.5180120633
 31
0.0
  0
LINE
  5
C4
  8
0
  6
CONTINUOUS
 62
     7
 10
-19.0854074245
 20
-1003.6424286368
 30
0.0
 11
-18.9789501268
 21
-1002.5171933653
 31
0.0
  0
ARC
  5
C5
  8
0
  6
CONTINUOUS
 62
     7
 10
329.9145925755
 20
-1003.6424286368
 30
0.0
 40
3.000000000000119
 50
120.0
 51
135.0
  0
LINE
  5
C6
  8
0
  6
CONTINUOUS
 62
     7
 10
327.7932722319
 20
-1001.5211082932
 30
0.0
 11
313.9145925755
 21
-987.6424286368
 31
0.0
  0
LINE
  5
C7
  8
0
  6
CONTINUOUS
 62
     7
 10
313.9145925755
 20
-987.6424286368
 30
0.0
 11
328.4145925755
 21
-987.6424286368
 31
0.0
  0
LINE
  5
C8
  8
0
  6
CONTINUOUS
 62
     7
 10
-20.0854074245
 20
-987.6424286368
 30
0.0
 11
-5.5854074245
 21
-987.6424286368
 31
0.0
  0
LINE
  5
C9
  8
0
  6
CONTINUOUS
 62
     7
 10
-5.5854074245
 20
-987.6424286368
 30
0.0
 11
-19.4640870809
 21
-1001.5211082932
 31
0.0
  0
ARC
  5
CA
  8
0
  6
CONTINUOUS
 62
     7
 10
-21.5854074245
 20
-1003.6424286368
 30
0.0
 40
3.000000000000107
 50
45.0
 51
60.0
  0
ARC
  5
CB
  8
0
  6
CONTINUOUS
 62
     7
 10
-21.5854074245
 20
-1003.6424286368
 30
0.0
 40
2.999999999999923
 50
30.0
 51
45.0
  0
LINE
  5
CC
  8
0
  6
CONTINUOUS
 62
     7
 10
-19.4640870809
 20
-1001.5211082932
 30
0.0
 11
-5.5854074245
 21
-987.6424286368
 31
0.0
  0
LINE
  5
CD
  8
0
  6
CONTINUOUS
 62
     7
 10
-5.5854074245
 20
-987.6424286368
 30
0.0
 11
16.2031111787
 21
-987.6424286368
 31
0.0
  0
ARC
  5
CE
  8
0
  6
CONTINUOUS
 62
     7
 10
29.1645925755
 20
-968.6424286368
 30
0.0
 40
23.00000000000012
 50
235.6988472432
 51
327.0792654719
  0
LINE
  5
CF
  8
0
  6
CONTINUOUS
 62
     7
 10
48.4713271518
 20
-981.1424286368
 30
0.0
 11
259.8578579992
 21
-981.1424286368
 31
0.0
  0
ARC
  5
D0
  8
0
  6
CONTINUOUS
 62
     7
 10
279.1645925755
 20
-968.6424286368
 30
0.0
 40
23.00000000000013
 50
212.9207345281
 51
304.3011527568
  0
LINE
  5
D1
  8
0
  6
CONTINUOUS
 62
     7
 10
292.1260739723
 20
-987.6424286368
 30
0.0
 11
313.9145925755
 21
-987.6424286368
 31
0.0
  0
LINE
  5
D2
  8
0
  6
CONTINUOUS
 62
     7
 10
313.9145925755
 20
-987.6424286368
 30
0.0
 11
327.7932722319
 21
-1001.5211082932
 31
0.0
  0
ARC
  5
D3
  8
0
  6
CONTINUOUS
 62
     7
 10
329.9145925755
 20
-1003.6424286368
 30
0.0
 40
3.000000000000034
 50
135.0
 51
150.0
  0
LINE
  5
D4
  8
0
  6
CONTINUOUS
 62
     7
 10
331.4145925755
 20
-987.6424286368
 30
0.0
 11
331.4145925755
 21
-1001.0443524254
 31
0.0
  0
POLYLINE
  5
D5
  8
0
  6
CONTINUOUS
 62
     7
 66
     1
 10
0.0
 20
0.0
 30
0.0
  0
VERTEX
  5
1D5
  8
0
  6
CONTINUOUS
 62
     7
 10
328.4145925755
 20
-1001.0443524254
 30
0.0
  0
VERTEX
  5
1D6
  8
0
  6
CONTINUOUS
 62
     7
 10
328.9643102481
 20
-1000.8708193092
 30
0.0
  0
VERTEX
  5
1D7
  8
0
  6
CONTINUOUS
 62
     7
 10
329.5241070089
 20
-1000.7446567547
 30
0.0
  0
VERTEX
  5
1D8
  8
0
  6
CONTINUOUS
 62
     7
 10
330.0595094897
 20
-1000.6679884132
 30
0.0
  0
VERTEX
  5
1D9
  8
0
  6
CONTINUOUS
 62
     7
 10
330.5359188131
 20
-1000.6424286501
 30
0.0
  0
VERTEX
  5
1DA
  8
0
  6
CONTINUOUS
 62
     7
 10
330.9233823176
 20
-1000.6679836565
 30
0.0
  0
VERTEX
  5
1DB
  8
0
  6
CONTINUOUS
 62
     7
 10
331.2018870417
 20
-1000.7446596202
 30
0.0
  0
VERTEX
  5
1DC
  8
0
  6
CONTINUOUS
 62
     7
 10
331.3628359286
 20
-1000.869783808
 30
0.0
  0
VERTEX
  5
1DD
  8
0
  6
CONTINUOUS
 62
     7
 10
331.4145925755
 20
-1001.0443524254
 30
0.0
  0
SEQEND
  5
1D4
  8
0
  6
CONTINUOUS
 62
     7
  0
LINE
  5
D6
  8
0
  6
CONTINUOUS
 62
     7
 10
328.4145925755
 20
-987.6424286368
 30
0.0
 11
331.4145925755
 21
-987.6424286368
 31
0.0
  0
LINE
  5
D7
  8
0
  6
CONTINUOUS
 62
     7
 10
-23.0854074245
 20
-1001.0443524254
 30
0.0
 11
-23.0854074245
 21
-987.6424286368
 31
0.0
  0
LINE
  5
D8
  8
0
  6
CONTINUOUS
 62
     7
 10
-23.0854074245
 20
-987.6424286368
 30
0.0
 11
-20.0854074245
 21
-987.6424286368
 31
0.0
  0
POLYLINE
  5
D9
  8
0
  6
CONTINUOUS
 62
     7
 66
     1
 10
0.0
 20
0.0
 30
0.0
  0
VERTEX
  5
1DF
  8
0
  6
CONTINUOUS
 62
     7
 10
-23.0854074245
 20
-1001.0443524254
 30
0.0
  0
VERTEX
  5
1E0
  8
0
  6
CONTINUOUS
 62
     7
 10
-23.0346124836
 20
-1000.8708193092
 30
0.0
  0
VERTEX
  5
1E1
  8
0
  6
CONTINUOUS
 62
     7
 10
-22.8726960213
 20
-1000.7446567547
 30
0.0
  0
VERTEX
  5
1E2
  8
0
  6
CONTINUOUS
 62
     7
 10
-22.5942414826
 20
-1000.6679884132
 30
0.0
  0
VERTEX
  5
1E3
  8
0
  6
CONTINUOUS
 62
     7
 10
-22.206721874
 20
-1000.6424286501
 30
0.0
  0
VERTEX
  5
1E4
  8
0
  6
CONTINUOUS
 62
     7
 10
-21.7303919316
 20
-1000.6679836565
 30
0.0
  0
VERTEX
  5
1E5
  8
0
  6
CONTINUOUS
 62
     7
 10
-21.1949071129
 20
-1000.7446596202
 30
0.0
  0
VERTEX
  5
1E6
  8
0
  6
CONTINUOUS
 62
     7
 10
-20.640259771
 20
-1000.8697838087
 30
0.0
  0
VERTEX
  5
1E7
  8
0
  6
CONTINUOUS
 62
     7
 10
-20.0854074245
 20
-1001.0443524254
 30
0.0
  0
SEQEND
  5
1DE
  8
0
  6
CONTINUOUS
 62
     7
  0
LINE
  5
DA
  8
0
  6
CONTINUOUS
 62
     7
 10
331.4145925755
 20
-1001.0443524254
 30
0.0
 11
329.9145925755
 21
-1001.0443524254
 31
0.0
  0
ARC
  5
DB
  8
0
  6
CONTINUOUS
 62
     7
 10
329.5367536209
 20
-1001.0162872195
 30
0.0
 40
0.3788798376904587
 50
355.751972372
 51
99.3397136726
  0
LINE
  5
DC
  8
0
  6
CONTINUOUS
 62
     7
 10
327.3165163642
 20
-1005.1424286368
 30
0.0
 11
-18.9873312131
 21
-1005.1424286368
 31
0.0
  0
POLYLINE
  5
DD
  8
0
  6
CONTINUOUS
 62
     7
 66
     1
 10
0.0
 20
0.0
 30
0.0
  0
VERTEX
  5
1E9
  8
0
  6
CONTINUOUS
 62
     7
 10
-18.9873312131
 20
-1002.1424286368
 30
0.0
  0
VERTEX
  5
1EA
  8
0
  6
CONTINUOUS
 62
     7
 10
-18.8137980969
 20
-1002.6921463094
 30
0.0
  0
VERTEX
  5
1EB
  8
0
  6
CONTINUOUS
 62
     7
 10
-18.6876355425
 20
-1003.2519430702
 30
0.0
  0
VERTEX
  5
1EC
  8
0
  6
CONTINUOUS
 62
     7
 10
-18.610967201
 20
-1003.7873455512
 30
0.0
  0
VERTEX
  5
1ED
  8
0
  6
CONTINUOUS
 62
     7
 10
-18.5854074378
 20
-1004.2637548743
 30
0.0
  0
VERTEX
  5
1EE
  8
0
  6
CONTINUOUS
 62
     7
 10
-18.6109624442
 20
-1004.651218376
 30
0.0
  0
VERTEX
  5
1EF
  8
0
  6
CONTINUOUS
 62
     7
 10
-18.687638408
 20
-1004.929723103
 30
0.0
  0
VERTEX
  5
1F0
  8
0
  6
CONTINUOUS
 62
     7
 10
-18.8127625946
 20
-1005.0906719896
 30
0.0
  0
VERTEX
  5
1F1
  8
0
  6
CONTINUOUS
 62
     7
 10
-18.9873312131
 20
-1005.1424286368
 30
0.0
  0
SEQEND
  5
1E8
  8
0
  6
CONTINUOUS
 62
     7
  0
POLYLINE
  5
DE
  8
0
  6
CONTINUOUS
 62
     7
 66
     1
 10
0.0
 20
0.0
 30
0.0
  0
VERTEX
  5
1F3
  8
0
  6
CONTINUOUS
 62
     7
 10
327.3165163642
 20
-1005.1424286368
 30
0.0
  0
VERTEX
  5
1F4
  8
0
  6
CONTINUOUS
 62
     7
 10
327.1429832479
 20
-1005.0916336958
 30
0.0
  0
VERTEX
  5
1F5
  8
0
  6
CONTINUOUS
 62
     7
 10
327.0168206935
 20
-1004.9297172336
 30
0.0
  0
VERTEX
  5
1F6
  8
0
  6
CONTINUOUS
 62
     7
 10
326.9401523511
 20
-1004.6512626949
 30
0.0
  0
VERTEX
  5
1F7
  8
0
  6
CONTINUOUS
 62
     7
 10
326.9145925888
 20
-1004.2637430863
 30
0.0
  0
VERTEX
  5
1F8
  8
0
  6
CONTINUOUS
 62
     7
 10
326.9401475961
 20
-1003.7874131443
 30
0.0
  0
VERTEX
  5
1F9
  8
0
  6
CONTINUOUS
 62
     7
 10
327.016823559
 20
-1003.2519283251
 30
0.0
  0
VERTEX
  5
1FA
  8
0
  6
CONTINUOUS
 62
     7
 10
327.1419477457
 20
-1002.697280988
 30
0.0
  0
VERTEX
  5
1FB
  8
0
  6
CONTINUOUS
 62
     7
 10
327.3165163642
 20
-1002.1424286368
 30
0.0
  0
SEQEND
  5
1F2
  8
0
  6
CONTINUOUS
 62
     7
  0
LINE
  5
DF
  8
0
  6
CONTINUOUS
 62
     7
 10
-18.9873312131
 20
-1005.1424286368
 30
0.0
 11
-18.9873312131
 21
-1003.6424286368
 31
0.0
  0
ARC
  5
E0
  8
0
  6
CONTINUOUS
 62
     7
 10
-18.9592660075
 20
-1003.2645896819
 30
0.0
 40
0.3788798378647584
 50
265.7519724054
 51
9.3397136392
  0
LINE
  5
E1
  8
0
  6
CONTINUOUS
 62
     7
 10
-21.5854074245
 20
-1001.0443524254
 30
0.0
 11
-23.0854074245
 21
-1001.0443524254
 31
0.0
  0
ARC
  5
E2
  8
0
  6
CONTINUOUS
 62
     7
 10
327.2986193433
 20
-1003.2552837718
 30
0.0
 40
0.3875583179155063
 50
172.2577540045
 51
272.6467979485
  0
LINE
  5
E3
  8
0
  6
CONTINUOUS
 62
     7
 10
327.3165163642
 20
-1003.6424286368
 30
0.0
 11
327.3165163642
 21
-1005.1424286368
 31
0.0
  0
LINE
  5
E4
  8
0
  6
CONTINUOUS
 62
     7
 10
-18.9873312131
 20
-1005.1424286368
 30
0.0
 11
-20.0854074245
 21
-1005.1424286368
 31
0.0
  0
LINE
  5
E5
  8
0
  6
CONTINUOUS
 62
     7
 10
-20.0854074245
 20
-1003.6424286368
 30
0.0
 11
-20.0854074245
 21
-1005.1424286368
 31
0.0
  0
LINE
  5
E6
  8
0
  6
CONTINUOUS
 62
     7
 10
-18.9873312131
 20
-1003.6424286368
 30
0.0
 11
-20.0854074245
 21
-1003.6424286368
 31
0.0
  0
LINE
  5
E7
  8
0
  6
CONTINUOUS
 62
     7
 10
328.4145925755
 20
-1003.6424286368
 30
0.0
 11
327.3165163642
 21
-1003.6424286368
 31
0.0
  0
LINE
  5
E8
  8
0
  6
CONTINUOUS
 62
     7
 10
328.4145925755
 20
-1005.1424286368
 30
0.0
 11
328.4145925755
 21
-1003.6424286368
 31
0.0
  0
LINE
  5
E9
  8
0
  6
CONTINUOUS
 62
     7
 10
328.4145925755
 20
-1005.1424286368
 30
0.0
 11
327.3165163642
 21
-1005.1424286368
 31
0.0
  0
LINE
  5
EA
  8
0
  6
CONTINUOUS
 62
     7
 10
331.4145925755
 20
-1002.1424286368
 30
0.0
 11
329.9145925755
 21
-1002.1424286368
 31
0.0
  0
LINE
  5
EB
  8
0
  6
CONTINUOUS
 62
     7
 10
331.4145925755
 20
-1001.0443524254
 30
0.0
 11
331.4145925755
 21
-1002.1424286368
 31
0.0
  0
LINE
  5
EC
  8
0
  6
CONTINUOUS
 62
     7
 10
329.9145925755
 20
-1001.0443524254
 30
0.0
 11
329.9145925755
 21
-1002.1424286368
 31
0.0
  0
LINE
  5
ED
  8
0
  6
CONTINUOUS
 62
     7
 10
-21.5854074245
 20
-1002.1424286368
 30
0.0
 11
-23.0854074245
 21
-1002.1424286368
 31
0.0
  0
LINE
  5
EE
  8
0
  6
CONTINUOUS
 62
     7
 10
-23.0854074245
 20
-1002.1424286368
 30
0.0
 11
-23.0854074245
 21
-1001.0443524254
 31
0.0
  0
LINE
  5
EF
  8
0
  6
CONTINUOUS
 62
     7
 10
-21.5854074245
 20
-1002.1424286368
 30
0.0
 11
-21.5854074245
 21
-1001.0443524254
 31
0.0
  0
ARC
  5
F0
  8
0
  6
CONTINUOUS
 62
     7
 10
328.4145925755
 20
-1002.1424286368
 30
0.0
 40
1.5
 50
270.0
 51
0.0
  0
ARC
  5
F1
  8
0
  6
CONTINUOUS
 62
     7
 10
328.4145925755
 20
-1002.1424286368
 30
0.0
 40
3.000000000000398
 50
270.0
 51
360.0
  0
ARC
  5
F2
  8
0
  6
CONTINUOUS
 62
     7
 10
-20.0854074245
 20
-1002.1424286368
 30
0.0
 40
1.500000000000092
 50
180.0
 51
270.0
  0
ARC
  5
F3
  8
0
  6
CONTINUOUS
 62
     7
 10
-20.0854074245
 20
-1002.1424286368
 30
0.0
 40
3.000000000000377
 50
180.0
 51
270.0
  0
ARC
  5
F4
  8
0
  6
HIDDEN
 62
     7
 10
321.4145925755
 20
-1003.6424286368
 30
0.0
 40
6.0
 50
10.8012510214
 51
180.0
  0
ARC
  5
F5
  8
0
  6
HIDDEN
 62
     7
 10
-13.0854074245
 20
-1003.6424286368
 30
0.0
 40
6.000000000000005
 50
0.0
 51
169.1907898743
  0
POLYLINE
  5
F6
  8
0
  6
HIDDEN
 62
     7
 66
     1
 10
0.0
 20
0.0
 30
0.0
  0
VERTEX
  5
1FD
  8
0
  6
HIDDEN
 62
     7
 10
328.4145925755
 20
-1001.0443524254
 30
0.0
  0
VERTEX
  5
1FE
  8
0
  6
HIDDEN
 62
     7
 10
328.4145925755
 20
-1001.0443524254
 30
0.0
  0
SEQEND
  5
1FC
  8
0
  6
HIDDEN
 62
     7
  0
POLYLINE
  5
F7
  8
0
  6
HIDDEN
 62
     7
 66
     1
 10
0.0
 20
0.0
 30
0.0
  0
VERTEX
  5
200
  8
0
  6
HIDDEN
 62
     7
 10
-18.9873312131
 20
-1002.1424286368
 30
0.0
  0
VERTEX
  5
201
  8
0
  6
HIDDEN
 62
     7
 10
-18.9873312131
 20
-1002.1424286368
 30
0.0
  0
SEQEND
  5
1FF
  8
0
  6
HIDDEN
 62
     7
  0
ARC
  5
F8
  8
0
  6
HIDDEN
 62
     7
 10
-21.1982625584
 20
-1001.0264554058
 30
0.0
 40
0.3875583190582406
 50
82.2577535974
 51
182.6467977631
  0
POLYLINE
  5
F9
  8
0
  6
HIDDEN
 62
     7
 66
     1
 10
0.0
 20
0.0
 30
0.0
  0
VERTEX
  5
203
  8
0
  6
HIDDEN
 62
     7
 10
-20.0854074245
 20
-1001.0443524254
 30
0.0
  0
VERTEX
  5
204
  8
0
  6
HIDDEN
 62
     7
 10
-20.0854074245
 20
-1001.0443524254
 30
0.0
  0
SEQEND
  5
202
  8
0
  6
HIDDEN
 62
     7
  0
POLYLINE
  5
FA
  8
0
  6
HIDDEN
 62
     7
 66
     1
 10
0.0
 20
0.0
 30
0.0
  0
VERTEX
  5
206
  8
0
  6
HIDDEN
 62
     7
 10
327.3165163642
 20
-1002.1424286368
 30
0.0
  0
VERTEX
  5
207
  8
0
  6
HIDDEN
 62
     7
 10
327.3165163642
 20
-1002.1424286368
 30
0.0
  0
SEQEND
  5
205
  8
0
  6
HIDDEN
 62
     7
  0
LINE
  5
FB
  8
0
  6
HIDDEN
 62
     7
 10
-21.5854074245
 20
-1001.0443524254
 30
0.0
 11
-21.5854074245
 21
-987.6424286368
 31
0.0
  0
LINE
  5
FC
  8
0
  6
HIDDEN
 62
     7
 10
329.9145925755
 20
-987.6424286368
 30
0.0
 11
329.9145925755
 21
-1001.0443524254
 31
0.0
  0
LINE
  5
FD
  8
0
  6
HIDDEN
 62
     7
 10
327.3165163642
 20
-1003.6424286368
 30
0.0
 11
-18.9873312131
 21
-1003.6424286368
 31
0.0
  0
LINE
  5
FE
  8
0
  6
HIDDEN
 62
     7
 10
312.3565990866
 20
-1000.6318681075
 30
0.0
 11
303.9725860644
 21
-1000.6318681075
 31
0.0
  0
LINE
  5
FF
  8
0
  6
HIDDEN
 62
     7
 10
4.3565990866
 20
-1000.6318681075
 30
0.0
 11
-4.0274139356
 21
-1000.6318681075
 31
0.0
  0
LINE
  5
100
  8
0
  6
HIDDEN
 62
     7
 10
3.1645925755
 20
-1001.5424286368
 30
0.0
 11
-2.8354074245
 21
-1001.5424286368
 31
0.0
  0
LINE
  5
101
  8
0
  6
HIDDEN
 62
     7
 10
311.1645925755
 20
-1001.5424286368
 30
0.0
 11
305.1645925755
 21
-1001.5424286368
 31
0.0
  0
LINE
  5
102
  8
0
  6
HIDDEN
 62
     7
 10
159.1645925755
 20
-1002.6424286367
 30
0.0
 11
149.1645925755
 21
-1002.6424286367
 31
0.0
  0
LINE
  5
103
  8
0
  6
HIDDEN
 62
     7
 10
158.1645925755
 20
-984.1424286367
 30
0.0
 11
150.1645925755
 21
-984.1424286367
 31
0.0
  0
LINE
  5
104
  8
0
  6
HIDDEN
 62
     7
 10
157.6645925755
 20
-983.6424286367
 30
0.0
 11
150.6645925755
 21
-983.6424286367
 31
0.0
  0
LINE
  5
105
  8
0
  6
HIDDEN
 62
     7
 10
321.4145925755
 20
-997.6424286368
 30
0.0
 11
285.4145925755
 21
-997.6424286368
 31
0.0
  0
LINE
  5
106
  8
0
  6
HIDDEN
 62
     7
 10
22.9145925755
 20
-997.6424286368
 30
0.0
 11
-13.0854074245
 21
-997.6424286368
 31
0.0
  0
LINE
  5
107
  8
0
  6
HIDDEN
 62
     7
 10
285.4145925755
 20
-997.6424286368
 30
0.0
 11
22.9145925755
 21
-997.6424286368
 31
0.0
  0
LINE
  5
108
  8
0
  6
HIDDEN
 62
     7
 10
330.5359657674
 20
-1000.6424286498
 30
0.0
 11
329.4752791714
 21
-1000.6424286498
 31
0.0
  0
LINE
  5
109
  8
0
  6
HIDDEN
 62
     7
 10
-18.5854074375
 20
-1004.2638018286
 30
0.0
 11
-18.5854074375
 21
-1003.2031152327
 31
0.0
  0
LINE
  5
10A
  8
0
  6
HIDDEN
 62
     7
 10
-21.1460411715
 20
-1000.6424286498
 30
0.0
 11
-22.2066749184
 21
-1000.6424286498
 31
0.0
  0
LINE
  5
10B
  8
0
  6
HIDDEN
 62
     7
 10
326.9145925885
 20
-1003.2030623913
 30
0.0
 11
326.9145925885
 21
-1004.2636961457
 31
0.0
  0
ARC
  5
10C
  8
0
  6
HIDDEN
 62
     7
 10
301.2772575274
 20
-1002.8424286368
 30
0.0
 40
0.8
 50
270.0
 51
322.6241925044
  0
ARC
  5
10D
  8
0
  6
HIDDEN
 62
     7
 10
315.0519276236
 20
-1002.8424286368
 30
0.0
 40
0.8
 50
217.3758074956
 51
270.0
  0
ARC
  5
10E
  8
0
  6
HIDDEN
 62
     7
 10
-6.7227424726
 20
-1002.8424286368
 30
0.0
 40
0.8000000000000057
 50
270.0
 51
322.6241925044
  0
ARC
  5
10F
  8
0
  6
HIDDEN
 62
     7
 10
7.0519276236
 20
-1002.8424286368
 30
0.0
 40
0.8000000000000064
 50
217.3758074956
 51
270.0
  0
ARC
  5
110
  8
0
  6
HIDDEN
 62
     7
 10
301.2772575274
 20
-1002.8424286368
 30
0.0
 40
2.299999999999955
 50
270.0
 51
322.6241925045
  0
ARC
  5
111
  8
0
  6
HIDDEN
 62
     7
 10
315.0519276236
 20
-1002.8424286368
 30
0.0
 40
2.299999999999955
 50
217.3758074955
 51
270.0
  0
ARC
  5
112
  8
0
  6
HIDDEN
 62
     7
 10
-6.7227424726
 20
-1002.8424286368
 30
0.0
 40
2.299999999999959
 50
270.0
 51
322.6241925045
  0
ARC
  5
113
  8
0
  6
HIDDEN
 62
     7
 10
7.0519276236
 20
-1002.8424286368
 30
0.0
 40
2.299999999999959
 50
217.3758074955
 51
270.0
  0
LINE
  5
114
  8
0
  6
HIDDEN
 62
     7
 10
314.4161908177
 20
-1003.3280609191
 30
0.0
 11
312.3565990866
 21
-1000.6318681075
 31
0.0
  0
LINE
  5
115
  8
0
  6
HIDDEN
 62
     7
 10
303.9725860644
 20
-1000.6318681075
 30
0.0
 11
301.9129943333
 21
-1003.3280609191
 31
0.0
  0
LINE
  5
116
  8
0
  6
HIDDEN
 62
     7
 10
6.4161908177
 20
-1003.3280609191
 30
0.0
 11
4.3565990866
 21
-1000.6318681075
 31
0.0
  0
LINE
  5
117
  8
0
  6
HIDDEN
 62
     7
 10
-4.0274139356
 20
-1000.6318681075
 30
0.0
 11
-6.0870056667
 21
-1003.3280609191
 31
0.0
  0
LINE
  5
118
  8
0
  6
HIDDEN
 62
     7
 10
5.2241843066
 20
-1004.2386214484
 30
0.0
 11
3.1645925755
 21
-1001.5424286368
 31
0.0
  0
LINE
  5
119
  8
0
  6
HIDDEN
 62
     7
 10
-2.8354074245
 20
-1001.5424286368
 30
0.0
 11
-4.8949991556
 21
-1004.2386214484
 31
0.0
  0
LINE
  5
11A
  8
0
  6
HIDDEN
 62
     7
 10
313.2241843066
 20
-1004.2386214484
 30
0.0
 11
311.1645925755
 21
-1001.5424286368
 31
0.0
  0
LINE
  5
11B
  8
0
  6
HIDDEN
 62
     7
 10
305.1645925755
 20
-1001.5424286368
 30
0.0
 11
303.1050008444
 21
-1004.2386214484
 31
0.0
  0
LINE
  5
11C
  8
0
  6
HIDDEN
 62
     7
 10
-4.0274139356
 20
-1000.6318681075
 30
0.0
 11
-2.8354074245
 21
-1001.5424286368
 31
0.0
  0
LINE
  5
11D
  8
0
  6
HIDDEN
 62
     7
 10
3.1645925755
 20
-1001.5424286368
 30
0.0
 11
4.3565990866
 21
-1000.6318681075
 31
0.0
  0
LINE
  5
11E
  8
0
  6
HIDDEN
 62
     7
 10
303.9725860644
 20
-1000.6318681075
 30
0.0
 11
305.1645925755
 21
-1001.5424286368
 31
0.0
  0
LINE
  5
11F
  8
0
  6
HIDDEN
 62
     7
 10
311.1645925755
 20
-1001.5424286368
 30
0.0
 11
312.3565990866
 21
-1000.6318681075
 31
0.0
  0
LINE
  5
120
  8
0
  6
HIDDEN
 62
     7
 10
159.1645925755
 20
-1003.6424286367
 30
0.0
 11
159.1645925755
 21
-1002.6424286367
 31
0.0
  0
LINE
  5
121
  8
0
  6
HIDDEN
 62
     7
 10
149.1645925755
 20
-1002.6424286367
 30
0.0
 11
149.1645925755
 21
-1003.6424286367
 31
0.0
  0
LINE
  5
122
  8
0
  6
HIDDEN
 62
     7
 10
158.1645925755
 20
-1002.6424286367
 30
0.0
 11
158.1645925755
 21
-984.1424286367
 31
0.0
  0
LINE
  5
123
  8
0
  6
HIDDEN
 62
     7
 10
150.1645925755
 20
-984.1424286367
 30
0.0
 11
150.1645925755
 21
-1002.6424286367
 31
0.0
  0
LINE
  5
124
  8
0
  6
HIDDEN
 62
     7
 10
158.1645925755
 20
-984.1424286367
 30
0.0
 11
157.6645925755
 21
-983.6424286367
 31
0.0
  0
LINE
  5
125
  8
0
  6
HIDDEN
 62
     7
 10
150.6645925755
 20
-983.6424286367
 30
0.0
 11
150.1645925755
 21
-984.1424286367
 31
0.0
  0
ARC
  5
126
  8
0
  6
CONTINUOUS
 62
     7
 10
597.1887093313
 20
1062.5509151007
 30
0.0
 40
42.0
 50
90.0
 51
180.0
  0
ARC
  5
127
  8
0
  6
CONTINUOUS
 62
     7
 10
597.1887093313
 20
1062.5509151007
 30
0.0
 40
30.0
 50
90.0
 51
180.0
  0
ARC
  5
128
  8
0
  6
CONTINUOUS
 62
     7
 10
597.1887093313
 20
-844.4490848993
 30
0.0
 40
41.99999999999989
 50
180.0
 51
270.0
  0
ARC
  5
129
  8
0
  6
CONTINUOUS
 62
     7
 10
597.1887093313
 20
-844.4490848993
 30
0.0
 40
30.0
 50
180.0
 51
270.0
  0
LINE
  5
12A
  8
0
  6
CONTINUOUS
 62
     7
 10
567.1887093313
 20
1062.5509151007
 30
0.0
 11
567.1887093313
 21
-844.4490848993
 31
0.0
  0
LINE
  5
12B
  8
0
  6
CONTINUOUS
 62
     7
 10
555.1887093313
 20
1062.5509151007
 30
0.0
 11
555.1887093313
 21
-844.4490848993
 31
0.0
  0
LINE
  5
12C
  8
0
  6
CONTINUOUS
 62
     7
 10
597.1887093313
 20
1104.5509151007
 30
0.0
 11
859.6887093313
 21
1104.5509151007
 31
0.0
  0
LINE
  5
12D
  8
0
  6
CONTINUOUS
 62
     7
 10
597.1887093313
 20
1092.5509151007
 30
0.0
 11
859.6887093313
 21
1092.5509151007
 31
0.0
  0
LINE
  5
12E
  8
0
  6
CONTINUOUS
 62
     7
 10
859.6887093313
 20
-886.4490848993
 30
0.0
 11
597.1887093313
 21
-886.4490848993
 31
0.0
  0
LINE
  5
12F
  8
0
  6
CONTINUOUS
 62
     7
 10
859.6887093313
 20
-874.4490848993
 30
0.0
 11
597.1887093313
 21
-874.4490848993
 31
0.0
  0
ARC
  5
130
  8
0
  6
CONTINUOUS
 62
     7
 10
859.6887093313
 20
1062.5509151007
 30
0.0
 40
41.99999999999977
 50
360.0
 51
90.0
  0
ARC
  5
131
  8
0
  6
CONTINUOUS
 62
     7
 10
859.6887093313
 20
1062.5509151007
 30
0.0
 40
29.99999999999977
 50
360.0
 51
90.0
  0
ARC
  5
132
  8
0
  6
CONTINUOUS
 62
     7
 10
859.6887093313
 20
-844.4490848993
 30
0.0
 40
41.99999999999989
 50
270.0
 51
360.0
  0
ARC
  5
133
  8
0
  6
CONTINUOUS
 62
     7
 10
859.6887093313
 20
-844.4490848993
 30
0.0
 40
30.0
 50
270.0
 51
360.0
  0
LINE
  5
134
  8
0
  6
CONTINUOUS
 62
     7
 10
901.6887093313
 20
1062.5509151007
 30
0.0
 11
901.6887093313
 21
-844.4490848993
 31
0.0
  0
LINE
  5
135
  8
0
  6
CONTINUOUS
 62
     7
 10
889.6887093313
 20
1062.5509151007
 30
0.0
 11
889.6887093313
 21
-844.4490848993
 31
0.0
  0
LINE
  5
136
  8
0
  6
CONTINUOUS
 62
     7
 10
590.4772279345
 20
1112.5509151007
 30
0.0
 11
590.4772279345
 21
1111.0509151007
 31
0.0
  0
LINE
  5
137
  8
0
  6
CONTINUOUS
 62
     7
 10
622.7454439076
 20
1111.0509151007
 30
0.0
 11
622.7454439076
 21
1112.5509151007
 31
0.0
  0
LINE
  5
138
  8
0
  6
CONTINUOUS
 62
     7
 10
622.7454439076
 20
1112.5509151007
 30
0.0
 11
590.4772279345
 21
1112.5509151007
 31
0.0
  0
LINE
  5
139
  8
0
  6
CONTINUOUS
 62
     7
 10
622.7454439076
 20
1111.0509151007
 30
0.0
 11
590.4772279345
 21
1111.0509151007
 31
0.0
  0
LINE
  5
13A
  8
0
  6
CONTINUOUS
 62
     7
 10
834.131974755
 20
1111.0509151007
 30
0.0
 11
834.131974755
 21
1112.5509151007
 31
0.0
  0
LINE
  5
13B
  8
0
  6
CONTINUOUS
 62
     7
 10
834.131974755
 20
1112.5509151007
 30
0.0
 11
622.7454439076
 21
1112.5509151007
 31
0.0
  0
LINE
  5
13C
  8
0
  6
CONTINUOUS
 62
     7
 10
834.131974755
 20
1111.0509151007
 30
0.0
 11
622.7454439076
 21
1111.0509151007
 31
0.0
  0
LINE
  5
13D
  8
0
  6
CONTINUOUS
 62
     7
 10
866.4001907282
 20
1112.5509151007
 30
0.0
 11
866.4001907282
 21
1111.0509151007
 31
0.0
  0
LINE
  5
13E
  8
0
  6
CONTINUOUS
 62
     7
 10
866.4001907282
 20
1112.5509151007
 30
0.0
 11
834.131974755
 21
1112.5509151007
 31
0.0
  0
LINE
  5
13F
  8
0
  6
CONTINUOUS
 62
     7
 10
866.4001907282
 20
1111.0509151007
 30
0.0
 11
834.131974755
 21
1111.0509151007
 31
0.0
  0
LINE
  5
140
  8
0
  6
CONTINUOUS
 62
     7
 10
568.6887093313
 20
1112.5509151007
 30
0.0
 11
568.6887093313
 21
1111.0509151007
 31
0.0
  0
LINE
  5
141
  8
0
  6
CONTINUOUS
 62
     7
 10
590.4772279345
 20
1112.5509151007
 30
0.0
 11
568.6887093313
 21
1112.5509151007
 31
0.0
  0
LINE
  5
142
  8
0
  6
CONTINUOUS
 62
     7
 10
590.4772279345
 20
1111.0509151007
 30
0.0
 11
568.6887093313
 21
1111.0509151007
 31
0.0
  0
LINE
  5
143
  8
0
  6
CONTINUOUS
 62
     7
 10
551.1887093313
 20
-887.4490848993
 30
0.0
 11
552.6887093313
 21
-887.4490848993
 31
0.0
  0
LINE
  5
144
  8
0
  6
CONTINUOUS
 62
     7
 10
552.6887093313
 20
1109.5509151007
 30
0.0
 11
552.6887093313
 21
-887.4490848993
 31
0.0
  0
LINE
  5
145
  8
0
  6
CONTINUOUS
 62
     7
 10
551.1887093313
 20
1109.5509151007
 30
0.0
 11
551.1887093313
 21
-887.4490848993
 31
0.0
  0
ARC
  5
146
  8
0
  6
CONTINUOUS
 62
     7
 10
554.1887093313
 20
1109.5509151007
 30
0.0
 40
1.5
 50
90.0
 51
180.0
  0
ARC
  5
147
  8
0
  6
CONTINUOUS
 62
     7
 10
554.1887093313
 20
1109.5509151007
 30
0.0
 40
3.0
 50
90.0
 51
180.0
  0
LINE
  5
148
  8
0
  6
CONTINUOUS
 62
     7
 10
568.6887093313
 20
1112.5509151007
 30
0.0
 11
568.6887093313
 21
1111.0509151007
 31
0.0
  0
LINE
  5
149
  8
0
  6
CONTINUOUS
 62
     7
 10
568.6887093313
 20
1111.0509151007
 30
0.0
 11
554.1887093313
 21
1111.0509151007
 31
0.0
  0
LINE
  5
14A
  8
0
  6
CONTINUOUS
 62
     7
 10
568.6887093313
 20
1112.5509151007
 30
0.0
 11
554.1887093313
 21
1112.5509151007
 31
0.0
  0
LINE
  5
14B
  8
0
  6
CONTINUOUS
 62
     7
 10
888.1887093313
 20
1112.5509151007
 30
0.0
 11
888.1887093313
 21
1111.0509151007
 31
0.0
  0
LINE
  5
14C
  8
0
  6
CONTINUOUS
 62
     7
 10
888.1887093313
 20
1112.5509151007
 30
0.0
 11
866.4001907282
 21
1112.5509151007
 31
0.0
  0
LINE
  5
14D
  8
0
  6
CONTINUOUS
 62
     7
 10
888.1887093313
 20
1111.0509151007
 30
0.0
 11
866.4001907282
 21
1111.0509151007
 31
0.0
  0
LINE
  5
14E
  8
0
  6
CONTINUOUS
 62
     7
 10
888.1887093313
 20
1112.5509151007
 30
0.0
 11
888.1887093313
 21
1111.0509151007
 31
0.0
  0
LINE
  5
14F
  8
0
  6
CONTINUOUS
 62
     7
 10
902.6887093313
 20
1112.5509151007
 30
0.0
 11
888.1887093313
 21
1112.5509151007
 31
0.0
  0
LINE
  5
150
  8
0
  6
CONTINUOUS
 62
     7
 10
902.6887093313
 20
1111.0509151007
 30
0.0
 11
888.1887093313
 21
1111.0509151007
 31
0.0
  0
ARC
  5
151
  8
0
  6
CONTINUOUS
 62
     7
 10
902.6887093313
 20
1109.5509151007
 30
0.0
 40
3.0
 50
0.0
 51
90.0
  0
ARC
  5
152
  8
0
  6
CONTINUOUS
 62
     7
 10
902.6887093313
 20
1109.5509151007
 30
0.0
 40
1.500000000000114
 50
0.0
 51
90.0
  0
LINE
  5
153
  8
0
  6
CONTINUOUS
 62
     7
 10
905.6887093313
 20
-887.4490848993
 30
0.0
 11
904.1887093313
 21
-887.4490848993
 31
0.0
  0
LINE
  5
154
  8
0
  6
CONTINUOUS
 62
     7
 10
905.6887093313
 20
-887.4490848993
 30
0.0
 11
905.6887093313
 21
1109.5509151007
 31
0.0
  0
LINE
  5
155
  8
0
  6
CONTINUOUS
 62
     7
 10
904.1887093313
 20
-887.4490848993
 30
0.0
 11
904.1887093313
 21
1109.5509151007
 31
0.0
  0
CIRCLE
  5
156
  8
0
  6
CONTINUOUS
 62
     7
 10
574.4387093313
 20
-839.9490848993
 30
0.0
 40
4.192006511087698
  0
CIRCLE
  5
157
  8
0
  6
CONTINUOUS
 62
     7
 10
574.4387093313
 20
1060.0509151007
 30
0.0
 40
4.192006511087698
  0
CIRCLE
  5
158
  8
0
  6
CONTINUOUS
 62
     7
 10
574.4387093313
 20
110.0509151007
 30
0.0
 40
4.192006511087698
  0
CIRCLE
  5
159
  8
0
  6
CONTINUOUS
 62
     7
 10
574.4387093313
 20
-839.9490848993
 30
0.0
 40
3.000000000000114
  0
CIRCLE
  5
15A
  8
0
  6
CONTINUOUS
 62
     7
 10
574.4387093313
 20
110.0509151007
 30
0.0
 40
2.999999999999886
  0
CIRCLE
  5
15B
  8
0
  6
CONTINUOUS
 62
     7
 10
574.4387093313
 20
1060.0509151007
 30
0.0
 40
3.000000000000114
  0
CIRCLE
  5
15C
  8
0
  6
CONTINUOUS
 62
     7
 10
882.4387093313
 20
110.0509151007
 30
0.0
 40
4.192006511087584
  0
CIRCLE
  5
15D
  8
0
  6
CONTINUOUS
 62
     7
 10
882.4387093313
 20
-839.9490848993
 30
0.0
 40
4.192006511087584
  0
CIRCLE
  5
15E
  8
0
  6
CONTINUOUS
 62
     7
 10
882.4387093313
 20
1060.0509151007
 30
0.0
 40
4.192006511087584
  0
CIRCLE
  5
15F
  8
0
  6
CONTINUOUS
 62
     7
 10
882.4387093313
 20
110.0509151007
 30
0.0
 40
3.0
  0
CIRCLE
  5
160
  8
0
  6
CONTINUOUS
 62
     7
 10
882.4387093313
 20
1060.0509151007
 30
0.0
 40
3.0
  0
CIRCLE
  5
161
  8
0
  6
CONTINUOUS
 62
     7
 10
882.4387093313
 20
-839.9490848993
 30
0.0
 40
3.0
  0
ARC
  5
162
  8
0
  6
CONTINUOUS
 62
     7
 10
549.1903453724
 20
1111.7883810403
 30
0.0
 40
6.494061639736182
 50
339.8462635532
 51
353.4794223146
  0
POLYLINE
  5
163
  8
0
  6
CONTINUOUS
 62
     7
 66
     1
 10
0.0
 20
0.0
 30
0.0
  0
VERTEX
  5
209
  8
0
  6
CONTINUOUS
 62
     7
 10
555.2867855427
 20
1109.5509151007
 30
0.0
  0
VERTEX
  5
20A
  8
0
  6
CONTINUOUS
 62
     7
 10
555.4603186589
 20
1109.825773937
 30
0.0
  0
VERTEX
  5
20B
  8
0
  6
CONTINUOUS
 62
     7
 10
555.5864812133
 20
1110.1056723174
 30
0.0
  0
VERTEX
  5
20C
  8
0
  6
CONTINUOUS
 62
     7
 10
555.6631495558
 20
1110.3733735599
 30
0.0
  0
VERTEX
  5
20D
  8
0
  6
CONTINUOUS
 62
     7
 10
555.688709318
 20
1110.6115782195
 30
0.0
  0
VERTEX
  5
20E
  8
0
  6
CONTINUOUS
 62
     7
 10
555.6631543107
 20
1110.8053099717
 30
0.0
  0
VERTEX
  5
20F
  8
0
  6
CONTINUOUS
 62
     7
 10
555.5864783478
 20
1110.9445623338
 30
0.0
  0
VERTEX
  5
210
  8
0
  6
CONTINUOUS
 62
     7
 10
555.4613541611
 20
1111.0250367772
 30
0.0
  0
VERTEX
  5
211
  8
0
  6
CONTINUOUS
 62
     7
 10
555.2867855427
 20
1111.0509151007
 30
0.0
  0
SEQEND
  5
208
  8
0
  6
CONTINUOUS
 62
     7
  0
POLYLINE
  5
164
  8
0
  6
CONTINUOUS
 62
     7
 66
     1
 10
0.0
 20
0.0
 30
0.0
  0
VERTEX
  5
213
  8
0
  6
CONTINUOUS
 62
     7
 10
901.59063312
 20
1111.0509151007
 30
0.0
  0
VERTEX
  5
214
  8
0
  6
CONTINUOUS
 62
     7
 10
901.4171000038
 20
1111.0255176302
 30
0.0
  0
VERTEX
  5
215
  8
0
  6
CONTINUOUS
 62
     7
 10
901.2909374493
 20
1110.9445593991
 30
0.0
  0
VERTEX
  5
216
  8
0
  6
CONTINUOUS
 62
     7
 10
901.2142691078
 20
1110.8053321311
 30
0.0
  0
VERTEX
  5
217
  8
0
  6
CONTINUOUS
 62
     7
 10
901.1887093447
 20
1110.6115723254
 30
0.0
  0
VERTEX
  5
218
  8
0
  6
CONTINUOUS
 62
     7
 10
901.2142643511
 20
1110.3734073566
 30
0.0
  0
VERTEX
  5
219
  8
0
  6
CONTINUOUS
 62
     7
 10
901.2909403148
 20
1110.1056649449
 30
0.0
  0
VERTEX
  5
21A
  8
0
  6
CONTINUOUS
 62
     7
 10
901.4160645015
 20
1109.8283412765
 30
0.0
  0
VERTEX
  5
21B
  8
0
  6
CONTINUOUS
 62
     7
 10
901.59063312
 20
1109.5509151007
 30
0.0
  0
SEQEND
  5
212
  8
0
  6
CONTINUOUS
 62
     7
  0
ARC
  5
165
  8
0
  6
CONTINUOUS
 62
     7
 10
907.7121330977
 20
1111.7943057052
 30
0.0
 40
6.519629083121937
 50
186.5473023897
 51
200.1267372898
  0
ARC
  5
166
  8
0
  6
CONTINUOUS
 62
     7
 10
551.9453187282
 20
1114.5743388612
 30
0.0
 40
6.519629077153611
 50
276.5473023835
 51
290.1267372961
  0
POLYLINE
  5
167
  8
0
  6
CONTINUOUS
 62
     7
 66
     1
 10
0.0
 20
0.0
 30
0.0
  0
VERTEX
  5
21D
  8
0
  6
CONTINUOUS
 62
     7
 10
552.6887093313
 20
1108.4528388893
 30
0.0
  0
VERTEX
  5
21E
  8
0
  6
CONTINUOUS
 62
     7
 10
552.7141068018
 20
1108.2793057731
 30
0.0
  0
VERTEX
  5
21F
  8
0
  6
CONTINUOUS
 62
     7
 10
552.7950650329
 20
1108.1531432187
 30
0.0
  0
VERTEX
  5
220
  8
0
  6
CONTINUOUS
 62
     7
 10
552.9342923009
 20
1108.0764748771
 30
0.0
  0
VERTEX
  5
221
  8
0
  6
CONTINUOUS
 62
     7
 10
553.1280521066
 20
1108.050915114
 30
0.0
  0
VERTEX
  5
222
  8
0
  6
CONTINUOUS
 62
     7
 10
553.3662170754
 20
1108.0764701204
 30
0.0
  0
VERTEX
  5
223
  8
0
  6
CONTINUOUS
 62
     7
 10
553.6339594871
 20
1108.1531460842
 30
0.0
  0
VERTEX
  5
224
  8
0
  6
CONTINUOUS
 62
     7
 10
553.9112831559
 20
1108.278270271
 30
0.0
  0
VERTEX
  5
225
  8
0
  6
CONTINUOUS
 62
     7
 10
554.1887093313
 20
1108.4528388893
 30
0.0
  0
SEQEND
  5
21C
  8
0
  6
CONTINUOUS
 62
     7
  0
LINE
  5
168
  8
0
  6
CONTINUOUS
 62
     7
 10
552.6887093313
 20
-887.4490848993
 30
0.0
 11
554.1887093313
 21
-887.4490848993
 31
0.0
  0
ARC
  5
169
  8
0
  6
CONTINUOUS
 62
     7
 10
904.9261752538
 20
1114.5492789992
 30
0.0
 40
6.494061577090158
 50
249.8462635117
 51
263.4794224039
  0
POLYLINE
  5
16A
  8
0
  6
CONTINUOUS
 62
     7
 66
     1
 10
0.0
 20
0.0
 30
0.0
  0
VERTEX
  5
227
  8
0
  6
CONTINUOUS
 62
     7
 10
902.6887093313
 20
1108.4528388893
 30
0.0
  0
VERTEX
  5
228
  8
0
  6
CONTINUOUS
 62
     7
 10
902.9635681676
 20
1108.2793057731
 30
0.0
  0
VERTEX
  5
229
  8
0
  6
CONTINUOUS
 62
     7
 10
903.243466548
 20
1108.1531432187
 30
0.0
  0
VERTEX
  5
22A
  8
0
  6
CONTINUOUS
 62
     7
 10
903.5111677907
 20
1108.0764748771
 30
0.0
  0
VERTEX
  5
22B
  8
0
  6
CONTINUOUS
 62
     7
 10
903.7493724501
 20
1108.050915114
 30
0.0
  0
VERTEX
  5
22C
  8
0
  6
CONTINUOUS
 62
     7
 10
903.9431042024
 20
1108.0764701204
 30
0.0
  0
VERTEX
  5
22D
  8
0
  6
CONTINUOUS
 62
     7
 10
904.0823565645
 20
1108.1531460842
 30
0.0
  0
VERTEX
  5
22E
  8
0
  6
CONTINUOUS
 62
     7
 10
904.1628310078
 20
1108.2782702718
 30
0.0
  0
VERTEX
  5
22F
  8
0
  6
CONTINUOUS
 62
     7
 10
904.1887093313
 20
1108.4528388893
 30
0.0
  0
SEQEND
  5
226
  8
0
  6
CONTINUOUS
 62
     7
  0
LINE
  5
16B
  8
0
  6
CONTINUOUS
 62
     7
 10
902.6887093313
 20
-887.4490848993
 30
0.0
 11
904.1887093313
 21
-887.4490848993
 31
0.0
  0
ARC
  5
16C
  8
0
  6
CONTINUOUS
 62
     7
 10
552.6887093313
 20
1111.0509151007
 30
0.0
 40
3.000000000000132
 50
300.0
 51
330.0
  0
ARC
  5
16D
  8
0
  6
CONTINUOUS
 62
     7
 10
904.1887093313
 20
1111.0509151007
 30
0.0
 40
3.000000000000148
 50
210.0
 51
240.0
  0
LINE
  5
16E
  8
0
  6
CONTINUOUS
 62
     7
 10
554.1887093313
 20
-887.4490848993
 30
0.0
 11
902.6887093313
 21
-887.4490848993
 31
0.0
  0
CIRCLE
  5
16F
  8
0
  6
CONTINUOUS
 62
     7
 10
728.4387093313
 20
-752.4490848993
 30
0.0
 40
4.0
  0
CIRCLE
  5
170
  8
0
  6
CONTINUOUS
 62
     7
 10
728.4387093313
 20
-752.4490848993
 30
0.0
 40
3.5
  0
CIRCLE
  5
171
  8
0
  6
CONTINUOUS
 62
     7
 10
728.4387093313
 20
-752.4490848993
 30
0.0
 40
5.0
  0
LINE
  5
172
  8
0
  6
HIDDEN
 62
     7
 10
554.8100296749
 20
1111.0509151007
 30
0.0
 11
554.8100296749
 21
1112.5509151007
 31
0.0
  0
LINE
  5
173
  8
0
  6
HIDDEN
 62
     7
 10
902.0673889878
 20
1112.5509151007
 30
0.0
 11
902.0673889878
 21
1111.0509151007
 31
0.0
  0
LINE
  5
174
  8
0
  6
HIDDEN
 62
     7
 10
551.1887093313
 20
1109.5509151007
 30
0.0
 11
552.6887093313
 21
1109.5509151007
 31
0.0
  0
LINE
  5
175
  8
0
  6
HIDDEN
 62
     7
 10
554.1887093313
 20
1112.5509151007
 30
0.0
 11
554.1887093313
 21
1111.0509151007
 31
0.0
  0
LINE
  5
176
  8
0
  6
HIDDEN
 62
     7
 10
554.8100296749
 20
1112.5509151007
 30
0.0
 11
554.8100296749
 21
1111.0509151007
 31
0.0
  0
LINE
  5
177
  8
0
  6
HIDDEN
 62
     7
 10
902.6887093313
 20
1111.0509151007
 30
0.0
 11
902.6887093313
 21
1112.5509151007
 31
0.0
  0
LINE
  5
178
  8
0
  6
HIDDEN
 62
     7
 10
902.0673889878
 20
1111.0509151007
 30
0.0
 11
902.0673889878
 21
1112.5509151007
 31
0.0
  0
LINE
  5
179
  8
0
  6
HIDDEN
 62
     7
 10
904.1887093313
 20
1109.5509151007
 30
0.0
 11
905.6887093313
 21
1109.5509151007
 31
0.0
  0
POLYLINE
  5
17A
  8
0
  6
HIDDEN
 62
     7
 66
     1
 10
0.0
 20
0.0
 30
0.0
  0
VERTEX
  5
231
  8
0
  6
HIDDEN
 62
     7
 10
555.6423978031
 20
1111.0509151007
 30
0.0
  0
VERTEX
  5
232
  8
0
  6
HIDDEN
 62
     7
 10
555.6631495558
 20
1111.1958320192
 30
0.0
  0
VERTEX
  5
233
  8
0
  6
HIDDEN
 62
     7
 10
555.688709318
 20
1111.6722413382
 30
0.0
  0
VERTEX
  5
234
  8
0
  6
HIDDEN
 62
     7
 10
555.6631543107
 20
1112.0597048428
 30
0.0
  0
VERTEX
  5
235
  8
0
  6
HIDDEN
 62
     7
 10
555.5864783478
 20
1112.3382095669
 30
0.0
  0
VERTEX
  5
236
  8
0
  6
HIDDEN
 62
     7
 10
555.4613541611
 20
1112.4991584536
 30
0.0
  0
VERTEX
  5
237
  8
0
  6
HIDDEN
 62
     7
 10
555.2867855427
 20
1112.5509151007
 30
0.0
  0
SEQEND
  5
230
  8
0
  6
HIDDEN
 62
     7
  0
POLYLINE
  5
17B
  8
0
  6
HIDDEN
 62
     7
 66
     1
 10
0.0
 20
0.0
 30
0.0
  0
VERTEX
  5
239
  8
0
  6
HIDDEN
 62
     7
 10
555.2867855427
 20
1109.5509151007
 30
0.0
  0
VERTEX
  5
23A
  8
0
  6
HIDDEN
 62
     7
 10
555.2867855427
 20
1109.5509151007
 30
0.0
  0
SEQEND
  5
238
  8
0
  6
HIDDEN
 62
     7
  0
LINE
  5
17C
  8
0
  6
HIDDEN
 62
     7
 10
555.2867855427
 20
1111.0509151007
 30
0.0
 11
555.2867855427
 21
1112.5509151007
 31
0.0
  0
POLYLINE
  5
17D
  8
0
  6
HIDDEN
 62
     7
 66
     1
 10
0.0
 20
0.0
 30
0.0
  0
VERTEX
  5
23C
  8
0
  6
HIDDEN
 62
     7
 10
901.59063312
 20
1112.5509151007
 30
0.0
  0
VERTEX
  5
23D
  8
0
  6
HIDDEN
 62
     7
 10
901.4171000038
 20
1112.5001201597
 30
0.0
  0
VERTEX
  5
23E
  8
0
  6
HIDDEN
 62
     7
 10
901.2909374493
 20
1112.3382036975
 30
0.0
  0
VERTEX
  5
23F
  8
0
  6
HIDDEN
 62
     7
 10
901.2142691078
 20
1112.0597491615
 30
0.0
  0
VERTEX
  5
240
  8
0
  6
HIDDEN
 62
     7
 10
901.1887093447
 20
1111.6722295502
 30
0.0
  0
VERTEX
  5
241
  8
0
  6
HIDDEN
 62
     7
 10
901.2142643511
 20
1111.1958996125
 30
0.0
  0
VERTEX
  5
242
  8
0
  6
HIDDEN
 62
     7
 10
901.235024654
 20
1111.0509151007
 30
0.0
  0
SEQEND
  5
23B
  8
0
  6
HIDDEN
 62
     7
  0
POLYLINE
  5
17E
  8
0
  6
HIDDEN
 62
     7
 66
     1
 10
0.0
 20
0.0
 30
0.0
  0
VERTEX
  5
244
  8
0
  6
HIDDEN
 62
     7
 10
551.1887093313
 20
1108.4528388893
 30
0.0
  0
VERTEX
  5
245
  8
0
  6
HIDDEN
 62
     7
 10
551.2395042723
 20
1108.2793057731
 30
0.0
  0
VERTEX
  5
246
  8
0
  6
HIDDEN
 62
     7
 10
551.4014207345
 20
1108.1531432187
 30
0.0
  0
VERTEX
  5
247
  8
0
  6
HIDDEN
 62
     7
 10
551.6798752704
 20
1108.0764748771
 30
0.0
  0
VERTEX
  5
248
  8
0
  6
HIDDEN
 62
     7
 10
552.0673948818
 20
1108.050915114
 30
0.0
  0
VERTEX
  5
249
  8
0
  6
HIDDEN
 62
     7
 10
552.5437248195
 20
1108.0764701204
 30
0.0
  0
VERTEX
  5
24A
  8
0
  6
HIDDEN
 62
     7
 10
552.6887093313
 20
1108.0972304234
 30
0.0
  0
SEQEND
  5
243
  8
0
  6
HIDDEN
 62
     7
  0
POLYLINE
  5
17F
  8
0
  6
HIDDEN
 62
     7
 66
     1
 10
0.0
 20
0.0
 30
0.0
  0
VERTEX
  5
24C
  8
0
  6
HIDDEN
 62
     7
 10
554.1887093313
 20
1108.4528388893
 30
0.0
  0
VERTEX
  5
24D
  8
0
  6
HIDDEN
 62
     7
 10
554.1887093313
 20
1108.4528388893
 30
0.0
  0
SEQEND
  5
24B
  8
0
  6
HIDDEN
 62
     7
  0
LINE
  5
180
  8
0
  6
HIDDEN
 62
     7
 10
551.1887093313
 20
1108.4528388893
 30
0.0
 11
552.6887093313
 21
1108.4528388893
 31
0.0
  0
POLYLINE
  5
181
  8
0
  6
HIDDEN
 62
     7
 66
     1
 10
0.0
 20
0.0
 30
0.0
  0
VERTEX
  5
24F
  8
0
  6
HIDDEN
 62
     7
 10
904.1887093313
 20
1108.0972266296
 30
0.0
  0
VERTEX
  5
250
  8
0
  6
HIDDEN
 62
     7
 10
904.33362625
 20
1108.0764748771
 30
0.0
  0
VERTEX
  5
251
  8
0
  6
HIDDEN
 62
     7
 10
904.8100355689
 20
1108.050915114
 30
0.0
  0
VERTEX
  5
252
  8
0
  6
HIDDEN
 62
     7
 10
905.1974990735
 20
1108.0764701204
 30
0.0
  0
VERTEX
  5
253
  8
0
  6
HIDDEN
 62
     7
 10
905.4760037976
 20
1108.1531460842
 30
0.0
  0
VERTEX
  5
254
  8
0
  6
HIDDEN
 62
     7
 10
905.6369526843
 20
1108.2782702718
 30
0.0
  0
VERTEX
  5
255
  8
0
  6
HIDDEN
 62
     7
 10
905.6887093313
 20
1108.4528388893
 30
0.0
  0
SEQEND
  5
24E
  8
0
  6
HIDDEN
 62
     7
  0
POLYLINE
  5
182
  8
0
  6
HIDDEN
 62
     7
 66
     1
 10
0.0
 20
0.0
 30
0.0
  0
VERTEX
  5
257
  8
0
  6
HIDDEN
 62
     7
 10
902.6887093313
 20
1108.4528388893
 30
0.0
  0
VERTEX
  5
258
  8
0
  6
HIDDEN
 62
     7
 10
902.6887093313
 20
1108.4528388893
 30
0.0
  0
SEQEND
  5
256
  8
0
  6
HIDDEN
 62
     7
  0
LINE
  5
183
  8
0
  6
HIDDEN
 62
     7
 10
904.1887093313
 20
1108.4528388893
 30
0.0
 11
905.6887093313
 21
1108.4528388893
 31
0.0
  0
POLYLINE
  5
184
  8
0
  6
HIDDEN
 62
     7
 66
     1
 10
0.0
 20
0.0
 30
0.0
  0
VERTEX
  5
25A
  8
0
  6
HIDDEN
 62
     7
 10
901.59063312
 20
1109.5509151007
 30
0.0
  0
VERTEX
  5
25B
  8
0
  6
HIDDEN
 62
     7
 10
901.59063312
 20
1109.5509151007
 30
0.0
  0
SEQEND
  5
259
  8
0
  6
HIDDEN
 62
     7
  0
LINE
  5
185
  8
0
  6
HIDDEN
 62
     7
 10
901.59063312
 20
1112.5509151007
 30
0.0
 11
901.59063312
 21
1111.0509151007
 31
0.0
  0
LINE
  5
186
  8
0
  6
HIDDEN
 62
     7
 10
555.6887093183
 20
1110.6116016891
 30
0.0
 11
555.6887093183
 21
1111.6722882775
 31
0.0
  0
LINE
  5
187
  8
0
  6
HIDDEN
 62
     7
 10
552.0674418374
 20
1108.0509151137
 30
0.0
 11
553.1280755844
 21
1108.0509151137
 31
0.0
  0
LINE
  5
188
  8
0
  6
HIDDEN
 62
     7
 10
553.1280755844
 20
1108.0509151137
 30
0.0
 11
552.0674418374
 21
1108.0509151137
 31
0.0
  0
LINE
  5
189
  8
0
  6
HIDDEN
 62
     7
 10
903.7493959273
 20
1108.0509151137
 30
0.0
 11
904.8100825232
 21
1108.0509151137
 31
0.0
  0
LINE
  5
18A
  8
0
  6
HIDDEN
 62
     7
 10
901.1887093444
 20
1111.6721825946
 30
0.0
 11
901.1887093444
 21
1110.6115488476
 31
0.0
  0
LINE
  5
18B
  8
0
  6
HIDDEN
 62
     7
 10
901.1887093444
 20
1110.6115488476
 30
0.0
 11
901.1887093444
 21
1111.6721825946
 31
0.0
  0
ENDSEC
  0
EOF
