  0
SECTION
  2
HEADER
  9
$ACADVER
  1
AC1009
  9
$DWGCODEPAGE
  3
ansi_1252
  9
$INSBASE
 10
0.0
 20
0.0
 30
0.0
  9
$EXTMIN
 10
0.0
 20
0.0
 30
0.0
  9
$EXTMAX
 10
297.0
 20
210.0
 30
0.0
  9
$LIMMIN
 10
0.0
 20
0.0
  9
$LIMMAX
 10
0.0
 20
0.0
  9
$ORTHOMODE
 70
     0
  9
$REGENMODE
 70
     1
  9
$FILLMODE
 70
     1
  9
$QTEXTMODE
 70
     0
  9
$MIRRTEXT
 70
     1
  9
$DRAGMODE
 70
     2
  9
$LTSCALE
 40
1.0
  9
$OSMODE
 70
    37
  9
$ATTMODE
 70
     1
  9
$TEXTSIZE
 40
3.5277777778
  9
$TRACEWID
 40
1.0
  9
$TEXTSTYLE
  7
STANDARD
  9
$CLAYER
  8
0
  9
$CELTYPE
  6
BYLAYER
  9
$CECOLOR
 62
   256
  9
$DIMSCALE
 40
1.0
  9
$DIMASZ
 40
1.8
  9
$DIMEXO
 40
0.7
  9
$DIMDLI
 40
3.75
  9
$DIMRND
 40
0.0
  9
$DIMDLE
 40
0.0
  9
$DIMEXE
 40
0.5
  9
$DIMTP
 40
0.0
  9
$DIMTM
 40
0.0
  9
$DIMTXT
 40
2.4694444444
  9
$DIMCEN
 40
2.5
  9
$DIMTSZ
 40
0.0
  9
$DIMTOL
 70
     0
  9
$DIMLIM
 70
     0
  9
$DIMTIH
 70
     1
  9
$DIMTOH
 70
     1
  9
$DIMSE1
 70
     0
  9
$DIMSE2
 70
     0
  9
$DIMTAD
 70
     1
  9
$DIMZIN
 70
     0
  9
$DIMBLK
  1

  9
$DIMASO
 70
     1
  9
$DIMSHO
 70
     1
  9
$DIMPOST
  1

  9
$DIMAPOST
  1

  9
$DIMALT
 70
     0
  9
$DIMALTD
 70
     3
  9
$DIMALTF
 40
0.0393700787
  9
$DIMLFAC
 40
1.0
  9
$DIMTOFL
 70
     1
  9
$DIMTVP
 40
0.0
  9
$DIMTIX
 70
     0
  9
$DIMSOXD
 70
     0
  9
$DIMSAH
 70
     0
  9
$DIMBLK1
  1

  9
$DIMBLK2
  1

  9
$DIMSTYLE
  2
ISO-25
  9
$DIMCLRD
 70
     0
  9
$DIMCLRE
 70
     0
  9
$DIMCLRT
 70
     0
  9
$DIMTFAC
 40
1.0
  9
$DIMGAP
 40
2.0
  9
$LUNITS
 70
     2
  9
$LUPREC
 70
     2
  9
$SKETCHINC
 40
1.0
  9
$FILLETRAD
 40
10.0
  9
$AUNITS
 70
     0
  9
$AUPREC
 70
     0
  9
$MENU
  1
.
  9
$ELEVATION
 40
0.0
  9
$PELEVATION
 40
0.0
  9
$THICKNESS
 40
0.0
  9
$LIMCHECK
 70
     0
  9
$CHAMFERA
 40
10.0
  9
$CHAMFERB
 40
10.0
  9
$SKPOLY
 70
     0
  9
$TDCREATE
 40
2455104.443820706
  9
$TDUPDATE
 40
2455104.443820718
  9
$TDINDWG
 40
0.0000000116
  9
$TDUSRTIMER
 40
0.0000000116
  9
$USRTIMER
 70
     1
  9
$ANGBASE
 50
0.0
  9
$ANGDIR
 70
     0
  9
$PDMODE
 70
     0
  9
$PDSIZE
 40
-1.0
  9
$PLINEWID
 40
0.0
  9
$COORDS
 70
     1
  9
$SPLFRAME
 70
     0
  9
$SPLINETYPE
 70
     6
  9
$SPLINESEGS
 70
     8
  9
$ATTDIA
 70
     0
  9
$ATTREQ
 70
     1
  9
$HANDLING
 70
     1
  9
$HANDSEED
  5
281
  9
$SURFTAB1
 70
     6
  9
$SURFTAB2
 70
     6
  9
$SURFTYPE
 70
     6
  9
$SURFU
 70
     6
  9
$SURFV
 70
     6
  9
$UCSNAME
  2

  9
$UCSORG
 10
0.0
 20
0.0
 30
0.0
  9
$UCSXDIR
 10
1.0
 20
0.0
 30
0.0
  9
$UCSYDIR
 10
0.0
 20
1.0
 30
0.0
  9
$PUCSNAME
  2

  9
$PUCSORG
 10
0.0
 20
0.0
 30
0.0
  9
$PUCSXDIR
 10
1.0
 20
0.0
 30
0.0
  9
$PUCSYDIR
 10
0.0
 20
1.0
 30
0.0
  9
$USERI1
 70
     0
  9
$USERI2
 70
     0
  9
$USERI3
 70
     0
  9
$USERI4
 70
     0
  9
$USERI5
 70
     0
  9
$USERR1
 40
0.0
  9
$USERR2
 40
0.0
  9
$USERR3
 40
0.0
  9
$USERR4
 40
0.0
  9
$USERR5
 40
0.0
  9
$WORLDVIEW
 70
     1
  9
$SHADEDGE
 70
     3
  9
$SHADEDIF
 70
    70
  9
$TILEMODE
 70
     1
  9
$MAXACTVP
 70
    64
  9
$PLIMCHECK
 70
     0
  9
$PEXTMIN
 10
1.0000000000E+20
 20
1.0000000000E+20
 30
1.0000000000E+20
  9
$PEXTMAX
 10
-1.0000000000E+20
 20
-1.0000000000E+20
 30
-1.0000000000E+20
  9
$PLIMMIN
 10
0.0
 20
0.0
  9
$PLIMMAX
 10
420.0
 20
297.0
  9
$UNITMODE
 70
     0
  9
$VISRETAIN
 70
     1
  9
$PLINEGEN
 70
     0
  9
$PSLTSCALE
 70
     1
  0
ENDSEC
  0
SECTION
  2
TABLES
  0
TABLE
  2
VPORT
 70
     1
  0
VPORT
  2
*ACTIVE
 70
     0
 10
0.0
 20
0.0
 11
1.0
 21
1.0
 12
148.5
 22
105.0
 13
0.0
 23
0.0
 14
10.0
 24
10.0
 15
10.0
 25
10.0
 16
0.0
 26
0.0
 36
1.0
 17
0.0
 27
0.0
 37
0.0
 40
210.0
 41
1.4142857143
 42
50.0
 43
0.0
 44
0.0
 50
0.0
 51
0.0
 71
     0
 72
  2000
 73
     1
 74
     3
 75
     0
 76
     0
 77
     0
 78
     0
  0
ENDTAB
  0
TABLE
  2
LTYPE
 70
     6
  0
LTYPE
  2
CONTINUOUS
 70
     0
  3
Solid line
 72
    65
 73
     0
 40
0.0
  0
LTYPE
  2
HIDDEN
 70
     0
  3
Hidden __ __ __ __ __ __ __ __ __ __ __ __ __ __
 72
    65
 73
     2
 40
1.905
 49
1.27
 49
-0.635
  0
LTYPE
  2
PHANTOM
 70
     0
  3
Phantom ______  __  __  ______  __  __  ______
 72
    65
 73
     6
 40
12.7
 49
6.35
 49
-1.27
 49
1.27
 49
-1.27
 49
1.27
 49
-1.27
  0
LTYPE
  2
CENTER
 70
     0
  3
Center ____ _ ____ _ ____ _ ____ _ ____ _ ____
 72
    65
 73
     4
 40
10.16
 49
6.35
 49
-1.27
 49
1.27
 49
-1.27
  0
LTYPE
  2
CENTERX2
 70
     0
  3
Center (2x) ________  __  ________  __  _____
 72
    65
 73
     4
 40
20.32
 49
12.7
 49
-2.54
 49
2.54
 49
-2.54
  0
LTYPE
  2
DOT2
 70
     0
  3
Dot (.5x) ........................................
 72
    65
 73
     2
 40
0.635
 49
0.0
 49
-0.635
  0
ENDTAB
  0
TABLE
  2
LAYER
 70
     5
  0
LAYER
  2
0
 70
     0
 62
     7
  6
CONTINUOUS
  0
LAYER
  2
SLD-0
 70
     0
 62
     7
  6
CONTINUOUS
  0
LAYER
  2
AM_BOR
 70
     0
 62
     7
  6
CONTINUOUS
  0
LAYER
  2
BIEGLINIE__ZU_
 70
     0
 62
     8
  6
CONTINUOUS
  0
LAYER
  2
BIEGELINIE__WEG_
 70
     0
 62
     8
  6
HIDDEN
  0
ENDTAB
  0
TABLE
  2
STYLE
 70
     1
  0
STYLE
  2
STANDARD
 70
     0
 40
0.0
 41
1.0
 50
0.0
 71
     0
 42
2.5
  3
txt
  4

  0
ENDTAB
  0
TABLE
  2
VIEW
 70
     0
  0
ENDTAB
  0
TABLE
  2
UCS
 70
     0
  0
ENDTAB
  0
TABLE
  2
APPID
 70
     1
  0
APPID
  2
ACAD
 70
     0
  0
ENDTAB
  0
TABLE
  2
DIMSTYLE
 70
     1
  0
DIMSTYLE
  2
ISO-25
 70
     0
  3

  4

  5

  6

  7

 40
1.0
 41
2.5
 42
0.625
 43
3.75
 44
1.25
 45
0.0
 46
0.0
 47
0.0
 48
0.0
140
2.5
141
2.5
142
0.0
143
0.0393700787
144
1.0
145
0.0
146
1.0
147
0.625
 71
     0
 72
     0
 73
     0
 74
     0
 75
     0
 76
     0
 77
     1
 78
     8
170
     0
171
     3
172
     1
173
     0
174
     0
175
     0
176
     0
177
     0
178
     0
  0
ENDTAB
  0
ENDSEC
  0
SECTION
  2
BLOCKS
  0
BLOCK
  8
0
  2
$MODEL_SPACE
 70
     0
 10
0.0
 20
0.0
 30
0.0
  3
$MODEL_SPACE
  1

  0
ENDBLK
  5
21
  8
0
  0
BLOCK
 67
     1
  8
0
  2
$PAPER_SPACE
 70
     0
 10
0.0
 20
0.0
 30
0.0
  3
$PAPER_SPACE
  1

  0
ENDBLK
  5
1D
 67
     1
  8
0
  0
ENDSEC
  0
SECTION
  2
ENTITIES
  0
TEXT
  5
33
  8
SLD-0
 10
779.657061776
 20
1143.7579278847
 30
0.0
 40
19.05
  1
Innenansicht
 41
0.7
 11
779.657061776
 21
1138.3150707418
 31
0.0
 73
     1
  0
TEXT
  5
34
  8
SLD-0
 10
492.2736848472
 20
-995.9920612425
 30
0.0
 40
19.05
  1
S-520
 41
0.7
 11
492.2736848472
 21
-1001.4349183853
 31
0.0
 73
     1
  0
LINE
  5
35
  8
0
  6
CONTINUOUS
 62
     7
 10
146.9752898226
 20
-869.9174108389
 30
0.0
 11
151.5352681976
 21
-869.9174108389
 31
0.0
  0
POLYLINE
  5
36
  8
0
  6
CONTINUOUS
 62
     7
 66
     1
 10
0.0
 20
0.0
 30
0.0
  0
VERTEX
  5
1B2
  8
0
  6
CONTINUOUS
 62
     7
 10
376.5052790101
 20
1112.9845129497
 30
0.0
  0
VERTEX
  5
1B3
  8
0
  6
CONTINUOUS
 62
     7
 10
376.4544840691
 20
1112.8109798335
 30
0.0
  0
VERTEX
  5
1B4
  8
0
  6
CONTINUOUS
 62
     7
 10
376.2925676069
 20
1112.6848172791
 30
0.0
  0
VERTEX
  5
1B5
  8
0
  6
CONTINUOUS
 62
     7
 10
376.014113071
 20
1112.6081489375
 30
0.0
  0
VERTEX
  5
1B6
  8
0
  6
CONTINUOUS
 62
     7
 10
375.6265934596
 20
1112.5825891744
 30
0.0
  0
VERTEX
  5
1B7
  8
0
  6
CONTINUOUS
 62
     7
 10
375.1502635174
 20
1112.6081441808
 30
0.0
  0
VERTEX
  5
1B8
  8
0
  6
CONTINUOUS
 62
     7
 10
374.6147786985
 20
1112.6848201446
 30
0.0
  0
VERTEX
  5
1B9
  8
0
  6
CONTINUOUS
 62
     7
 10
374.0601313568
 20
1112.809944333
 30
0.0
  0
VERTEX
  5
1BA
  8
0
  6
CONTINUOUS
 62
     7
 10
373.5052790101
 20
1112.9845129497
 30
0.0
  0
SEQEND
  5
1B1
  8
0
  6
CONTINUOUS
 62
     7
  0
LINE
  5
37
  8
0
  6
CONTINUOUS
 62
     7
 10
376.5052790101
 20
-882.9174108389
 30
0.0
 11
376.5052790101
 21
1112.9845129497
 31
0.0
  0
LINE
  5
38
  8
0
  6
CONTINUOUS
 62
     7
 10
376.5052790101
 20
-882.9174108389
 30
0.0
 11
373.5052790101
 21
-882.9174108389
 31
0.0
  0
LINE
  5
39
  8
0
  6
CONTINUOUS
 62
     7
 10
376.5052790101
 20
1112.9845129497
 30
0.0
 11
375.0052790101
 21
1112.9845129497
 31
0.0
  0
POLYLINE
  5
3A
  8
0
  6
CONTINUOUS
 62
     7
 66
     1
 10
0.0
 20
0.0
 30
0.0
  0
VERTEX
  5
1BC
  8
0
  6
CONTINUOUS
 62
     7
 10
-73.8966447786
 20
1117.0825891611
 30
0.0
  0
VERTEX
  5
1BD
  8
0
  6
CONTINUOUS
 62
     7
 10
-73.7231116624
 20
1117.0317942201
 30
0.0
  0
VERTEX
  5
1BE
  8
0
  6
CONTINUOUS
 62
     7
 10
-73.5969491079
 20
1116.8698777579
 30
0.0
  0
VERTEX
  5
1BF
  8
0
  6
CONTINUOUS
 62
     7
 10
-73.5202807664
 20
1116.5914232191
 30
0.0
  0
VERTEX
  5
1C0
  8
0
  6
CONTINUOUS
 62
     7
 10
-73.4947210032
 20
1116.2039036106
 30
0.0
  0
VERTEX
  5
1C1
  8
0
  6
CONTINUOUS
 62
     7
 10
-73.5202760097
 20
1115.727573668
 30
0.0
  0
VERTEX
  5
1C2
  8
0
  6
CONTINUOUS
 62
     7
 10
-73.5969519734
 20
1115.1920888495
 30
0.0
  0
VERTEX
  5
1C3
  8
0
  6
CONTINUOUS
 62
     7
 10
-73.7220761611
 20
1114.6374415122
 30
0.0
  0
VERTEX
  5
1C4
  8
0
  6
CONTINUOUS
 62
     7
 10
-73.8966447786
 20
1114.0825891611
 30
0.0
  0
SEQEND
  5
1BB
  8
0
  6
CONTINUOUS
 62
     7
  0
LINE
  5
3B
  8
0
  6
CONTINUOUS
 62
     7
 10
372.4072027987
 20
1117.0825891611
 30
0.0
 11
-73.8966447786
 21
1117.0825891611
 31
0.0
  0
POLYLINE
  5
3C
  8
0
  6
CONTINUOUS
 62
     7
 66
     1
 10
0.0
 20
0.0
 30
0.0
  0
VERTEX
  5
1C6
  8
0
  6
CONTINUOUS
 62
     7
 10
372.4072027987
 20
1114.0825891611
 30
0.0
  0
VERTEX
  5
1C7
  8
0
  6
CONTINUOUS
 62
     7
 10
372.2336696825
 20
1114.6323068337
 30
0.0
  0
VERTEX
  5
1C8
  8
0
  6
CONTINUOUS
 62
     7
 10
372.1075071281
 20
1115.1921035945
 30
0.0
  0
VERTEX
  5
1C9
  8
0
  6
CONTINUOUS
 62
     7
 10
372.0308387865
 20
1115.727506079
 30
0.0
  0
VERTEX
  5
1CA
  8
0
  6
CONTINUOUS
 62
     7
 10
372.0052790234
 20
1116.2039153986
 30
0.0
  0
VERTEX
  5
1CB
  8
0
  6
CONTINUOUS
 62
     7
 10
372.0308340298
 20
1116.5913789033
 30
0.0
  0
VERTEX
  5
1CC
  8
0
  6
CONTINUOUS
 62
     7
 10
372.1075099936
 20
1116.8698836273
 30
0.0
  0
VERTEX
  5
1CD
  8
0
  6
CONTINUOUS
 62
     7
 10
372.232634182
 20
1117.0308325149
 30
0.0
  0
VERTEX
  5
1CE
  8
0
  6
CONTINUOUS
 62
     7
 10
372.4072027987
 20
1117.0825891611
 30
0.0
  0
SEQEND
  5
1C5
  8
0
  6
CONTINUOUS
 62
     7
  0
ARC
  5
3D
  8
0
  6
CONTINUOUS
 62
     7
 10
-76.4947209899
 20
1115.5825891611
 30
0.0
 40
3.00000000000026
 50
300.0
 51
330.0
  0
ARC
  5
3E
  8
0
  6
CONTINUOUS
 62
     7
 10
375.0052790101
 20
1115.5825891611
 30
0.0
 40
3.000000000000104
 50
210.0
 51
240.0
  0
LINE
  5
3F
  8
0
  6
CONTINUOUS
 62
     7
 10
373.5052790101
 20
-882.9174108389
 30
0.0
 11
-74.9947209899
 21
-882.9174108389
 31
0.0
  0
CIRCLE
  5
40
  8
0
  6
CONTINUOUS
 62
     7
 10
100.8771376823
 20
-609.418796493
 30
0.0
 40
1.850000000000023
  0
LINE
  5
41
  8
0
  6
CONTINUOUS
 62
     7
 10
372.4072027987
 20
1115.5825891611
 30
0.0
 11
372.4072027987
 21
1117.0825891611
 31
0.0
  0
ARC
  5
42
  8
0
  6
CONTINUOUS
 62
     7
 10
372.3791375928
 20
1115.2047502065
 30
0.0
 40
0.3788798376272279
 50
85.7519723598
 51
189.3397136847
  0
POLYLINE
  5
43
  8
0
  6
CONTINUOUS
 62
     7
 66
     1
 10
0.0
 20
0.0
 30
0.0
  0
VERTEX
  5
1D0
  8
0
  6
CONTINUOUS
 62
     7
 10
-74.9947209899
 20
1112.9845129497
 30
0.0
  0
VERTEX
  5
1D1
  8
0
  6
CONTINUOUS
 62
     7
 10
-75.5444386626
 20
1112.8109798335
 30
0.0
  0
VERTEX
  5
1D2
  8
0
  6
CONTINUOUS
 62
     7
 10
-76.1042354234
 20
1112.6848172791
 30
0.0
  0
VERTEX
  5
1D3
  8
0
  6
CONTINUOUS
 62
     7
 10
-76.6396378999
 20
1112.6081489375
 30
0.0
  0
VERTEX
  5
1D4
  8
0
  6
CONTINUOUS
 62
     7
 10
-77.1160472275
 20
1112.5825891744
 30
0.0
  0
VERTEX
  5
1D5
  8
0
  6
CONTINUOUS
 62
     7
 10
-77.5035107322
 20
1112.6081441808
 30
0.0
  0
VERTEX
  5
1D6
  8
0
  6
CONTINUOUS
 62
     7
 10
-77.7820154562
 20
1112.6848201446
 30
0.0
  0
VERTEX
  5
1D7
  8
0
  6
CONTINUOUS
 62
     7
 10
-77.9429643429
 20
1112.8099443322
 30
0.0
  0
VERTEX
  5
1D8
  8
0
  6
CONTINUOUS
 62
     7
 10
-77.9947209899
 20
1112.9845129497
 30
0.0
  0
SEQEND
  5
1CF
  8
0
  6
CONTINUOUS
 62
     7
  0
LINE
  5
44
  8
0
  6
CONTINUOUS
 62
     7
 10
-76.4947209899
 20
1112.9845129497
 30
0.0
 11
-77.9947209899
 21
1112.9845129497
 31
0.0
  0
ARC
  5
45
  8
0
  6
CONTINUOUS
 62
     7
 10
-76.1168820353
 20
1112.9564477438
 30
0.0
 40
0.378879837693222
 50
175.7519723725
 51
279.3397136719
  0
LINE
  5
46
  8
0
  6
CONTINUOUS
 62
     7
 10
-74.9947209899
 20
-882.9174108389
 30
0.0
 11
-77.9947209899
 21
-882.9174108389
 31
0.0
  0
LINE
  5
47
  8
0
  6
CONTINUOUS
 62
     7
 10
-77.9947209899
 20
1112.9845129497
 30
0.0
 11
-77.9947209899
 21
-882.9174108389
 31
0.0
  0
ARC
  5
48
  8
0
  6
CONTINUOUS
 62
     7
 10
-73.8787477607
 20
1115.1954442933
 30
0.0
 40
0.3875583205995657
 50
352.2577538708
 51
92.6467974897
  0
LINE
  5
49
  8
0
  6
CONTINUOUS
 62
     7
 10
-73.8966447786
 20
1117.0825891611
 30
0.0
 11
-73.8966447786
 21
1115.5825891611
 31
0.0
  0
CIRCLE
  5
4A
  8
0
  6
CONTINUOUS
 62
     7
 10
-54.7447209899
 20
1064.5825891611
 30
0.0
 40
3.0
  0
CIRCLE
  5
4B
  8
0
  6
CONTINUOUS
 62
     7
 10
-54.7447209899
 20
-835.4174108389
 30
0.0
 40
3.0
  0
CIRCLE
  5
4C
  8
0
  6
CONTINUOUS
 62
     7
 10
353.2552790101
 20
114.5825891611
 30
0.0
 40
3.0
  0
CIRCLE
  5
4D
  8
0
  6
CONTINUOUS
 62
     7
 10
353.2552790101
 20
-835.4174108389
 30
0.0
 40
3.0
  0
CIRCLE
  5
4E
  8
0
  6
CONTINUOUS
 62
     7
 10
-54.7447209899
 20
114.5825891611
 30
0.0
 40
3.000000000000007
  0
CIRCLE
  5
4F
  8
0
  6
CONTINUOUS
 62
     7
 10
353.2552790101
 20
1064.5825891611
 30
0.0
 40
3.0
  0
CIRCLE
  5
50
  8
0
  6
CONTINUOUS
 62
     7
 10
149.2552790101
 20
-865.9174108389
 30
0.0
 40
3.0
  0
LINE
  5
51
  8
0
  6
CONTINUOUS
 62
     7
 10
375.0052790101
 20
1114.0825891611
 30
0.0
 11
375.0052790101
 21
1112.9845129497
 31
0.0
  0
LINE
  5
52
  8
0
  6
CONTINUOUS
 62
     7
 10
376.5052790101
 20
1114.0825891611
 30
0.0
 11
375.0052790101
 21
1114.0825891611
 31
0.0
  0
LINE
  5
53
  8
0
  6
CONTINUOUS
 62
     7
 10
376.5052790101
 20
1114.0825891611
 30
0.0
 11
376.5052790101
 21
1112.9845129497
 31
0.0
  0
LINE
  5
54
  8
0
  6
CONTINUOUS
 62
     7
 10
-77.9947209899
 20
1112.9845129497
 30
0.0
 11
-77.9947209899
 21
1114.0825891611
 31
0.0
  0
LINE
  5
55
  8
0
  6
CONTINUOUS
 62
     7
 10
-76.4947209899
 20
1114.0825891611
 30
0.0
 11
-77.9947209899
 21
1114.0825891611
 31
0.0
  0
LINE
  5
56
  8
0
  6
CONTINUOUS
 62
     7
 10
-76.4947209899
 20
1112.9845129497
 30
0.0
 11
-76.4947209899
 21
1114.0825891611
 31
0.0
  0
LINE
  5
57
  8
0
  6
CONTINUOUS
 62
     7
 10
372.4072027987
 20
1117.0825891611
 30
0.0
 11
372.8839586665
 21
1117.0825891611
 31
0.0
  0
LINE
  5
58
  8
0
  6
CONTINUOUS
 62
     7
 10
372.8839586665
 20
1115.5825891611
 30
0.0
 11
372.8839586665
 21
1117.0825891611
 31
0.0
  0
LINE
  5
59
  8
0
  6
CONTINUOUS
 62
     7
 10
372.4072027987
 20
1115.5825891611
 30
0.0
 11
372.8839586665
 21
1115.5825891611
 31
0.0
  0
LINE
  5
5A
  8
0
  6
CONTINUOUS
 62
     7
 10
-74.3734006464
 20
1115.5825891611
 30
0.0
 11
-73.8966447786
 21
1115.5825891611
 31
0.0
  0
LINE
  5
5B
  8
0
  6
CONTINUOUS
 62
     7
 10
-74.3734006464
 20
1117.0825891611
 30
0.0
 11
-74.3734006464
 21
1115.5825891611
 31
0.0
  0
LINE
  5
5C
  8
0
  6
CONTINUOUS
 62
     7
 10
-74.3734006464
 20
1117.0825891611
 30
0.0
 11
-73.8966447786
 21
1117.0825891611
 31
0.0
  0
LINE
  5
5D
  8
0
  6
CONTINUOUS
 62
     7
 10
372.8839586665
 20
1117.0825891611
 30
0.0
 11
372.8839586665
 21
1115.5825891611
 31
0.0
  0
LINE
  5
5E
  8
0
  6
CONTINUOUS
 62
     7
 10
373.5052790101
 20
1117.0825891611
 30
0.0
 11
373.5052790101
 21
1115.5825891611
 31
0.0
  0
LINE
  5
5F
  8
0
  6
CONTINUOUS
 62
     7
 10
372.8839586665
 20
1117.0825891611
 30
0.0
 11
373.5052790101
 21
1117.0825891611
 31
0.0
  0
LINE
  5
60
  8
0
  6
CONTINUOUS
 62
     7
 10
372.8839586665
 20
1115.5825891611
 30
0.0
 11
373.5052790101
 21
1115.5825891611
 31
0.0
  0
LINE
  5
61
  8
0
  6
CONTINUOUS
 62
     7
 10
-74.3734006464
 20
1115.5825891611
 30
0.0
 11
-74.3734006464
 21
1117.0825891611
 31
0.0
  0
LINE
  5
62
  8
0
  6
CONTINUOUS
 62
     7
 10
-74.9947209899
 20
1115.5825891611
 30
0.0
 11
-74.9947209899
 21
1117.0825891611
 31
0.0
  0
LINE
  5
63
  8
0
  6
CONTINUOUS
 62
     7
 10
-74.9947209899
 20
1117.0825891611
 30
0.0
 11
-74.3734006464
 21
1117.0825891611
 31
0.0
  0
LINE
  5
64
  8
0
  6
CONTINUOUS
 62
     7
 10
-74.9947209899
 20
1115.5825891611
 30
0.0
 11
-74.3734006464
 21
1115.5825891611
 31
0.0
  0
ARC
  5
65
  8
0
  6
CONTINUOUS
 62
     7
 10
373.5052790101
 20
1114.0825891611
 30
0.0
 40
3.0
 50
360.0
 51
90.0
  0
ARC
  5
66
  8
0
  6
CONTINUOUS
 62
     7
 10
373.5052790101
 20
1114.0825891611
 30
0.0
 40
1.499999999999602
 50
360.0
 51
90.0
  0
ARC
  5
67
  8
0
  6
CONTINUOUS
 62
     7
 10
-74.9947209899
 20
1114.0825891611
 30
0.0
 40
1.500000000000227
 50
90.0
 51
180.0
  0
ARC
  5
68
  8
0
  6
CONTINUOUS
 62
     7
 10
-74.9947209899
 20
1114.0825891611
 30
0.0
 40
3.000000000000455
 50
90.0
 51
180.0
  0
LINE
  5
69
  8
0
  6
CONTINUOUS
 62
     7
 10
485.6165012159
 20
-743.9174108389
 30
0.0
 11
485.1165012159
 21
-744.4174108389
 31
0.0
  0
LINE
  5
6A
  8
0
  6
CONTINUOUS
 62
     7
 10
485.1165012159
 20
-751.4174108389
 30
0.0
 11
485.6165012159
 21
-751.9174108389
 31
0.0
  0
LINE
  5
6B
  8
0
  6
CONTINUOUS
 62
     7
 10
489.1165012159
 20
-743.9174108389
 30
0.0
 11
485.6165012159
 21
-743.9174108389
 31
0.0
  0
LINE
  5
6C
  8
0
  6
CONTINUOUS
 62
     7
 10
485.6165012159
 20
-751.9174108389
 30
0.0
 11
489.1165012159
 21
-751.9174108389
 31
0.0
  0
LINE
  5
6D
  8
0
  6
CONTINUOUS
 62
     7
 10
503.6165012159
 20
-882.9174108389
 30
0.0
 11
489.1165012159
 21
-882.9174108389
 31
0.0
  0
LINE
  5
6E
  8
0
  6
CONTINUOUS
 62
     7
 10
489.1165012159
 20
-882.9174108389
 30
0.0
 11
489.1165012159
 21
1114.0825891611
 31
0.0
  0
ARC
  5
6F
  8
0
  6
CONTINUOUS
 62
     7
 10
505.1165012159
 20
1115.5825891611
 30
0.0
 40
3.000000000000021
 50
210.0
 51
240.0
  0
LINE
  5
70
  8
0
  6
CONTINUOUS
 62
     7
 10
489.1165012159
 20
1114.0825891611
 30
0.0
 11
489.1165012159
 21
1117.0825891611
 31
0.0
  0
LINE
  5
71
  8
0
  6
CONTINUOUS
 62
     7
 10
502.5184250045
 20
1117.0825891611
 30
0.0
 11
489.1165012159
 21
1117.0825891611
 31
0.0
  0
POLYLINE
  5
72
  8
0
  6
CONTINUOUS
 62
     7
 66
     1
 10
0.0
 20
0.0
 30
0.0
  0
VERTEX
  5
1DA
  8
0
  6
CONTINUOUS
 62
     7
 10
502.5184250045
 20
1114.0825891611
 30
0.0
  0
VERTEX
  5
1DB
  8
0
  6
CONTINUOUS
 62
     7
 10
502.3448918883
 20
1114.6323068337
 30
0.0
  0
VERTEX
  5
1DC
  8
0
  6
CONTINUOUS
 62
     7
 10
502.2187293339
 20
1115.1921035945
 30
0.0
  0
VERTEX
  5
1DD
  8
0
  6
CONTINUOUS
 62
     7
 10
502.1420609915
 20
1115.7275060802
 30
0.0
  0
VERTEX
  5
1DE
  8
0
  6
CONTINUOUS
 62
     7
 10
502.1165012292
 20
1116.2039153986
 30
0.0
  0
VERTEX
  5
1DF
  8
0
  6
CONTINUOUS
 62
     7
 10
502.1420562365
 20
1116.5913789031
 30
0.0
  0
VERTEX
  5
1E0
  8
0
  6
CONTINUOUS
 62
     7
 10
502.2187321994
 20
1116.8698836273
 30
0.0
  0
VERTEX
  5
1E1
  8
0
  6
CONTINUOUS
 62
     7
 10
502.3438563852
 20
1117.0308325132
 30
0.0
  0
VERTEX
  5
1E2
  8
0
  6
CONTINUOUS
 62
     7
 10
502.5184250045
 20
1117.0825891611
 30
0.0
  0
SEQEND
  5
1D9
  8
0
  6
CONTINUOUS
 62
     7
  0
LINE
  5
73
  8
0
  6
CONTINUOUS
 62
     7
 10
506.6165012159
 20
1112.9845129497
 30
0.0
 11
506.6165012159
 21
-882.9174108389
 31
0.0
  0
LINE
  5
74
  8
0
  6
CONTINUOUS
 62
     7
 10
506.6165012159
 20
-882.9174108389
 30
0.0
 11
503.6165012159
 21
-882.9174108389
 31
0.0
  0
POLYLINE
  5
75
  8
0
  6
CONTINUOUS
 62
     7
 66
     1
 10
0.0
 20
0.0
 30
0.0
  0
VERTEX
  5
1E4
  8
0
  6
CONTINUOUS
 62
     7
 10
506.6165012159
 20
1112.9845129497
 30
0.0
  0
VERTEX
  5
1E5
  8
0
  6
CONTINUOUS
 62
     7
 10
506.5657062749
 20
1112.8109798335
 30
0.0
  0
VERTEX
  5
1E6
  8
0
  6
CONTINUOUS
 62
     7
 10
506.4037898127
 20
1112.6848172791
 30
0.0
  0
VERTEX
  5
1E7
  8
0
  6
CONTINUOUS
 62
     7
 10
506.1253352796
 20
1112.6081489375
 30
0.0
  0
VERTEX
  5
1E8
  8
0
  6
CONTINUOUS
 62
     7
 10
505.7378156654
 20
1112.5825891744
 30
0.0
  0
VERTEX
  5
1E9
  8
0
  6
CONTINUOUS
 62
     7
 10
505.2614857232
 20
1112.6081441808
 30
0.0
  0
VERTEX
  5
1EA
  8
0
  6
CONTINUOUS
 62
     7
 10
504.7260009043
 20
1112.6848201446
 30
0.0
  0
VERTEX
  5
1EB
  8
0
  6
CONTINUOUS
 62
     7
 10
504.1713535671
 20
1112.8099443322
 30
0.0
  0
VERTEX
  5
1EC
  8
0
  6
CONTINUOUS
 62
     7
 10
503.6165012159
 20
1112.9845129497
 30
0.0
  0
SEQEND
  5
1E3
  8
0
  6
CONTINUOUS
 62
     7
  0
LINE
  5
76
  8
0
  6
CONTINUOUS
 62
     7
 10
502.5184250045
 20
1115.5825891611
 30
0.0
 11
502.5184250045
 21
1117.0825891611
 31
0.0
  0
ARC
  5
77
  8
0
  6
CONTINUOUS
 62
     7
 10
502.4903597998
 20
1115.2047502046
 30
0.0
 40
0.3788798394869298
 50
85.7519725661
 51
189.3397138477
  0
LINE
  5
78
  8
0
  6
CONTINUOUS
 62
     7
 10
505.1165012159
 20
1112.9845129497
 30
0.0
 11
506.6165012159
 21
1112.9845129497
 31
0.0
  0
LINE
  5
79
  8
0
  6
CONTINUOUS
 62
     7
 10
506.6165012159
 20
1114.0825891611
 30
0.0
 11
505.1165012159
 21
1114.0825891611
 31
0.0
  0
LINE
  5
7A
  8
0
  6
CONTINUOUS
 62
     7
 10
506.6165012159
 20
1114.0825891611
 30
0.0
 11
506.6165012159
 21
1112.9845129497
 31
0.0
  0
LINE
  5
7B
  8
0
  6
CONTINUOUS
 62
     7
 10
505.1165012159
 20
1114.0825891611
 30
0.0
 11
505.1165012159
 21
1112.9845129497
 31
0.0
  0
LINE
  5
7C
  8
0
  6
CONTINUOUS
 62
     7
 10
502.9951808723
 20
1115.5825891611
 30
0.0
 11
502.9951808723
 21
1117.0825891611
 31
0.0
  0
LINE
  5
7D
  8
0
  6
CONTINUOUS
 62
     7
 10
502.5184250045
 20
1117.0825891611
 30
0.0
 11
502.9951808723
 21
1117.0825891611
 31
0.0
  0
LINE
  5
7E
  8
0
  6
CONTINUOUS
 62
     7
 10
502.5184250045
 20
1115.5825891611
 30
0.0
 11
502.9951808723
 21
1115.5825891611
 31
0.0
  0
LINE
  5
7F
  8
0
  6
CONTINUOUS
 62
     7
 10
502.9951808723
 20
1117.0825891611
 30
0.0
 11
502.9951808723
 21
1115.5825891611
 31
0.0
  0
LINE
  5
80
  8
0
  6
CONTINUOUS
 62
     7
 10
503.6165012159
 20
1117.0825891611
 30
0.0
 11
503.6165012159
 21
1115.5825891611
 31
0.0
  0
LINE
  5
81
  8
0
  6
CONTINUOUS
 62
     7
 10
502.9951808723
 20
1117.0825891611
 30
0.0
 11
503.6165012159
 21
1117.0825891611
 31
0.0
  0
LINE
  5
82
  8
0
  6
CONTINUOUS
 62
     7
 10
502.9951808723
 20
1115.5825891611
 30
0.0
 11
503.6165012159
 21
1115.5825891611
 31
0.0
  0
ARC
  5
83
  8
0
  6
CONTINUOUS
 62
     7
 10
503.6165012159
 20
1114.0825891611
 30
0.0
 40
3.000000000000512
 50
0.0
 51
90.0
  0
ARC
  5
84
  8
0
  6
CONTINUOUS
 62
     7
 10
503.6165012159
 20
1114.0825891611
 30
0.0
 40
1.499999999999943
 50
360.0
 51
90.0
  0
LINE
  5
85
  8
0
  6
CONTINUOUS
 62
     7
 10
482.6165012159
 20
1115.5825891611
 30
0.0
 11
482.6165012159
 21
1117.0825891611
 31
0.0
  0
LINE
  5
86
  8
0
  6
CONTINUOUS
 62
     7
 10
489.1165012159
 20
1117.0825891611
 30
0.0
 11
482.6165012159
 21
1117.0825891611
 31
0.0
  0
LINE
  5
87
  8
0
  6
CONTINUOUS
 62
     7
 10
489.1165012159
 20
1115.5825891611
 30
0.0
 11
482.6165012159
 21
1115.5825891611
 31
0.0
  0
LINE
  5
88
  8
0
  6
CONTINUOUS
 62
     7
 10
485.6165012159
 20
-747.9174108389
 30
0.0
 11
485.6165012159
 21
-751.9174108389
 31
0.0
  0
LINE
  5
89
  8
0
  6
CONTINUOUS
 62
     7
 10
485.6165012159
 20
-743.9174108389
 30
0.0
 11
485.6165012159
 21
-747.9174108389
 31
0.0
  0
LINE
  5
8A
  8
0
  6
CONTINUOUS
 62
     7
 10
485.1165012159
 20
-747.9174108389
 30
0.0
 11
485.1165012159
 21
-751.4174108389
 31
0.0
  0
LINE
  5
8B
  8
0
  6
CONTINUOUS
 62
     7
 10
485.1165012159
 20
-744.4174108389
 30
0.0
 11
485.1165012159
 21
-747.9174108389
 31
0.0
  0
ARC
  5
8C
  8
0
  6
HIDDEN
 62
     7
 10
505.1165012159
 20
1103.0825891611
 30
0.0
 40
6.000000000000227
 50
90.0
 51
270.0
  0
ARC
  5
8D
  8
0
  6
HIDDEN
 62
     7
 10
505.1165012159
 20
-875.9174108389
 30
0.0
 40
6.0
 50
90.0
 51
270.0
  0
POLYLINE
  5
8E
  8
0
  6
HIDDEN
 62
     7
 66
     1
 10
0.0
 20
0.0
 30
0.0
  0
VERTEX
  5
1EE
  8
0
  6
HIDDEN
 62
     7
 10
502.5184250045
 20
1114.0825891611
 30
0.0
  0
VERTEX
  5
1EF
  8
0
  6
HIDDEN
 62
     7
 10
502.5184250045
 20
1114.0825891611
 30
0.0
  0
SEQEND
  5
1ED
  8
0
  6
HIDDEN
 62
     7
  0
POLYLINE
  5
8F
  8
0
  6
HIDDEN
 62
     7
 66
     1
 10
0.0
 20
0.0
 30
0.0
  0
VERTEX
  5
1F1
  8
0
  6
HIDDEN
 62
     7
 10
503.6165012159
 20
1112.9845129497
 30
0.0
  0
VERTEX
  5
1F2
  8
0
  6
HIDDEN
 62
     7
 10
503.6165012159
 20
1112.9845129497
 30
0.0
  0
SEQEND
  5
1F0
  8
0
  6
HIDDEN
 62
     7
  0
ARC
  5
90
  8
0
  6
HIDDEN
 62
     7
 10
504.7293563511
 20
1112.9666159287
 30
0.0
 40
0.3875583178062045
 50
262.2577533752
 51
2.6467979853
  0
LINE
  5
91
  8
0
  6
HIDDEN
 62
     7
 10
502.5184250045
 20
1115.5825891611
 30
0.0
 11
489.1165012159
 21
1115.5825891611
 31
0.0
  0
LINE
  5
92
  8
0
  6
HIDDEN
 62
     7
 10
505.1165012159
 20
1112.9845129497
 30
0.0
 11
505.1165012159
 21
-882.9174108389
 31
0.0
  0
LINE
  5
93
  8
0
  6
HIDDEN
 62
     7
 10
502.1059406866
 20
-831.2254043278
 30
0.0
 11
502.1059406866
 21
-839.60941735
 31
0.0
  0
LINE
  5
94
  8
0
  6
HIDDEN
 62
     7
 10
502.1059406866
 20
118.7745956722
 30
0.0
 11
502.1059406866
 21
110.39058265
 31
0.0
  0
LINE
  5
95
  8
0
  6
HIDDEN
 62
     7
 10
502.1059406866
 20
1068.7745956722
 30
0.0
 11
502.1059406866
 21
1060.39058265
 31
0.0
  0
LINE
  5
96
  8
0
  6
HIDDEN
 62
     7
 10
503.0165012159
 20
-832.4174108389
 30
0.0
 11
503.0165012159
 21
-838.4174108389
 31
0.0
  0
LINE
  5
97
  8
0
  6
HIDDEN
 62
     7
 10
503.0165012159
 20
117.5825891611
 30
0.0
 11
503.0165012159
 21
111.5825891611
 31
0.0
  0
LINE
  5
98
  8
0
  6
HIDDEN
 62
     7
 10
503.0165012159
 20
1067.5825891611
 30
0.0
 11
503.0165012159
 21
1061.5825891611
 31
0.0
  0
LINE
  5
99
  8
0
  6
HIDDEN
 62
     7
 10
502.1059406865
 20
-861.7254043278
 30
0.0
 11
502.1059406865
 21
-870.10941735
 31
0.0
  0
LINE
  5
9A
  8
0
  6
HIDDEN
 62
     7
 10
503.0165012158
 20
-862.9174108389
 30
0.0
 11
503.0165012158
 21
-868.9174108389
 31
0.0
  0
POLYLINE
  5
9B
  8
0
  6
HIDDEN
 62
     7
 66
     1
 10
0.0
 20
0.0
 30
0.0
  0
VERTEX
  5
1F4
  8
0
  6
HIDDEN
 62
     7
 10
502.5184250045
 20
1114.0825891611
 30
0.0
  0
VERTEX
  5
1F5
  8
0
  6
HIDDEN
 62
     7
 10
502.5184250045
 20
1114.0825891611
 30
0.0
  0
SEQEND
  5
1F3
  8
0
  6
HIDDEN
 62
     7
  0
POLYLINE
  5
9C
  8
0
  6
HIDDEN
 62
     7
 66
     1
 10
0.0
 20
0.0
 30
0.0
  0
VERTEX
  5
1F7
  8
0
  6
HIDDEN
 62
     7
 10
503.6165012159
 20
1112.9845129497
 30
0.0
  0
VERTEX
  5
1F8
  8
0
  6
HIDDEN
 62
     7
 10
503.6165012159
 20
1112.9845129497
 30
0.0
  0
SEQEND
  5
1F6
  8
0
  6
HIDDEN
 62
     7
  0
LINE
  5
9D
  8
0
  6
HIDDEN
 62
     7
 10
504.1165012159
 20
-747.9174108389
 30
0.0
 11
504.1165012159
 21
-752.9174108389
 31
0.0
  0
LINE
  5
9E
  8
0
  6
HIDDEN
 62
     7
 10
504.1165012159
 20
-742.9174108389
 30
0.0
 11
504.1165012159
 21
-747.9174108389
 31
0.0
  0
LINE
  5
9F
  8
0
  6
HIDDEN
 62
     7
 10
499.1165012159
 20
1103.0825891611
 30
0.0
 11
499.1165012159
 21
1067.0825891611
 31
0.0
  0
LINE
  5
A0
  8
0
  6
HIDDEN
 62
     7
 10
499.1165012159
 20
1067.0825891611
 30
0.0
 11
499.1165012159
 21
-839.9174108389
 31
0.0
  0
LINE
  5
A1
  8
0
  6
HIDDEN
 62
     7
 10
499.1165012159
 20
-839.9174108389
 30
0.0
 11
499.1165012159
 21
-875.9174108389
 31
0.0
  0
LINE
  5
A2
  8
0
  6
HIDDEN
 62
     7
 10
502.1165012289
 20
1116.2039623379
 30
0.0
 11
502.1165012289
 21
1115.1432757495
 31
0.0
  0
LINE
  5
A3
  8
0
  6
HIDDEN
 62
     7
 10
504.6771349628
 20
1112.5825891741
 30
0.0
 11
505.7377687098
 21
1112.5825891741
 31
0.0
  0
ARC
  5
A4
  8
0
  6
HIDDEN
 62
     7
 10
504.3165012159
 20
-842.304745887
 30
0.0
 40
0.8000000000000107
 50
0.0
 51
52.6241925045
  0
ARC
  5
A5
  8
0
  6
HIDDEN
 62
     7
 10
504.3165012159
 20
-828.5300757908
 30
0.0
 40
0.8000000000000107
 50
307.3758074955
 51
0.0
  0
ARC
  5
A6
  8
0
  6
HIDDEN
 62
     7
 10
504.3165012159
 20
-842.304745887
 30
0.0
 40
2.300000000000044
 50
0.0
 51
52.6241925045
  0
ARC
  5
A7
  8
0
  6
HIDDEN
 62
     7
 10
504.3165012159
 20
-828.5300757908
 30
0.0
 40
2.300000000000044
 50
307.3758074955
 51
0.0
  0
ARC
  5
A8
  8
0
  6
HIDDEN
 62
     7
 10
504.3165012159
 20
107.695254113
 30
0.0
 40
0.7999999999999882
 50
0.0
 51
52.6241925045
  0
ARC
  5
A9
  8
0
  6
HIDDEN
 62
     7
 10
504.3165012159
 20
121.4699242092
 30
0.0
 40
0.7999999999999882
 50
307.3758074955
 51
0.0
  0
ARC
  5
AA
  8
0
  6
HIDDEN
 62
     7
 10
504.3165012159
 20
107.695254113
 30
0.0
 40
2.299999999999976
 50
0.0
 51
52.6241925045
  0
ARC
  5
AB
  8
0
  6
HIDDEN
 62
     7
 10
504.3165012159
 20
121.4699242092
 30
0.0
 40
2.299999999999976
 50
307.3758074955
 51
0.0
  0
ARC
  5
AC
  8
0
  6
HIDDEN
 62
     7
 10
504.3165012159
 20
1057.695254113
 30
0.0
 40
0.8000000000000107
 50
0.0
 51
52.6241925045
  0
ARC
  5
AD
  8
0
  6
HIDDEN
 62
     7
 10
504.3165012159
 20
1071.4699242092
 30
0.0
 40
0.8000000000001914
 50
307.3758074955
 51
0.0
  0
ARC
  5
AE
  8
0
  6
HIDDEN
 62
     7
 10
504.3165012159
 20
1057.695254113
 30
0.0
 40
2.299999999999955
 50
0.0
 51
52.6241925044
  0
ARC
  5
AF
  8
0
  6
HIDDEN
 62
     7
 10
504.3165012159
 20
1071.4699242092
 30
0.0
 40
2.300000000000134
 50
307.3758074955
 51
0.0
  0
LINE
  5
B0
  8
0
  6
HIDDEN
 62
     7
 10
504.8021334982
 20
-829.1658125968
 30
0.0
 11
502.1059406866
 21
-831.2254043278
 31
0.0
  0
LINE
  5
B1
  8
0
  6
HIDDEN
 62
     7
 10
502.1059406866
 20
-839.60941735
 30
0.0
 11
504.8021334982
 21
-841.6690090811
 31
0.0
  0
LINE
  5
B2
  8
0
  6
HIDDEN
 62
     7
 10
504.8021334982
 20
120.8341874032
 30
0.0
 11
502.1059406866
 21
118.7745956722
 31
0.0
  0
LINE
  5
B3
  8
0
  6
HIDDEN
 62
     7
 10
502.1059406866
 20
110.39058265
 30
0.0
 11
504.8021334982
 21
108.3309909189
 31
0.0
  0
LINE
  5
B4
  8
0
  6
HIDDEN
 62
     7
 10
504.8021334982
 20
1070.8341874032
 30
0.0
 11
502.1059406866
 21
1068.7745956722
 31
0.0
  0
LINE
  5
B5
  8
0
  6
HIDDEN
 62
     7
 10
502.1059406866
 20
1060.39058265
 30
0.0
 11
504.8021334982
 21
1058.3309909189
 31
0.0
  0
LINE
  5
B6
  8
0
  6
HIDDEN
 62
     7
 10
505.7126940275
 20
-830.3578191078
 30
0.0
 11
503.0165012159
 21
-832.4174108389
 31
0.0
  0
LINE
  5
B7
  8
0
  6
HIDDEN
 62
     7
 10
503.0165012159
 20
-838.4174108389
 30
0.0
 11
505.7126940275
 21
-840.47700257
 31
0.0
  0
LINE
  5
B8
  8
0
  6
HIDDEN
 62
     7
 10
505.7126940275
 20
119.6421808922
 30
0.0
 11
503.0165012159
 21
117.5825891611
 31
0.0
  0
LINE
  5
B9
  8
0
  6
HIDDEN
 62
     7
 10
503.0165012159
 20
111.5825891611
 30
0.0
 11
505.7126940275
 21
109.52299743
 31
0.0
  0
LINE
  5
BA
  8
0
  6
HIDDEN
 62
     7
 10
505.7126940275
 20
1069.6421808922
 30
0.0
 11
503.0165012159
 21
1067.5825891611
 31
0.0
  0
LINE
  5
BB
  8
0
  6
HIDDEN
 62
     7
 10
503.0165012159
 20
1061.5825891611
 30
0.0
 11
505.7126940275
 21
1059.52299743
 31
0.0
  0
LINE
  5
BC
  8
0
  6
HIDDEN
 62
     7
 10
502.1059406866
 20
-839.60941735
 30
0.0
 11
503.0165012159
 21
-838.4174108389
 31
0.0
  0
LINE
  5
BD
  8
0
  6
HIDDEN
 62
     7
 10
503.0165012159
 20
-832.4174108389
 30
0.0
 11
502.1059406866
 21
-831.2254043278
 31
0.0
  0
LINE
  5
BE
  8
0
  6
HIDDEN
 62
     7
 10
502.1059406866
 20
110.39058265
 30
0.0
 11
503.0165012159
 21
111.5825891611
 31
0.0
  0
LINE
  5
BF
  8
0
  6
HIDDEN
 62
     7
 10
503.0165012159
 20
117.5825891611
 30
0.0
 11
502.1059406866
 21
118.7745956722
 31
0.0
  0
LINE
  5
C0
  8
0
  6
HIDDEN
 62
     7
 10
502.1059406866
 20
1060.39058265
 30
0.0
 11
503.0165012159
 21
1061.5825891611
 31
0.0
  0
LINE
  5
C1
  8
0
  6
HIDDEN
 62
     7
 10
503.0165012159
 20
1067.5825891611
 30
0.0
 11
502.1059406866
 21
1068.7745956722
 31
0.0
  0
LINE
  5
C2
  8
0
  6
HIDDEN
 62
     7
 10
493.1165012159
 20
1115.5825891611
 30
0.0
 11
493.1165012159
 21
1117.0825891611
 31
0.0
  0
LINE
  5
C3
  8
0
  6
HIDDEN
 62
     7
 10
505.1165012159
 20
-611.268796493
 30
0.0
 11
506.6165012159
 21
-611.268796493
 31
0.0
  0
LINE
  5
C4
  8
0
  6
HIDDEN
 62
     7
 10
506.6165012159
 20
-607.568796493
 30
0.0
 11
505.1165012159
 21
-607.568796493
 31
0.0
  0
ARC
  5
C5
  8
0
  6
HIDDEN
 62
     7
 10
504.3165012158
 20
-872.804745887
 30
0.0
 40
0.8000000000461682
 50
0.0
 51
52.6241925045
  0
ARC
  5
C6
  8
0
  6
HIDDEN
 62
     7
 10
504.3165012158
 20
-859.0300757908
 30
0.0
 40
0.8000000000461682
 50
307.3758074955
 51
0.0
  0
ARC
  5
C7
  8
0
  6
HIDDEN
 62
     7
 10
504.3165012158
 20
-872.804745887
 30
0.0
 40
2.300000000000078
 50
0.0
 51
52.6241925045
  0
ARC
  5
C8
  8
0
  6
HIDDEN
 62
     7
 10
504.3165012158
 20
-859.0300757908
 30
0.0
 40
2.300000000000078
 50
307.3758074955
 51
0.0
  0
LINE
  5
C9
  8
0
  6
HIDDEN
 62
     7
 10
504.8021334981
 20
-859.6658125968
 30
0.0
 11
502.1059406865
 21
-861.7254043278
 31
0.0
  0
LINE
  5
CA
  8
0
  6
HIDDEN
 62
     7
 10
502.1059406865
 20
-870.10941735
 30
0.0
 11
504.8021334981
 21
-872.1690090811
 31
0.0
  0
LINE
  5
CB
  8
0
  6
HIDDEN
 62
     7
 10
505.7126940274
 20
-860.8578191078
 30
0.0
 11
503.0165012158
 21
-862.9174108389
 31
0.0
  0
LINE
  5
CC
  8
0
  6
HIDDEN
 62
     7
 10
503.0165012158
 20
-868.9174108389
 30
0.0
 11
505.7126940274
 21
-870.97700257
 31
0.0
  0
LINE
  5
CD
  8
0
  6
HIDDEN
 62
     7
 10
502.1059406865
 20
-870.10941735
 30
0.0
 11
503.0165012158
 21
-868.9174108389
 31
0.0
  0
LINE
  5
CE
  8
0
  6
HIDDEN
 62
     7
 10
503.0165012158
 20
-862.9174108389
 30
0.0
 11
502.1059406865
 21
-861.7254043278
 31
0.0
  0
LINE
  5
CF
  8
0
  6
HIDDEN
 62
     7
 10
505.7378087098
 20
1112.5825891741
 30
0.0
 11
505.7378744078
 21
1112.5825891741
 31
0.0
  0
LINE
  5
D0
  8
0
  6
HIDDEN
 62
     7
 10
505.1165012159
 20
-742.9174108389
 30
0.0
 11
504.1165012159
 21
-742.9174108389
 31
0.0
  0
LINE
  5
D1
  8
0
  6
HIDDEN
 62
     7
 10
504.1165012159
 20
-752.9174108389
 30
0.0
 11
505.1165012159
 21
-752.9174108389
 31
0.0
  0
LINE
  5
D2
  8
0
  6
HIDDEN
 62
     7
 10
504.1165012159
 20
-743.9174108389
 30
0.0
 11
489.1165012159
 21
-743.9174108389
 31
0.0
  0
LINE
  5
D3
  8
0
  6
HIDDEN
 62
     7
 10
489.1165012159
 20
-751.9174108389
 30
0.0
 11
504.1165012159
 21
-751.9174108389
 31
0.0
  0
LINE
  5
D4
  8
0
  6
CONTINUOUS
 62
     7
 10
-73.9947209899
 20
-995.5361149717
 30
0.0
 11
-73.8882636922
 21
-994.4108797002
 31
0.0
  0
LINE
  5
D5
  8
0
  6
CONTINUOUS
 62
     7
 10
372.5052790101
 20
-995.5361149717
 30
0.0
 11
372.3989779649
 21
-994.4116983987
 31
0.0
  0
LINE
  5
D6
  8
0
  6
CONTINUOUS
 62
     7
 10
-74.9947209899
 20
-979.5361149717
 30
0.0
 11
-60.4947209899
 21
-979.5361149717
 31
0.0
  0
LINE
  5
D7
  8
0
  6
CONTINUOUS
 62
     7
 10
-60.4947209899
 20
-979.5361149717
 30
0.0
 11
-74.3734006464
 21
-993.4147946281
 31
0.0
  0
ARC
  5
D8
  8
0
  6
CONTINUOUS
 62
     7
 10
-76.4947209899
 20
-995.5361149717
 30
0.0
 40
3.00000000000018
 50
45.0
 51
60.0
  0
LINE
  5
D9
  8
0
  6
CONTINUOUS
 62
     7
 10
-77.9947209899
 20
-992.9380387604
 30
0.0
 11
-77.9947209899
 21
-979.5361149717
 31
0.0
  0
LINE
  5
DA
  8
0
  6
CONTINUOUS
 62
     7
 10
-77.9947209899
 20
-979.5361149717
 30
0.0
 11
-74.9947209899
 21
-979.5361149717
 31
0.0
  0
POLYLINE
  5
DB
  8
0
  6
CONTINUOUS
 62
     7
 66
     1
 10
0.0
 20
0.0
 30
0.0
  0
VERTEX
  5
1FA
  8
0
  6
CONTINUOUS
 62
     7
 10
-77.9947209899
 20
-992.9380387604
 30
0.0
  0
VERTEX
  5
1FB
  8
0
  6
CONTINUOUS
 62
     7
 10
-77.943926049
 20
-992.7645056441
 30
0.0
  0
VERTEX
  5
1FC
  8
0
  6
CONTINUOUS
 62
     7
 10
-77.7820095868
 20
-992.6383430897
 30
0.0
  0
VERTEX
  5
1FD
  8
0
  6
CONTINUOUS
 62
     7
 10
-77.5035550476
 20
-992.5616747473
 30
0.0
  0
VERTEX
  5
1FE
  8
0
  6
CONTINUOUS
 62
     7
 10
-77.1160354395
 20
-992.536114985
 30
0.0
  0
VERTEX
  5
1FF
  8
0
  6
CONTINUOUS
 62
     7
 10
-76.6397054976
 20
-992.5616699923
 30
0.0
  0
VERTEX
  5
200
  8
0
  6
CONTINUOUS
 62
     7
 10
-76.1042206783
 20
-992.6383459552
 30
0.0
  0
VERTEX
  5
201
  8
0
  6
CONTINUOUS
 62
     7
 10
-75.5495733459
 20
-992.7634701411
 30
0.0
  0
VERTEX
  5
202
  8
0
  6
CONTINUOUS
 62
     7
 10
-74.9947209899
 20
-992.9380387604
 30
0.0
  0
SEQEND
  5
1F9
  8
0
  6
CONTINUOUS
 62
     7
  0
LINE
  5
DC
  8
0
  6
CONTINUOUS
 62
     7
 10
376.5052790101
 20
-979.5361149717
 30
0.0
 11
376.5052790101
 21
-992.9380387604
 31
0.0
  0
POLYLINE
  5
DD
  8
0
  6
CONTINUOUS
 62
     7
 66
     1
 10
0.0
 20
0.0
 30
0.0
  0
VERTEX
  5
204
  8
0
  6
CONTINUOUS
 62
     7
 10
373.5052790101
 20
-992.9380387604
 30
0.0
  0
VERTEX
  5
205
  8
0
  6
CONTINUOUS
 62
     7
 10
374.0549966827
 20
-992.7645056441
 30
0.0
  0
VERTEX
  5
206
  8
0
  6
CONTINUOUS
 62
     7
 10
374.6147934435
 20
-992.6383430897
 30
0.0
  0
VERTEX
  5
207
  8
0
  6
CONTINUOUS
 62
     7
 10
375.1501959285
 20
-992.5616747473
 30
0.0
  0
VERTEX
  5
208
  8
0
  6
CONTINUOUS
 62
     7
 10
375.6266052476
 20
-992.536114985
 30
0.0
  0
VERTEX
  5
209
  8
0
  6
CONTINUOUS
 62
     7
 10
376.0140687518
 20
-992.5616699923
 30
0.0
  0
VERTEX
  5
20A
  8
0
  6
CONTINUOUS
 62
     7
 10
376.2925734763
 20
-992.6383459552
 30
0.0
  0
VERTEX
  5
20B
  8
0
  6
CONTINUOUS
 62
     7
 10
376.4535223627
 20
-992.7634701415
 30
0.0
  0
VERTEX
  5
20C
  8
0
  6
CONTINUOUS
 62
     7
 10
376.5052790101
 20
-992.9380387604
 30
0.0
  0
SEQEND
  5
203
  8
0
  6
CONTINUOUS
 62
     7
  0
LINE
  5
DE
  8
0
  6
CONTINUOUS
 62
     7
 10
373.5052790101
 20
-979.5361149717
 30
0.0
 11
376.5052790101
 21
-979.5361149717
 31
0.0
  0
ARC
  5
DF
  8
0
  6
CONTINUOUS
 62
     7
 10
-76.4947209899
 20
-995.5361149717
 30
0.0
 40
3.000000000000064
 50
30.0
 51
45.0
  0
LINE
  5
E0
  8
0
  6
CONTINUOUS
 62
     7
 10
-74.3734006464
 20
-993.4147946281
 30
0.0
 11
-60.4947209899
 21
-979.5361149717
 31
0.0
  0
LINE
  5
E1
  8
0
  6
CONTINUOUS
 62
     7
 10
-60.4947209899
 20
-979.5361149717
 30
0.0
 11
-38.7062023867
 21
-979.5361149717
 31
0.0
  0
ARC
  5
E2
  8
0
  6
CONTINUOUS
 62
     7
 10
-25.7447209899
 20
-960.5361149717
 30
0.0
 40
23.00000000000016
 50
235.6988472432
 51
327.0792654719
  0
LINE
  5
E3
  8
0
  6
CONTINUOUS
 62
     7
 10
-6.4379864136
 20
-973.0361149717
 30
0.0
 11
304.9485444338
 21
-973.0361149717
 31
0.0
  0
ARC
  5
E4
  8
0
  6
CONTINUOUS
 62
     7
 10
324.2552790101
 20
-960.5361149717
 30
0.0
 40
23.00000000000015
 50
212.9207345281
 51
304.3011527568
  0
LINE
  5
E5
  8
0
  6
CONTINUOUS
 62
     7
 10
337.2167604069
 20
-979.5361149717
 30
0.0
 11
359.0052790101
 21
-979.5361149717
 31
0.0
  0
LINE
  5
E6
  8
0
  6
CONTINUOUS
 62
     7
 10
359.0052790101
 20
-979.5361149717
 30
0.0
 11
372.8839586665
 21
-993.4147946281
 31
0.0
  0
ARC
  5
E7
  8
0
  6
CONTINUOUS
 62
     7
 10
375.0052790101
 20
-995.5361149717
 30
0.0
 40
3.000000000000099
 50
135.0
 51
150.0
  0
ARC
  5
E8
  8
0
  6
CONTINUOUS
 62
     7
 10
375.0052790101
 20
-995.5361149717
 30
0.0
 40
3.000000000000064
 50
120.0
 51
135.0
  0
LINE
  5
E9
  8
0
  6
CONTINUOUS
 62
     7
 10
372.8839586665
 20
-993.4147946281
 30
0.0
 11
359.0052790101
 21
-979.5361149717
 31
0.0
  0
LINE
  5
EA
  8
0
  6
CONTINUOUS
 62
     7
 10
359.0052790101
 20
-979.5361149717
 30
0.0
 11
373.5052790101
 21
-979.5361149717
 31
0.0
  0
LINE
  5
EB
  8
0
  6
CONTINUOUS
 62
     7
 10
376.5052790101
 20
-992.9380387604
 30
0.0
 11
375.0052790101
 21
-992.9380387604
 31
0.0
  0
ARC
  5
EC
  8
0
  6
CONTINUOUS
 62
     7
 10
374.6274400536
 20
-992.9099735556
 30
0.0
 40
0.3788798394583517
 50
355.7519725606
 51
99.3397138531
  0
LINE
  5
ED
  8
0
  6
CONTINUOUS
 62
     7
 10
372.4072027987
 20
-997.0361149717
 30
0.0
 11
-73.8966447786
 21
-997.0361149717
 31
0.0
  0
POLYLINE
  5
EE
  8
0
  6
CONTINUOUS
 62
     7
 66
     1
 10
0.0
 20
0.0
 30
0.0
  0
VERTEX
  5
20E
  8
0
  6
CONTINUOUS
 62
     7
 10
-73.8966447786
 20
-994.0361149717
 30
0.0
  0
VERTEX
  5
20F
  8
0
  6
CONTINUOUS
 62
     7
 10
-73.7231116624
 20
-994.5858326443
 30
0.0
  0
VERTEX
  5
210
  8
0
  6
CONTINUOUS
 62
     7
 10
-73.5969491079
 20
-995.1456294051
 30
0.0
  0
VERTEX
  5
211
  8
0
  6
CONTINUOUS
 62
     7
 10
-73.5202807664
 20
-995.6810318903
 30
0.0
  0
VERTEX
  5
212
  8
0
  6
CONTINUOUS
 62
     7
 10
-73.4947210032
 20
-996.1574412093
 30
0.0
  0
VERTEX
  5
213
  8
0
  6
CONTINUOUS
 62
     7
 10
-73.5202760097
 20
-996.5449047142
 30
0.0
  0
VERTEX
  5
214
  8
0
  6
CONTINUOUS
 62
     7
 10
-73.5969519734
 20
-996.8234094379
 30
0.0
  0
VERTEX
  5
215
  8
0
  6
CONTINUOUS
 62
     7
 10
-73.7220761611
 20
-996.9843583247
 30
0.0
  0
VERTEX
  5
216
  8
0
  6
CONTINUOUS
 62
     7
 10
-73.8966447786
 20
-997.0361149717
 30
0.0
  0
SEQEND
  5
20D
  8
0
  6
CONTINUOUS
 62
     7
  0
POLYLINE
  5
EF
  8
0
  6
CONTINUOUS
 62
     7
 66
     1
 10
0.0
 20
0.0
 30
0.0
  0
VERTEX
  5
218
  8
0
  6
CONTINUOUS
 62
     7
 10
372.4072027987
 20
-997.0361149717
 30
0.0
  0
VERTEX
  5
219
  8
0
  6
CONTINUOUS
 62
     7
 10
372.2336696825
 20
-996.9853200308
 30
0.0
  0
VERTEX
  5
21A
  8
0
  6
CONTINUOUS
 62
     7
 10
372.1075071281
 20
-996.8234035685
 30
0.0
  0
VERTEX
  5
21B
  8
0
  6
CONTINUOUS
 62
     7
 10
372.0308387865
 20
-996.5449490302
 30
0.0
  0
VERTEX
  5
21C
  8
0
  6
CONTINUOUS
 62
     7
 10
372.0052790234
 20
-996.1574294212
 30
0.0
  0
VERTEX
  5
21D
  8
0
  6
CONTINUOUS
 62
     7
 10
372.0308340298
 20
-995.681099479
 30
0.0
  0
VERTEX
  5
21E
  8
0
  6
CONTINUOUS
 62
     7
 10
372.1075099936
 20
-995.1456146601
 30
0.0
  0
VERTEX
  5
21F
  8
0
  6
CONTINUOUS
 62
     7
 10
372.232634182
 20
-994.5909673184
 30
0.0
  0
VERTEX
  5
220
  8
0
  6
CONTINUOUS
 62
     7
 10
372.4072027987
 20
-994.0361149717
 30
0.0
  0
SEQEND
  5
217
  8
0
  6
CONTINUOUS
 62
     7
  0
LINE
  5
F0
  8
0
  6
CONTINUOUS
 62
     7
 10
-76.4947209899
 20
-992.9380387604
 30
0.0
 11
-77.9947209899
 21
-992.9380387604
 31
0.0
  0
LINE
  5
F1
  8
0
  6
CONTINUOUS
 62
     7
 10
-73.8966447786
 20
-997.0361149717
 30
0.0
 11
-73.8966447786
 21
-995.5361149717
 31
0.0
  0
ARC
  5
F2
  8
0
  6
CONTINUOUS
 62
     7
 10
-73.8685795727
 20
-995.1582760171
 30
0.0
 40
0.3788798376783568
 50
265.7519723697
 51
9.3397136749
  0
ARC
  5
F3
  8
0
  6
CONTINUOUS
 62
     7
 10
372.38930578
 20
-995.1489701047
 30
0.0
 40
0.3875583198933606
 50
172.2577537455
 51
272.646797615
  0
LINE
  5
F4
  8
0
  6
CONTINUOUS
 62
     7
 10
372.4072027987
 20
-995.5361149717
 30
0.0
 11
372.4072027987
 21
-997.0361149717
 31
0.0
  0
LINE
  5
F5
  8
0
  6
CONTINUOUS
 62
     7
 10
-73.8966447786
 20
-997.0361149717
 30
0.0
 11
-74.9947209899
 21
-997.0361149717
 31
0.0
  0
LINE
  5
F6
  8
0
  6
CONTINUOUS
 62
     7
 10
-74.9947209899
 20
-995.5361149717
 30
0.0
 11
-74.9947209899
 21
-997.0361149717
 31
0.0
  0
LINE
  5
F7
  8
0
  6
CONTINUOUS
 62
     7
 10
-73.8966447786
 20
-995.5361149717
 30
0.0
 11
-74.9947209899
 21
-995.5361149717
 31
0.0
  0
LINE
  5
F8
  8
0
  6
CONTINUOUS
 62
     7
 10
376.5052790101
 20
-994.0361149717
 30
0.0
 11
375.0052790101
 21
-994.0361149717
 31
0.0
  0
LINE
  5
F9
  8
0
  6
CONTINUOUS
 62
     7
 10
376.5052790101
 20
-992.9380387604
 30
0.0
 11
376.5052790101
 21
-994.0361149717
 31
0.0
  0
LINE
  5
FA
  8
0
  6
CONTINUOUS
 62
     7
 10
375.0052790101
 20
-992.9380387604
 30
0.0
 11
375.0052790101
 21
-994.0361149717
 31
0.0
  0
LINE
  5
FB
  8
0
  6
CONTINUOUS
 62
     7
 10
373.5052790101
 20
-997.0361149717
 30
0.0
 11
373.5052790101
 21
-995.5361149717
 31
0.0
  0
LINE
  5
FC
  8
0
  6
CONTINUOUS
 62
     7
 10
373.5052790101
 20
-997.0361149717
 30
0.0
 11
372.4072027987
 21
-997.0361149717
 31
0.0
  0
LINE
  5
FD
  8
0
  6
CONTINUOUS
 62
     7
 10
373.5052790101
 20
-995.5361149717
 30
0.0
 11
372.4072027987
 21
-995.5361149717
 31
0.0
  0
LINE
  5
FE
  8
0
  6
CONTINUOUS
 62
     7
 10
-76.4947209899
 20
-994.0361149717
 30
0.0
 11
-77.9947209899
 21
-994.0361149717
 31
0.0
  0
LINE
  5
FF
  8
0
  6
CONTINUOUS
 62
     7
 10
-77.9947209899
 20
-994.0361149717
 30
0.0
 11
-77.9947209899
 21
-992.9380387604
 31
0.0
  0
LINE
  5
100
  8
0
  6
CONTINUOUS
 62
     7
 10
-76.4947209899
 20
-994.0361149717
 30
0.0
 11
-76.4947209899
 21
-992.9380387604
 31
0.0
  0
ARC
  5
101
  8
0
  6
CONTINUOUS
 62
     7
 10
373.5052790101
 20
-994.0361149717
 30
0.0
 40
1.500000000000057
 50
270.0
 51
0.0
  0
ARC
  5
102
  8
0
  6
CONTINUOUS
 62
     7
 10
373.5052790101
 20
-994.0361149717
 30
0.0
 40
2.999999999999943
 50
270.0
 51
0.0
  0
ARC
  5
103
  8
0
  6
CONTINUOUS
 62
     7
 10
-74.9947209899
 20
-994.0361149717
 30
0.0
 40
2.999999999999972
 50
180.0
 51
270.0
  0
ARC
  5
104
  8
0
  6
CONTINUOUS
 62
     7
 10
-74.9947209899
 20
-994.0361149717
 30
0.0
 40
1.500000000000455
 50
180.0
 51
270.0
  0
ARC
  5
105
  8
0
  6
HIDDEN
 62
     7
 10
-67.9947209899
 20
-995.5361149717
 30
0.0
 40
6.000000000000018
 50
0.0
 51
169.1907898743
  0
ARC
  5
106
  8
0
  6
HIDDEN
 62
     7
 10
366.5052790101
 20
-995.5361149717
 30
0.0
 40
6.000000000000023
 50
10.8012510179
 51
180.0
  0
POLYLINE
  5
107
  8
0
  6
HIDDEN
 62
     7
 66
     1
 10
0.0
 20
0.0
 30
0.0
  0
VERTEX
  5
222
  8
0
  6
HIDDEN
 62
     7
 10
373.5052790101
 20
-992.9380387604
 30
0.0
  0
VERTEX
  5
223
  8
0
  6
HIDDEN
 62
     7
 10
373.5052790101
 20
-992.9380387604
 30
0.0
  0
SEQEND
  5
221
  8
0
  6
HIDDEN
 62
     7
  0
ARC
  5
108
  8
0
  6
HIDDEN
 62
     7
 10
-76.1075761238
 20
-992.9201417409
 30
0.0
 40
0.3875583190805157
 50
82.2577542112
 51
182.6467977418
  0
POLYLINE
  5
109
  8
0
  6
HIDDEN
 62
     7
 66
     1
 10
0.0
 20
0.0
 30
0.0
  0
VERTEX
  5
225
  8
0
  6
HIDDEN
 62
     7
 10
-74.9947209899
 20
-992.9380387604
 30
0.0
  0
VERTEX
  5
226
  8
0
  6
HIDDEN
 62
     7
 10
-74.9947209899
 20
-992.9380387604
 30
0.0
  0
SEQEND
  5
224
  8
0
  6
HIDDEN
 62
     7
  0
POLYLINE
  5
10A
  8
0
  6
HIDDEN
 62
     7
 66
     1
 10
0.0
 20
0.0
 30
0.0
  0
VERTEX
  5
228
  8
0
  6
HIDDEN
 62
     7
 10
-73.8966447786
 20
-994.0361149717
 30
0.0
  0
VERTEX
  5
229
  8
0
  6
HIDDEN
 62
     7
 10
-73.8966447786
 20
-994.0361149717
 30
0.0
  0
SEQEND
  5
227
  8
0
  6
HIDDEN
 62
     7
  0
POLYLINE
  5
10B
  8
0
  6
HIDDEN
 62
     7
 66
     1
 10
0.0
 20
0.0
 30
0.0
  0
VERTEX
  5
22B
  8
0
  6
HIDDEN
 62
     7
 10
372.4072027987
 20
-994.0361149717
 30
0.0
  0
VERTEX
  5
22C
  8
0
  6
HIDDEN
 62
     7
 10
372.4072027987
 20
-994.0361149717
 30
0.0
  0
SEQEND
  5
22A
  8
0
  6
HIDDEN
 62
     7
  0
LINE
  5
10C
  8
0
  6
HIDDEN
 62
     7
 10
-76.4947209899
 20
-992.9380387604
 30
0.0
 11
-76.4947209899
 21
-979.5361149717
 31
0.0
  0
LINE
  5
10D
  8
0
  6
HIDDEN
 62
     7
 10
375.0052790101
 20
-979.5361149717
 30
0.0
 11
375.0052790101
 21
-992.9380387604
 31
0.0
  0
LINE
  5
10E
  8
0
  6
HIDDEN
 62
     7
 10
372.4072027987
 20
-995.5361149717
 30
0.0
 11
-73.8966447786
 21
-995.5361149717
 31
0.0
  0
LINE
  5
10F
  8
0
  6
HIDDEN
 62
     7
 10
357.4472855212
 20
-992.5255544424
 30
0.0
 11
349.063272499
 21
-992.5255544424
 31
0.0
  0
LINE
  5
110
  8
0
  6
HIDDEN
 62
     7
 10
-50.5527144788
 20
-992.5255544424
 30
0.0
 11
-58.936727501
 21
-992.5255544424
 31
0.0
  0
LINE
  5
111
  8
0
  6
HIDDEN
 62
     7
 10
-51.7447209899
 20
-993.4361149717
 30
0.0
 11
-57.7447209899
 21
-993.4361149717
 31
0.0
  0
LINE
  5
112
  8
0
  6
HIDDEN
 62
     7
 10
356.2552790101
 20
-993.4361149717
 30
0.0
 11
350.2552790101
 21
-993.4361149717
 31
0.0
  0
LINE
  5
113
  8
0
  6
HIDDEN
 62
     7
 10
153.4472855212
 20
-992.5255544423
 30
0.0
 11
145.063272499
 21
-992.5255544423
 31
0.0
  0
LINE
  5
114
  8
0
  6
HIDDEN
 62
     7
 10
152.2552790101
 20
-993.4361149716
 30
0.0
 11
146.2552790101
 21
-993.4361149716
 31
0.0
  0
LINE
  5
115
  8
0
  6
HIDDEN
 62
     7
 10
154.2552790101
 20
-994.5361149717
 30
0.0
 11
144.2552790101
 21
-994.5361149717
 31
0.0
  0
LINE
  5
116
  8
0
  6
HIDDEN
 62
     7
 10
153.2552790101
 20
-976.0361149717
 30
0.0
 11
145.2552790101
 21
-976.0361149717
 31
0.0
  0
LINE
  5
117
  8
0
  6
HIDDEN
 62
     7
 10
152.7552790101
 20
-975.5361149717
 30
0.0
 11
145.7552790101
 21
-975.5361149717
 31
0.0
  0
LINE
  5
118
  8
0
  6
HIDDEN
 62
     7
 10
-31.9947209899
 20
-989.5361149717
 30
0.0
 11
-67.9947209899
 21
-989.5361149717
 31
0.0
  0
LINE
  5
119
  8
0
  6
HIDDEN
 62
     7
 10
366.5052790101
 20
-989.5361149717
 30
0.0
 11
330.5052790101
 21
-989.5361149717
 31
0.0
  0
LINE
  5
11A
  8
0
  6
HIDDEN
 62
     7
 10
330.5052790101
 20
-989.5361149717
 30
0.0
 11
-31.9947209899
 21
-989.5361149717
 31
0.0
  0
LINE
  5
11B
  8
0
  6
HIDDEN
 62
     7
 10
375.6266521869
 20
-992.5361149847
 30
0.0
 11
374.5659655985
 21
-992.5361149847
 31
0.0
  0
LINE
  5
11C
  8
0
  6
HIDDEN
 62
     7
 10
-76.0553547444
 20
-992.5361149847
 30
0.0
 11
-77.1159884989
 21
-992.5361149847
 31
0.0
  0
LINE
  5
11D
  8
0
  6
HIDDEN
 62
     7
 10
-73.494721003
 20
-996.1574881636
 30
0.0
 11
-73.494721003
 21
-995.0968015676
 31
0.0
  0
LINE
  5
11E
  8
0
  6
HIDDEN
 62
     7
 10
372.0052790231
 20
-995.0967487187
 30
0.0
 11
372.0052790231
 21
-996.1573824656
 31
0.0
  0
ARC
  5
11F
  8
0
  6
HIDDEN
 62
     7
 10
-61.632056038
 20
-994.7361149717
 30
0.0
 40
2.300000000000068
 50
270.0
 51
322.6241925045
  0
ARC
  5
120
  8
0
  6
HIDDEN
 62
     7
 10
-47.8573859419
 20
-994.7361149717
 30
0.0
 40
2.300000000000068
 50
217.3758074955
 51
270.0
  0
ARC
  5
121
  8
0
  6
HIDDEN
 62
     7
 10
-61.632056038
 20
-994.7361149717
 30
0.0
 40
0.8000000000000057
 50
270.0
 51
322.6241925044
  0
ARC
  5
122
  8
0
  6
HIDDEN
 62
     7
 10
-47.8573859419
 20
-994.7361149717
 30
0.0
 40
0.8000000000000114
 50
217.3758074956
 51
270.0
  0
ARC
  5
123
  8
0
  6
HIDDEN
 62
     7
 10
346.367943962
 20
-994.7361149717
 30
0.0
 40
2.300000000000068
 50
270.0
 51
322.6241925045
  0
ARC
  5
124
  8
0
  6
HIDDEN
 62
     7
 10
360.1426140581
 20
-994.7361149717
 30
0.0
 40
2.300000000000068
 50
217.3758074955
 51
270.0
  0
ARC
  5
125
  8
0
  6
HIDDEN
 62
     7
 10
346.367943962
 20
-994.7361149717
 30
0.0
 40
0.8
 50
270.0
 51
322.6241925044
  0
ARC
  5
126
  8
0
  6
HIDDEN
 62
     7
 10
360.1426140581
 20
-994.7361149717
 30
0.0
 40
0.8
 50
217.3758074956
 51
270.0
  0
LINE
  5
127
  8
0
  6
HIDDEN
 62
     7
 10
359.5068772522
 20
-995.221747254
 30
0.0
 11
357.4472855212
 21
-992.5255544424
 31
0.0
  0
LINE
  5
128
  8
0
  6
HIDDEN
 62
     7
 10
349.063272499
 20
-992.5255544424
 30
0.0
 11
347.0036807679
 21
-995.221747254
 31
0.0
  0
LINE
  5
129
  8
0
  6
HIDDEN
 62
     7
 10
-48.4931227478
 20
-995.221747254
 30
0.0
 11
-50.5527144788
 21
-992.5255544424
 31
0.0
  0
LINE
  5
12A
  8
0
  6
HIDDEN
 62
     7
 10
-58.936727501
 20
-992.5255544424
 30
0.0
 11
-60.9963192321
 21
-995.221747254
 31
0.0
  0
LINE
  5
12B
  8
0
  6
HIDDEN
 62
     7
 10
-49.6851292589
 20
-996.1323077833
 30
0.0
 11
-51.7447209899
 21
-993.4361149717
 31
0.0
  0
LINE
  5
12C
  8
0
  6
HIDDEN
 62
     7
 10
-57.7447209899
 20
-993.4361149717
 30
0.0
 11
-59.804312721
 21
-996.1323077833
 31
0.0
  0
LINE
  5
12D
  8
0
  6
HIDDEN
 62
     7
 10
358.3148707411
 20
-996.1323077833
 30
0.0
 11
356.2552790101
 21
-993.4361149717
 31
0.0
  0
LINE
  5
12E
  8
0
  6
HIDDEN
 62
     7
 10
350.2552790101
 20
-993.4361149717
 30
0.0
 11
348.195687279
 21
-996.1323077833
 31
0.0
  0
LINE
  5
12F
  8
0
  6
HIDDEN
 62
     7
 10
-58.936727501
 20
-992.5255544424
 30
0.0
 11
-57.7447209899
 21
-993.4361149717
 31
0.0
  0
LINE
  5
130
  8
0
  6
HIDDEN
 62
     7
 10
-51.7447209899
 20
-993.4361149717
 30
0.0
 11
-50.5527144788
 21
-992.5255544424
 31
0.0
  0
LINE
  5
131
  8
0
  6
HIDDEN
 62
     7
 10
349.063272499
 20
-992.5255544424
 30
0.0
 11
350.2552790101
 21
-993.4361149717
 31
0.0
  0
LINE
  5
132
  8
0
  6
HIDDEN
 62
     7
 10
356.2552790101
 20
-993.4361149717
 30
0.0
 11
357.4472855212
 21
-992.5255544424
 31
0.0
  0
LINE
  5
133
  8
0
  6
HIDDEN
 62
     7
 10
99.0271376823
 20
-995.5361149717
 30
0.0
 11
99.0271376823
 21
-997.0361149717
 31
0.0
  0
LINE
  5
134
  8
0
  6
HIDDEN
 62
     7
 10
102.7271376823
 20
-997.0361149717
 30
0.0
 11
102.7271376823
 21
-995.5361149717
 31
0.0
  0
ARC
  5
135
  8
0
  6
HIDDEN
 62
     7
 10
142.367943962
 20
-994.7361149716
 30
0.0
 40
2.300000000000022
 50
270.0
 51
322.6241925045
  0
ARC
  5
136
  8
0
  6
HIDDEN
 62
     7
 10
156.1426140581
 20
-994.7361149716
 30
0.0
 40
2.300000000000022
 50
217.3758074956
 51
270.0
  0
ARC
  5
137
  8
0
  6
HIDDEN
 62
     7
 10
142.367943962
 20
-994.7361149716
 30
0.0
 40
0.8000000000462251
 50
270.0
 51
322.6241925044
  0
ARC
  5
138
  8
0
  6
HIDDEN
 62
     7
 10
156.1426140581
 20
-994.7361149716
 30
0.0
 40
0.8000000000462251
 50
217.3758074956
 51
270.0
  0
LINE
  5
139
  8
0
  6
HIDDEN
 62
     7
 10
155.5068772522
 20
-995.2217472539
 30
0.0
 11
153.4472855212
 21
-992.5255544423
 31
0.0
  0
LINE
  5
13A
  8
0
  6
HIDDEN
 62
     7
 10
145.063272499
 20
-992.5255544423
 30
0.0
 11
143.0036807679
 21
-995.2217472539
 31
0.0
  0
LINE
  5
13B
  8
0
  6
HIDDEN
 62
     7
 10
154.3148707411
 20
-996.1323077832
 30
0.0
 11
152.2552790101
 21
-993.4361149716
 31
0.0
  0
LINE
  5
13C
  8
0
  6
HIDDEN
 62
     7
 10
146.2552790101
 20
-993.4361149716
 30
0.0
 11
144.195687279
 21
-996.1323077832
 31
0.0
  0
LINE
  5
13D
  8
0
  6
HIDDEN
 62
     7
 10
145.063272499
 20
-992.5255544423
 30
0.0
 11
146.2552790101
 21
-993.4361149716
 31
0.0
  0
LINE
  5
13E
  8
0
  6
HIDDEN
 62
     7
 10
152.2552790101
 20
-993.4361149716
 30
0.0
 11
153.4472855212
 21
-992.5255544423
 31
0.0
  0
LINE
  5
13F
  8
0
  6
HIDDEN
 62
     7
 10
154.2552790101
 20
-995.5361149717
 30
0.0
 11
154.2552790101
 21
-994.5361149717
 31
0.0
  0
LINE
  5
140
  8
0
  6
HIDDEN
 62
     7
 10
144.2552790101
 20
-994.5361149717
 30
0.0
 11
144.2552790101
 21
-995.5361149717
 31
0.0
  0
LINE
  5
141
  8
0
  6
HIDDEN
 62
     7
 10
153.2552790101
 20
-994.5361149717
 30
0.0
 11
153.2552790101
 21
-976.0361149717
 31
0.0
  0
LINE
  5
142
  8
0
  6
HIDDEN
 62
     7
 10
145.2552790101
 20
-976.0361149717
 30
0.0
 11
145.2552790101
 21
-994.5361149717
 31
0.0
  0
LINE
  5
143
  8
0
  6
HIDDEN
 62
     7
 10
153.2552790101
 20
-976.0361149717
 30
0.0
 11
152.7552790101
 21
-975.5361149717
 31
0.0
  0
LINE
  5
144
  8
0
  6
HIDDEN
 62
     7
 10
145.7552790101
 20
-975.5361149717
 30
0.0
 11
145.2552790101
 21
-976.0361149717
 31
0.0
  0
LINE
  5
145
  8
0
  6
CONTINUOUS
 62
     7
 10
626.3891695717
 20
1112.5825891741
 30
0.0
 11
626.3891524918
 21
1112.5825891741
 31
0.0
  0
ARC
  5
146
  8
0
  6
CONTINUOUS
 62
     7
 10
670.4498033187
 20
-839.9174108389
 30
0.0
 40
41.99999999999977
 50
180.0
 51
270.0
  0
ARC
  5
147
  8
0
  6
CONTINUOUS
 62
     7
 10
670.4498033187
 20
-839.9174108389
 30
0.0
 40
29.99999999999977
 50
180.0
 51
270.0
  0
LINE
  5
148
  8
0
  6
CONTINUOUS
 62
     7
 10
640.4498033187
 20
1067.0825891611
 30
0.0
 11
640.4498033187
 21
-839.9174108389
 31
0.0
  0
LINE
  5
149
  8
0
  6
CONTINUOUS
 62
     7
 10
628.4498033187
 20
1067.0825891611
 30
0.0
 11
628.4498033187
 21
-839.9174108389
 31
0.0
  0
ARC
  5
14A
  8
0
  6
CONTINUOUS
 62
     7
 10
670.4498033187
 20
1067.0825891611
 30
0.0
 40
42.00000000000023
 50
90.0
 51
180.0
  0
ARC
  5
14B
  8
0
  6
CONTINUOUS
 62
     7
 10
670.4498033187
 20
1067.0825891611
 30
0.0
 40
30.0
 50
90.0
 51
180.0
  0
LINE
  5
14C
  8
0
  6
CONTINUOUS
 62
     7
 10
670.4498033187
 20
1109.0825891611
 30
0.0
 11
1032.9498033187
 21
1109.0825891611
 31
0.0
  0
LINE
  5
14D
  8
0
  6
CONTINUOUS
 62
     7
 10
670.4498033187
 20
1097.0825891611
 30
0.0
 11
1032.9498033187
 21
1097.0825891611
 31
0.0
  0
LINE
  5
14E
  8
0
  6
CONTINUOUS
 62
     7
 10
1032.9498033187
 20
-881.9174108389
 30
0.0
 11
670.4498033187
 21
-881.9174108389
 31
0.0
  0
LINE
  5
14F
  8
0
  6
CONTINUOUS
 62
     7
 10
1032.9498033187
 20
-869.9174108389
 30
0.0
 11
857.3065299987
 21
-869.9174108389
 31
0.0
  0
LINE
  5
150
  8
0
  6
CONTINUOUS
 62
     7
 10
846.0930766386
 20
-869.9174108389
 30
0.0
 11
670.4498033187
 21
-869.9174108389
 31
0.0
  0
ARC
  5
151
  8
0
  6
CONTINUOUS
 62
     7
 10
1032.9498033187
 20
-839.9174108389
 30
0.0
 40
42.0
 50
270.0
 51
0.0
  0
ARC
  5
152
  8
0
  6
CONTINUOUS
 62
     7
 10
1032.9498033187
 20
-839.9174108389
 30
0.0
 40
30.0
 50
270.0
 51
0.0
  0
ARC
  5
153
  8
0
  6
CONTINUOUS
 62
     7
 10
1032.9498033187
 20
1067.0825891611
 30
0.0
 40
42.00000000000023
 50
0.0
 51
90.0
  0
ARC
  5
154
  8
0
  6
CONTINUOUS
 62
     7
 10
1032.9498033187
 20
1067.0825891611
 30
0.0
 40
30.0
 50
0.0
 51
90.0
  0
LINE
  5
155
  8
0
  6
CONTINUOUS
 62
     7
 10
1074.9498033187
 20
1067.0825891611
 30
0.0
 11
1074.9498033187
 21
-839.9174108389
 31
0.0
  0
LINE
  5
156
  8
0
  6
CONTINUOUS
 62
     7
 10
1062.9498033187
 20
1067.0825891611
 30
0.0
 11
1062.9498033187
 21
-839.9174108389
 31
0.0
  0
LINE
  5
157
  8
0
  6
CONTINUOUS
 62
     7
 10
663.7383219219
 20
1117.0825891611
 30
0.0
 11
663.7383219219
 21
1115.5825891611
 31
0.0
  0
LINE
  5
158
  8
0
  6
CONTINUOUS
 62
     7
 10
696.006537895
 20
1115.5825891611
 30
0.0
 11
696.006537895
 21
1117.0825891611
 31
0.0
  0
LINE
  5
159
  8
0
  6
CONTINUOUS
 62
     7
 10
696.006537895
 20
1115.5825891611
 30
0.0
 11
663.7383219219
 21
1115.5825891611
 31
0.0
  0
LINE
  5
15A
  8
0
  6
CONTINUOUS
 62
     7
 10
696.006537895
 20
1117.0825891611
 30
0.0
 11
663.7383219219
 21
1117.0825891611
 31
0.0
  0
LINE
  5
15B
  8
0
  6
CONTINUOUS
 62
     7
 10
1007.3930687424
 20
1115.5825891611
 30
0.0
 11
1007.3930687424
 21
1117.0825891611
 31
0.0
  0
LINE
  5
15C
  8
0
  6
CONTINUOUS
 62
     7
 10
1007.3930687424
 20
1115.5825891611
 30
0.0
 11
696.006537895
 21
1115.5825891611
 31
0.0
  0
LINE
  5
15D
  8
0
  6
CONTINUOUS
 62
     7
 10
1007.3930687424
 20
1117.0825891611
 30
0.0
 11
696.006537895
 21
1117.0825891611
 31
0.0
  0
LINE
  5
15E
  8
0
  6
CONTINUOUS
 62
     7
 10
1039.6612847155
 20
1117.0825891611
 30
0.0
 11
1039.6612847155
 21
1115.5825891611
 31
0.0
  0
LINE
  5
15F
  8
0
  6
CONTINUOUS
 62
     7
 10
1039.6612847155
 20
1115.5825891611
 30
0.0
 11
1007.3930687424
 21
1115.5825891611
 31
0.0
  0
LINE
  5
160
  8
0
  6
CONTINUOUS
 62
     7
 10
1039.6612847155
 20
1117.0825891611
 30
0.0
 11
1007.3930687424
 21
1117.0825891611
 31
0.0
  0
LINE
  5
161
  8
0
  6
CONTINUOUS
 62
     7
 10
641.9498033187
 20
1117.0825891611
 30
0.0
 11
641.9498033187
 21
1115.5825891611
 31
0.0
  0
LINE
  5
162
  8
0
  6
CONTINUOUS
 62
     7
 10
663.7383219219
 20
1115.5825891611
 30
0.0
 11
641.9498033187
 21
1115.5825891611
 31
0.0
  0
LINE
  5
163
  8
0
  6
CONTINUOUS
 62
     7
 10
663.7383219219
 20
1117.0825891611
 30
0.0
 11
641.9498033187
 21
1117.0825891611
 31
0.0
  0
ARC
  5
164
  8
0
  6
CONTINUOUS
 62
     7
 10
627.4498033187
 20
1114.0825891611
 30
0.0
 40
1.5
 50
90.0
 51
180.0
  0
ARC
  5
165
  8
0
  6
CONTINUOUS
 62
     7
 10
627.4498033187
 20
1114.0825891611
 30
0.0
 40
3.0
 50
90.0
 51
180.0
  0
LINE
  5
166
  8
0
  6
CONTINUOUS
 62
     7
 10
624.4498033187
 20
-882.9174108389
 30
0.0
 11
625.9498033187
 21
-882.9174108389
 31
0.0
  0
LINE
  5
167
  8
0
  6
CONTINUOUS
 62
     7
 10
625.9498033187
 20
1114.0825891611
 30
0.0
 11
625.9498033187
 21
-882.9174108389
 31
0.0
  0
LINE
  5
168
  8
0
  6
CONTINUOUS
 62
     7
 10
624.4498033187
 20
1114.0825891611
 30
0.0
 11
624.4498033187
 21
-882.9174108389
 31
0.0
  0
LINE
  5
169
  8
0
  6
CONTINUOUS
 62
     7
 10
641.9498033187
 20
1117.0825891611
 30
0.0
 11
641.9498033187
 21
1115.5825891611
 31
0.0
  0
LINE
  5
16A
  8
0
  6
CONTINUOUS
 62
     7
 10
641.9498033187
 20
1117.0825891611
 30
0.0
 11
627.4498033187
 21
1117.0825891611
 31
0.0
  0
LINE
  5
16B
  8
0
  6
CONTINUOUS
 62
     7
 10
641.9498033187
 20
1115.5825891611
 30
0.0
 11
627.4498033187
 21
1115.5825891611
 31
0.0
  0
LINE
  5
16C
  8
0
  6
CONTINUOUS
 62
     7
 10
1061.4498033187
 20
1117.0825891611
 30
0.0
 11
1061.4498033187
 21
1115.5825891611
 31
0.0
  0
LINE
  5
16D
  8
0
  6
CONTINUOUS
 62
     7
 10
1075.9498033187
 20
1117.0825891611
 30
0.0
 11
1061.4498033187
 21
1117.0825891611
 31
0.0
  0
LINE
  5
16E
  8
0
  6
CONTINUOUS
 62
     7
 10
1075.9498033187
 20
1115.5825891611
 30
0.0
 11
1061.4498033187
 21
1115.5825891611
 31
0.0
  0
LINE
  5
16F
  8
0
  6
CONTINUOUS
 62
     7
 10
1061.4498033187
 20
1117.0825891611
 30
0.0
 11
1061.4498033187
 21
1115.5825891611
 31
0.0
  0
LINE
  5
170
  8
0
  6
CONTINUOUS
 62
     7
 10
1061.4498033187
 20
1115.5825891611
 30
0.0
 11
1039.6612847155
 21
1115.5825891611
 31
0.0
  0
LINE
  5
171
  8
0
  6
CONTINUOUS
 62
     7
 10
1061.4498033187
 20
1117.0825891611
 30
0.0
 11
1039.6612847155
 21
1117.0825891611
 31
0.0
  0
ARC
  5
172
  8
0
  6
CONTINUOUS
 62
     7
 10
1075.9498033187
 20
1114.0825891611
 30
0.0
 40
1.5
 50
0.0
 51
90.0
  0
ARC
  5
173
  8
0
  6
CONTINUOUS
 62
     7
 10
1075.9498033187
 20
1114.0825891611
 30
0.0
 40
3.0
 50
0.0
 51
90.0
  0
LINE
  5
174
  8
0
  6
CONTINUOUS
 62
     7
 10
1078.9498033187
 20
-882.9174108389
 30
0.0
 11
1077.4498033187
 21
-882.9174108389
 31
0.0
  0
LINE
  5
175
  8
0
  6
CONTINUOUS
 62
     7
 10
1078.9498033187
 20
-882.9174108389
 30
0.0
 11
1078.9498033187
 21
1114.0825891611
 31
0.0
  0
LINE
  5
176
  8
0
  6
CONTINUOUS
 62
     7
 10
1077.4498033187
 20
-882.9174108389
 30
0.0
 11
1077.4498033187
 21
1114.0825891611
 31
0.0
  0
CIRCLE
  5
177
  8
0
  6
CONTINUOUS
 62
     7
 10
851.6998033187
 20
-865.9174108389
 30
0.0
 40
4.192006511087584
  0
CIRCLE
  5
178
  8
0
  6
CONTINUOUS
 62
     7
 10
851.6998033187
 20
-865.9174108389
 30
0.0
 40
3.0
  0
CIRCLE
  5
179
  8
0
  6
CONTINUOUS
 62
     7
 10
647.6998033187
 20
1064.5825891611
 30
0.0
 40
4.192006511087698
  0
CIRCLE
  5
17A
  8
0
  6
CONTINUOUS
 62
     7
 10
647.6998033187
 20
114.5825891611
 30
0.0
 40
4.192006511087584
  0
CIRCLE
  5
17B
  8
0
  6
CONTINUOUS
 62
     7
 10
647.6998033187
 20
-835.4174108389
 30
0.0
 40
4.192006511087584
  0
CIRCLE
  5
17C
  8
0
  6
CONTINUOUS
 62
     7
 10
647.6998033187
 20
1064.5825891611
 30
0.0
 40
3.0
  0
CIRCLE
  5
17D
  8
0
  6
CONTINUOUS
 62
     7
 10
647.6998033187
 20
114.5825891611
 30
0.0
 40
3.000000000000114
  0
CIRCLE
  5
17E
  8
0
  6
CONTINUOUS
 62
     7
 10
647.6998033187
 20
-835.4174108389
 30
0.0
 40
2.999999999999886
  0
CIRCLE
  5
17F
  8
0
  6
CONTINUOUS
 62
     7
 10
1055.6998033187
 20
1064.5825891611
 30
0.0
 40
4.192006511087811
  0
CIRCLE
  5
180
  8
0
  6
CONTINUOUS
 62
     7
 10
1055.6998033187
 20
114.5825891611
 30
0.0
 40
4.192006511087584
  0
CIRCLE
  5
181
  8
0
  6
CONTINUOUS
 62
     7
 10
1055.6998033187
 20
-835.4174108389
 30
0.0
 40
4.192006511087357
  0
CIRCLE
  5
182
  8
0
  6
CONTINUOUS
 62
     7
 10
1055.6998033187
 20
-835.4174108389
 30
0.0
 40
2.999999999999773
  0
CIRCLE
  5
183
  8
0
  6
CONTINUOUS
 62
     7
 10
1055.6998033187
 20
114.5825891611
 30
0.0
 40
3.0
  0
CIRCLE
  5
184
  8
0
  6
CONTINUOUS
 62
     7
 10
1055.6998033187
 20
1064.5825891611
 30
0.0
 40
3.0
  0
ARC
  5
185
  8
0
  6
CONTINUOUS
 62
     7
 10
622.4514394129
 20
1116.3200550856
 30
0.0
 40
6.494061584609142
 50
339.8462635167
 51
353.4794223932
  0
POLYLINE
  5
186
  8
0
  6
CONTINUOUS
 62
     7
 66
     1
 10
0.0
 20
0.0
 30
0.0
  0
VERTEX
  5
22E
  8
0
  6
CONTINUOUS
 62
     7
 10
628.54787953
 20
1114.0825891611
 30
0.0
  0
VERTEX
  5
22F
  8
0
  6
CONTINUOUS
 62
     7
 10
628.7214126462
 20
1114.3574479974
 30
0.0
  0
VERTEX
  5
230
  8
0
  6
CONTINUOUS
 62
     7
 10
628.8475752007
 20
1114.6373463778
 30
0.0
  0
VERTEX
  5
231
  8
0
  6
CONTINUOUS
 62
     7
 10
628.9242435422
 20
1114.90504762
 30
0.0
  0
VERTEX
  5
232
  8
0
  6
CONTINUOUS
 62
     7
 10
628.9498033054
 20
1115.1432522799
 30
0.0
  0
VERTEX
  5
233
  8
0
  6
CONTINUOUS
 62
     7
 10
628.9242482989
 20
1115.3369840322
 30
0.0
  0
VERTEX
  5
234
  8
0
  6
CONTINUOUS
 62
     7
 10
628.8475723352
 20
1115.4762363942
 30
0.0
  0
VERTEX
  5
235
  8
0
  6
CONTINUOUS
 62
     7
 10
628.7224481468
 20
1115.556710838
 30
0.0
  0
VERTEX
  5
236
  8
0
  6
CONTINUOUS
 62
     7
 10
628.54787953
 20
1115.5825891611
 30
0.0
  0
SEQEND
  5
22D
  8
0
  6
CONTINUOUS
 62
     7
  0
POLYLINE
  5
187
  8
0
  6
CONTINUOUS
 62
     7
 66
     1
 10
0.0
 20
0.0
 30
0.0
  0
VERTEX
  5
238
  8
0
  6
CONTINUOUS
 62
     7
 10
1074.8517271073
 20
1115.5825891611
 30
0.0
  0
VERTEX
  5
239
  8
0
  6
CONTINUOUS
 62
     7
 10
1074.6781939911
 20
1115.5571916906
 30
0.0
  0
VERTEX
  5
23A
  8
0
  6
CONTINUOUS
 62
     7
 10
1074.5520314367
 20
1115.4762334595
 30
0.0
  0
VERTEX
  5
23B
  8
0
  6
CONTINUOUS
 62
     7
 10
1074.4753630951
 20
1115.3370061901
 30
0.0
  0
VERTEX
  5
23C
  8
0
  6
CONTINUOUS
 62
     7
 10
1074.449803332
 20
1115.1432463858
 30
0.0
  0
VERTEX
  5
23D
  8
0
  6
CONTINUOUS
 62
     7
 10
1074.4753583384
 20
1114.9050814145
 30
0.0
  0
VERTEX
  5
23E
  8
0
  6
CONTINUOUS
 62
     7
 10
1074.5520343022
 20
1114.6373390053
 30
0.0
  0
VERTEX
  5
23F
  8
0
  6
CONTINUOUS
 62
     7
 10
1074.6771584899
 20
1114.3600153367
 30
0.0
  0
VERTEX
  5
240
  8
0
  6
CONTINUOUS
 62
     7
 10
1074.8517271073
 20
1114.0825891611
 30
0.0
  0
SEQEND
  5
237
  8
0
  6
CONTINUOUS
 62
     7
  0
ARC
  5
188
  8
0
  6
CONTINUOUS
 62
     7
 10
1080.973227203
 20
1116.3259797958
 30
0.0
 40
6.519629204258557
 50
186.5473025345
 51
200.1267371821
  0
ARC
  5
189
  8
0
  6
CONTINUOUS
 62
     7
 10
625.2064126939
 20
1119.1060130043
 30
0.0
 40
6.519629162314241
 50
276.5473024892
 51
290.1267372245
  0
POLYLINE
  5
18A
  8
0
  6
CONTINUOUS
 62
     7
 66
     1
 10
0.0
 20
0.0
 30
0.0
  0
VERTEX
  5
242
  8
0
  6
CONTINUOUS
 62
     7
 10
625.9498033187
 20
1112.9845129497
 30
0.0
  0
VERTEX
  5
243
  8
0
  6
CONTINUOUS
 62
     7
 10
625.9752007891
 20
1112.8109798335
 30
0.0
  0
VERTEX
  5
244
  8
0
  6
CONTINUOUS
 62
     7
 10
626.0561590203
 20
1112.6848172791
 30
0.0
  0
VERTEX
  5
245
  8
0
  6
CONTINUOUS
 62
     7
 10
626.1953862882
 20
1112.6081489375
 30
0.0
  0
VERTEX
  5
246
  8
0
  6
CONTINUOUS
 62
     7
 10
626.3891460939
 20
1112.5825891744
 30
0.0
  0
VERTEX
  5
247
  8
0
  6
CONTINUOUS
 62
     7
 10
626.627311065
 20
1112.6081441808
 30
0.0
  0
VERTEX
  5
248
  8
0
  6
CONTINUOUS
 62
     7
 10
626.8950534745
 20
1112.6848201446
 30
0.0
  0
VERTEX
  5
249
  8
0
  6
CONTINUOUS
 62
     7
 10
627.1723771453
 20
1112.809944333
 30
0.0
  0
VERTEX
  5
24A
  8
0
  6
CONTINUOUS
 62
     7
 10
627.4498033187
 20
1112.9845129497
 30
0.0
  0
SEQEND
  5
241
  8
0
  6
CONTINUOUS
 62
     7
  0
LINE
  5
18B
  8
0
  6
CONTINUOUS
 62
     7
 10
625.9498033187
 20
-882.9174108389
 30
0.0
 11
627.4498033187
 21
-882.9174108389
 31
0.0
  0
ARC
  5
18C
  8
0
  6
CONTINUOUS
 62
     7
 10
1078.1872692649
 20
1119.0809531434
 30
0.0
 40
6.494061663985324
 50
249.8462635693
 51
263.4794222801
  0
POLYLINE
  5
18D
  8
0
  6
CONTINUOUS
 62
     7
 66
     1
 10
0.0
 20
0.0
 30
0.0
  0
VERTEX
  5
24C
  8
0
  6
CONTINUOUS
 62
     7
 10
1075.9498033187
 20
1112.9845129497
 30
0.0
  0
VERTEX
  5
24D
  8
0
  6
CONTINUOUS
 62
     7
 10
1076.224662155
 20
1112.8109798335
 30
0.0
  0
VERTEX
  5
24E
  8
0
  6
CONTINUOUS
 62
     7
 10
1076.5045605354
 20
1112.6848172791
 30
0.0
  0
VERTEX
  5
24F
  8
0
  6
CONTINUOUS
 62
     7
 10
1076.7722617736
 20
1112.6081489375
 30
0.0
  0
VERTEX
  5
250
  8
0
  6
CONTINUOUS
 62
     7
 10
1077.0104664375
 20
1112.5825891744
 30
0.0
  0
VERTEX
  5
251
  8
0
  6
CONTINUOUS
 62
     7
 10
1077.2041981898
 20
1112.6081441808
 30
0.0
  0
VERTEX
  5
252
  8
0
  6
CONTINUOUS
 62
     7
 10
1077.3434505518
 20
1112.6848201446
 30
0.0
  0
VERTEX
  5
253
  8
0
  6
CONTINUOUS
 62
     7
 10
1077.4239249952
 20
1112.8099443322
 30
0.0
  0
VERTEX
  5
254
  8
0
  6
CONTINUOUS
 62
     7
 10
1077.4498033187
 20
1112.9845129497
 30
0.0
  0
SEQEND
  5
24B
  8
0
  6
CONTINUOUS
 62
     7
  0
LINE
  5
18E
  8
0
  6
CONTINUOUS
 62
     7
 10
1075.9498033187
 20
-882.9174108389
 30
0.0
 11
1077.4498033187
 21
-882.9174108389
 31
0.0
  0
ARC
  5
18F
  8
0
  6
CONTINUOUS
 62
     7
 10
625.9498033187
 20
1115.5825891611
 30
0.0
 40
3.000000000000132
 50
300.0
 51
330.0
  0
ARC
  5
190
  8
0
  6
CONTINUOUS
 62
     7
 10
1077.4498033187
 20
1115.5825891611
 30
0.0
 40
3.00000000000008
 50
210.0
 51
240.0
  0
LINE
  5
191
  8
0
  6
CONTINUOUS
 62
     7
 10
627.4498033187
 20
-882.9174108389
 30
0.0
 11
1075.9498033187
 21
-882.9174108389
 31
0.0
  0
CIRCLE
  5
192
  8
0
  6
CONTINUOUS
 62
     7
 10
900.0779446464
 20
-609.418796493
 30
0.0
 40
1.850000000000023
  0
CIRCLE
  5
193
  8
0
  6
CONTINUOUS
 62
     7
 10
851.6998033187
 20
-747.9174108389
 30
0.0
 40
4.0
  0
CIRCLE
  5
194
  8
0
  6
CONTINUOUS
 62
     7
 10
851.6998033187
 20
-747.9174108389
 30
0.0
 40
3.5
  0
CIRCLE
  5
195
  8
0
  6
CONTINUOUS
 62
     7
 10
851.6998033187
 20
-747.9174108389
 30
0.0
 40
5.0
  0
LINE
  5
196
  8
0
  6
HIDDEN
 62
     7
 10
857.3065299987
 20
-869.9174108389
 30
0.0
 11
846.0930766386
 21
-869.9174108389
 31
0.0
  0
LINE
  5
197
  8
0
  6
HIDDEN
 62
     7
 10
628.0711236622
 20
1115.5825891611
 30
0.0
 11
628.0711236622
 21
1117.0825891611
 31
0.0
  0
LINE
  5
198
  8
0
  6
HIDDEN
 62
     7
 10
1075.3284829751
 20
1117.0825891611
 30
0.0
 11
1075.3284829751
 21
1115.5825891611
 31
0.0
  0
LINE
  5
199
  8
0
  6
HIDDEN
 62
     7
 10
627.4498033187
 20
1117.0825891611
 30
0.0
 11
627.4498033187
 21
1115.5825891611
 31
0.0
  0
LINE
  5
19A
  8
0
  6
HIDDEN
 62
     7
 10
628.0711236622
 20
1117.0825891611
 30
0.0
 11
628.0711236622
 21
1115.5825891611
 31
0.0
  0
LINE
  5
19B
  8
0
  6
HIDDEN
 62
     7
 10
624.4498033187
 20
1114.0825891611
 30
0.0
 11
625.9498033187
 21
1114.0825891611
 31
0.0
  0
LINE
  5
19C
  8
0
  6
HIDDEN
 62
     7
 10
1075.9498033187
 20
1115.5825891611
 30
0.0
 11
1075.9498033187
 21
1117.0825891611
 31
0.0
  0
LINE
  5
19D
  8
0
  6
HIDDEN
 62
     7
 10
1075.3284829751
 20
1115.5825891611
 30
0.0
 11
1075.3284829751
 21
1117.0825891611
 31
0.0
  0
LINE
  5
19E
  8
0
  6
HIDDEN
 62
     7
 10
1077.4498033187
 20
1114.0825891611
 30
0.0
 11
1078.9498033187
 21
1114.0825891611
 31
0.0
  0
POLYLINE
  5
19F
  8
0
  6
HIDDEN
 62
     7
 66
     1
 10
0.0
 20
0.0
 30
0.0
  0
VERTEX
  5
256
  8
0
  6
HIDDEN
 62
     7
 10
628.9034917899
 20
1115.5825891611
 30
0.0
  0
VERTEX
  5
257
  8
0
  6
HIDDEN
 62
     7
 10
628.9242435422
 20
1115.727506079
 30
0.0
  0
VERTEX
  5
258
  8
0
  6
HIDDEN
 62
     7
 10
628.9498033054
 20
1116.2039153986
 30
0.0
  0
VERTEX
  5
259
  8
0
  6
HIDDEN
 62
     7
 10
628.9242482989
 20
1116.5913789033
 30
0.0
  0
VERTEX
  5
25A
  8
0
  6
HIDDEN
 62
     7
 10
628.8475723352
 20
1116.8698836273
 30
0.0
  0
VERTEX
  5
25B
  8
0
  6
HIDDEN
 62
     7
 10
628.7224481468
 20
1117.0308325149
 30
0.0
  0
VERTEX
  5
25C
  8
0
  6
HIDDEN
 62
     7
 10
628.54787953
 20
1117.0825891611
 30
0.0
  0
SEQEND
  5
255
  8
0
  6
HIDDEN
 62
     7
  0
POLYLINE
  5
1A0
  8
0
  6
HIDDEN
 62
     7
 66
     1
 10
0.0
 20
0.0
 30
0.0
  0
VERTEX
  5
25E
  8
0
  6
HIDDEN
 62
     7
 10
628.54787953
 20
1114.0825891611
 30
0.0
  0
VERTEX
  5
25F
  8
0
  6
HIDDEN
 62
     7
 10
628.54787953
 20
1114.0825891611
 30
0.0
  0
SEQEND
  5
25D
  8
0
  6
HIDDEN
 62
     7
  0
LINE
  5
1A1
  8
0
  6
HIDDEN
 62
     7
 10
628.54787953
 20
1115.5825891611
 30
0.0
 11
628.54787953
 21
1117.0825891611
 31
0.0
  0
POLYLINE
  5
1A2
  8
0
  6
HIDDEN
 62
     7
 66
     1
 10
0.0
 20
0.0
 30
0.0
  0
VERTEX
  5
261
  8
0
  6
HIDDEN
 62
     7
 10
1074.8517271073
 20
1117.0825891611
 30
0.0
  0
VERTEX
  5
262
  8
0
  6
HIDDEN
 62
     7
 10
1074.6781939911
 20
1117.0317942201
 30
0.0
  0
VERTEX
  5
263
  8
0
  6
HIDDEN
 62
     7
 10
1074.5520314367
 20
1116.8698777579
 30
0.0
  0
VERTEX
  5
264
  8
0
  6
HIDDEN
 62
     7
 10
1074.4753630951
 20
1116.5914232191
 30
0.0
  0
VERTEX
  5
265
  8
0
  6
HIDDEN
 62
     7
 10
1074.449803332
 20
1116.2039036106
 30
0.0
  0
VERTEX
  5
266
  8
0
  6
HIDDEN
 62
     7
 10
1074.4753583384
 20
1115.727573668
 30
0.0
  0
VERTEX
  5
267
  8
0
  6
HIDDEN
 62
     7
 10
1074.4961186409
 20
1115.5825891611
 30
0.0
  0
SEQEND
  5
260
  8
0
  6
HIDDEN
 62
     7
  0
POLYLINE
  5
1A3
  8
0
  6
HIDDEN
 62
     7
 66
     1
 10
0.0
 20
0.0
 30
0.0
  0
VERTEX
  5
269
  8
0
  6
HIDDEN
 62
     7
 10
624.4498033187
 20
1112.9845129497
 30
0.0
  0
VERTEX
  5
26A
  8
0
  6
HIDDEN
 62
     7
 10
624.5005982596
 20
1112.8109798335
 30
0.0
  0
VERTEX
  5
26B
  8
0
  6
HIDDEN
 62
     7
 10
624.6625147218
 20
1112.6848172791
 30
0.0
  0
VERTEX
  5
26C
  8
0
  6
HIDDEN
 62
     7
 10
624.9409692578
 20
1112.6081489375
 30
0.0
  0
VERTEX
  5
26D
  8
0
  6
HIDDEN
 62
     7
 10
625.3284888691
 20
1112.5825891744
 30
0.0
  0
VERTEX
  5
26E
  8
0
  6
HIDDEN
 62
     7
 10
625.8048188114
 20
1112.6081441808
 30
0.0
  0
VERTEX
  5
26F
  8
0
  6
HIDDEN
 62
     7
 10
625.9498033187
 20
1112.6289044833
 30
0.0
  0
SEQEND
  5
268
  8
0
  6
HIDDEN
 62
     7
  0
POLYLINE
  5
1A4
  8
0
  6
HIDDEN
 62
     7
 66
     1
 10
0.0
 20
0.0
 30
0.0
  0
VERTEX
  5
271
  8
0
  6
HIDDEN
 62
     7
 10
627.4498033187
 20
1112.9845129497
 30
0.0
  0
VERTEX
  5
272
  8
0
  6
HIDDEN
 62
     7
 10
627.4498033187
 20
1112.9845129497
 30
0.0
  0
SEQEND
  5
270
  8
0
  6
HIDDEN
 62
     7
  0
LINE
  5
1A5
  8
0
  6
HIDDEN
 62
     7
 10
624.4498033187
 20
1112.9845129497
 30
0.0
 11
625.9498033187
 21
1112.9845129497
 31
0.0
  0
POLYLINE
  5
1A6
  8
0
  6
HIDDEN
 62
     7
 66
     1
 10
0.0
 20
0.0
 30
0.0
  0
VERTEX
  5
274
  8
0
  6
HIDDEN
 62
     7
 10
1077.4498033187
 20
1112.628900689
 30
0.0
  0
VERTEX
  5
275
  8
0
  6
HIDDEN
 62
     7
 10
1077.5947202286
 20
1112.6081489375
 30
0.0
  0
VERTEX
  5
276
  8
0
  6
HIDDEN
 62
     7
 10
1078.0711295562
 20
1112.5825891744
 30
0.0
  0
VERTEX
  5
277
  8
0
  6
HIDDEN
 62
     7
 10
1078.4585930609
 20
1112.6081441808
 30
0.0
  0
VERTEX
  5
278
  8
0
  6
HIDDEN
 62
     7
 10
1078.7370977849
 20
1112.6848201446
 30
0.0
  0
VERTEX
  5
279
  8
0
  6
HIDDEN
 62
     7
 10
1078.8980466716
 20
1112.8099443322
 30
0.0
  0
VERTEX
  5
27A
  8
0
  6
HIDDEN
 62
     7
 10
1078.9498033187
 20
1112.9845129497
 30
0.0
  0
SEQEND
  5
273
  8
0
  6
HIDDEN
 62
     7
  0
POLYLINE
  5
1A7
  8
0
  6
HIDDEN
 62
     7
 66
     1
 10
0.0
 20
0.0
 30
0.0
  0
VERTEX
  5
27C
  8
0
  6
HIDDEN
 62
     7
 10
1075.9498033187
 20
1112.9845129497
 30
0.0
  0
VERTEX
  5
27D
  8
0
  6
HIDDEN
 62
     7
 10
1075.9498033187
 20
1112.9845129497
 30
0.0
  0
SEQEND
  5
27B
  8
0
  6
HIDDEN
 62
     7
  0
LINE
  5
1A8
  8
0
  6
HIDDEN
 62
     7
 10
1077.4498033187
 20
1112.9845129497
 30
0.0
 11
1078.9498033187
 21
1112.9845129497
 31
0.0
  0
POLYLINE
  5
1A9
  8
0
  6
HIDDEN
 62
     7
 66
     1
 10
0.0
 20
0.0
 30
0.0
  0
VERTEX
  5
27F
  8
0
  6
HIDDEN
 62
     7
 10
1074.8517271073
 20
1114.0825891611
 30
0.0
  0
VERTEX
  5
280
  8
0
  6
HIDDEN
 62
     7
 10
1074.8517271073
 20
1114.0825891611
 30
0.0
  0
SEQEND
  5
27E
  8
0
  6
HIDDEN
 62
     7
  0
LINE
  5
1AA
  8
0
  6
HIDDEN
 62
     7
 10
1074.8517271073
 20
1117.0825891611
 30
0.0
 11
1074.8517271073
 21
1115.5825891611
 31
0.0
  0
LINE
  5
1AB
  8
0
  6
HIDDEN
 62
     7
 10
628.9498033056
 20
1115.143275757
 30
0.0
 11
628.9498033056
 21
1116.203962353
 31
0.0
  0
LINE
  5
1AC
  8
0
  6
HIDDEN
 62
     7
 10
625.3285358247
 20
1112.5825891741
 30
0.0
 11
626.3891695717
 21
1112.5825891741
 31
0.0
  0
LINE
  5
1AD
  8
0
  6
HIDDEN
 62
     7
 10
626.3891524918
 20
1112.5825891741
 30
0.0
 11
625.3285358248
 21
1112.5825891741
 31
0.0
  0
LINE
  5
1AE
  8
0
  6
HIDDEN
 62
     7
 10
1077.0104899146
 20
1112.5825891741
 30
0.0
 11
1078.0711765105
 21
1112.5825891741
 31
0.0
  0
LINE
  5
1AF
  8
0
  6
HIDDEN
 62
     7
 10
1074.4498033317
 20
1116.203856655
 30
0.0
 11
1074.4498033317
 21
1115.143222908
 31
0.0
  0
LINE
  5
1B0
  8
0
  6
HIDDEN
 62
     7
 10
1074.4498033317
 20
1115.143222908
 30
0.0
 11
1074.4498033317
 21
1116.203856655
 31
0.0
  0
ENDSEC
  0
EOF
