  0
SECTION
  2
HEADER
  9
$ACADVER
  1
AC1009
  9
$DWGCODEPAGE
  3
ansi_1252
  9
$INSBASE
 10
0.0
 20
0.0
 30
0.0
  9
$EXTMIN
 10
0.0
 20
0.0
 30
0.0
  9
$EXTMAX
 10
297.0
 20
210.0
 30
0.0
  9
$LIMMIN
 10
0.0
 20
0.0
  9
$LIMMAX
 10
0.0
 20
0.0
  9
$ORTHOMODE
 70
     0
  9
$REGENMODE
 70
     1
  9
$FILLMODE
 70
     1
  9
$QTEXTMODE
 70
     0
  9
$MIRRTEXT
 70
     1
  9
$DRAGMODE
 70
     2
  9
$LTSCALE
 40
1.0
  9
$OSMODE
 70
    37
  9
$ATTMODE
 70
     1
  9
$TEXTSIZE
 40
3.5277777778
  9
$TRACEWID
 40
1.0
  9
$TEXTSTYLE
  7
STANDARD
  9
$CLAYER
  8
0
  9
$CELTYPE
  6
BYLAYER
  9
$CECOLOR
 62
   256
  9
$DIMSCALE
 40
1.0
  9
$DIMASZ
 40
1.8
  9
$DIMEXO
 40
0.7
  9
$DIMDLI
 40
3.75
  9
$DIMRND
 40
0.0
  9
$DIMDLE
 40
0.0
  9
$DIMEXE
 40
0.5
  9
$DIMTP
 40
0.0
  9
$DIMTM
 40
0.0
  9
$DIMTXT
 40
2.4694444444
  9
$DIMCEN
 40
2.5
  9
$DIMTSZ
 40
0.0
  9
$DIMTOL
 70
     0
  9
$DIMLIM
 70
     0
  9
$DIMTIH
 70
     1
  9
$DIMTOH
 70
     1
  9
$DIMSE1
 70
     0
  9
$DIMSE2
 70
     0
  9
$DIMTAD
 70
     1
  9
$DIMZIN
 70
     0
  9
$DIMBLK
  1

  9
$DIMASO
 70
     1
  9
$DIMSHO
 70
     1
  9
$DIMPOST
  1

  9
$DIMAPOST
  1

  9
$DIMALT
 70
     0
  9
$DIMALTD
 70
     3
  9
$DIMALTF
 40
0.0393700787
  9
$DIMLFAC
 40
1.0
  9
$DIMTOFL
 70
     1
  9
$DIMTVP
 40
0.0
  9
$DIMTIX
 70
     0
  9
$DIMSOXD
 70
     0
  9
$DIMSAH
 70
     0
  9
$DIMBLK1
  1

  9
$DIMBLK2
  1

  9
$DIMSTYLE
  2
ISO-25
  9
$DIMCLRD
 70
     0
  9
$DIMCLRE
 70
     0
  9
$DIMCLRT
 70
     0
  9
$DIMTFAC
 40
1.0
  9
$DIMGAP
 40
2.0
  9
$LUNITS
 70
     2
  9
$LUPREC
 70
     2
  9
$SKETCHINC
 40
1.0
  9
$FILLETRAD
 40
10.0
  9
$AUNITS
 70
     0
  9
$AUPREC
 70
     0
  9
$MENU
  1
.
  9
$ELEVATION
 40
0.0
  9
$PELEVATION
 40
0.0
  9
$THICKNESS
 40
0.0
  9
$LIMCHECK
 70
     0
  9
$CHAMFERA
 40
10.0
  9
$CHAMFERB
 40
10.0
  9
$SKPOLY
 70
     0
  9
$TDCREATE
 40
2455104.491752199
  9
$TDUPDATE
 40
2455104.491752211
  9
$TDINDWG
 40
0.0000000116
  9
$TDUSRTIMER
 40
0.0000000116
  9
$USRTIMER
 70
     1
  9
$ANGBASE
 50
0.0
  9
$ANGDIR
 70
     0
  9
$PDMODE
 70
     0
  9
$PDSIZE
 40
-1.0
  9
$PLINEWID
 40
0.0
  9
$COORDS
 70
     1
  9
$SPLFRAME
 70
     0
  9
$SPLINETYPE
 70
     6
  9
$SPLINESEGS
 70
     8
  9
$ATTDIA
 70
     0
  9
$ATTREQ
 70
     1
  9
$HANDLING
 70
     1
  9
$HANDSEED
  5
28C
  9
$SURFTAB1
 70
     6
  9
$SURFTAB2
 70
     6
  9
$SURFTYPE
 70
     6
  9
$SURFU
 70
     6
  9
$SURFV
 70
     6
  9
$UCSNAME
  2

  9
$UCSORG
 10
0.0
 20
0.0
 30
0.0
  9
$UCSXDIR
 10
1.0
 20
0.0
 30
0.0
  9
$UCSYDIR
 10
0.0
 20
1.0
 30
0.0
  9
$PUCSNAME
  2

  9
$PUCSORG
 10
0.0
 20
0.0
 30
0.0
  9
$PUCSXDIR
 10
1.0
 20
0.0
 30
0.0
  9
$PUCSYDIR
 10
0.0
 20
1.0
 30
0.0
  9
$USERI1
 70
     0
  9
$USERI2
 70
     0
  9
$USERI3
 70
     0
  9
$USERI4
 70
     0
  9
$USERI5
 70
     0
  9
$USERR1
 40
0.0
  9
$USERR2
 40
0.0
  9
$USERR3
 40
0.0
  9
$USERR4
 40
0.0
  9
$USERR5
 40
0.0
  9
$WORLDVIEW
 70
     1
  9
$SHADEDGE
 70
     3
  9
$SHADEDIF
 70
    70
  9
$TILEMODE
 70
     1
  9
$MAXACTVP
 70
    64
  9
$PLIMCHECK
 70
     0
  9
$PEXTMIN
 10
1.0000000000E+20
 20
1.0000000000E+20
 30
1.0000000000E+20
  9
$PEXTMAX
 10
-1.0000000000E+20
 20
-1.0000000000E+20
 30
-1.0000000000E+20
  9
$PLIMMIN
 10
0.0
 20
0.0
  9
$PLIMMAX
 10
420.0
 20
297.0
  9
$UNITMODE
 70
     0
  9
$VISRETAIN
 70
     1
  9
$PLINEGEN
 70
     0
  9
$PSLTSCALE
 70
     1
  0
ENDSEC
  0
SECTION
  2
TABLES
  0
TABLE
  2
VPORT
 70
     1
  0
VPORT
  2
*ACTIVE
 70
     0
 10
0.0
 20
0.0
 11
1.0
 21
1.0
 12
148.5
 22
105.0
 13
0.0
 23
0.0
 14
10.0
 24
10.0
 15
10.0
 25
10.0
 16
0.0
 26
0.0
 36
1.0
 17
0.0
 27
0.0
 37
0.0
 40
210.0
 41
1.4142857143
 42
50.0
 43
0.0
 44
0.0
 50
0.0
 51
0.0
 71
     0
 72
  2000
 73
     1
 74
     3
 75
     0
 76
     0
 77
     0
 78
     0
  0
ENDTAB
  0
TABLE
  2
LTYPE
 70
     6
  0
LTYPE
  2
CONTINUOUS
 70
     0
  3
Solid line
 72
    65
 73
     0
 40
0.0
  0
LTYPE
  2
HIDDEN
 70
     0
  3
Hidden __ __ __ __ __ __ __ __ __ __ __ __ __ __
 72
    65
 73
     2
 40
1.905
 49
1.27
 49
-0.635
  0
LTYPE
  2
PHANTOM
 70
     0
  3
Phantom ______  __  __  ______  __  __  ______
 72
    65
 73
     6
 40
12.7
 49
6.35
 49
-1.27
 49
1.27
 49
-1.27
 49
1.27
 49
-1.27
  0
LTYPE
  2
CENTER
 70
     0
  3
Center ____ _ ____ _ ____ _ ____ _ ____ _ ____
 72
    65
 73
     4
 40
10.16
 49
6.35
 49
-1.27
 49
1.27
 49
-1.27
  0
LTYPE
  2
CENTERX2
 70
     0
  3
Center (2x) ________  __  ________  __  _____
 72
    65
 73
     4
 40
20.32
 49
12.7
 49
-2.54
 49
2.54
 49
-2.54
  0
LTYPE
  2
DOT2
 70
     0
  3
Dot (.5x) ........................................
 72
    65
 73
     2
 40
0.635
 49
0.0
 49
-0.635
  0
ENDTAB
  0
TABLE
  2
LAYER
 70
     5
  0
LAYER
  2
0
 70
     0
 62
     7
  6
CONTINUOUS
  0
LAYER
  2
SLD-0
 70
     0
 62
     7
  6
CONTINUOUS
  0
LAYER
  2
AM_BOR
 70
     0
 62
     7
  6
CONTINUOUS
  0
LAYER
  2
BIEGLINIE__ZU_
 70
     0
 62
     8
  6
CONTINUOUS
  0
LAYER
  2
BIEGELINIE__WEG_
 70
     0
 62
     8
  6
HIDDEN
  0
ENDTAB
  0
TABLE
  2
STYLE
 70
     1
  0
STYLE
  2
STANDARD
 70
     0
 40
0.0
 41
1.0
 50
0.0
 71
     0
 42
2.5
  3
txt
  4

  0
ENDTAB
  0
TABLE
  2
VIEW
 70
     0
  0
ENDTAB
  0
TABLE
  2
UCS
 70
     0
  0
ENDTAB
  0
TABLE
  2
APPID
 70
     1
  0
APPID
  2
ACAD
 70
     0
  0
ENDTAB
  0
TABLE
  2
DIMSTYLE
 70
     1
  0
DIMSTYLE
  2
ISO-25
 70
     0
  3

  4

  5

  6

  7

 40
1.0
 41
2.5
 42
0.625
 43
3.75
 44
1.25
 45
0.0
 46
0.0
 47
0.0
 48
0.0
140
2.5
141
2.5
142
0.0
143
0.0393700787
144
1.0
145
0.0
146
1.0
147
0.625
 71
     0
 72
     0
 73
     0
 74
     0
 75
     0
 76
     0
 77
     1
 78
     8
170
     0
171
     3
172
     1
173
     0
174
     0
175
     0
176
     0
177
     0
178
     0
  0
ENDTAB
  0
ENDSEC
  0
SECTION
  2
BLOCKS
  0
BLOCK
  8
0
  2
$MODEL_SPACE
 70
     0
 10
0.0
 20
0.0
 30
0.0
  3
$MODEL_SPACE
  1

  0
ENDBLK
  5
21
  8
0
  0
BLOCK
 67
     1
  8
0
  2
$PAPER_SPACE
 70
     0
 10
0.0
 20
0.0
 30
0.0
  3
$PAPER_SPACE
  1

  0
ENDBLK
  5
1D
 67
     1
  8
0
  0
ENDSEC
  0
SECTION
  2
ENTITIES
  0
TEXT
  5
33
  8
SLD-0
 10
901.81166336
 20
1143.249775182
 30
0.0
 40
19.05
  1
Innenansicht
 41
0.7
 11
901.81166336
 21
1137.8069180391
 31
0.0
 73
     1
  0
LINE
  5
34
  8
0
  6
CONTINUOUS
 62
     7
 10
15.4505183745
 20
-873.6098859993
 30
0.0
 11
20.0104967495
 21
-873.6098859993
 31
0.0
  0
LINE
  5
35
  8
0
  6
CONTINUOUS
 62
     7
 10
265.4505183745
 20
-873.6098859993
 30
0.0
 11
270.0104967495
 21
-873.6098859993
 31
0.0
  0
POLYLINE
  5
36
  8
0
  6
CONTINUOUS
 62
     7
 66
     1
 10
0.0
 20
0.0
 30
0.0
  0
VERTEX
  5
1BD
  8
0
  6
CONTINUOUS
 62
     7
 10
-130.4214162267
 20
1113.3901140007
 30
0.0
  0
VERTEX
  5
1BE
  8
0
  6
CONTINUOUS
 62
     7
 10
-130.2478831104
 20
1113.3393190598
 30
0.0
  0
VERTEX
  5
1BF
  8
0
  6
CONTINUOUS
 62
     7
 10
-130.121720556
 20
1113.1774025976
 30
0.0
  0
VERTEX
  5
1C0
  8
0
  6
CONTINUOUS
 62
     7
 10
-130.0450522145
 20
1112.8989480616
 30
0.0
  0
VERTEX
  5
1C1
  8
0
  6
CONTINUOUS
 62
     7
 10
-130.0194924513
 20
1112.5114284503
 30
0.0
  0
VERTEX
  5
1C2
  8
0
  6
CONTINUOUS
 62
     7
 10
-130.0450474578
 20
1112.0350985123
 30
0.0
  0
VERTEX
  5
1C3
  8
0
  6
CONTINUOUS
 62
     7
 10
-130.1217234215
 20
1111.4996136891
 30
0.0
  0
VERTEX
  5
1C4
  8
0
  6
CONTINUOUS
 62
     7
 10
-130.2468476084
 20
1110.9449663514
 30
0.0
  0
VERTEX
  5
1C5
  8
0
  6
CONTINUOUS
 62
     7
 10
-130.4214162267
 20
1110.3901140007
 30
0.0
  0
SEQEND
  5
1BC
  8
0
  6
CONTINUOUS
 62
     7
  0
LINE
  5
37
  8
0
  6
CONTINUOUS
 62
     7
 10
415.8824313506
 20
1113.3901140007
 30
0.0
 11
-130.4214162267
 21
1113.3901140007
 31
0.0
  0
POLYLINE
  5
38
  8
0
  6
CONTINUOUS
 62
     7
 66
     1
 10
0.0
 20
0.0
 30
0.0
  0
VERTEX
  5
1C7
  8
0
  6
CONTINUOUS
 62
     7
 10
415.8824313506
 20
1110.3901140007
 30
0.0
  0
VERTEX
  5
1C8
  8
0
  6
CONTINUOUS
 62
     7
 10
415.7088982344
 20
1110.9398316734
 30
0.0
  0
VERTEX
  5
1C9
  8
0
  6
CONTINUOUS
 62
     7
 10
415.58273568
 20
1111.4996284342
 30
0.0
  0
VERTEX
  5
1CA
  8
0
  6
CONTINUOUS
 62
     7
 10
415.5060673376
 20
1112.0350309187
 30
0.0
  0
VERTEX
  5
1CB
  8
0
  6
CONTINUOUS
 62
     7
 10
415.4805075753
 20
1112.5114402383
 30
0.0
  0
VERTEX
  5
1CC
  8
0
  6
CONTINUOUS
 62
     7
 10
415.5060625826
 20
1112.8989037458
 30
0.0
  0
VERTEX
  5
1CD
  8
0
  6
CONTINUOUS
 62
     7
 10
415.5827385455
 20
1113.177408467
 30
0.0
  0
VERTEX
  5
1CE
  8
0
  6
CONTINUOUS
 62
     7
 10
415.7078627331
 20
1113.3383573537
 30
0.0
  0
VERTEX
  5
1CF
  8
0
  6
CONTINUOUS
 62
     7
 10
415.8824313506
 20
1113.3901140007
 30
0.0
  0
SEQEND
  5
1C6
  8
0
  6
CONTINUOUS
 62
     7
  0
POLYLINE
  5
39
  8
0
  6
CONTINUOUS
 62
     7
 66
     1
 10
0.0
 20
0.0
 30
0.0
  0
VERTEX
  5
1D1
  8
0
  6
CONTINUOUS
 62
     7
 10
419.980507562
 20
1109.2920377894
 30
0.0
  0
VERTEX
  5
1D2
  8
0
  6
CONTINUOUS
 62
     7
 10
419.9297126211
 20
1109.1185046732
 30
0.0
  0
VERTEX
  5
1D3
  8
0
  6
CONTINUOUS
 62
     7
 10
419.7677961588
 20
1108.9923421187
 30
0.0
  0
VERTEX
  5
1D4
  8
0
  6
CONTINUOUS
 62
     7
 10
419.4893416201
 20
1108.9156737763
 30
0.0
  0
VERTEX
  5
1D5
  8
0
  6
CONTINUOUS
 62
     7
 10
419.1018220115
 20
1108.8901140141
 30
0.0
  0
VERTEX
  5
1D6
  8
0
  6
CONTINUOUS
 62
     7
 10
418.6254920647
 20
1108.9156690214
 30
0.0
  0
VERTEX
  5
1D7
  8
0
  6
CONTINUOUS
 62
     7
 10
418.0900072504
 20
1108.9923449842
 30
0.0
  0
VERTEX
  5
1D8
  8
0
  6
CONTINUOUS
 62
     7
 10
417.5353599084
 20
1109.1174691727
 30
0.0
  0
VERTEX
  5
1D9
  8
0
  6
CONTINUOUS
 62
     7
 10
416.980507562
 20
1109.2920377894
 30
0.0
  0
SEQEND
  5
1D0
  8
0
  6
CONTINUOUS
 62
     7
  0
LINE
  5
3A
  8
0
  6
CONTINUOUS
 62
     7
 10
419.980507562
 20
-886.6098859993
 30
0.0
 11
419.980507562
 21
1109.2920377894
 31
0.0
  0
LINE
  5
3B
  8
0
  6
CONTINUOUS
 62
     7
 10
419.980507562
 20
-886.6098859993
 30
0.0
 11
416.980507562
 21
-886.6098859993
 31
0.0
  0
ARC
  5
3C
  8
0
  6
CONTINUOUS
 62
     7
 10
-133.019492438
 20
1111.8901140007
 30
0.0
 40
3.000000000000114
 50
300.0
 51
330.0
  0
ARC
  5
3D
  8
0
  6
CONTINUOUS
 62
     7
 10
418.480507562
 20
1111.8901140007
 30
0.0
 40
3.000000000000163
 50
210.0
 51
240.0
  0
LINE
  5
3E
  8
0
  6
CONTINUOUS
 62
     7
 10
416.980507562
 20
-886.6098859993
 30
0.0
 11
-131.519492438
 21
-886.6098859993
 31
0.0
  0
LINE
  5
3F
  8
0
  6
CONTINUOUS
 62
     7
 10
419.980507562
 20
1109.2920377894
 30
0.0
 11
418.480507562
 21
1109.2920377894
 31
0.0
  0
LINE
  5
40
  8
0
  6
CONTINUOUS
 62
     7
 10
415.8824313506
 20
1111.8901140007
 30
0.0
 11
415.8824313506
 21
1113.3901140007
 31
0.0
  0
ARC
  5
41
  8
0
  6
CONTINUOUS
 62
     7
 10
415.8543661456
 20
1111.5122750445
 30
0.0
 40
0.3788798392485779
 50
85.7519725203
 51
189.3397138934
  0
LINE
  5
42
  8
0
  6
CONTINUOUS
 62
     7
 10
-131.519492438
 20
-886.6098859993
 30
0.0
 11
-134.519492438
 21
-886.6098859993
 31
0.0
  0
LINE
  5
43
  8
0
  6
CONTINUOUS
 62
     7
 10
-134.519492438
 20
1109.2920377894
 30
0.0
 11
-134.519492438
 21
-886.6098859993
 31
0.0
  0
POLYLINE
  5
44
  8
0
  6
CONTINUOUS
 62
     7
 66
     1
 10
0.0
 20
0.0
 30
0.0
  0
VERTEX
  5
1DB
  8
0
  6
CONTINUOUS
 62
     7
 10
-131.519492438
 20
1109.2920377894
 30
0.0
  0
VERTEX
  5
1DC
  8
0
  6
CONTINUOUS
 62
     7
 10
-132.0692101106
 20
1109.1185046732
 30
0.0
  0
VERTEX
  5
1DD
  8
0
  6
CONTINUOUS
 62
     7
 10
-132.6290068714
 20
1108.9923421187
 30
0.0
  0
VERTEX
  5
1DE
  8
0
  6
CONTINUOUS
 62
     7
 10
-133.1644093567
 20
1108.9156737772
 30
0.0
  0
VERTEX
  5
1DF
  8
0
  6
CONTINUOUS
 62
     7
 10
-133.6408186756
 20
1108.8901140141
 30
0.0
  0
VERTEX
  5
1E0
  8
0
  6
CONTINUOUS
 62
     7
 10
-134.0282821803
 20
1108.9156690205
 30
0.0
  0
VERTEX
  5
1E1
  8
0
  6
CONTINUOUS
 62
     7
 10
-134.3067869042
 20
1108.9923449842
 30
0.0
  0
VERTEX
  5
1E2
  8
0
  6
CONTINUOUS
 62
     7
 10
-134.467735791
 20
1109.1174691719
 30
0.0
  0
VERTEX
  5
1E3
  8
0
  6
CONTINUOUS
 62
     7
 10
-134.519492438
 20
1109.2920377894
 30
0.0
  0
SEQEND
  5
1DA
  8
0
  6
CONTINUOUS
 62
     7
  0
ARC
  5
45
  8
0
  6
CONTINUOUS
 62
     7
 10
-130.4035192079
 20
1111.5029691339
 30
0.0
 40
0.3875583197775665
 50
352.257753725
 51
92.6467976356
  0
LINE
  5
46
  8
0
  6
CONTINUOUS
 62
     7
 10
-130.4214162267
 20
1113.3901140007
 30
0.0
 11
-130.4214162267
 21
1111.8901140007
 31
0.0
  0
LINE
  5
47
  8
0
  6
CONTINUOUS
 62
     7
 10
-133.019492438
 20
1109.2920377894
 30
0.0
 11
-134.519492438
 21
1109.2920377894
 31
0.0
  0
ARC
  5
48
  8
0
  6
CONTINUOUS
 62
     7
 10
-132.6416534834
 20
1109.2639725835
 30
0.0
 40
0.3788798376939936
 50
175.7519723727
 51
279.3397136718
  0
CIRCLE
  5
49
  8
0
  6
CONTINUOUS
 62
     7
 10
396.730507562
 20
110.8901140007
 30
0.0
 40
3.0
  0
CIRCLE
  5
4A
  8
0
  6
CONTINUOUS
 62
     7
 10
396.730507562
 20
1060.8901140007
 30
0.0
 40
3.0
  0
CIRCLE
  5
4B
  8
0
  6
CONTINUOUS
 62
     7
 10
-111.269492438
 20
-839.1098859993
 30
0.0
 40
3.0
  0
CIRCLE
  5
4C
  8
0
  6
CONTINUOUS
 62
     7
 10
-111.269492438
 20
110.8901140007
 30
0.0
 40
3.0
  0
CIRCLE
  5
4D
  8
0
  6
CONTINUOUS
 62
     7
 10
396.730507562
 20
-839.1098859993
 30
0.0
 40
3.0
  0
CIRCLE
  5
4E
  8
0
  6
CONTINUOUS
 62
     7
 10
-111.269492438
 20
1060.8901140007
 30
0.0
 40
3.0
  0
CIRCLE
  5
4F
  8
0
  6
CONTINUOUS
 62
     7
 10
17.730507562
 20
-869.6098859993
 30
0.0
 40
3.000000000000004
  0
CIRCLE
  5
50
  8
0
  6
CONTINUOUS
 62
     7
 10
267.730507562
 20
-869.6098859993
 30
0.0
 40
3.0
  0
LINE
  5
51
  8
0
  6
CONTINUOUS
 62
     7
 10
418.480507562
 20
1110.3901140007
 30
0.0
 11
418.480507562
 21
1109.2920377894
 31
0.0
  0
LINE
  5
52
  8
0
  6
CONTINUOUS
 62
     7
 10
419.980507562
 20
1110.3901140007
 30
0.0
 11
418.480507562
 21
1110.3901140007
 31
0.0
  0
LINE
  5
53
  8
0
  6
CONTINUOUS
 62
     7
 10
419.980507562
 20
1110.3901140007
 30
0.0
 11
419.980507562
 21
1109.2920377894
 31
0.0
  0
LINE
  5
54
  8
0
  6
CONTINUOUS
 62
     7
 10
-134.519492438
 20
1109.2920377894
 30
0.0
 11
-134.519492438
 21
1110.3901140007
 31
0.0
  0
LINE
  5
55
  8
0
  6
CONTINUOUS
 62
     7
 10
-133.019492438
 20
1110.3901140007
 30
0.0
 11
-134.519492438
 21
1110.3901140007
 31
0.0
  0
LINE
  5
56
  8
0
  6
CONTINUOUS
 62
     7
 10
-133.019492438
 20
1109.2920377894
 30
0.0
 11
-133.019492438
 21
1110.3901140007
 31
0.0
  0
LINE
  5
57
  8
0
  6
CONTINUOUS
 62
     7
 10
-130.8981720945
 20
1111.8901140007
 30
0.0
 11
-130.4214162267
 21
1111.8901140007
 31
0.0
  0
LINE
  5
58
  8
0
  6
CONTINUOUS
 62
     7
 10
-130.8981720945
 20
1113.3901140007
 30
0.0
 11
-130.8981720945
 21
1111.8901140007
 31
0.0
  0
LINE
  5
59
  8
0
  6
CONTINUOUS
 62
     7
 10
-130.8981720945
 20
1113.3901140007
 30
0.0
 11
-130.4214162267
 21
1113.3901140007
 31
0.0
  0
LINE
  5
5A
  8
0
  6
CONTINUOUS
 62
     7
 10
416.3591872184
 20
1111.8901140007
 30
0.0
 11
416.3591872184
 21
1113.3901140007
 31
0.0
  0
LINE
  5
5B
  8
0
  6
CONTINUOUS
 62
     7
 10
415.8824313506
 20
1111.8901140007
 30
0.0
 11
416.3591872184
 21
1111.8901140007
 31
0.0
  0
LINE
  5
5C
  8
0
  6
CONTINUOUS
 62
     7
 10
415.8824313506
 20
1113.3901140007
 30
0.0
 11
416.3591872184
 21
1113.3901140007
 31
0.0
  0
LINE
  5
5D
  8
0
  6
CONTINUOUS
 62
     7
 10
416.3591872184
 20
1113.3901140007
 30
0.0
 11
416.3591872184
 21
1111.8901140007
 31
0.0
  0
LINE
  5
5E
  8
0
  6
CONTINUOUS
 62
     7
 10
416.980507562
 20
1113.3901140007
 30
0.0
 11
416.980507562
 21
1111.8901140007
 31
0.0
  0
LINE
  5
5F
  8
0
  6
CONTINUOUS
 62
     7
 10
416.3591872184
 20
1113.3901140007
 30
0.0
 11
416.980507562
 21
1113.3901140007
 31
0.0
  0
LINE
  5
60
  8
0
  6
CONTINUOUS
 62
     7
 10
416.3591872184
 20
1111.8901140007
 30
0.0
 11
416.980507562
 21
1111.8901140007
 31
0.0
  0
LINE
  5
61
  8
0
  6
CONTINUOUS
 62
     7
 10
-130.8981720945
 20
1111.8901140007
 30
0.0
 11
-130.8981720945
 21
1113.3901140007
 31
0.0
  0
LINE
  5
62
  8
0
  6
CONTINUOUS
 62
     7
 10
-131.519492438
 20
1111.8901140007
 30
0.0
 11
-131.519492438
 21
1113.3901140007
 31
0.0
  0
LINE
  5
63
  8
0
  6
CONTINUOUS
 62
     7
 10
-131.519492438
 20
1113.3901140007
 30
0.0
 11
-130.8981720945
 21
1113.3901140007
 31
0.0
  0
LINE
  5
64
  8
0
  6
CONTINUOUS
 62
     7
 10
-131.519492438
 20
1111.8901140007
 30
0.0
 11
-130.8981720945
 21
1111.8901140007
 31
0.0
  0
ARC
  5
65
  8
0
  6
CONTINUOUS
 62
     7
 10
416.980507562
 20
1110.3901140007
 30
0.0
 40
3.000000000000227
 50
0.0
 51
90.0
  0
ARC
  5
66
  8
0
  6
CONTINUOUS
 62
     7
 10
416.980507562
 20
1110.3901140007
 30
0.0
 40
1.500000000000227
 50
0.0
 51
90.0
  0
ARC
  5
67
  8
0
  6
CONTINUOUS
 62
     7
 10
-131.519492438
 20
1110.3901140007
 30
0.0
 40
1.500000000000085
 50
90.0
 51
180.0
  0
ARC
  5
68
  8
0
  6
CONTINUOUS
 62
     7
 10
-131.519492438
 20
1110.3901140007
 30
0.0
 40
3.0
 50
90.0
 51
180.0
  0
LINE
  5
69
  8
0
  6
CONTINUOUS
 62
     7
 10
552.7719207179
 20
-747.6098859993
 30
0.0
 11
552.2719207179
 21
-748.1098859993
 31
0.0
  0
LINE
  5
6A
  8
0
  6
CONTINUOUS
 62
     7
 10
552.2719207179
 20
-755.1098859993
 30
0.0
 11
552.7719207179
 21
-755.6098859993
 31
0.0
  0
LINE
  5
6B
  8
0
  6
CONTINUOUS
 62
     7
 10
556.2719207179
 20
-747.6098859993
 30
0.0
 11
552.7719207179
 21
-747.6098859993
 31
0.0
  0
LINE
  5
6C
  8
0
  6
CONTINUOUS
 62
     7
 10
552.7719207179
 20
-755.6098859993
 30
0.0
 11
556.2719207179
 21
-755.6098859993
 31
0.0
  0
LINE
  5
6D
  8
0
  6
CONTINUOUS
 62
     7
 10
556.2719207179
 20
1110.3901140007
 30
0.0
 11
556.2719207179
 21
1113.3901140007
 31
0.0
  0
LINE
  5
6E
  8
0
  6
CONTINUOUS
 62
     7
 10
569.6738445066
 20
1113.3901140007
 30
0.0
 11
556.2719207179
 21
1113.3901140007
 31
0.0
  0
POLYLINE
  5
6F
  8
0
  6
CONTINUOUS
 62
     7
 66
     1
 10
0.0
 20
0.0
 30
0.0
  0
VERTEX
  5
1E5
  8
0
  6
CONTINUOUS
 62
     7
 10
569.6738445066
 20
1110.3901140007
 30
0.0
  0
VERTEX
  5
1E6
  8
0
  6
CONTINUOUS
 62
     7
 10
569.5003113904
 20
1110.9398316734
 30
0.0
  0
VERTEX
  5
1E7
  8
0
  6
CONTINUOUS
 62
     7
 10
569.3741488359
 20
1111.4996284342
 30
0.0
  0
VERTEX
  5
1E8
  8
0
  6
CONTINUOUS
 62
     7
 10
569.2974804944
 20
1112.0350309202
 30
0.0
  0
VERTEX
  5
1E9
  8
0
  6
CONTINUOUS
 62
     7
 10
569.2719207312
 20
1112.5114402383
 30
0.0
  0
VERTEX
  5
1EA
  8
0
  6
CONTINUOUS
 62
     7
 10
569.2974757377
 20
1112.898903743
 30
0.0
  0
VERTEX
  5
1EB
  8
0
  6
CONTINUOUS
 62
     7
 10
569.3741517014
 20
1113.177408467
 30
0.0
  0
VERTEX
  5
1EC
  8
0
  6
CONTINUOUS
 62
     7
 10
569.499275889
 20
1113.3383573537
 30
0.0
  0
VERTEX
  5
1ED
  8
0
  6
CONTINUOUS
 62
     7
 10
569.6738445066
 20
1113.3901140007
 30
0.0
  0
SEQEND
  5
1E4
  8
0
  6
CONTINUOUS
 62
     7
  0
LINE
  5
70
  8
0
  6
CONTINUOUS
 62
     7
 10
570.7719207179
 20
-886.6098859993
 30
0.0
 11
556.2719207179
 21
-886.6098859993
 31
0.0
  0
LINE
  5
71
  8
0
  6
CONTINUOUS
 62
     7
 10
556.2719207179
 20
-886.6098859993
 30
0.0
 11
556.2719207179
 21
1110.3901140007
 31
0.0
  0
ARC
  5
72
  8
0
  6
CONTINUOUS
 62
     7
 10
572.2719207179
 20
1111.8901140007
 30
0.0
 40
3.000000000000064
 50
210.0
 51
240.0
  0
LINE
  5
73
  8
0
  6
CONTINUOUS
 62
     7
 10
573.7719207179
 20
1109.2920377894
 30
0.0
 11
573.7719207179
 21
-886.6098859993
 31
0.0
  0
LINE
  5
74
  8
0
  6
CONTINUOUS
 62
     7
 10
573.7719207179
 20
-886.6098859993
 30
0.0
 11
570.7719207179
 21
-886.6098859993
 31
0.0
  0
POLYLINE
  5
75
  8
0
  6
CONTINUOUS
 62
     7
 66
     1
 10
0.0
 20
0.0
 30
0.0
  0
VERTEX
  5
1EF
  8
0
  6
CONTINUOUS
 62
     7
 10
573.7719207179
 20
1109.2920377894
 30
0.0
  0
VERTEX
  5
1F0
  8
0
  6
CONTINUOUS
 62
     7
 10
573.721125777
 20
1109.1185046732
 30
0.0
  0
VERTEX
  5
1F1
  8
0
  6
CONTINUOUS
 62
     7
 10
573.5592093148
 20
1108.9923421187
 30
0.0
  0
VERTEX
  5
1F2
  8
0
  6
CONTINUOUS
 62
     7
 10
573.2807547759
 20
1108.9156737772
 30
0.0
  0
VERTEX
  5
1F3
  8
0
  6
CONTINUOUS
 62
     7
 10
572.8932351675
 20
1108.8901140141
 30
0.0
  0
VERTEX
  5
1F4
  8
0
  6
CONTINUOUS
 62
     7
 10
572.4169052252
 20
1108.9156690205
 30
0.0
  0
VERTEX
  5
1F5
  8
0
  6
CONTINUOUS
 62
     7
 10
571.8814204063
 20
1108.9923449842
 30
0.0
  0
VERTEX
  5
1F6
  8
0
  6
CONTINUOUS
 62
     7
 10
571.3267730691
 20
1109.1174691719
 30
0.0
  0
VERTEX
  5
1F7
  8
0
  6
CONTINUOUS
 62
     7
 10
570.7719207179
 20
1109.2920377894
 30
0.0
  0
SEQEND
  5
1EE
  8
0
  6
CONTINUOUS
 62
     7
  0
LINE
  5
76
  8
0
  6
CONTINUOUS
 62
     7
 10
572.2719207179
 20
1109.2920377894
 30
0.0
 11
573.7719207179
 21
1109.2920377894
 31
0.0
  0
LINE
  5
77
  8
0
  6
CONTINUOUS
 62
     7
 10
569.6738445066
 20
1111.8901140007
 30
0.0
 11
569.6738445066
 21
1113.3901140007
 31
0.0
  0
ARC
  5
78
  8
0
  6
CONTINUOUS
 62
     7
 10
569.6457793007
 20
1111.5122750461
 30
0.0
 40
0.3788798376967042
 50
85.7519723732
 51
189.3397136714
  0
LINE
  5
79
  8
0
  6
CONTINUOUS
 62
     7
 10
573.7719207179
 20
1110.3901140007
 30
0.0
 11
572.2719207179
 21
1110.3901140007
 31
0.0
  0
LINE
  5
7A
  8
0
  6
CONTINUOUS
 62
     7
 10
573.7719207179
 20
1110.3901140007
 30
0.0
 11
573.7719207179
 21
1109.2920377894
 31
0.0
  0
LINE
  5
7B
  8
0
  6
CONTINUOUS
 62
     7
 10
572.2719207179
 20
1110.3901140007
 30
0.0
 11
572.2719207179
 21
1109.2920377894
 31
0.0
  0
LINE
  5
7C
  8
0
  6
CONTINUOUS
 62
     7
 10
570.1506003744
 20
1111.8901140007
 30
0.0
 11
570.1506003744
 21
1113.3901140007
 31
0.0
  0
LINE
  5
7D
  8
0
  6
CONTINUOUS
 62
     7
 10
569.6738445066
 20
1113.3901140007
 30
0.0
 11
570.1506003744
 21
1113.3901140007
 31
0.0
  0
LINE
  5
7E
  8
0
  6
CONTINUOUS
 62
     7
 10
569.6738445066
 20
1111.8901140007
 30
0.0
 11
570.1506003744
 21
1111.8901140007
 31
0.0
  0
LINE
  5
7F
  8
0
  6
CONTINUOUS
 62
     7
 10
570.1506003744
 20
1113.3901140007
 30
0.0
 11
570.1506003744
 21
1111.8901140007
 31
0.0
  0
LINE
  5
80
  8
0
  6
CONTINUOUS
 62
     7
 10
570.7719207179
 20
1113.3901140007
 30
0.0
 11
570.7719207179
 21
1111.8901140007
 31
0.0
  0
LINE
  5
81
  8
0
  6
CONTINUOUS
 62
     7
 10
570.1506003744
 20
1113.3901140007
 30
0.0
 11
570.7719207179
 21
1113.3901140007
 31
0.0
  0
LINE
  5
82
  8
0
  6
CONTINUOUS
 62
     7
 10
570.1506003744
 20
1111.8901140007
 30
0.0
 11
570.7719207179
 21
1111.8901140007
 31
0.0
  0
ARC
  5
83
  8
0
  6
CONTINUOUS
 62
     7
 10
570.7719207179
 20
1110.3901140007
 30
0.0
 40
1.500000000000114
 50
360.0
 51
90.0
  0
ARC
  5
84
  8
0
  6
CONTINUOUS
 62
     7
 10
570.7719207179
 20
1110.3901140007
 30
0.0
 40
3.000000000000341
 50
0.0
 51
90.0
  0
LINE
  5
85
  8
0
  6
CONTINUOUS
 62
     7
 10
549.7719207179
 20
1111.8901140007
 30
0.0
 11
549.7719207179
 21
1113.3901140007
 31
0.0
  0
LINE
  5
86
  8
0
  6
CONTINUOUS
 62
     7
 10
556.2719207179
 20
1113.3901140007
 30
0.0
 11
549.7719207179
 21
1113.3901140007
 31
0.0
  0
LINE
  5
87
  8
0
  6
CONTINUOUS
 62
     7
 10
556.2719207179
 20
1111.8901140007
 30
0.0
 11
549.7719207179
 21
1111.8901140007
 31
0.0
  0
LINE
  5
88
  8
0
  6
CONTINUOUS
 62
     7
 10
552.7719207179
 20
-751.6098859993
 30
0.0
 11
552.7719207179
 21
-755.6098859993
 31
0.0
  0
LINE
  5
89
  8
0
  6
CONTINUOUS
 62
     7
 10
552.7719207179
 20
-747.6098859993
 30
0.0
 11
552.7719207179
 21
-751.6098859993
 31
0.0
  0
LINE
  5
8A
  8
0
  6
CONTINUOUS
 62
     7
 10
552.2719207179
 20
-751.6098859993
 30
0.0
 11
552.2719207179
 21
-755.1098859993
 31
0.0
  0
LINE
  5
8B
  8
0
  6
CONTINUOUS
 62
     7
 10
552.2719207179
 20
-748.1098859993
 30
0.0
 11
552.2719207179
 21
-751.6098859993
 31
0.0
  0
ARC
  5
8C
  8
0
  6
HIDDEN
 62
     7
 10
572.2719207179
 20
-879.6098859993
 30
0.0
 40
6.0
 50
90.0
 51
270.0
  0
ARC
  5
8D
  8
0
  6
HIDDEN
 62
     7
 10
572.2719207179
 20
1099.3901140007
 30
0.0
 40
6.0
 50
90.0
 51
270.0
  0
ARC
  5
8E
  8
0
  6
HIDDEN
 62
     7
 10
571.8847758499
 20
1109.2741407719
 30
0.0
 40
0.3875583208868738
 50
262.257753922
 51
2.6467974388
  0
POLYLINE
  5
8F
  8
0
  6
HIDDEN
 62
     7
 66
     1
 10
0.0
 20
0.0
 30
0.0
  0
VERTEX
  5
1F9
  8
0
  6
HIDDEN
 62
     7
 10
570.7719207179
 20
1109.2920377894
 30
0.0
  0
VERTEX
  5
1FA
  8
0
  6
HIDDEN
 62
     7
 10
570.7719207179
 20
1109.2920377894
 30
0.0
  0
SEQEND
  5
1F8
  8
0
  6
HIDDEN
 62
     7
  0
POLYLINE
  5
90
  8
0
  6
HIDDEN
 62
     7
 66
     1
 10
0.0
 20
0.0
 30
0.0
  0
VERTEX
  5
1FC
  8
0
  6
HIDDEN
 62
     7
 10
569.6738445066
 20
1110.3901140007
 30
0.0
  0
VERTEX
  5
1FD
  8
0
  6
HIDDEN
 62
     7
 10
569.6738445066
 20
1110.3901140007
 30
0.0
  0
SEQEND
  5
1FB
  8
0
  6
HIDDEN
 62
     7
  0
LINE
  5
91
  8
0
  6
HIDDEN
 62
     7
 10
569.6738445066
 20
1111.8901140007
 30
0.0
 11
556.2719207179
 21
1111.8901140007
 31
0.0
  0
LINE
  5
92
  8
0
  6
HIDDEN
 62
     7
 10
572.2719207179
 20
1109.2920377894
 30
0.0
 11
572.2719207179
 21
-886.6098859993
 31
0.0
  0
LINE
  5
93
  8
0
  6
HIDDEN
 62
     7
 10
569.2613601887
 20
-834.9178794882
 30
0.0
 11
569.2613601887
 21
-843.3018925103
 31
0.0
  0
LINE
  5
94
  8
0
  6
HIDDEN
 62
     7
 10
569.2613601887
 20
115.0821205118
 30
0.0
 11
569.2613601887
 21
106.6981074897
 31
0.0
  0
LINE
  5
95
  8
0
  6
HIDDEN
 62
     7
 10
569.2613601887
 20
1065.0821205118
 30
0.0
 11
569.2613601887
 21
1056.6981074897
 31
0.0
  0
LINE
  5
96
  8
0
  6
HIDDEN
 62
     7
 10
570.171920718
 20
-836.1098859993
 30
0.0
 11
570.171920718
 21
-842.1098859993
 31
0.0
  0
LINE
  5
97
  8
0
  6
HIDDEN
 62
     7
 10
570.171920718
 20
113.8901140007
 30
0.0
 11
570.171920718
 21
107.8901140007
 31
0.0
  0
LINE
  5
98
  8
0
  6
HIDDEN
 62
     7
 10
570.171920718
 20
1063.8901140007
 30
0.0
 11
570.171920718
 21
1057.8901140007
 31
0.0
  0
LINE
  5
99
  8
0
  6
HIDDEN
 62
     7
 10
569.2613601885
 20
-865.4178794882
 30
0.0
 11
569.2613601885
 21
-873.8018925103
 31
0.0
  0
LINE
  5
9A
  8
0
  6
HIDDEN
 62
     7
 10
570.1719207178
 20
-866.6098859993
 30
0.0
 11
570.1719207178
 21
-872.6098859993
 31
0.0
  0
POLYLINE
  5
9B
  8
0
  6
HIDDEN
 62
     7
 66
     1
 10
0.0
 20
0.0
 30
0.0
  0
VERTEX
  5
1FF
  8
0
  6
HIDDEN
 62
     7
 10
569.6738445066
 20
1110.3901140007
 30
0.0
  0
VERTEX
  5
200
  8
0
  6
HIDDEN
 62
     7
 10
569.6738445066
 20
1110.3901140007
 30
0.0
  0
SEQEND
  5
1FE
  8
0
  6
HIDDEN
 62
     7
  0
POLYLINE
  5
9C
  8
0
  6
HIDDEN
 62
     7
 66
     1
 10
0.0
 20
0.0
 30
0.0
  0
VERTEX
  5
202
  8
0
  6
HIDDEN
 62
     7
 10
570.7719207179
 20
1109.2920377894
 30
0.0
  0
VERTEX
  5
203
  8
0
  6
HIDDEN
 62
     7
 10
570.7719207179
 20
1109.2920377894
 30
0.0
  0
SEQEND
  5
201
  8
0
  6
HIDDEN
 62
     7
  0
LINE
  5
9D
  8
0
  6
HIDDEN
 62
     7
 10
571.2719207179
 20
-751.6098859993
 30
0.0
 11
571.2719207179
 21
-756.6098859993
 31
0.0
  0
LINE
  5
9E
  8
0
  6
HIDDEN
 62
     7
 10
571.2719207179
 20
-746.6098859993
 30
0.0
 11
571.2719207179
 21
-751.6098859993
 31
0.0
  0
LINE
  5
9F
  8
0
  6
HIDDEN
 62
     7
 10
566.2719207179
 20
-843.6098859993
 30
0.0
 11
566.2719207179
 21
-879.6098859993
 31
0.0
  0
LINE
  5
A0
  8
0
  6
HIDDEN
 62
     7
 10
566.2719207179
 20
1063.3901140007
 30
0.0
 11
566.2719207179
 21
-843.6098859993
 31
0.0
  0
LINE
  5
A1
  8
0
  6
HIDDEN
 62
     7
 10
566.2719207179
 20
1099.3901140007
 30
0.0
 11
566.2719207179
 21
1063.3901140007
 31
0.0
  0
LINE
  5
A2
  8
0
  6
HIDDEN
 62
     7
 10
571.8325544649
 20
1108.8901140138
 30
0.0
 11
572.8931882118
 21
1108.8901140138
 31
0.0
  0
LINE
  5
A3
  8
0
  6
HIDDEN
 62
     7
 10
569.271920731
 20
1112.5114871926
 30
0.0
 11
569.271920731
 21
1111.4508005967
 31
0.0
  0
ARC
  5
A4
  8
0
  6
HIDDEN
 62
     7
 10
571.471920718
 20
-845.9972210473
 30
0.0
 40
2.300000000000022
 50
0.0
 51
52.6241925044
  0
ARC
  5
A5
  8
0
  6
HIDDEN
 62
     7
 10
571.471920718
 20
-832.2225509512
 30
0.0
 40
2.300000000000022
 50
307.3758074956
 51
0.0
  0
ARC
  5
A6
  8
0
  6
HIDDEN
 62
     7
 10
571.471920718
 20
-845.9972210473
 30
0.0
 40
0.7999999999999762
 50
0.0
 51
52.6241925045
  0
ARC
  5
A7
  8
0
  6
HIDDEN
 62
     7
 10
571.471920718
 20
-832.2225509512
 30
0.0
 40
0.7999999999999762
 50
307.3758074955
 51
0.0
  0
ARC
  5
A8
  8
0
  6
HIDDEN
 62
     7
 10
571.471920718
 20
104.0027789527
 30
0.0
 40
2.300000000000056
 50
0.0
 51
52.6241925045
  0
ARC
  5
A9
  8
0
  6
HIDDEN
 62
     7
 10
571.471920718
 20
117.7774490488
 30
0.0
 40
2.300000000000056
 50
307.3758074956
 51
0.0
  0
ARC
  5
AA
  8
0
  6
HIDDEN
 62
     7
 10
571.471920718
 20
104.0027789527
 30
0.0
 40
0.799999999999965
 50
0.0
 51
52.6241925045
  0
ARC
  5
AB
  8
0
  6
HIDDEN
 62
     7
 10
571.471920718
 20
117.7774490488
 30
0.0
 40
0.799999999999965
 50
307.3758074955
 51
0.0
  0
ARC
  5
AC
  8
0
  6
HIDDEN
 62
     7
 10
571.471920718
 20
1054.0027789527
 30
0.0
 40
0.7999999999997955
 50
0.0
 51
52.6241925044
  0
ARC
  5
AD
  8
0
  6
HIDDEN
 62
     7
 10
571.471920718
 20
1067.7774490488
 30
0.0
 40
0.7999999999999762
 50
307.3758074955
 51
0.0
  0
ARC
  5
AE
  8
0
  6
HIDDEN
 62
     7
 10
571.471920718
 20
1054.0027789527
 30
0.0
 40
2.299999999999955
 50
0.0
 51
52.6241925044
  0
ARC
  5
AF
  8
0
  6
HIDDEN
 62
     7
 10
571.471920718
 20
1067.7774490488
 30
0.0
 40
2.300000000000203
 50
307.3758074955
 51
0.0
  0
LINE
  5
B0
  8
0
  6
HIDDEN
 62
     7
 10
571.9575530002
 20
-832.8582877571
 30
0.0
 11
569.2613601887
 21
-834.9178794882
 31
0.0
  0
LINE
  5
B1
  8
0
  6
HIDDEN
 62
     7
 10
569.2613601887
 20
-843.3018925103
 30
0.0
 11
571.9575530002
 21
-845.3614842414
 31
0.0
  0
LINE
  5
B2
  8
0
  6
HIDDEN
 62
     7
 10
571.9575530002
 20
117.1417122429
 30
0.0
 11
569.2613601887
 21
115.0821205118
 31
0.0
  0
LINE
  5
B3
  8
0
  6
HIDDEN
 62
     7
 10
569.2613601887
 20
106.6981074897
 30
0.0
 11
571.9575530002
 21
104.6385157586
 31
0.0
  0
LINE
  5
B4
  8
0
  6
HIDDEN
 62
     7
 10
571.9575530002
 20
1067.1417122429
 30
0.0
 11
569.2613601887
 21
1065.0821205118
 31
0.0
  0
LINE
  5
B5
  8
0
  6
HIDDEN
 62
     7
 10
569.2613601887
 20
1056.6981074897
 30
0.0
 11
571.9575530002
 21
1054.6385157586
 31
0.0
  0
LINE
  5
B6
  8
0
  6
HIDDEN
 62
     7
 10
572.8681135296
 20
-834.0502942682
 30
0.0
 11
570.171920718
 21
-836.1098859993
 31
0.0
  0
LINE
  5
B7
  8
0
  6
HIDDEN
 62
     7
 10
570.171920718
 20
-842.1098859993
 30
0.0
 11
572.8681135296
 21
-844.1694777303
 31
0.0
  0
LINE
  5
B8
  8
0
  6
HIDDEN
 62
     7
 10
572.8681135296
 20
115.9497057318
 30
0.0
 11
570.171920718
 21
113.8901140007
 31
0.0
  0
LINE
  5
B9
  8
0
  6
HIDDEN
 62
     7
 10
570.171920718
 20
107.8901140007
 30
0.0
 11
572.8681135296
 21
105.8305222697
 31
0.0
  0
LINE
  5
BA
  8
0
  6
HIDDEN
 62
     7
 10
572.8681135296
 20
1065.9497057318
 30
0.0
 11
570.171920718
 21
1063.8901140007
 31
0.0
  0
LINE
  5
BB
  8
0
  6
HIDDEN
 62
     7
 10
570.171920718
 20
1057.8901140007
 30
0.0
 11
572.8681135296
 21
1055.8305222697
 31
0.0
  0
LINE
  5
BC
  8
0
  6
HIDDEN
 62
     7
 10
569.2613601887
 20
-843.3018925103
 30
0.0
 11
570.171920718
 21
-842.1098859993
 31
0.0
  0
LINE
  5
BD
  8
0
  6
HIDDEN
 62
     7
 10
570.171920718
 20
-836.1098859993
 30
0.0
 11
569.2613601887
 21
-834.9178794882
 31
0.0
  0
LINE
  5
BE
  8
0
  6
HIDDEN
 62
     7
 10
569.2613601887
 20
106.6981074897
 30
0.0
 11
570.171920718
 21
107.8901140007
 31
0.0
  0
LINE
  5
BF
  8
0
  6
HIDDEN
 62
     7
 10
570.171920718
 20
113.8901140007
 30
0.0
 11
569.2613601887
 21
115.0821205118
 31
0.0
  0
LINE
  5
C0
  8
0
  6
HIDDEN
 62
     7
 10
569.2613601887
 20
1056.6981074897
 30
0.0
 11
570.171920718
 21
1057.8901140007
 31
0.0
  0
LINE
  5
C1
  8
0
  6
HIDDEN
 62
     7
 10
570.171920718
 20
1063.8901140007
 30
0.0
 11
569.2613601887
 21
1065.0821205118
 31
0.0
  0
LINE
  5
C2
  8
0
  6
HIDDEN
 62
     7
 10
560.2719207179
 20
1111.8901140007
 30
0.0
 11
560.2719207179
 21
1113.3901140007
 31
0.0
  0
ARC
  5
C3
  8
0
  6
HIDDEN
 62
     7
 10
571.4719207178
 20
-876.4972210473
 30
0.0
 40
0.8000000000462251
 50
0.0
 51
52.6241925045
  0
ARC
  5
C4
  8
0
  6
HIDDEN
 62
     7
 10
571.4719207178
 20
-862.7225509512
 30
0.0
 40
0.8000000000462251
 50
307.3758074955
 51
0.0
  0
ARC
  5
C5
  8
0
  6
HIDDEN
 62
     7
 10
571.4719207178
 20
-876.4972210473
 30
0.0
 40
2.300000000000044
 50
0.0
 51
52.6241925045
  0
ARC
  5
C6
  8
0
  6
HIDDEN
 62
     7
 10
571.4719207178
 20
-862.7225509512
 30
0.0
 40
2.300000000000044
 50
307.3758074955
 51
0.0
  0
LINE
  5
C7
  8
0
  6
HIDDEN
 62
     7
 10
571.9575530001
 20
-863.3582877571
 30
0.0
 11
569.2613601885
 21
-865.4178794882
 31
0.0
  0
LINE
  5
C8
  8
0
  6
HIDDEN
 62
     7
 10
569.2613601885
 20
-873.8018925103
 30
0.0
 11
571.9575530001
 21
-875.8614842414
 31
0.0
  0
LINE
  5
C9
  8
0
  6
HIDDEN
 62
     7
 10
572.8681135294
 20
-864.5502942682
 30
0.0
 11
570.1719207178
 21
-866.6098859993
 31
0.0
  0
LINE
  5
CA
  8
0
  6
HIDDEN
 62
     7
 10
570.1719207178
 20
-872.6098859993
 30
0.0
 11
572.8681135294
 21
-874.6694777303
 31
0.0
  0
LINE
  5
CB
  8
0
  6
HIDDEN
 62
     7
 10
569.2613601885
 20
-873.8018925103
 30
0.0
 11
570.1719207178
 21
-872.6098859993
 31
0.0
  0
LINE
  5
CC
  8
0
  6
HIDDEN
 62
     7
 10
570.1719207178
 20
-866.6098859993
 30
0.0
 11
569.2613601885
 21
-865.4178794882
 31
0.0
  0
LINE
  5
CD
  8
0
  6
HIDDEN
 62
     7
 10
572.8932282118
 20
1108.8901140138
 30
0.0
 11
572.8932938947
 21
1108.8901140138
 31
0.0
  0
LINE
  5
CE
  8
0
  6
HIDDEN
 62
     7
 10
572.2719207179
 20
-746.6098859993
 30
0.0
 11
571.2719207179
 21
-746.6098859993
 31
0.0
  0
LINE
  5
CF
  8
0
  6
HIDDEN
 62
     7
 10
571.2719207179
 20
-756.6098859993
 30
0.0
 11
572.2719207179
 21
-756.6098859993
 31
0.0
  0
LINE
  5
D0
  8
0
  6
HIDDEN
 62
     7
 10
571.2719207179
 20
-747.6098859993
 30
0.0
 11
556.2719207179
 21
-747.6098859993
 31
0.0
  0
LINE
  5
D1
  8
0
  6
HIDDEN
 62
     7
 10
556.2719207179
 20
-755.6098859993
 30
0.0
 11
571.2719207179
 21
-755.6098859993
 31
0.0
  0
LINE
  5
D2
  8
0
  6
CONTINUOUS
 62
     7
 10
-130.519492438
 20
-1019.3776610721
 30
0.0
 11
-130.4130351403
 21
-1018.2524258006
 31
0.0
  0
LINE
  5
D3
  8
0
  6
CONTINUOUS
 62
     7
 10
415.980507562
 20
-1019.3776610721
 30
0.0
 11
415.874206517
 21
-1018.2532445
 31
0.0
  0
LINE
  5
D4
  8
0
  6
CONTINUOUS
 62
     7
 10
-131.519492438
 20
-1003.3776610721
 30
0.0
 11
-117.019492438
 21
-1003.3776610721
 31
0.0
  0
LINE
  5
D5
  8
0
  6
CONTINUOUS
 62
     7
 10
-117.019492438
 20
-1003.3776610721
 30
0.0
 11
-130.8981720945
 21
-1017.2563407286
 31
0.0
  0
ARC
  5
D6
  8
0
  6
CONTINUOUS
 62
     7
 10
-133.019492438
 20
-1019.3776610721
 30
0.0
 40
3.000000000000218
 50
45.0
 51
60.0
  0
LINE
  5
D7
  8
0
  6
CONTINUOUS
 62
     7
 10
419.980507562
 20
-1003.3776610721
 30
0.0
 11
419.980507562
 21
-1016.7795848608
 31
0.0
  0
POLYLINE
  5
D8
  8
0
  6
CONTINUOUS
 62
     7
 66
     1
 10
0.0
 20
0.0
 30
0.0
  0
VERTEX
  5
205
  8
0
  6
CONTINUOUS
 62
     7
 10
416.980507562
 20
-1016.7795848608
 30
0.0
  0
VERTEX
  5
206
  8
0
  6
CONTINUOUS
 62
     7
 10
417.5302252346
 20
-1016.6060517445
 30
0.0
  0
VERTEX
  5
207
  8
0
  6
CONTINUOUS
 62
     7
 10
418.0900219954
 20
-1016.4798891901
 30
0.0
  0
VERTEX
  5
208
  8
0
  6
CONTINUOUS
 62
     7
 10
418.6254244804
 20
-1016.4032208486
 30
0.0
  0
VERTEX
  5
209
  8
0
  6
CONTINUOUS
 62
     7
 10
419.1018337996
 20
-1016.3776610854
 30
0.0
  0
VERTEX
  5
20A
  8
0
  6
CONTINUOUS
 62
     7
 10
419.4892973041
 20
-1016.4032160919
 30
0.0
  0
VERTEX
  5
20B
  8
0
  6
CONTINUOUS
 62
     7
 10
419.7678020282
 20
-1016.4798920556
 30
0.0
  0
VERTEX
  5
20C
  8
0
  6
CONTINUOUS
 62
     7
 10
419.9287509151
 20
-1016.6050162433
 30
0.0
  0
VERTEX
  5
20D
  8
0
  6
CONTINUOUS
 62
     7
 10
419.980507562
 20
-1016.7795848608
 30
0.0
  0
SEQEND
  5
204
  8
0
  6
CONTINUOUS
 62
     7
  0
LINE
  5
D9
  8
0
  6
CONTINUOUS
 62
     7
 10
416.980507562
 20
-1003.3776610721
 30
0.0
 11
419.980507562
 21
-1003.3776610721
 31
0.0
  0
ARC
  5
DA
  8
0
  6
CONTINUOUS
 62
     7
 10
-133.019492438
 20
-1019.3776610721
 30
0.0
 40
3.000000000000057
 50
30.0
 51
45.0
  0
LINE
  5
DB
  8
0
  6
CONTINUOUS
 62
     7
 10
-130.8981720945
 20
-1017.2563407286
 30
0.0
 11
-117.019492438
 21
-1003.3776610721
 31
0.0
  0
LINE
  5
DC
  8
0
  6
CONTINUOUS
 62
     7
 10
-117.019492438
 20
-1003.3776610721
 30
0.0
 11
-95.2309738348
 21
-1003.3776610721
 31
0.0
  0
ARC
  5
DD
  8
0
  6
CONTINUOUS
 62
     7
 10
-82.269492438
 20
-984.3776610721
 30
0.0
 40
23.00000000000016
 50
235.6988472432
 51
327.0792654719
  0
LINE
  5
DE
  8
0
  6
CONTINUOUS
 62
     7
 10
-62.9627578617
 20
-996.8776610721
 30
0.0
 11
348.4237729857
 21
-996.8776610721
 31
0.0
  0
ARC
  5
DF
  8
0
  6
CONTINUOUS
 62
     7
 10
367.730507562
 20
-984.3776610721
 30
0.0
 40
23.0000000000002
 50
212.9207345281
 51
304.3011527568
  0
LINE
  5
E0
  8
0
  6
CONTINUOUS
 62
     7
 10
380.6919889588
 20
-1003.3776610721
 30
0.0
 11
402.480507562
 21
-1003.3776610721
 31
0.0
  0
LINE
  5
E1
  8
0
  6
CONTINUOUS
 62
     7
 10
402.480507562
 20
-1003.3776610721
 30
0.0
 11
416.3591872184
 21
-1017.2563407286
 31
0.0
  0
ARC
  5
E2
  8
0
  6
CONTINUOUS
 62
     7
 10
418.480507562
 20
-1019.3776610721
 30
0.0
 40
3.000000000000064
 50
135.0
 51
150.0
  0
LINE
  5
E3
  8
0
  6
CONTINUOUS
 62
     7
 10
-134.519492438
 20
-1016.7795848608
 30
0.0
 11
-134.519492438
 21
-1003.3776610721
 31
0.0
  0
LINE
  5
E4
  8
0
  6
CONTINUOUS
 62
     7
 10
-134.519492438
 20
-1003.3776610721
 30
0.0
 11
-131.519492438
 21
-1003.3776610721
 31
0.0
  0
POLYLINE
  5
E5
  8
0
  6
CONTINUOUS
 62
     7
 66
     1
 10
0.0
 20
0.0
 30
0.0
  0
VERTEX
  5
20F
  8
0
  6
CONTINUOUS
 62
     7
 10
-134.519492438
 20
-1016.7795848608
 30
0.0
  0
VERTEX
  5
210
  8
0
  6
CONTINUOUS
 62
     7
 10
-134.4686974971
 20
-1016.6060517445
 30
0.0
  0
VERTEX
  5
211
  8
0
  6
CONTINUOUS
 62
     7
 10
-134.3067810348
 20
-1016.4798891901
 30
0.0
  0
VERTEX
  5
212
  8
0
  6
CONTINUOUS
 62
     7
 10
-134.0283264955
 20
-1016.4032208486
 30
0.0
  0
VERTEX
  5
213
  8
0
  6
CONTINUOUS
 62
     7
 10
-133.6408068875
 20
-1016.3776610854
 30
0.0
  0
VERTEX
  5
214
  8
0
  6
CONTINUOUS
 62
     7
 10
-133.1644769454
 20
-1016.4032160919
 30
0.0
  0
VERTEX
  5
215
  8
0
  6
CONTINUOUS
 62
     7
 10
-132.6289921264
 20
-1016.4798920556
 30
0.0
  0
VERTEX
  5
216
  8
0
  6
CONTINUOUS
 62
     7
 10
-132.0743447893
 20
-1016.6050162432
 30
0.0
  0
VERTEX
  5
217
  8
0
  6
CONTINUOUS
 62
     7
 10
-131.519492438
 20
-1016.7795848608
 30
0.0
  0
SEQEND
  5
20E
  8
0
  6
CONTINUOUS
 62
     7
  0
ARC
  5
E6
  8
0
  6
CONTINUOUS
 62
     7
 10
418.480507562
 20
-1019.3776610721
 30
0.0
 40
3.000000000000189
 50
120.0
 51
135.0
  0
LINE
  5
E7
  8
0
  6
CONTINUOUS
 62
     7
 10
416.3591872184
 20
-1017.2563407286
 30
0.0
 11
402.480507562
 21
-1003.3776610721
 31
0.0
  0
LINE
  5
E8
  8
0
  6
CONTINUOUS
 62
     7
 10
402.480507562
 20
-1003.3776610721
 30
0.0
 11
416.980507562
 21
-1003.3776610721
 31
0.0
  0
LINE
  5
E9
  8
0
  6
CONTINUOUS
 62
     7
 10
-133.019492438
 20
-1016.7795848608
 30
0.0
 11
-134.519492438
 21
-1016.7795848608
 31
0.0
  0
LINE
  5
EA
  8
0
  6
CONTINUOUS
 62
     7
 10
415.8824313506
 20
-1020.8776610721
 30
0.0
 11
-130.4214162267
 21
-1020.8776610721
 31
0.0
  0
POLYLINE
  5
EB
  8
0
  6
CONTINUOUS
 62
     7
 66
     1
 10
0.0
 20
0.0
 30
0.0
  0
VERTEX
  5
219
  8
0
  6
CONTINUOUS
 62
     7
 10
-130.4214162267
 20
-1017.8776610721
 30
0.0
  0
VERTEX
  5
21A
  8
0
  6
CONTINUOUS
 62
     7
 10
-130.2478831104
 20
-1018.4273787447
 30
0.0
  0
VERTEX
  5
21B
  8
0
  6
CONTINUOUS
 62
     7
 10
-130.121720556
 20
-1018.9871755055
 30
0.0
  0
VERTEX
  5
21C
  8
0
  6
CONTINUOUS
 62
     7
 10
-130.0450522145
 20
-1019.5225779864
 30
0.0
  0
VERTEX
  5
21D
  8
0
  6
CONTINUOUS
 62
     7
 10
-130.0194924513
 20
-1019.9989873097
 30
0.0
  0
VERTEX
  5
21E
  8
0
  6
CONTINUOUS
 62
     7
 10
-130.0450474578
 20
-1020.3864508116
 30
0.0
  0
VERTEX
  5
21F
  8
0
  6
CONTINUOUS
 62
     7
 10
-130.1217234215
 20
-1020.6649555383
 30
0.0
  0
VERTEX
  5
220
  8
0
  6
CONTINUOUS
 62
     7
 10
-130.2468476084
 20
-1020.8259044252
 30
0.0
  0
VERTEX
  5
221
  8
0
  6
CONTINUOUS
 62
     7
 10
-130.4214162267
 20
-1020.8776610721
 30
0.0
  0
SEQEND
  5
218
  8
0
  6
CONTINUOUS
 62
     7
  0
POLYLINE
  5
EC
  8
0
  6
CONTINUOUS
 62
     7
 66
     1
 10
0.0
 20
0.0
 30
0.0
  0
VERTEX
  5
223
  8
0
  6
CONTINUOUS
 62
     7
 10
415.8824313506
 20
-1020.8776610721
 30
0.0
  0
VERTEX
  5
224
  8
0
  6
CONTINUOUS
 62
     7
 10
415.7088982344
 20
-1020.8268661312
 30
0.0
  0
VERTEX
  5
225
  8
0
  6
CONTINUOUS
 62
     7
 10
415.58273568
 20
-1020.6649496689
 30
0.0
  0
VERTEX
  5
226
  8
0
  6
CONTINUOUS
 62
     7
 10
415.5060673376
 20
-1020.3864951306
 30
0.0
  0
VERTEX
  5
227
  8
0
  6
CONTINUOUS
 62
     7
 10
415.4805075753
 20
-1019.9989755216
 30
0.0
  0
VERTEX
  5
228
  8
0
  6
CONTINUOUS
 62
     7
 10
415.5060625826
 20
-1019.5226455751
 30
0.0
  0
VERTEX
  5
229
  8
0
  6
CONTINUOUS
 62
     7
 10
415.5827385455
 20
-1018.9871607605
 30
0.0
  0
VERTEX
  5
22A
  8
0
  6
CONTINUOUS
 62
     7
 10
415.7078627331
 20
-1018.4325134234
 30
0.0
  0
VERTEX
  5
22B
  8
0
  6
CONTINUOUS
 62
     7
 10
415.8824313506
 20
-1017.8776610721
 30
0.0
  0
SEQEND
  5
222
  8
0
  6
CONTINUOUS
 62
     7
  0
LINE
  5
ED
  8
0
  6
CONTINUOUS
 62
     7
 10
-130.4214162267
 20
-1020.8776610721
 30
0.0
 11
-130.4214162267
 21
-1019.3776610721
 31
0.0
  0
ARC
  5
EE
  8
0
  6
CONTINUOUS
 62
     7
 10
-130.393351021
 20
-1018.9998221173
 30
0.0
 40
0.378879837839128
 50
265.7519724005
 51
9.3397136441
  0
LINE
  5
EF
  8
0
  6
CONTINUOUS
 62
     7
 10
419.980507562
 20
-1016.7795848608
 30
0.0
 11
418.480507562
 21
-1016.7795848608
 31
0.0
  0
ARC
  5
F0
  8
0
  6
CONTINUOUS
 62
     7
 10
418.1026686074
 20
-1016.7515196549
 30
0.0
 40
0.3788798376904901
 50
355.751972372
 51
99.3397136726
  0
ARC
  5
F1
  8
0
  6
CONTINUOUS
 62
     7
 10
415.8645343297
 20
-1018.9905162073
 30
0.0
 40
0.3875583178629606
 50
172.2577539952
 51
272.6467979578
  0
LINE
  5
F2
  8
0
  6
CONTINUOUS
 62
     7
 10
415.8824313506
 20
-1019.3776610721
 30
0.0
 11
415.8824313506
 21
-1020.8776610721
 31
0.0
  0
LINE
  5
F3
  8
0
  6
CONTINUOUS
 62
     7
 10
-133.019492438
 20
-1017.8776610721
 30
0.0
 11
-134.519492438
 21
-1017.8776610721
 31
0.0
  0
LINE
  5
F4
  8
0
  6
CONTINUOUS
 62
     7
 10
-134.519492438
 20
-1017.8776610721
 30
0.0
 11
-134.519492438
 21
-1016.7795848608
 31
0.0
  0
LINE
  5
F5
  8
0
  6
CONTINUOUS
 62
     7
 10
-133.019492438
 20
-1017.8776610721
 30
0.0
 11
-133.019492438
 21
-1016.7795848608
 31
0.0
  0
LINE
  5
F6
  8
0
  6
CONTINUOUS
 62
     7
 10
419.980507562
 20
-1017.8776610721
 30
0.0
 11
418.480507562
 21
-1017.8776610721
 31
0.0
  0
LINE
  5
F7
  8
0
  6
CONTINUOUS
 62
     7
 10
418.480507562
 20
-1016.7795848608
 30
0.0
 11
418.480507562
 21
-1017.8776610721
 31
0.0
  0
LINE
  5
F8
  8
0
  6
CONTINUOUS
 62
     7
 10
419.980507562
 20
-1016.7795848608
 30
0.0
 11
419.980507562
 21
-1017.8776610721
 31
0.0
  0
LINE
  5
F9
  8
0
  6
CONTINUOUS
 62
     7
 10
-131.519492438
 20
-1019.3776610721
 30
0.0
 11
-131.519492438
 21
-1020.8776610721
 31
0.0
  0
LINE
  5
FA
  8
0
  6
CONTINUOUS
 62
     7
 10
-130.4214162267
 20
-1019.3776610721
 30
0.0
 11
-131.519492438
 21
-1019.3776610721
 31
0.0
  0
LINE
  5
FB
  8
0
  6
CONTINUOUS
 62
     7
 10
-130.4214162267
 20
-1020.8776610721
 30
0.0
 11
-131.519492438
 21
-1020.8776610721
 31
0.0
  0
LINE
  5
FC
  8
0
  6
CONTINUOUS
 62
     7
 10
416.980507562
 20
-1019.3776610721
 30
0.0
 11
415.8824313506
 21
-1019.3776610721
 31
0.0
  0
LINE
  5
FD
  8
0
  6
CONTINUOUS
 62
     7
 10
416.980507562
 20
-1020.8776610721
 30
0.0
 11
416.980507562
 21
-1019.3776610721
 31
0.0
  0
LINE
  5
FE
  8
0
  6
CONTINUOUS
 62
     7
 10
416.980507562
 20
-1020.8776610721
 30
0.0
 11
415.8824313506
 21
-1020.8776610721
 31
0.0
  0
ARC
  5
FF
  8
0
  6
CONTINUOUS
 62
     7
 10
416.980507562
 20
-1017.8776610721
 30
0.0
 40
1.500000000000341
 50
270.0
 51
360.0
  0
ARC
  5
100
  8
0
  6
CONTINUOUS
 62
     7
 10
416.980507562
 20
-1017.8776610721
 30
0.0
 40
3.000000000000341
 50
270.0
 51
360.0
  0
ARC
  5
101
  8
0
  6
CONTINUOUS
 62
     7
 10
-131.519492438
 20
-1017.8776610721
 30
0.0
 40
1.500000000000341
 50
180.0
 51
270.0
  0
ARC
  5
102
  8
0
  6
CONTINUOUS
 62
     7
 10
-131.519492438
 20
-1017.8776610721
 30
0.0
 40
3.000000000000142
 50
180.0
 51
270.0
  0
ARC
  5
103
  8
0
  6
HIDDEN
 62
     7
 10
-124.519492438
 20
-1019.3776610721
 30
0.0
 40
6.00000000000001
 50
0.0
 51
169.1907898743
  0
ARC
  5
104
  8
0
  6
HIDDEN
 62
     7
 10
409.980507562
 20
-1019.3776610721
 30
0.0
 40
6.000000000000057
 50
10.8012510092
 51
180.0
  0
POLYLINE
  5
105
  8
0
  6
HIDDEN
 62
     7
 66
     1
 10
0.0
 20
0.0
 30
0.0
  0
VERTEX
  5
22D
  8
0
  6
HIDDEN
 62
     7
 10
-131.519492438
 20
-1016.7795848608
 30
0.0
  0
VERTEX
  5
22E
  8
0
  6
HIDDEN
 62
     7
 10
-131.519492438
 20
-1016.7795848608
 30
0.0
  0
SEQEND
  5
22C
  8
0
  6
HIDDEN
 62
     7
  0
ARC
  5
106
  8
0
  6
HIDDEN
 62
     7
 10
-132.6323475698
 20
-1016.7616878434
 30
0.0
 40
0.3875583210310691
 50
82.2577539474
 51
182.6467974132
  0
POLYLINE
  5
107
  8
0
  6
HIDDEN
 62
     7
 66
     1
 10
0.0
 20
0.0
 30
0.0
  0
VERTEX
  5
230
  8
0
  6
HIDDEN
 62
     7
 10
-130.4214162267
 20
-1017.8776610721
 30
0.0
  0
VERTEX
  5
231
  8
0
  6
HIDDEN
 62
     7
 10
-130.4214162267
 20
-1017.8776610721
 30
0.0
  0
SEQEND
  5
22F
  8
0
  6
HIDDEN
 62
     7
  0
POLYLINE
  5
108
  8
0
  6
HIDDEN
 62
     7
 66
     1
 10
0.0
 20
0.0
 30
0.0
  0
VERTEX
  5
233
  8
0
  6
HIDDEN
 62
     7
 10
416.980507562
 20
-1016.7795848608
 30
0.0
  0
VERTEX
  5
234
  8
0
  6
HIDDEN
 62
     7
 10
416.980507562
 20
-1016.7795848608
 30
0.0
  0
SEQEND
  5
232
  8
0
  6
HIDDEN
 62
     7
  0
POLYLINE
  5
109
  8
0
  6
HIDDEN
 62
     7
 66
     1
 10
0.0
 20
0.0
 30
0.0
  0
VERTEX
  5
236
  8
0
  6
HIDDEN
 62
     7
 10
415.8824313506
 20
-1017.8776610721
 30
0.0
  0
VERTEX
  5
237
  8
0
  6
HIDDEN
 62
     7
 10
415.8824313506
 20
-1017.8776610721
 30
0.0
  0
SEQEND
  5
235
  8
0
  6
HIDDEN
 62
     7
  0
LINE
  5
10A
  8
0
  6
HIDDEN
 62
     7
 10
-133.019492438
 20
-1016.7795848608
 30
0.0
 11
-133.019492438
 21
-1003.3776610721
 31
0.0
  0
LINE
  5
10B
  8
0
  6
HIDDEN
 62
     7
 10
418.480507562
 20
-1003.3776610721
 30
0.0
 11
418.480507562
 21
-1016.7795848608
 31
0.0
  0
LINE
  5
10C
  8
0
  6
HIDDEN
 62
     7
 10
415.8824313506
 20
-1019.3776610721
 30
0.0
 11
-130.4214162267
 21
-1019.3776610721
 31
0.0
  0
LINE
  5
10D
  8
0
  6
HIDDEN
 62
     7
 10
-107.0774859269
 20
-1016.3671005428
 30
0.0
 11
-115.4614989491
 21
-1016.3671005428
 31
0.0
  0
LINE
  5
10E
  8
0
  6
HIDDEN
 62
     7
 10
400.9225140731
 20
-1016.3671005428
 30
0.0
 11
392.5385010509
 21
-1016.3671005428
 31
0.0
  0
LINE
  5
10F
  8
0
  6
HIDDEN
 62
     7
 10
399.730507562
 20
-1017.2776610721
 30
0.0
 11
393.730507562
 21
-1017.2776610721
 31
0.0
  0
LINE
  5
110
  8
0
  6
HIDDEN
 62
     7
 10
-108.269492438
 20
-1017.2776610721
 30
0.0
 11
-114.269492438
 21
-1017.2776610721
 31
0.0
  0
LINE
  5
111
  8
0
  6
HIDDEN
 62
     7
 10
21.9225140731
 20
-1016.3671005427
 30
0.0
 11
13.5385010509
 21
-1016.3671005427
 31
0.0
  0
LINE
  5
112
  8
0
  6
HIDDEN
 62
     7
 10
271.9225140731
 20
-1016.3671005427
 30
0.0
 11
263.5385010509
 21
-1016.3671005427
 31
0.0
  0
LINE
  5
113
  8
0
  6
HIDDEN
 62
     7
 10
20.730507562
 20
-1017.277661072
 30
0.0
 11
14.730507562
 21
-1017.277661072
 31
0.0
  0
LINE
  5
114
  8
0
  6
HIDDEN
 62
     7
 10
270.730507562
 20
-1017.277661072
 30
0.0
 11
264.730507562
 21
-1017.277661072
 31
0.0
  0
LINE
  5
115
  8
0
  6
HIDDEN
 62
     7
 10
147.730507562
 20
-1018.3776610721
 30
0.0
 11
137.730507562
 21
-1018.3776610721
 31
0.0
  0
LINE
  5
116
  8
0
  6
HIDDEN
 62
     7
 10
146.730507562
 20
-999.8776610721
 30
0.0
 11
138.730507562
 21
-999.8776610721
 31
0.0
  0
LINE
  5
117
  8
0
  6
HIDDEN
 62
     7
 10
146.230507562
 20
-999.3776610721
 30
0.0
 11
139.230507562
 21
-999.3776610721
 31
0.0
  0
LINE
  5
118
  8
0
  6
HIDDEN
 62
     7
 10
-88.519492438
 20
-1013.3776610721
 30
0.0
 11
-124.519492438
 21
-1013.3776610721
 31
0.0
  0
LINE
  5
119
  8
0
  6
HIDDEN
 62
     7
 10
409.980507562
 20
-1013.3776610721
 30
0.0
 11
373.980507562
 21
-1013.3776610721
 31
0.0
  0
LINE
  5
11A
  8
0
  6
HIDDEN
 62
     7
 10
373.980507562
 20
-1013.3776610721
 30
0.0
 11
-88.519492438
 21
-1013.3776610721
 31
0.0
  0
LINE
  5
11B
  8
0
  6
HIDDEN
 62
     7
 10
-132.580126185
 20
-1016.3776610851
 30
0.0
 11
-133.6407599319
 21
-1016.3776610851
 31
0.0
  0
LINE
  5
11C
  8
0
  6
HIDDEN
 62
     7
 10
-130.019492451
 20
-1019.999034264
 30
0.0
 11
-130.019492451
 21
-1018.938347668
 31
0.0
  0
LINE
  5
11D
  8
0
  6
HIDDEN
 62
     7
 10
419.1018807539
 20
-1016.3776610851
 30
0.0
 11
418.0411941579
 21
-1016.3776610851
 31
0.0
  0
LINE
  5
11E
  8
0
  6
HIDDEN
 62
     7
 10
415.480507575
 20
-1018.9382948266
 30
0.0
 11
415.480507575
 21
-1019.9989285811
 31
0.0
  0
ARC
  5
11F
  8
0
  6
HIDDEN
 62
     7
 10
-118.1568274861
 20
-1018.5776610721
 30
0.0
 40
2.299999999999955
 50
270.0
 51
322.6241925045
  0
ARC
  5
120
  8
0
  6
HIDDEN
 62
     7
 10
-104.3821573899
 20
-1018.5776610721
 30
0.0
 40
2.299999999999955
 50
217.3758074955
 51
270.0
  0
ARC
  5
121
  8
0
  6
HIDDEN
 62
     7
 10
389.8431725139
 20
-1018.5776610721
 30
0.0
 40
0.8
 50
270.0
 51
322.6241925044
  0
ARC
  5
122
  8
0
  6
HIDDEN
 62
     7
 10
403.6178426101
 20
-1018.5776610721
 30
0.0
 40
0.8
 50
217.3758074956
 51
270.0
  0
ARC
  5
123
  8
0
  6
HIDDEN
 62
     7
 10
-118.1568274861
 20
-1018.5776610721
 30
0.0
 40
0.8000000000000114
 50
270.0
 51
322.6241925045
  0
ARC
  5
124
  8
0
  6
HIDDEN
 62
     7
 10
-104.3821573899
 20
-1018.5776610721
 30
0.0
 40
0.8
 50
217.3758074956
 51
270.0
  0
ARC
  5
125
  8
0
  6
HIDDEN
 62
     7
 10
389.8431725139
 20
-1018.5776610721
 30
0.0
 40
2.299999999999955
 50
270.0
 51
322.6241925045
  0
ARC
  5
126
  8
0
  6
HIDDEN
 62
     7
 10
403.6178426101
 20
-1018.5776610721
 30
0.0
 40
2.299999999999955
 50
217.3758074955
 51
270.0
  0
LINE
  5
127
  8
0
  6
HIDDEN
 62
     7
 10
-105.0178941958
 20
-1019.0632933544
 30
0.0
 11
-107.0774859269
 21
-1016.3671005428
 31
0.0
  0
LINE
  5
128
  8
0
  6
HIDDEN
 62
     7
 10
-115.4614989491
 20
-1016.3671005428
 30
0.0
 11
-117.5210906802
 21
-1019.0632933544
 31
0.0
  0
LINE
  5
129
  8
0
  6
HIDDEN
 62
     7
 10
402.9821058042
 20
-1019.0632933544
 30
0.0
 11
400.9225140731
 21
-1016.3671005428
 31
0.0
  0
LINE
  5
12A
  8
0
  6
HIDDEN
 62
     7
 10
392.5385010509
 20
-1016.3671005428
 30
0.0
 11
390.4789093198
 21
-1019.0632933544
 31
0.0
  0
LINE
  5
12B
  8
0
  6
HIDDEN
 62
     7
 10
401.7900992931
 20
-1019.9738538837
 30
0.0
 11
399.730507562
 21
-1017.2776610721
 31
0.0
  0
LINE
  5
12C
  8
0
  6
HIDDEN
 62
     7
 10
393.730507562
 20
-1017.2776610721
 30
0.0
 11
391.6709158309
 21
-1019.9738538837
 31
0.0
  0
LINE
  5
12D
  8
0
  6
HIDDEN
 62
     7
 10
-106.2099007069
 20
-1019.9738538837
 30
0.0
 11
-108.269492438
 21
-1017.2776610721
 31
0.0
  0
LINE
  5
12E
  8
0
  6
HIDDEN
 62
     7
 10
-114.269492438
 20
-1017.2776610721
 30
0.0
 11
-116.3290841691
 21
-1019.9738538837
 31
0.0
  0
LINE
  5
12F
  8
0
  6
HIDDEN
 62
     7
 10
-115.4614989491
 20
-1016.3671005428
 30
0.0
 11
-114.269492438
 21
-1017.2776610721
 31
0.0
  0
LINE
  5
130
  8
0
  6
HIDDEN
 62
     7
 10
-108.269492438
 20
-1017.2776610721
 30
0.0
 11
-107.0774859269
 21
-1016.3671005428
 31
0.0
  0
LINE
  5
131
  8
0
  6
HIDDEN
 62
     7
 10
392.5385010509
 20
-1016.3671005428
 30
0.0
 11
393.730507562
 21
-1017.2776610721
 31
0.0
  0
LINE
  5
132
  8
0
  6
HIDDEN
 62
     7
 10
399.730507562
 20
-1017.2776610721
 30
0.0
 11
400.9225140731
 21
-1016.3671005428
 31
0.0
  0
ARC
  5
133
  8
0
  6
HIDDEN
 62
     7
 10
260.8431725139
 20
-1018.577661072
 30
0.0
 40
2.299999999999955
 50
270.0
 51
322.6241925045
  0
ARC
  5
134
  8
0
  6
HIDDEN
 62
     7
 10
274.6178426101
 20
-1018.577661072
 30
0.0
 40
2.299999999999955
 50
217.3758074955
 51
270.0
  0
ARC
  5
135
  8
0
  6
HIDDEN
 62
     7
 10
10.8431725139
 20
-1018.577661072
 30
0.0
 40
2.299999999999959
 50
270.0
 51
322.6241925045
  0
ARC
  5
136
  8
0
  6
HIDDEN
 62
     7
 10
24.6178426101
 20
-1018.577661072
 30
0.0
 40
2.299999999999982
 50
217.3758074955
 51
270.0
  0
ARC
  5
137
  8
0
  6
HIDDEN
 62
     7
 10
260.8431725139
 20
-1018.577661072
 30
0.0
 40
0.8000000000461114
 50
270.0
 51
322.6241925045
  0
ARC
  5
138
  8
0
  6
HIDDEN
 62
     7
 10
274.6178426101
 20
-1018.577661072
 30
0.0
 40
0.8000000000461114
 50
217.3758074955
 51
270.0
  0
ARC
  5
139
  8
0
  6
HIDDEN
 62
     7
 10
10.8431725139
 20
-1018.577661072
 30
0.0
 40
0.8000000000461114
 50
270.0
 51
322.6241925045
  0
ARC
  5
13A
  8
0
  6
HIDDEN
 62
     7
 10
24.6178426101
 20
-1018.577661072
 30
0.0
 40
0.8000000000461114
 50
217.3758074955
 51
270.0
  0
LINE
  5
13B
  8
0
  6
HIDDEN
 62
     7
 10
23.9821058042
 20
-1019.0632933543
 30
0.0
 11
21.9225140731
 21
-1016.3671005427
 31
0.0
  0
LINE
  5
13C
  8
0
  6
HIDDEN
 62
     7
 10
13.5385010509
 20
-1016.3671005427
 30
0.0
 11
11.4789093198
 21
-1019.0632933543
 31
0.0
  0
LINE
  5
13D
  8
0
  6
HIDDEN
 62
     7
 10
273.9821058042
 20
-1019.0632933543
 30
0.0
 11
271.9225140731
 21
-1016.3671005427
 31
0.0
  0
LINE
  5
13E
  8
0
  6
HIDDEN
 62
     7
 10
263.5385010509
 20
-1016.3671005427
 30
0.0
 11
261.4789093198
 21
-1019.0632933543
 31
0.0
  0
LINE
  5
13F
  8
0
  6
HIDDEN
 62
     7
 10
22.7900992931
 20
-1019.9738538836
 30
0.0
 11
20.730507562
 21
-1017.277661072
 31
0.0
  0
LINE
  5
140
  8
0
  6
HIDDEN
 62
     7
 10
14.730507562
 20
-1017.277661072
 30
0.0
 11
12.6709158309
 21
-1019.9738538836
 31
0.0
  0
LINE
  5
141
  8
0
  6
HIDDEN
 62
     7
 10
272.7900992931
 20
-1019.9738538836
 30
0.0
 11
270.730507562
 21
-1017.277661072
 31
0.0
  0
LINE
  5
142
  8
0
  6
HIDDEN
 62
     7
 10
264.730507562
 20
-1017.277661072
 30
0.0
 11
262.6709158309
 21
-1019.9738538836
 31
0.0
  0
LINE
  5
143
  8
0
  6
HIDDEN
 62
     7
 10
13.5385010509
 20
-1016.3671005427
 30
0.0
 11
14.730507562
 21
-1017.277661072
 31
0.0
  0
LINE
  5
144
  8
0
  6
HIDDEN
 62
     7
 10
20.730507562
 20
-1017.277661072
 30
0.0
 11
21.9225140731
 21
-1016.3671005427
 31
0.0
  0
LINE
  5
145
  8
0
  6
HIDDEN
 62
     7
 10
263.5385010509
 20
-1016.3671005427
 30
0.0
 11
264.730507562
 21
-1017.277661072
 31
0.0
  0
LINE
  5
146
  8
0
  6
HIDDEN
 62
     7
 10
270.730507562
 20
-1017.277661072
 30
0.0
 11
271.9225140731
 21
-1016.3671005427
 31
0.0
  0
LINE
  5
147
  8
0
  6
HIDDEN
 62
     7
 10
147.730507562
 20
-1019.3776610721
 30
0.0
 11
147.730507562
 21
-1018.3776610721
 31
0.0
  0
LINE
  5
148
  8
0
  6
HIDDEN
 62
     7
 10
137.730507562
 20
-1018.3776610721
 30
0.0
 11
137.730507562
 21
-1019.3776610721
 31
0.0
  0
LINE
  5
149
  8
0
  6
HIDDEN
 62
     7
 10
146.730507562
 20
-1018.3776610721
 30
0.0
 11
146.730507562
 21
-999.8776610721
 31
0.0
  0
LINE
  5
14A
  8
0
  6
HIDDEN
 62
     7
 10
138.730507562
 20
-999.8776610721
 30
0.0
 11
138.730507562
 21
-1018.3776610721
 31
0.0
  0
LINE
  5
14B
  8
0
  6
HIDDEN
 62
     7
 10
146.730507562
 20
-999.8776610721
 30
0.0
 11
146.230507562
 21
-999.3776610721
 31
0.0
  0
LINE
  5
14C
  8
0
  6
HIDDEN
 62
     7
 10
139.230507562
 20
-999.3776610721
 30
0.0
 11
138.730507562
 21
-999.8776610721
 31
0.0
  0
TEXT
  5
14D
  8
SLD-0
 10
550.4182085454
 20
-1016.2210064544
 30
0.0
 40
19.05
  1
S-620
 41
0.7
 11
550.4182085454
 21
-1021.6638635972
 31
0.0
 73
     1
  0
ARC
  5
14E
  8
0
  6
CONTINUOUS
 62
     7
 10
749.0860347876
 20
-843.6098859993
 30
0.0
 40
41.99999999999977
 50
180.0
 51
270.0
  0
ARC
  5
14F
  8
0
  6
CONTINUOUS
 62
     7
 10
749.0860347876
 20
-843.6098859993
 30
0.0
 40
29.99999999999989
 50
180.0
 51
270.0
  0
LINE
  5
150
  8
0
  6
CONTINUOUS
 62
     7
 10
719.0860347876
 20
1063.3901140007
 30
0.0
 11
719.0860347876
 21
-843.6098859993
 31
0.0
  0
LINE
  5
151
  8
0
  6
CONTINUOUS
 62
     7
 10
707.0860347876
 20
1063.3901140007
 30
0.0
 11
707.0860347876
 21
-843.6098859993
 31
0.0
  0
ARC
  5
152
  8
0
  6
CONTINUOUS
 62
     7
 10
749.0860347876
 20
1063.3901140007
 30
0.0
 40
42.0
 50
90.0
 51
180.0
  0
ARC
  5
153
  8
0
  6
CONTINUOUS
 62
     7
 10
749.0860347876
 20
1063.3901140007
 30
0.0
 40
30.0
 50
90.0
 51
180.0
  0
LINE
  5
154
  8
0
  6
CONTINUOUS
 62
     7
 10
749.0860347876
 20
1105.3901140007
 30
0.0
 11
1211.5860347876
 21
1105.3901140007
 31
0.0
  0
LINE
  5
155
  8
0
  6
CONTINUOUS
 62
     7
 10
749.0860347876
 20
1093.3901140007
 30
0.0
 11
1211.5860347876
 21
1093.3901140007
 31
0.0
  0
LINE
  5
156
  8
0
  6
CONTINUOUS
 62
     7
 10
1211.5860347876
 20
-885.6098859993
 30
0.0
 11
749.0860347876
 21
-885.6098859993
 31
0.0
  0
LINE
  5
157
  8
0
  6
CONTINUOUS
 62
     7
 10
1211.5860347876
 20
-873.6098859993
 30
0.0
 11
1110.9427614676
 21
-873.6098859993
 31
0.0
  0
LINE
  5
158
  8
0
  6
CONTINUOUS
 62
     7
 10
1099.7293081075
 20
-873.6098859993
 30
0.0
 11
860.9427614676
 21
-873.6098859993
 31
0.0
  0
LINE
  5
159
  8
0
  6
CONTINUOUS
 62
     7
 10
849.7293081075
 20
-873.6098859993
 30
0.0
 11
749.0860347876
 21
-873.6098859993
 31
0.0
  0
ARC
  5
15A
  8
0
  6
CONTINUOUS
 62
     7
 10
1211.5860347876
 20
-843.6098859993
 30
0.0
 40
42.0
 50
270.0
 51
360.0
  0
ARC
  5
15B
  8
0
  6
CONTINUOUS
 62
     7
 10
1211.5860347876
 20
-843.6098859993
 30
0.0
 40
30.0
 50
270.0
 51
360.0
  0
ARC
  5
15C
  8
0
  6
CONTINUOUS
 62
     7
 10
1211.5860347876
 20
1063.3901140007
 30
0.0
 40
42.0
 50
360.0
 51
90.0
  0
ARC
  5
15D
  8
0
  6
CONTINUOUS
 62
     7
 10
1211.5860347876
 20
1063.3901140007
 30
0.0
 40
30.0
 50
360.0
 51
90.0
  0
LINE
  5
15E
  8
0
  6
CONTINUOUS
 62
     7
 10
1253.5860347876
 20
1063.3901140007
 30
0.0
 11
1253.5860347876
 21
-843.6098859993
 31
0.0
  0
LINE
  5
15F
  8
0
  6
CONTINUOUS
 62
     7
 10
1241.5860347876
 20
1063.3901140007
 30
0.0
 11
1241.5860347876
 21
-843.6098859993
 31
0.0
  0
LINE
  5
160
  8
0
  6
CONTINUOUS
 62
     7
 10
742.3745533907
 20
1113.3901140007
 30
0.0
 11
742.3745533907
 21
1111.8901140007
 31
0.0
  0
LINE
  5
161
  8
0
  6
CONTINUOUS
 62
     7
 10
774.6427693639
 20
1111.8901140007
 30
0.0
 11
774.6427693639
 21
1113.3901140007
 31
0.0
  0
LINE
  5
162
  8
0
  6
CONTINUOUS
 62
     7
 10
774.6427693639
 20
1113.3901140007
 30
0.0
 11
742.3745533907
 21
1113.3901140007
 31
0.0
  0
LINE
  5
163
  8
0
  6
CONTINUOUS
 62
     7
 10
774.6427693639
 20
1111.8901140007
 30
0.0
 11
742.3745533907
 21
1111.8901140007
 31
0.0
  0
LINE
  5
164
  8
0
  6
CONTINUOUS
 62
     7
 10
1186.0293002112
 20
1111.8901140007
 30
0.0
 11
1186.0293002112
 21
1113.3901140007
 31
0.0
  0
LINE
  5
165
  8
0
  6
CONTINUOUS
 62
     7
 10
1186.0293002112
 20
1113.3901140007
 30
0.0
 11
774.6427693639
 21
1113.3901140007
 31
0.0
  0
LINE
  5
166
  8
0
  6
CONTINUOUS
 62
     7
 10
1186.0293002112
 20
1111.8901140007
 30
0.0
 11
774.6427693639
 21
1111.8901140007
 31
0.0
  0
LINE
  5
167
  8
0
  6
CONTINUOUS
 62
     7
 10
1218.2975161844
 20
1113.3901140007
 30
0.0
 11
1218.2975161844
 21
1111.8901140007
 31
0.0
  0
LINE
  5
168
  8
0
  6
CONTINUOUS
 62
     7
 10
1218.2975161844
 20
1113.3901140007
 30
0.0
 11
1186.0293002112
 21
1113.3901140007
 31
0.0
  0
LINE
  5
169
  8
0
  6
CONTINUOUS
 62
     7
 10
1218.2975161844
 20
1111.8901140007
 30
0.0
 11
1186.0293002112
 21
1111.8901140007
 31
0.0
  0
LINE
  5
16A
  8
0
  6
CONTINUOUS
 62
     7
 10
720.5860347876
 20
1113.3901140007
 30
0.0
 11
720.5860347876
 21
1111.8901140007
 31
0.0
  0
LINE
  5
16B
  8
0
  6
CONTINUOUS
 62
     7
 10
742.3745533907
 20
1113.3901140007
 30
0.0
 11
720.5860347876
 21
1113.3901140007
 31
0.0
  0
LINE
  5
16C
  8
0
  6
CONTINUOUS
 62
     7
 10
742.3745533907
 20
1111.8901140007
 30
0.0
 11
720.5860347876
 21
1111.8901140007
 31
0.0
  0
ARC
  5
16D
  8
0
  6
CONTINUOUS
 62
     7
 10
706.0860347876
 20
1110.3901140007
 30
0.0
 40
1.500000000000227
 50
90.0
 51
180.0
  0
ARC
  5
16E
  8
0
  6
CONTINUOUS
 62
     7
 10
706.0860347876
 20
1110.3901140007
 30
0.0
 40
3.0
 50
90.0
 51
180.0
  0
LINE
  5
16F
  8
0
  6
CONTINUOUS
 62
     7
 10
703.0860347876
 20
-886.6098859993
 30
0.0
 11
704.5860347876
 21
-886.6098859993
 31
0.0
  0
LINE
  5
170
  8
0
  6
CONTINUOUS
 62
     7
 10
704.5860347876
 20
1110.3901140007
 30
0.0
 11
704.5860347876
 21
-886.6098859993
 31
0.0
  0
LINE
  5
171
  8
0
  6
CONTINUOUS
 62
     7
 10
703.0860347876
 20
1110.3901140007
 30
0.0
 11
703.0860347876
 21
-886.6098859993
 31
0.0
  0
LINE
  5
172
  8
0
  6
CONTINUOUS
 62
     7
 10
720.5860347876
 20
1113.3901140007
 30
0.0
 11
720.5860347876
 21
1111.8901140007
 31
0.0
  0
LINE
  5
173
  8
0
  6
CONTINUOUS
 62
     7
 10
720.5860347876
 20
1113.3901140007
 30
0.0
 11
706.0860347876
 21
1113.3901140007
 31
0.0
  0
LINE
  5
174
  8
0
  6
CONTINUOUS
 62
     7
 10
720.5860347876
 20
1111.8901140007
 30
0.0
 11
706.0860347876
 21
1111.8901140007
 31
0.0
  0
LINE
  5
175
  8
0
  6
CONTINUOUS
 62
     7
 10
1240.0860347876
 20
1113.3901140007
 30
0.0
 11
1240.0860347876
 21
1111.8901140007
 31
0.0
  0
LINE
  5
176
  8
0
  6
CONTINUOUS
 62
     7
 10
1240.0860347876
 20
1113.3901140007
 30
0.0
 11
1218.2975161844
 21
1113.3901140007
 31
0.0
  0
LINE
  5
177
  8
0
  6
CONTINUOUS
 62
     7
 10
1240.0860347876
 20
1111.8901140007
 30
0.0
 11
1218.2975161844
 21
1111.8901140007
 31
0.0
  0
LINE
  5
178
  8
0
  6
CONTINUOUS
 62
     7
 10
1240.0860347876
 20
1113.3901140007
 30
0.0
 11
1240.0860347876
 21
1111.8901140007
 31
0.0
  0
LINE
  5
179
  8
0
  6
CONTINUOUS
 62
     7
 10
1254.5860347876
 20
1113.3901140007
 30
0.0
 11
1240.0860347876
 21
1113.3901140007
 31
0.0
  0
LINE
  5
17A
  8
0
  6
CONTINUOUS
 62
     7
 10
1254.5860347876
 20
1111.8901140007
 30
0.0
 11
1240.0860347876
 21
1111.8901140007
 31
0.0
  0
ARC
  5
17B
  8
0
  6
CONTINUOUS
 62
     7
 10
1254.5860347876
 20
1110.3901140007
 30
0.0
 40
3.0
 50
0.0
 51
90.0
  0
ARC
  5
17C
  8
0
  6
CONTINUOUS
 62
     7
 10
1254.5860347876
 20
1110.3901140007
 30
0.0
 40
1.500000000000227
 50
0.0
 51
90.0
  0
LINE
  5
17D
  8
0
  6
CONTINUOUS
 62
     7
 10
1257.5860347876
 20
-886.6098859993
 30
0.0
 11
1256.0860347876
 21
-886.6098859993
 31
0.0
  0
LINE
  5
17E
  8
0
  6
CONTINUOUS
 62
     7
 10
1257.5860347876
 20
-886.6098859993
 30
0.0
 11
1257.5860347876
 21
1110.3901140007
 31
0.0
  0
LINE
  5
17F
  8
0
  6
CONTINUOUS
 62
     7
 10
1256.0860347876
 20
-886.6098859993
 30
0.0
 11
1256.0860347876
 21
1110.3901140007
 31
0.0
  0
CIRCLE
  5
180
  8
0
  6
CONTINUOUS
 62
     7
 10
855.3360347876
 20
-869.6098859993
 30
0.0
 40
4.192006511087698
  0
CIRCLE
  5
181
  8
0
  6
CONTINUOUS
 62
     7
 10
855.3360347876
 20
-869.6098859993
 30
0.0
 40
3.0
  0
CIRCLE
  5
182
  8
0
  6
CONTINUOUS
 62
     7
 10
1105.3360347876
 20
-869.6098859993
 30
0.0
 40
4.192006511087584
  0
CIRCLE
  5
183
  8
0
  6
CONTINUOUS
 62
     7
 10
1105.3360347876
 20
-869.6098859993
 30
0.0
 40
3.0
  0
CIRCLE
  5
184
  8
0
  6
CONTINUOUS
 62
     7
 10
726.3360347876
 20
-839.1098859993
 30
0.0
 40
4.192006511087698
  0
CIRCLE
  5
185
  8
0
  6
CONTINUOUS
 62
     7
 10
726.3360347876
 20
1060.8901140007
 30
0.0
 40
4.192006511087698
  0
CIRCLE
  5
186
  8
0
  6
CONTINUOUS
 62
     7
 10
726.3360347876
 20
110.8901140007
 30
0.0
 40
4.192006511087698
  0
CIRCLE
  5
187
  8
0
  6
CONTINUOUS
 62
     7
 10
726.3360347876
 20
-839.1098859993
 30
0.0
 40
3.000000000000114
  0
CIRCLE
  5
188
  8
0
  6
CONTINUOUS
 62
     7
 10
726.3360347876
 20
1060.8901140007
 30
0.0
 40
2.999999999999886
  0
CIRCLE
  5
189
  8
0
  6
CONTINUOUS
 62
     7
 10
726.3360347876
 20
110.8901140007
 30
0.0
 40
3.000000000000114
  0
CIRCLE
  5
18A
  8
0
  6
CONTINUOUS
 62
     7
 10
1234.3360347876
 20
1060.8901140007
 30
0.0
 40
4.192006511087584
  0
CIRCLE
  5
18B
  8
0
  6
CONTINUOUS
 62
     7
 10
1234.3360347876
 20
-839.1098859993
 30
0.0
 40
4.192006511087584
  0
CIRCLE
  5
18C
  8
0
  6
CONTINUOUS
 62
     7
 10
1234.3360347876
 20
110.8901140007
 30
0.0
 40
4.192006511087357
  0
CIRCLE
  5
18D
  8
0
  6
CONTINUOUS
 62
     7
 10
1234.3360347876
 20
1060.8901140007
 30
0.0
 40
3.0
  0
CIRCLE
  5
18E
  8
0
  6
CONTINUOUS
 62
     7
 10
1234.3360347876
 20
-839.1098859993
 30
0.0
 40
3.0
  0
CIRCLE
  5
18F
  8
0
  6
CONTINUOUS
 62
     7
 10
1234.3360347876
 20
110.8901140007
 30
0.0
 40
3.0
  0
ARC
  5
190
  8
0
  6
CONTINUOUS
 62
     7
 10
701.0876708231
 20
1112.6275799419
 30
0.0
 40
6.49406164543651
 50
339.846263557
 51
353.4794223065
  0
POLYLINE
  5
191
  8
0
  6
CONTINUOUS
 62
     7
 66
     1
 10
0.0
 20
0.0
 30
0.0
  0
VERTEX
  5
239
  8
0
  6
CONTINUOUS
 62
     7
 10
707.1841109989
 20
1110.3901140007
 30
0.0
  0
VERTEX
  5
23A
  8
0
  6
CONTINUOUS
 62
     7
 10
707.3576441151
 20
1110.6649728371
 30
0.0
  0
VERTEX
  5
23B
  8
0
  6
CONTINUOUS
 62
     7
 10
707.4838066696
 20
1110.9448712175
 30
0.0
  0
VERTEX
  5
23C
  8
0
  6
CONTINUOUS
 62
     7
 10
707.560475012
 20
1111.2125724597
 30
0.0
  0
VERTEX
  5
23D
  8
0
  6
CONTINUOUS
 62
     7
 10
707.5860347742
 20
1111.4507771195
 30
0.0
  0
VERTEX
  5
23E
  8
0
  6
CONTINUOUS
 62
     7
 10
707.5604797669
 20
1111.6445088733
 30
0.0
  0
VERTEX
  5
23F
  8
0
  6
CONTINUOUS
 62
     7
 10
707.4838038041
 20
1111.7837612339
 30
0.0
  0
VERTEX
  5
240
  8
0
  6
CONTINUOUS
 62
     7
 10
707.3586796165
 20
1111.8642356772
 30
0.0
  0
VERTEX
  5
241
  8
0
  6
CONTINUOUS
 62
     7
 10
707.1841109989
 20
1111.8901140007
 30
0.0
  0
SEQEND
  5
238
  8
0
  6
CONTINUOUS
 62
     7
  0
ARC
  5
192
  8
0
  6
CONTINUOUS
 62
     7
 10
1259.6094585546
 20
1112.6335046056
 30
0.0
 40
6.519629083919332
 50
186.5473023917
 51
200.1267372902
  0
POLYLINE
  5
193
  8
0
  6
CONTINUOUS
 62
     7
 66
     1
 10
0.0
 20
0.0
 30
0.0
  0
VERTEX
  5
243
  8
0
  6
CONTINUOUS
 62
     7
 10
1253.4879585762
 20
1111.8901140007
 30
0.0
  0
VERTEX
  5
244
  8
0
  6
CONTINUOUS
 62
     7
 10
1253.31442546
 20
1111.8647165303
 30
0.0
  0
VERTEX
  5
245
  8
0
  6
CONTINUOUS
 62
     7
 10
1253.1882629055
 20
1111.7837582992
 30
0.0
  0
VERTEX
  5
246
  8
0
  6
CONTINUOUS
 62
     7
 10
1253.111594564
 20
1111.6445310312
 30
0.0
  0
VERTEX
  5
247
  8
0
  6
CONTINUOUS
 62
     7
 10
1253.0860348009
 20
1111.4507712255
 30
0.0
  0
VERTEX
  5
248
  8
0
  6
CONTINUOUS
 62
     7
 10
1253.1115898073
 20
1111.2126062565
 30
0.0
  0
VERTEX
  5
249
  8
0
  6
CONTINUOUS
 62
     7
 10
1253.188265771
 20
1110.9448638449
 30
0.0
  0
VERTEX
  5
24A
  8
0
  6
CONTINUOUS
 62
     7
 10
1253.3133899579
 20
1110.6675401761
 30
0.0
  0
VERTEX
  5
24B
  8
0
  6
CONTINUOUS
 62
     7
 10
1253.4879585762
 20
1110.3901140007
 30
0.0
  0
SEQEND
  5
242
  8
0
  6
CONTINUOUS
 62
     7
  0
ARC
  5
194
  8
0
  6
CONTINUOUS
 62
     7
 10
703.8426441667
 20
1115.4135378302
 30
0.0
 40
6.519629147944964
 50
276.5473024682
 51
290.1267372333
  0
POLYLINE
  5
195
  8
0
  6
CONTINUOUS
 62
     7
 66
     1
 10
0.0
 20
0.0
 30
0.0
  0
VERTEX
  5
24D
  8
0
  6
CONTINUOUS
 62
     7
 10
704.5860347876
 20
1109.2920377894
 30
0.0
  0
VERTEX
  5
24E
  8
0
  6
CONTINUOUS
 62
     7
 10
704.611432258
 20
1109.1185046732
 30
0.0
  0
VERTEX
  5
24F
  8
0
  6
CONTINUOUS
 62
     7
 10
704.6923904891
 20
1108.9923421187
 30
0.0
  0
VERTEX
  5
250
  8
0
  6
CONTINUOUS
 62
     7
 10
704.8316177585
 20
1108.9156737763
 30
0.0
  0
VERTEX
  5
251
  8
0
  6
CONTINUOUS
 62
     7
 10
705.0253775628
 20
1108.8901140141
 30
0.0
  0
VERTEX
  5
252
  8
0
  6
CONTINUOUS
 62
     7
 10
705.2635425362
 20
1108.9156690214
 30
0.0
  0
VERTEX
  5
253
  8
0
  6
CONTINUOUS
 62
     7
 10
705.5312849434
 20
1108.9923449842
 30
0.0
  0
VERTEX
  5
254
  8
0
  6
CONTINUOUS
 62
     7
 10
705.8086086143
 20
1109.1174691727
 30
0.0
  0
VERTEX
  5
255
  8
0
  6
CONTINUOUS
 62
     7
 10
706.0860347876
 20
1109.2920377894
 30
0.0
  0
SEQEND
  5
24C
  8
0
  6
CONTINUOUS
 62
     7
  0
LINE
  5
196
  8
0
  6
CONTINUOUS
 62
     7
 10
704.5860347876
 20
-886.6098859993
 30
0.0
 11
706.0860347876
 21
-886.6098859993
 31
0.0
  0
ARC
  5
197
  8
0
  6
CONTINUOUS
 62
     7
 10
1256.82350071
 20
1115.3884778994
 30
0.0
 40
6.494061577217979
 50
249.8462635118
 51
263.4794224037
  0
POLYLINE
  5
198
  8
0
  6
CONTINUOUS
 62
     7
 66
     1
 10
0.0
 20
0.0
 30
0.0
  0
VERTEX
  5
257
  8
0
  6
CONTINUOUS
 62
     7
 10
1254.5860347876
 20
1109.2920377894
 30
0.0
  0
VERTEX
  5
258
  8
0
  6
CONTINUOUS
 62
     7
 10
1254.8608936239
 20
1109.1185046732
 30
0.0
  0
VERTEX
  5
259
  8
0
  6
CONTINUOUS
 62
     7
 10
1255.1407920043
 20
1108.9923421187
 30
0.0
  0
VERTEX
  5
25A
  8
0
  6
CONTINUOUS
 62
     7
 10
1255.4084932469
 20
1108.9156737772
 30
0.0
  0
VERTEX
  5
25B
  8
0
  6
CONTINUOUS
 62
     7
 10
1255.6466979063
 20
1108.8901140141
 30
0.0
  0
VERTEX
  5
25C
  8
0
  6
CONTINUOUS
 62
     7
 10
1255.8404296587
 20
1108.9156690205
 30
0.0
  0
VERTEX
  5
25D
  8
0
  6
CONTINUOUS
 62
     7
 10
1255.9796820207
 20
1108.9923449842
 30
0.0
  0
VERTEX
  5
25E
  8
0
  6
CONTINUOUS
 62
     7
 10
1256.060156464
 20
1109.1174691719
 30
0.0
  0
VERTEX
  5
25F
  8
0
  6
CONTINUOUS
 62
     7
 10
1256.0860347876
 20
1109.2920377894
 30
0.0
  0
SEQEND
  5
256
  8
0
  6
CONTINUOUS
 62
     7
  0
LINE
  5
199
  8
0
  6
CONTINUOUS
 62
     7
 10
1254.5860347876
 20
-886.6098859993
 30
0.0
 11
1256.0860347876
 21
-886.6098859993
 31
0.0
  0
ARC
  5
19A
  8
0
  6
CONTINUOUS
 62
     7
 10
704.5860347876
 20
1111.8901140007
 30
0.0
 40
3.000000000000189
 50
300.0
 51
330.0
  0
ARC
  5
19B
  8
0
  6
CONTINUOUS
 62
     7
 10
1256.0860347876
 20
1111.8901140007
 30
0.0
 40
3.000000000000049
 50
210.0
 51
240.0
  0
LINE
  5
19C
  8
0
  6
CONTINUOUS
 62
     7
 10
706.0860347876
 20
-886.6098859993
 30
0.0
 11
1254.5860347876
 21
-886.6098859993
 31
0.0
  0
CIRCLE
  5
19D
  8
0
  6
CONTINUOUS
 62
     7
 10
980.3360347876
 20
-751.6098859993
 30
0.0
 40
4.0
  0
CIRCLE
  5
19E
  8
0
  6
CONTINUOUS
 62
     7
 10
980.3360347876
 20
-751.6098859993
 30
0.0
 40
3.499999999999886
  0
CIRCLE
  5
19F
  8
0
  6
CONTINUOUS
 62
     7
 10
980.3360347876
 20
-751.6098859993
 30
0.0
 40
5.0
  0
LINE
  5
1A0
  8
0
  6
HIDDEN
 62
     7
 10
1110.9427614676
 20
-873.6098859993
 30
0.0
 11
1099.7293081075
 21
-873.6098859993
 31
0.0
  0
LINE
  5
1A1
  8
0
  6
HIDDEN
 62
     7
 10
860.9427614676
 20
-873.6098859993
 30
0.0
 11
849.7293081075
 21
-873.6098859993
 31
0.0
  0
LINE
  5
1A2
  8
0
  6
HIDDEN
 62
     7
 10
706.7073551311
 20
1111.8901140007
 30
0.0
 11
706.7073551311
 21
1113.3901140007
 31
0.0
  0
LINE
  5
1A3
  8
0
  6
HIDDEN
 62
     7
 10
1253.964714444
 20
1113.3901140007
 30
0.0
 11
1253.964714444
 21
1111.8901140007
 31
0.0
  0
LINE
  5
1A4
  8
0
  6
HIDDEN
 62
     7
 10
703.0860347876
 20
1110.3901140007
 30
0.0
 11
704.5860347876
 21
1110.3901140007
 31
0.0
  0
LINE
  5
1A5
  8
0
  6
HIDDEN
 62
     7
 10
706.0860347876
 20
1113.3901140007
 30
0.0
 11
706.0860347876
 21
1111.8901140007
 31
0.0
  0
LINE
  5
1A6
  8
0
  6
HIDDEN
 62
     7
 10
706.7073551311
 20
1113.3901140007
 30
0.0
 11
706.7073551311
 21
1111.8901140007
 31
0.0
  0
LINE
  5
1A7
  8
0
  6
HIDDEN
 62
     7
 10
1254.5860347876
 20
1111.8901140007
 30
0.0
 11
1254.5860347876
 21
1113.3901140007
 31
0.0
  0
LINE
  5
1A8
  8
0
  6
HIDDEN
 62
     7
 10
1253.964714444
 20
1111.8901140007
 30
0.0
 11
1253.964714444
 21
1113.3901140007
 31
0.0
  0
LINE
  5
1A9
  8
0
  6
HIDDEN
 62
     7
 10
1256.0860347876
 20
1110.3901140007
 30
0.0
 11
1257.5860347876
 21
1110.3901140007
 31
0.0
  0
POLYLINE
  5
1AA
  8
0
  6
HIDDEN
 62
     7
 66
     1
 10
0.0
 20
0.0
 30
0.0
  0
VERTEX
  5
261
  8
0
  6
HIDDEN
 62
     7
 10
707.5397232594
 20
1111.8901140007
 30
0.0
  0
VERTEX
  5
262
  8
0
  6
HIDDEN
 62
     7
 10
707.560475012
 20
1112.0350309187
 30
0.0
  0
VERTEX
  5
263
  8
0
  6
HIDDEN
 62
     7
 10
707.5860347742
 20
1112.5114402383
 30
0.0
  0
VERTEX
  5
264
  8
0
  6
HIDDEN
 62
     7
 10
707.5604797669
 20
1112.8989037458
 30
0.0
  0
VERTEX
  5
265
  8
0
  6
HIDDEN
 62
     7
 10
707.4838038041
 20
1113.177408467
 30
0.0
  0
VERTEX
  5
266
  8
0
  6
HIDDEN
 62
     7
 10
707.3586796165
 20
1113.3383573537
 30
0.0
  0
VERTEX
  5
267
  8
0
  6
HIDDEN
 62
     7
 10
707.1841109989
 20
1113.3901140007
 30
0.0
  0
SEQEND
  5
260
  8
0
  6
HIDDEN
 62
     7
  0
POLYLINE
  5
1AB
  8
0
  6
HIDDEN
 62
     7
 66
     1
 10
0.0
 20
0.0
 30
0.0
  0
VERTEX
  5
269
  8
0
  6
HIDDEN
 62
     7
 10
707.1841109989
 20
1110.3901140007
 30
0.0
  0
VERTEX
  5
26A
  8
0
  6
HIDDEN
 62
     7
 10
707.1841109989
 20
1110.3901140007
 30
0.0
  0
SEQEND
  5
268
  8
0
  6
HIDDEN
 62
     7
  0
LINE
  5
1AC
  8
0
  6
HIDDEN
 62
     7
 10
707.1841109989
 20
1111.8901140007
 30
0.0
 11
707.1841109989
 21
1113.3901140007
 31
0.0
  0
POLYLINE
  5
1AD
  8
0
  6
HIDDEN
 62
     7
 66
     1
 10
0.0
 20
0.0
 30
0.0
  0
VERTEX
  5
26C
  8
0
  6
HIDDEN
 62
     7
 10
1253.4879585762
 20
1113.3901140007
 30
0.0
  0
VERTEX
  5
26D
  8
0
  6
HIDDEN
 62
     7
 10
1253.31442546
 20
1113.3393190598
 30
0.0
  0
VERTEX
  5
26E
  8
0
  6
HIDDEN
 62
     7
 10
1253.1882629055
 20
1113.1774025976
 30
0.0
  0
VERTEX
  5
26F
  8
0
  6
HIDDEN
 62
     7
 10
1253.111594564
 20
1112.8989480616
 30
0.0
  0
VERTEX
  5
270
  8
0
  6
HIDDEN
 62
     7
 10
1253.0860348009
 20
1112.5114284503
 30
0.0
  0
VERTEX
  5
271
  8
0
  6
HIDDEN
 62
     7
 10
1253.1115898073
 20
1112.0350985123
 30
0.0
  0
VERTEX
  5
272
  8
0
  6
HIDDEN
 62
     7
 10
1253.1323501102
 20
1111.8901140007
 30
0.0
  0
SEQEND
  5
26B
  8
0
  6
HIDDEN
 62
     7
  0
POLYLINE
  5
1AE
  8
0
  6
HIDDEN
 62
     7
 66
     1
 10
0.0
 20
0.0
 30
0.0
  0
VERTEX
  5
274
  8
0
  6
HIDDEN
 62
     7
 10
703.0860347876
 20
1109.2920377894
 30
0.0
  0
VERTEX
  5
275
  8
0
  6
HIDDEN
 62
     7
 10
703.1368297285
 20
1109.1185046732
 30
0.0
  0
VERTEX
  5
276
  8
0
  6
HIDDEN
 62
     7
 10
703.2987461907
 20
1108.9923421187
 30
0.0
  0
VERTEX
  5
277
  8
0
  6
HIDDEN
 62
     7
 10
703.5772007295
 20
1108.9156737763
 30
0.0
  0
VERTEX
  5
278
  8
0
  6
HIDDEN
 62
     7
 10
703.964720338
 20
1108.8901140141
 30
0.0
  0
VERTEX
  5
279
  8
0
  6
HIDDEN
 62
     7
 10
704.4410502848
 20
1108.9156690214
 30
0.0
  0
VERTEX
  5
27A
  8
0
  6
HIDDEN
 62
     7
 10
704.5860347876
 20
1108.9364293232
 30
0.0
  0
SEQEND
  5
273
  8
0
  6
HIDDEN
 62
     7
  0
POLYLINE
  5
1AF
  8
0
  6
HIDDEN
 62
     7
 66
     1
 10
0.0
 20
0.0
 30
0.0
  0
VERTEX
  5
27C
  8
0
  6
HIDDEN
 62
     7
 10
706.0860347876
 20
1109.2920377894
 30
0.0
  0
VERTEX
  5
27D
  8
0
  6
HIDDEN
 62
     7
 10
706.0860347876
 20
1109.2920377894
 30
0.0
  0
SEQEND
  5
27B
  8
0
  6
HIDDEN
 62
     7
  0
LINE
  5
1B0
  8
0
  6
HIDDEN
 62
     7
 10
703.0860347876
 20
1109.2920377894
 30
0.0
 11
704.5860347876
 21
1109.2920377894
 31
0.0
  0
POLYLINE
  5
1B1
  8
0
  6
HIDDEN
 62
     7
 66
     1
 10
0.0
 20
0.0
 30
0.0
  0
VERTEX
  5
27F
  8
0
  6
HIDDEN
 62
     7
 10
1253.4879585762
 20
1110.3901140007
 30
0.0
  0
VERTEX
  5
280
  8
0
  6
HIDDEN
 62
     7
 10
1253.4879585762
 20
1110.3901140007
 30
0.0
  0
SEQEND
  5
27E
  8
0
  6
HIDDEN
 62
     7
  0
LINE
  5
1B2
  8
0
  6
HIDDEN
 62
     7
 10
1253.4879585762
 20
1113.3901140007
 30
0.0
 11
1253.4879585762
 21
1111.8901140007
 31
0.0
  0
POLYLINE
  5
1B3
  8
0
  6
HIDDEN
 62
     7
 66
     1
 10
0.0
 20
0.0
 30
0.0
  0
VERTEX
  5
282
  8
0
  6
HIDDEN
 62
     7
 10
1256.0860347876
 20
1108.9364255296
 30
0.0
  0
VERTEX
  5
283
  8
0
  6
HIDDEN
 62
     7
 10
1256.2309517062
 20
1108.9156737772
 30
0.0
  0
VERTEX
  5
284
  8
0
  6
HIDDEN
 62
     7
 10
1256.7073610251
 20
1108.8901140141
 30
0.0
  0
VERTEX
  5
285
  8
0
  6
HIDDEN
 62
     7
 10
1257.0948245298
 20
1108.9156690205
 30
0.0
  0
VERTEX
  5
286
  8
0
  6
HIDDEN
 62
     7
 10
1257.3733292538
 20
1108.9923449842
 30
0.0
  0
VERTEX
  5
287
  8
0
  6
HIDDEN
 62
     7
 10
1257.5342781405
 20
1109.1174691719
 30
0.0
  0
VERTEX
  5
288
  8
0
  6
HIDDEN
 62
     7
 10
1257.5860347876
 20
1109.2920377894
 30
0.0
  0
SEQEND
  5
281
  8
0
  6
HIDDEN
 62
     7
  0
POLYLINE
  5
1B4
  8
0
  6
HIDDEN
 62
     7
 66
     1
 10
0.0
 20
0.0
 30
0.0
  0
VERTEX
  5
28A
  8
0
  6
HIDDEN
 62
     7
 10
1254.5860347876
 20
1109.2920377894
 30
0.0
  0
VERTEX
  5
28B
  8
0
  6
HIDDEN
 62
     7
 10
1254.5860347876
 20
1109.2920377894
 30
0.0
  0
SEQEND
  5
289
  8
0
  6
HIDDEN
 62
     7
  0
LINE
  5
1B5
  8
0
  6
HIDDEN
 62
     7
 10
1256.0860347876
 20
1109.2920377894
 30
0.0
 11
1257.5860347876
 21
1109.2920377894
 31
0.0
  0
LINE
  5
1B6
  8
0
  6
HIDDEN
 62
     7
 10
707.5860347745
 20
1111.4508005891
 30
0.0
 11
707.5860347745
 21
1112.5114871776
 31
0.0
  0
LINE
  5
1B7
  8
0
  6
HIDDEN
 62
     7
 10
703.9647672786
 20
1108.8901140138
 30
0.0
 11
705.0254010331
 21
1108.8901140138
 31
0.0
  0
LINE
  5
1B8
  8
0
  6
HIDDEN
 62
     7
 10
705.0254010331
 20
1108.8901140138
 30
0.0
 11
703.9647672786
 21
1108.8901140138
 31
0.0
  0
LINE
  5
1B9
  8
0
  6
HIDDEN
 62
     7
 10
1253.0860348006
 20
1112.5113814947
 30
0.0
 11
1253.0860348006
 21
1111.4507477477
 31
0.0
  0
LINE
  5
1BA
  8
0
  6
HIDDEN
 62
     7
 10
1253.0860348006
 20
1111.4507477477
 30
0.0
 11
1253.0860348006
 21
1112.5113814946
 31
0.0
  0
LINE
  5
1BB
  8
0
  6
HIDDEN
 62
     7
 10
1255.6467213835
 20
1108.8901140138
 30
0.0
 11
1256.7074079794
 21
1108.8901140138
 31
0.0
  0
ENDSEC
  0
EOF
