  0
SECTION
  2
HEADER
  9
$ACADVER
  1
AC1009
  9
$DWGCODEPAGE
  3
ansi_1252
  9
$INSBASE
 10
0.0
 20
0.0
 30
0.0
  9
$EXTMIN
 10
0.0
 20
0.0
 30
0.0
  9
$EXTMAX
 10
297.0
 20
210.0
 30
0.0
  9
$LIMMIN
 10
0.0
 20
0.0
  9
$LIMMAX
 10
0.0
 20
0.0
  9
$ORTHOMODE
 70
     0
  9
$REGENMODE
 70
     1
  9
$FILLMODE
 70
     1
  9
$QTEXTMODE
 70
     0
  9
$MIRRTEXT
 70
     1
  9
$DRAGMODE
 70
     2
  9
$LTSCALE
 40
1.0
  9
$OSMODE
 70
    37
  9
$ATTMODE
 70
     1
  9
$TEXTSIZE
 40
3.5277777778
  9
$TRACEWID
 40
1.0
  9
$TEXTSTYLE
  7
STANDARD
  9
$CLAYER
  8
0
  9
$CELTYPE
  6
BYLAYER
  9
$CECOLOR
 62
   256
  9
$DIMSCALE
 40
1.0
  9
$DIMASZ
 40
1.8
  9
$DIMEXO
 40
0.7
  9
$DIMDLI
 40
3.75
  9
$DIMRND
 40
0.0
  9
$DIMDLE
 40
0.0
  9
$DIMEXE
 40
0.5
  9
$DIMTP
 40
0.0
  9
$DIMTM
 40
0.0
  9
$DIMTXT
 40
2.4694444444
  9
$DIMCEN
 40
2.5
  9
$DIMTSZ
 40
0.0
  9
$DIMTOL
 70
     0
  9
$DIMLIM
 70
     0
  9
$DIMTIH
 70
     1
  9
$DIMTOH
 70
     1
  9
$DIMSE1
 70
     0
  9
$DIMSE2
 70
     0
  9
$DIMTAD
 70
     1
  9
$DIMZIN
 70
     0
  9
$DIMBLK
  1

  9
$DIMASO
 70
     1
  9
$DIMSHO
 70
     1
  9
$DIMPOST
  1

  9
$DIMAPOST
  1

  9
$DIMALT
 70
     0
  9
$DIMALTD
 70
     3
  9
$DIMALTF
 40
0.0393700787
  9
$DIMLFAC
 40
1.0
  9
$DIMTOFL
 70
     1
  9
$DIMTVP
 40
0.0
  9
$DIMTIX
 70
     0
  9
$DIMSOXD
 70
     0
  9
$DIMSAH
 70
     0
  9
$DIMBLK1
  1

  9
$DIMBLK2
  1

  9
$DIMSTYLE
  2
ISO-25
  9
$DIMCLRD
 70
     0
  9
$DIMCLRE
 70
     0
  9
$DIMCLRT
 70
     0
  9
$DIMTFAC
 40
1.0
  9
$DIMGAP
 40
2.0
  9
$LUNITS
 70
     2
  9
$LUPREC
 70
     2
  9
$SKETCHINC
 40
1.0
  9
$FILLETRAD
 40
10.0
  9
$AUNITS
 70
     0
  9
$AUPREC
 70
     0
  9
$MENU
  1
.
  9
$ELEVATION
 40
0.0
  9
$PELEVATION
 40
0.0
  9
$THICKNESS
 40
0.0
  9
$LIMCHECK
 70
     0
  9
$CHAMFERA
 40
10.0
  9
$CHAMFERB
 40
10.0
  9
$SKPOLY
 70
     0
  9
$TDCREATE
 40
2455104.523727928
  9
$TDUPDATE
 40
2455104.52372794
  9
$TDINDWG
 40
0.0000000116
  9
$TDUSRTIMER
 40
0.0000000116
  9
$USRTIMER
 70
     1
  9
$ANGBASE
 50
0.0
  9
$ANGDIR
 70
     0
  9
$PDMODE
 70
     0
  9
$PDSIZE
 40
-1.0
  9
$PLINEWID
 40
0.0
  9
$COORDS
 70
     1
  9
$SPLFRAME
 70
     0
  9
$SPLINETYPE
 70
     6
  9
$SPLINESEGS
 70
     8
  9
$ATTDIA
 70
     0
  9
$ATTREQ
 70
     1
  9
$HANDLING
 70
     1
  9
$HANDSEED
  5
28C
  9
$SURFTAB1
 70
     6
  9
$SURFTAB2
 70
     6
  9
$SURFTYPE
 70
     6
  9
$SURFU
 70
     6
  9
$SURFV
 70
     6
  9
$UCSNAME
  2

  9
$UCSORG
 10
0.0
 20
0.0
 30
0.0
  9
$UCSXDIR
 10
1.0
 20
0.0
 30
0.0
  9
$UCSYDIR
 10
0.0
 20
1.0
 30
0.0
  9
$PUCSNAME
  2

  9
$PUCSORG
 10
0.0
 20
0.0
 30
0.0
  9
$PUCSXDIR
 10
1.0
 20
0.0
 30
0.0
  9
$PUCSYDIR
 10
0.0
 20
1.0
 30
0.0
  9
$USERI1
 70
     0
  9
$USERI2
 70
     0
  9
$USERI3
 70
     0
  9
$USERI4
 70
     0
  9
$USERI5
 70
     0
  9
$USERR1
 40
0.0
  9
$USERR2
 40
0.0
  9
$USERR3
 40
0.0
  9
$USERR4
 40
0.0
  9
$USERR5
 40
0.0
  9
$WORLDVIEW
 70
     1
  9
$SHADEDGE
 70
     3
  9
$SHADEDIF
 70
    70
  9
$TILEMODE
 70
     1
  9
$MAXACTVP
 70
    64
  9
$PLIMCHECK
 70
     0
  9
$PEXTMIN
 10
1.0000000000E+20
 20
1.0000000000E+20
 30
1.0000000000E+20
  9
$PEXTMAX
 10
-1.0000000000E+20
 20
-1.0000000000E+20
 30
-1.0000000000E+20
  9
$PLIMMIN
 10
0.0
 20
0.0
  9
$PLIMMAX
 10
420.0
 20
297.0
  9
$UNITMODE
 70
     0
  9
$VISRETAIN
 70
     1
  9
$PLINEGEN
 70
     0
  9
$PSLTSCALE
 70
     1
  0
ENDSEC
  0
SECTION
  2
TABLES
  0
TABLE
  2
VPORT
 70
     1
  0
VPORT
  2
*ACTIVE
 70
     0
 10
0.0
 20
0.0
 11
1.0
 21
1.0
 12
148.5
 22
105.0
 13
0.0
 23
0.0
 14
10.0
 24
10.0
 15
10.0
 25
10.0
 16
0.0
 26
0.0
 36
1.0
 17
0.0
 27
0.0
 37
0.0
 40
210.0
 41
1.4142857143
 42
50.0
 43
0.0
 44
0.0
 50
0.0
 51
0.0
 71
     0
 72
  2000
 73
     1
 74
     3
 75
     0
 76
     0
 77
     0
 78
     0
  0
ENDTAB
  0
TABLE
  2
LTYPE
 70
     6
  0
LTYPE
  2
CONTINUOUS
 70
     0
  3
Solid line
 72
    65
 73
     0
 40
0.0
  0
LTYPE
  2
HIDDEN
 70
     0
  3
Hidden __ __ __ __ __ __ __ __ __ __ __ __ __ __
 72
    65
 73
     2
 40
1.905
 49
1.27
 49
-0.635
  0
LTYPE
  2
PHANTOM
 70
     0
  3
Phantom ______  __  __  ______  __  __  ______
 72
    65
 73
     6
 40
12.7
 49
6.35
 49
-1.27
 49
1.27
 49
-1.27
 49
1.27
 49
-1.27
  0
LTYPE
  2
CENTER
 70
     0
  3
Center ____ _ ____ _ ____ _ ____ _ ____ _ ____
 72
    65
 73
     4
 40
10.16
 49
6.35
 49
-1.27
 49
1.27
 49
-1.27
  0
LTYPE
  2
CENTERX2
 70
     0
  3
Center (2x) ________  __  ________  __  _____
 72
    65
 73
     4
 40
20.32
 49
12.7
 49
-2.54
 49
2.54
 49
-2.54
  0
LTYPE
  2
DOT2
 70
     0
  3
Dot (.5x) ........................................
 72
    65
 73
     2
 40
0.635
 49
0.0
 49
-0.635
  0
ENDTAB
  0
TABLE
  2
LAYER
 70
     5
  0
LAYER
  2
0
 70
     0
 62
     7
  6
CONTINUOUS
  0
LAYER
  2
SLD-0
 70
     0
 62
     7
  6
CONTINUOUS
  0
LAYER
  2
AM_BOR
 70
     0
 62
     7
  6
CONTINUOUS
  0
LAYER
  2
BIEGLINIE__ZU_
 70
     0
 62
     8
  6
CONTINUOUS
  0
LAYER
  2
BIEGELINIE__WEG_
 70
     0
 62
     8
  6
HIDDEN
  0
ENDTAB
  0
TABLE
  2
STYLE
 70
     1
  0
STYLE
  2
STANDARD
 70
     0
 40
0.0
 41
1.0
 50
0.0
 71
     0
 42
2.5
  3
txt
  4

  0
ENDTAB
  0
TABLE
  2
VIEW
 70
     0
  0
ENDTAB
  0
TABLE
  2
UCS
 70
     0
  0
ENDTAB
  0
TABLE
  2
APPID
 70
     1
  0
APPID
  2
ACAD
 70
     0
  0
ENDTAB
  0
TABLE
  2
DIMSTYLE
 70
     1
  0
DIMSTYLE
  2
ISO-25
 70
     0
  3

  4

  5

  6

  7

 40
1.0
 41
2.5
 42
0.625
 43
3.75
 44
1.25
 45
0.0
 46
0.0
 47
0.0
 48
0.0
140
2.5
141
2.5
142
0.0
143
0.0393700787
144
1.0
145
0.0
146
1.0
147
0.625
 71
     0
 72
     0
 73
     0
 74
     0
 75
     0
 76
     0
 77
     1
 78
     8
170
     0
171
     3
172
     1
173
     0
174
     0
175
     0
176
     0
177
     0
178
     0
  0
ENDTAB
  0
ENDSEC
  0
SECTION
  2
BLOCKS
  0
BLOCK
  8
0
  2
$MODEL_SPACE
 70
     0
 10
0.0
 20
0.0
 30
0.0
  3
$MODEL_SPACE
  1

  0
ENDBLK
  5
21
  8
0
  0
BLOCK
 67
     1
  8
0
  2
$PAPER_SPACE
 70
     0
 10
0.0
 20
0.0
 30
0.0
  3
$PAPER_SPACE
  1

  0
ENDBLK
  5
1D
 67
     1
  8
0
  0
ENDSEC
  0
SECTION
  2
ENTITIES
  0
TEXT
  5
33
  8
SLD-0
 10
887.9667654945
 20
1238.9757790213
 30
0.0
 40
19.05
  1
Innenansicht
 41
0.7
 11
887.9667654945
 21
1233.5329218785
 31
0.0
 73
     1
  0
TEXT
  5
34
  8
SLD-0
 10
553.2427800728
 20
-1112.2053653821
 30
0.0
 40
19.05
  1
S-622
 41
0.7
 11
553.2427800728
 21
-1117.6482225249
 31
0.0
 73
     1
  0
LINE
  5
35
  8
0
  6
CONTINUOUS
 62
     7
 10
29.5280799232
 20
-972.9385268792
 30
0.0
 11
34.0880582982
 21
-972.9385268792
 31
0.0
  0
LINE
  5
36
  8
0
  6
CONTINUOUS
 62
     7
 10
279.5280799232
 20
-972.9385268792
 30
0.0
 11
284.0880582982
 21
-972.9385268792
 31
0.0
  0
POLYLINE
  5
37
  8
0
  6
CONTINUOUS
 62
     7
 66
     1
 10
0.0
 20
0.0
 30
0.0
  0
VERTEX
  5
1BD
  8
0
  6
CONTINUOUS
 62
     7
 10
-116.3438546779
 20
1214.0614731208
 30
0.0
  0
VERTEX
  5
1BE
  8
0
  6
CONTINUOUS
 62
     7
 10
-116.1703215617
 20
1214.0106781799
 30
0.0
  0
VERTEX
  5
1BF
  8
0
  6
CONTINUOUS
 62
     7
 10
-116.0441590073
 20
1213.8487617176
 30
0.0
  0
VERTEX
  5
1C0
  8
0
  6
CONTINUOUS
 62
     7
 10
-115.9674906648
 20
1213.5703071791
 30
0.0
  0
VERTEX
  5
1C1
  8
0
  6
CONTINUOUS
 62
     7
 10
-115.9419309026
 20
1213.1827875703
 30
0.0
  0
VERTEX
  5
1C2
  8
0
  6
CONTINUOUS
 62
     7
 10
-115.9674859099
 20
1212.7064576274
 30
0.0
  0
VERTEX
  5
1C3
  8
0
  6
CONTINUOUS
 62
     7
 10
-116.0441618728
 20
1212.1709728092
 30
0.0
  0
VERTEX
  5
1C4
  8
0
  6
CONTINUOUS
 62
     7
 10
-116.1692860598
 20
1211.6163254709
 30
0.0
  0
VERTEX
  5
1C5
  8
0
  6
CONTINUOUS
 62
     7
 10
-116.3438546779
 20
1211.0614731208
 30
0.0
  0
SEQEND
  5
1BC
  8
0
  6
CONTINUOUS
 62
     7
  0
LINE
  5
38
  8
0
  6
CONTINUOUS
 62
     7
 10
429.9599928994
 20
1214.0614731208
 30
0.0
 11
-116.3438546779
 21
1214.0614731208
 31
0.0
  0
POLYLINE
  5
39
  8
0
  6
CONTINUOUS
 62
     7
 66
     1
 10
0.0
 20
0.0
 30
0.0
  0
VERTEX
  5
1C7
  8
0
  6
CONTINUOUS
 62
     7
 10
429.9599928994
 20
1211.0614731208
 30
0.0
  0
VERTEX
  5
1C8
  8
0
  6
CONTINUOUS
 62
     7
 10
429.7864597832
 20
1211.6111907934
 30
0.0
  0
VERTEX
  5
1C9
  8
0
  6
CONTINUOUS
 62
     7
 10
429.6602972287
 20
1212.1709875542
 30
0.0
  0
VERTEX
  5
1CA
  8
0
  6
CONTINUOUS
 62
     7
 10
429.5836288872
 20
1212.7063900393
 30
0.0
  0
VERTEX
  5
1CB
  8
0
  6
CONTINUOUS
 62
     7
 10
429.5580691241
 20
1213.1827993584
 30
0.0
  0
VERTEX
  5
1CC
  8
0
  6
CONTINUOUS
 62
     7
 10
429.5836241305
 20
1213.5702628603
 30
0.0
  0
VERTEX
  5
1CD
  8
0
  6
CONTINUOUS
 62
     7
 10
429.6603000942
 20
1213.848767587
 30
0.0
  0
VERTEX
  5
1CE
  8
0
  6
CONTINUOUS
 62
     7
 10
429.7854242803
 20
1214.009716473
 30
0.0
  0
VERTEX
  5
1CF
  8
0
  6
CONTINUOUS
 62
     7
 10
429.9599928994
 20
1214.0614731208
 30
0.0
  0
SEQEND
  5
1C6
  8
0
  6
CONTINUOUS
 62
     7
  0
POLYLINE
  5
3A
  8
0
  6
CONTINUOUS
 62
     7
 66
     1
 10
0.0
 20
0.0
 30
0.0
  0
VERTEX
  5
1D1
  8
0
  6
CONTINUOUS
 62
     7
 10
434.0580691107
 20
1209.9633969095
 30
0.0
  0
VERTEX
  5
1D2
  8
0
  6
CONTINUOUS
 62
     7
 10
434.0072741698
 20
1209.7898637932
 30
0.0
  0
VERTEX
  5
1D3
  8
0
  6
CONTINUOUS
 62
     7
 10
433.8453577076
 20
1209.6637012388
 30
0.0
  0
VERTEX
  5
1D4
  8
0
  6
CONTINUOUS
 62
     7
 10
433.5669031688
 20
1209.5870328964
 30
0.0
  0
VERTEX
  5
1D5
  8
0
  6
CONTINUOUS
 62
     7
 10
433.1793835603
 20
1209.5614731341
 30
0.0
  0
VERTEX
  5
1D6
  8
0
  6
CONTINUOUS
 62
     7
 10
432.7030536181
 20
1209.5870281414
 30
0.0
  0
VERTEX
  5
1D7
  8
0
  6
CONTINUOUS
 62
     7
 10
432.1675687991
 20
1209.6637041043
 30
0.0
  0
VERTEX
  5
1D8
  8
0
  6
CONTINUOUS
 62
     7
 10
431.6129214622
 20
1209.788828291
 30
0.0
  0
VERTEX
  5
1D9
  8
0
  6
CONTINUOUS
 62
     7
 10
431.0580691107
 20
1209.9633969095
 30
0.0
  0
SEQEND
  5
1D0
  8
0
  6
CONTINUOUS
 62
     7
  0
LINE
  5
3B
  8
0
  6
CONTINUOUS
 62
     7
 10
434.0580691107
 20
-985.9385268792
 30
0.0
 11
434.0580691107
 21
1209.9633969095
 31
0.0
  0
LINE
  5
3C
  8
0
  6
CONTINUOUS
 62
     7
 10
434.0580691107
 20
-985.9385268792
 30
0.0
 11
431.0580691107
 21
-985.9385268792
 31
0.0
  0
ARC
  5
3D
  8
0
  6
CONTINUOUS
 62
     7
 10
-118.9419308893
 20
1212.5614731208
 30
0.0
 40
3.000000000000049
 50
300.0
 51
330.0
  0
ARC
  5
3E
  8
0
  6
CONTINUOUS
 62
     7
 10
432.5580691107
 20
1212.5614731208
 30
0.0
 40
3.000000000000135
 50
210.0
 51
240.0
  0
LINE
  5
3F
  8
0
  6
CONTINUOUS
 62
     7
 10
431.0580691107
 20
-985.9385268792
 30
0.0
 11
-117.4419308893
 21
-985.9385268792
 31
0.0
  0
LINE
  5
40
  8
0
  6
CONTINUOUS
 62
     7
 10
434.0580691107
 20
1209.9633969095
 30
0.0
 11
432.5580691107
 21
1209.9633969095
 31
0.0
  0
LINE
  5
41
  8
0
  6
CONTINUOUS
 62
     7
 10
429.9599928994
 20
1212.5614731208
 30
0.0
 11
429.9599928994
 21
1214.0614731208
 31
0.0
  0
ARC
  5
42
  8
0
  6
CONTINUOUS
 62
     7
 10
429.9319276938
 20
1212.1836341659
 30
0.0
 40
0.3788798379143239
 50
85.751972415
 51
189.3397136297
  0
LINE
  5
43
  8
0
  6
CONTINUOUS
 62
     7
 10
-117.4419308893
 20
-985.9385268792
 30
0.0
 11
-120.4419308893
 21
-985.9385268792
 31
0.0
  0
LINE
  5
44
  8
0
  6
CONTINUOUS
 62
     7
 10
-120.4419308893
 20
1209.9633969095
 30
0.0
 11
-120.4419308893
 21
-985.9385268792
 31
0.0
  0
POLYLINE
  5
45
  8
0
  6
CONTINUOUS
 62
     7
 66
     1
 10
0.0
 20
0.0
 30
0.0
  0
VERTEX
  5
1DB
  8
0
  6
CONTINUOUS
 62
     7
 10
-117.4419308893
 20
1209.9633969095
 30
0.0
  0
VERTEX
  5
1DC
  8
0
  6
CONTINUOUS
 62
     7
 10
-117.9916485619
 20
1209.7898637932
 30
0.0
  0
VERTEX
  5
1DD
  8
0
  6
CONTINUOUS
 62
     7
 10
-118.5514453227
 20
1209.6637012388
 30
0.0
  0
VERTEX
  5
1DE
  8
0
  6
CONTINUOUS
 62
     7
 10
-119.0868478079
 20
1209.5870328973
 30
0.0
  0
VERTEX
  5
1DF
  8
0
  6
CONTINUOUS
 62
     7
 10
-119.5632571268
 20
1209.5614731341
 30
0.0
  0
VERTEX
  5
1E0
  8
0
  6
CONTINUOUS
 62
     7
 10
-119.9507206371
 20
1209.5870281405
 30
0.0
  0
VERTEX
  5
1E1
  8
0
  6
CONTINUOUS
 62
     7
 10
-120.2292253555
 20
1209.6637041043
 30
0.0
  0
VERTEX
  5
1E2
  8
0
  6
CONTINUOUS
 62
     7
 10
-120.3901742422
 20
1209.7888282936
 30
0.0
  0
VERTEX
  5
1E3
  8
0
  6
CONTINUOUS
 62
     7
 10
-120.4419308893
 20
1209.9633969095
 30
0.0
  0
SEQEND
  5
1DA
  8
0
  6
CONTINUOUS
 62
     7
  0
ARC
  5
46
  8
0
  6
CONTINUOUS
 62
     7
 10
-116.3259576571
 20
1212.1743282559
 30
0.0
 40
0.38755831789348
 50
352.2577540006
 51
92.6467979523
  0
LINE
  5
47
  8
0
  6
CONTINUOUS
 62
     7
 10
-116.3438546779
 20
1214.0614731208
 30
0.0
 11
-116.3438546779
 21
1212.5614731208
 31
0.0
  0
LINE
  5
48
  8
0
  6
CONTINUOUS
 62
     7
 10
-118.9419308893
 20
1209.9633969095
 30
0.0
 11
-120.4419308893
 21
1209.9633969095
 31
0.0
  0
ARC
  5
49
  8
0
  6
CONTINUOUS
 62
     7
 10
-118.564091935
 20
1209.9353317032
 30
0.0
 40
0.378879837388283
 50
175.7519723139
 51
279.3397137305
  0
CIRCLE
  5
4A
  8
0
  6
CONTINUOUS
 62
     7
 10
410.8080691107
 20
111.5614731208
 30
0.0
 40
3.000000000000057
  0
CIRCLE
  5
4B
  8
0
  6
CONTINUOUS
 62
     7
 10
410.8080691107
 20
1161.5614731208
 30
0.0
 40
3.0
  0
CIRCLE
  5
4C
  8
0
  6
CONTINUOUS
 62
     7
 10
-97.1919308893
 20
-938.4385268792
 30
0.0
 40
3.0
  0
CIRCLE
  5
4D
  8
0
  6
CONTINUOUS
 62
     7
 10
-97.1919308893
 20
111.5614731208
 30
0.0
 40
3.000000000000014
  0
CIRCLE
  5
4E
  8
0
  6
CONTINUOUS
 62
     7
 10
410.8080691107
 20
-938.4385268792
 30
0.0
 40
3.000000000000057
  0
CIRCLE
  5
4F
  8
0
  6
CONTINUOUS
 62
     7
 10
-97.1919308893
 20
1161.5614731208
 30
0.0
 40
3.0
  0
CIRCLE
  5
50
  8
0
  6
CONTINUOUS
 62
     7
 10
31.8080691107
 20
-968.9385268792
 30
0.0
 40
3.0
  0
CIRCLE
  5
51
  8
0
  6
CONTINUOUS
 62
     7
 10
281.8080691107
 20
-968.9385268792
 30
0.0
 40
3.0
  0
LINE
  5
52
  8
0
  6
CONTINUOUS
 62
     7
 10
-116.8206105457
 20
1212.5614731208
 30
0.0
 11
-116.3438546779
 21
1212.5614731208
 31
0.0
  0
LINE
  5
53
  8
0
  6
CONTINUOUS
 62
     7
 10
-116.8206105457
 20
1214.0614731208
 30
0.0
 11
-116.8206105457
 21
1212.5614731208
 31
0.0
  0
LINE
  5
54
  8
0
  6
CONTINUOUS
 62
     7
 10
-116.8206105457
 20
1214.0614731208
 30
0.0
 11
-116.3438546779
 21
1214.0614731208
 31
0.0
  0
LINE
  5
55
  8
0
  6
CONTINUOUS
 62
     7
 10
432.5580691107
 20
1211.0614731208
 30
0.0
 11
432.5580691107
 21
1209.9633969095
 31
0.0
  0
LINE
  5
56
  8
0
  6
CONTINUOUS
 62
     7
 10
434.0580691107
 20
1211.0614731208
 30
0.0
 11
432.5580691107
 21
1211.0614731208
 31
0.0
  0
LINE
  5
57
  8
0
  6
CONTINUOUS
 62
     7
 10
434.0580691107
 20
1211.0614731208
 30
0.0
 11
434.0580691107
 21
1209.9633969095
 31
0.0
  0
LINE
  5
58
  8
0
  6
CONTINUOUS
 62
     7
 10
-120.4419308893
 20
1209.9633969095
 30
0.0
 11
-120.4419308893
 21
1211.0614731208
 31
0.0
  0
LINE
  5
59
  8
0
  6
CONTINUOUS
 62
     7
 10
-118.9419308893
 20
1211.0614731208
 30
0.0
 11
-120.4419308893
 21
1211.0614731208
 31
0.0
  0
LINE
  5
5A
  8
0
  6
CONTINUOUS
 62
     7
 10
-118.9419308893
 20
1209.9633969095
 30
0.0
 11
-118.9419308893
 21
1211.0614731208
 31
0.0
  0
LINE
  5
5B
  8
0
  6
CONTINUOUS
 62
     7
 10
430.4367487672
 20
1212.5614731208
 30
0.0
 11
430.4367487672
 21
1214.0614731208
 31
0.0
  0
LINE
  5
5C
  8
0
  6
CONTINUOUS
 62
     7
 10
429.9599928994
 20
1212.5614731208
 30
0.0
 11
430.4367487672
 21
1212.5614731208
 31
0.0
  0
LINE
  5
5D
  8
0
  6
CONTINUOUS
 62
     7
 10
429.9599928994
 20
1214.0614731208
 30
0.0
 11
430.4367487672
 21
1214.0614731208
 31
0.0
  0
LINE
  5
5E
  8
0
  6
CONTINUOUS
 62
     7
 10
-116.8206105457
 20
1212.5614731208
 30
0.0
 11
-116.8206105457
 21
1214.0614731208
 31
0.0
  0
LINE
  5
5F
  8
0
  6
CONTINUOUS
 62
     7
 10
-117.4419308893
 20
1212.5614731208
 30
0.0
 11
-117.4419308893
 21
1214.0614731208
 31
0.0
  0
LINE
  5
60
  8
0
  6
CONTINUOUS
 62
     7
 10
-117.4419308893
 20
1212.5614731208
 30
0.0
 11
-116.8206105457
 21
1212.5614731208
 31
0.0
  0
LINE
  5
61
  8
0
  6
CONTINUOUS
 62
     7
 10
-117.4419308893
 20
1214.0614731208
 30
0.0
 11
-116.8206105457
 21
1214.0614731208
 31
0.0
  0
LINE
  5
62
  8
0
  6
CONTINUOUS
 62
     7
 10
430.4367487672
 20
1212.5614731208
 30
0.0
 11
431.0580691107
 21
1212.5614731208
 31
0.0
  0
LINE
  5
63
  8
0
  6
CONTINUOUS
 62
     7
 10
430.4367487672
 20
1214.0614731208
 30
0.0
 11
430.4367487672
 21
1212.5614731208
 31
0.0
  0
LINE
  5
64
  8
0
  6
CONTINUOUS
 62
     7
 10
430.4367487672
 20
1214.0614731208
 30
0.0
 11
431.0580691107
 21
1214.0614731208
 31
0.0
  0
LINE
  5
65
  8
0
  6
CONTINUOUS
 62
     7
 10
431.0580691107
 20
1214.0614731208
 30
0.0
 11
431.0580691107
 21
1212.5614731208
 31
0.0
  0
ARC
  5
66
  8
0
  6
CONTINUOUS
 62
     7
 10
-117.4419308893
 20
1211.0614731208
 30
0.0
 40
2.999999999999773
 50
90.0
 51
180.0
  0
ARC
  5
67
  8
0
  6
CONTINUOUS
 62
     7
 10
-117.4419308893
 20
1211.0614731208
 30
0.0
 40
1.500000000000355
 50
90.0
 51
180.0
  0
ARC
  5
68
  8
0
  6
CONTINUOUS
 62
     7
 10
431.0580691107
 20
1211.0614731208
 30
0.0
 40
3.0
 50
0.0
 51
90.0
  0
ARC
  5
69
  8
0
  6
CONTINUOUS
 62
     7
 10
431.0580691107
 20
1211.0614731208
 30
0.0
 40
1.500000000000114
 50
0.0
 51
90.0
  0
LINE
  5
6A
  8
0
  6
CONTINUOUS
 62
     7
 10
551.4876050784
 20
-846.9385268792
 30
0.0
 11
550.9876050784
 21
-847.4385268792
 31
0.0
  0
LINE
  5
6B
  8
0
  6
CONTINUOUS
 62
     7
 10
550.9876050784
 20
-854.4385268792
 30
0.0
 11
551.4876050784
 21
-854.9385268792
 31
0.0
  0
LINE
  5
6C
  8
0
  6
CONTINUOUS
 62
     7
 10
554.9876050784
 20
-846.9385268792
 30
0.0
 11
551.4876050784
 21
-846.9385268792
 31
0.0
  0
LINE
  5
6D
  8
0
  6
CONTINUOUS
 62
     7
 10
551.4876050784
 20
-854.9385268792
 30
0.0
 11
554.9876050784
 21
-854.9385268792
 31
0.0
  0
LINE
  5
6E
  8
0
  6
CONTINUOUS
 62
     7
 10
554.9876050784
 20
1211.0614731208
 30
0.0
 11
554.9876050784
 21
1214.0614731208
 31
0.0
  0
LINE
  5
6F
  8
0
  6
CONTINUOUS
 62
     7
 10
568.3895288671
 20
1214.0614731208
 30
0.0
 11
554.9876050784
 21
1214.0614731208
 31
0.0
  0
POLYLINE
  5
70
  8
0
  6
CONTINUOUS
 62
     7
 66
     1
 10
0.0
 20
0.0
 30
0.0
  0
VERTEX
  5
1E5
  8
0
  6
CONTINUOUS
 62
     7
 10
568.3895288671
 20
1211.0614731208
 30
0.0
  0
VERTEX
  5
1E6
  8
0
  6
CONTINUOUS
 62
     7
 10
568.2159957509
 20
1211.6111907934
 30
0.0
  0
VERTEX
  5
1E7
  8
0
  6
CONTINUOUS
 62
     7
 10
568.0898331964
 20
1212.1709875542
 30
0.0
  0
VERTEX
  5
1E8
  8
0
  6
CONTINUOUS
 62
     7
 10
568.0131648549
 20
1212.706390035
 30
0.0
  0
VERTEX
  5
1E9
  8
0
  6
CONTINUOUS
 62
     7
 10
567.9876050918
 20
1213.1827993584
 30
0.0
  0
VERTEX
  5
1EA
  8
0
  6
CONTINUOUS
 62
     7
 10
568.0131600982
 20
1213.5702628601
 30
0.0
  0
VERTEX
  5
1EB
  8
0
  6
CONTINUOUS
 62
     7
 10
568.0898360619
 20
1213.848767587
 30
0.0
  0
VERTEX
  5
1EC
  8
0
  6
CONTINUOUS
 62
     7
 10
568.2149602487
 20
1214.0097164738
 30
0.0
  0
VERTEX
  5
1ED
  8
0
  6
CONTINUOUS
 62
     7
 10
568.3895288671
 20
1214.0614731208
 30
0.0
  0
SEQEND
  5
1E4
  8
0
  6
CONTINUOUS
 62
     7
  0
LINE
  5
71
  8
0
  6
CONTINUOUS
 62
     7
 10
569.4876050784
 20
-985.9385268792
 30
0.0
 11
554.9876050784
 21
-985.9385268792
 31
0.0
  0
LINE
  5
72
  8
0
  6
CONTINUOUS
 62
     7
 10
554.9876050784
 20
-985.9385268792
 30
0.0
 11
554.9876050784
 21
1211.0614731208
 31
0.0
  0
ARC
  5
73
  8
0
  6
CONTINUOUS
 62
     7
 10
570.9876050784
 20
1212.5614731208
 30
0.0
 40
3.000000000000049
 50
210.0
 51
240.0
  0
LINE
  5
74
  8
0
  6
CONTINUOUS
 62
     7
 10
572.4876050784
 20
1209.9633969095
 30
0.0
 11
572.4876050784
 21
-985.9385268792
 31
0.0
  0
LINE
  5
75
  8
0
  6
CONTINUOUS
 62
     7
 10
572.4876050784
 20
-985.9385268792
 30
0.0
 11
569.4876050784
 21
-985.9385268792
 31
0.0
  0
POLYLINE
  5
76
  8
0
  6
CONTINUOUS
 62
     7
 66
     1
 10
0.0
 20
0.0
 30
0.0
  0
VERTEX
  5
1EF
  8
0
  6
CONTINUOUS
 62
     7
 10
572.4876050784
 20
1209.9633969095
 30
0.0
  0
VERTEX
  5
1F0
  8
0
  6
CONTINUOUS
 62
     7
 10
572.4368101375
 20
1209.7898637932
 30
0.0
  0
VERTEX
  5
1F1
  8
0
  6
CONTINUOUS
 62
     7
 10
572.2748936753
 20
1209.6637012388
 30
0.0
  0
VERTEX
  5
1F2
  8
0
  6
CONTINUOUS
 62
     7
 10
571.9964391365
 20
1209.5870328973
 30
0.0
  0
VERTEX
  5
1F3
  8
0
  6
CONTINUOUS
 62
     7
 10
571.608919528
 20
1209.5614731341
 30
0.0
  0
VERTEX
  5
1F4
  8
0
  6
CONTINUOUS
 62
     7
 10
571.1325895772
 20
1209.5870281405
 30
0.0
  0
VERTEX
  5
1F5
  8
0
  6
CONTINUOUS
 62
     7
 10
570.5971047668
 20
1209.6637041043
 30
0.0
  0
VERTEX
  5
1F6
  8
0
  6
CONTINUOUS
 62
     7
 10
570.04245743
 20
1209.7888282936
 30
0.0
  0
VERTEX
  5
1F7
  8
0
  6
CONTINUOUS
 62
     7
 10
569.4876050784
 20
1209.9633969095
 30
0.0
  0
SEQEND
  5
1EE
  8
0
  6
CONTINUOUS
 62
     7
  0
LINE
  5
77
  8
0
  6
CONTINUOUS
 62
     7
 10
570.9876050784
 20
1209.9633969095
 30
0.0
 11
572.4876050784
 21
1209.9633969095
 31
0.0
  0
LINE
  5
78
  8
0
  6
CONTINUOUS
 62
     7
 10
568.3895288671
 20
1212.5614731208
 30
0.0
 11
568.3895288671
 21
1214.0614731208
 31
0.0
  0
ARC
  5
79
  8
0
  6
CONTINUOUS
 62
     7
 10
568.3614636614
 20
1212.183634166
 30
0.0
 40
0.3788798378560019
 50
85.7519724038
 51
189.3397136409
  0
LINE
  5
7A
  8
0
  6
CONTINUOUS
 62
     7
 10
568.8662847349
 20
1212.5614731208
 30
0.0
 11
568.8662847349
 21
1214.0614731208
 31
0.0
  0
LINE
  5
7B
  8
0
  6
CONTINUOUS
 62
     7
 10
568.3895288671
 20
1212.5614731208
 30
0.0
 11
568.8662847349
 21
1212.5614731208
 31
0.0
  0
LINE
  5
7C
  8
0
  6
CONTINUOUS
 62
     7
 10
568.3895288671
 20
1214.0614731208
 30
0.0
 11
568.8662847349
 21
1214.0614731208
 31
0.0
  0
LINE
  5
7D
  8
0
  6
CONTINUOUS
 62
     7
 10
572.4876050784
 20
1211.0614731208
 30
0.0
 11
570.9876050784
 21
1211.0614731208
 31
0.0
  0
LINE
  5
7E
  8
0
  6
CONTINUOUS
 62
     7
 10
572.4876050784
 20
1211.0614731208
 30
0.0
 11
572.4876050784
 21
1209.9633969095
 31
0.0
  0
LINE
  5
7F
  8
0
  6
CONTINUOUS
 62
     7
 10
570.9876050784
 20
1211.0614731208
 30
0.0
 11
570.9876050784
 21
1209.9633969095
 31
0.0
  0
LINE
  5
80
  8
0
  6
CONTINUOUS
 62
     7
 10
568.8662847349
 20
1214.0614731208
 30
0.0
 11
568.8662847349
 21
1212.5614731208
 31
0.0
  0
LINE
  5
81
  8
0
  6
CONTINUOUS
 62
     7
 10
569.4876050784
 20
1214.0614731208
 30
0.0
 11
569.4876050784
 21
1212.5614731208
 31
0.0
  0
LINE
  5
82
  8
0
  6
CONTINUOUS
 62
     7
 10
568.8662847349
 20
1214.0614731208
 30
0.0
 11
569.4876050784
 21
1214.0614731208
 31
0.0
  0
LINE
  5
83
  8
0
  6
CONTINUOUS
 62
     7
 10
568.8662847349
 20
1212.5614731208
 30
0.0
 11
569.4876050784
 21
1212.5614731208
 31
0.0
  0
ARC
  5
84
  8
0
  6
CONTINUOUS
 62
     7
 10
569.4876050784
 20
1211.0614731208
 30
0.0
 40
3.0
 50
0.0
 51
90.0
  0
ARC
  5
85
  8
0
  6
CONTINUOUS
 62
     7
 10
569.4876050784
 20
1211.0614731208
 30
0.0
 40
1.500000000000227
 50
0.0
 51
90.0
  0
LINE
  5
86
  8
0
  6
CONTINUOUS
 62
     7
 10
548.4876050784
 20
1212.5614731208
 30
0.0
 11
548.4876050784
 21
1214.0614731208
 31
0.0
  0
LINE
  5
87
  8
0
  6
CONTINUOUS
 62
     7
 10
554.9876050784
 20
1214.0614731208
 30
0.0
 11
548.4876050784
 21
1214.0614731208
 31
0.0
  0
LINE
  5
88
  8
0
  6
CONTINUOUS
 62
     7
 10
554.9876050784
 20
1212.5614731208
 30
0.0
 11
548.4876050784
 21
1212.5614731208
 31
0.0
  0
LINE
  5
89
  8
0
  6
CONTINUOUS
 62
     7
 10
551.4876050784
 20
-850.9385268792
 30
0.0
 11
551.4876050784
 21
-854.9385268792
 31
0.0
  0
LINE
  5
8A
  8
0
  6
CONTINUOUS
 62
     7
 10
551.4876050784
 20
-846.9385268792
 30
0.0
 11
551.4876050784
 21
-850.9385268792
 31
0.0
  0
LINE
  5
8B
  8
0
  6
CONTINUOUS
 62
     7
 10
550.9876050784
 20
-850.9385268792
 30
0.0
 11
550.9876050784
 21
-854.4385268792
 31
0.0
  0
LINE
  5
8C
  8
0
  6
CONTINUOUS
 62
     7
 10
550.9876050784
 20
-847.4385268792
 30
0.0
 11
550.9876050784
 21
-850.9385268792
 31
0.0
  0
ARC
  5
8D
  8
0
  6
HIDDEN
 62
     7
 10
570.9876050784
 20
1200.0614731208
 30
0.0
 40
6.0
 50
90.0
 51
270.0
  0
ARC
  5
8E
  8
0
  6
HIDDEN
 62
     7
 10
570.9876050784
 20
-978.9385268792
 30
0.0
 40
6.000000000000114
 50
90.0
 51
270.0
  0
ARC
  5
8F
  8
0
  6
HIDDEN
 62
     7
 10
570.6004602118
 20
1209.9454998904
 30
0.0
 40
0.3875583195333249
 50
262.2577536818
 51
2.6467976789
  0
POLYLINE
  5
90
  8
0
  6
HIDDEN
 62
     7
 66
     1
 10
0.0
 20
0.0
 30
0.0
  0
VERTEX
  5
1F9
  8
0
  6
HIDDEN
 62
     7
 10
569.4876050784
 20
1209.9633969095
 30
0.0
  0
VERTEX
  5
1FA
  8
0
  6
HIDDEN
 62
     7
 10
569.4876050784
 20
1209.9633969095
 30
0.0
  0
SEQEND
  5
1F8
  8
0
  6
HIDDEN
 62
     7
  0
POLYLINE
  5
91
  8
0
  6
HIDDEN
 62
     7
 66
     1
 10
0.0
 20
0.0
 30
0.0
  0
VERTEX
  5
1FC
  8
0
  6
HIDDEN
 62
     7
 10
568.3895288671
 20
1211.0614731208
 30
0.0
  0
VERTEX
  5
1FD
  8
0
  6
HIDDEN
 62
     7
 10
568.3895288671
 20
1211.0614731208
 30
0.0
  0
SEQEND
  5
1FB
  8
0
  6
HIDDEN
 62
     7
  0
LINE
  5
92
  8
0
  6
HIDDEN
 62
     7
 10
568.3895288671
 20
1212.5614731208
 30
0.0
 11
554.9876050784
 21
1212.5614731208
 31
0.0
  0
LINE
  5
93
  8
0
  6
HIDDEN
 62
     7
 10
570.9876050784
 20
1209.9633969095
 30
0.0
 11
570.9876050784
 21
-985.9385268792
 31
0.0
  0
LINE
  5
94
  8
0
  6
HIDDEN
 62
     7
 10
567.9770445492
 20
-934.2465203681
 30
0.0
 11
567.9770445492
 21
-942.6305333903
 31
0.0
  0
LINE
  5
95
  8
0
  6
HIDDEN
 62
     7
 10
567.9770445492
 20
115.7534796319
 30
0.0
 11
567.9770445492
 21
107.3694666097
 31
0.0
  0
LINE
  5
96
  8
0
  6
HIDDEN
 62
     7
 10
567.9770445492
 20
1165.7534796319
 30
0.0
 11
567.9770445492
 21
1157.3694666097
 31
0.0
  0
LINE
  5
97
  8
0
  6
HIDDEN
 62
     7
 10
568.8876050785
 20
-935.4385268792
 30
0.0
 11
568.8876050785
 21
-941.4385268792
 31
0.0
  0
LINE
  5
98
  8
0
  6
HIDDEN
 62
     7
 10
568.8876050785
 20
114.5614731208
 30
0.0
 11
568.8876050785
 21
108.5614731208
 31
0.0
  0
LINE
  5
99
  8
0
  6
HIDDEN
 62
     7
 10
568.8876050785
 20
1164.5614731208
 30
0.0
 11
568.8876050785
 21
1158.5614731208
 31
0.0
  0
LINE
  5
9A
  8
0
  6
HIDDEN
 62
     7
 10
567.9770445491
 20
-964.7465203681
 30
0.0
 11
567.9770445491
 21
-973.1305333903
 31
0.0
  0
LINE
  5
9B
  8
0
  6
HIDDEN
 62
     7
 10
568.8876050784
 20
-965.9385268792
 30
0.0
 11
568.8876050784
 21
-971.9385268792
 31
0.0
  0
POLYLINE
  5
9C
  8
0
  6
HIDDEN
 62
     7
 66
     1
 10
0.0
 20
0.0
 30
0.0
  0
VERTEX
  5
1FF
  8
0
  6
HIDDEN
 62
     7
 10
568.3895288671
 20
1211.0614731208
 30
0.0
  0
VERTEX
  5
200
  8
0
  6
HIDDEN
 62
     7
 10
568.3895288671
 20
1211.0614731208
 30
0.0
  0
SEQEND
  5
1FE
  8
0
  6
HIDDEN
 62
     7
  0
POLYLINE
  5
9D
  8
0
  6
HIDDEN
 62
     7
 66
     1
 10
0.0
 20
0.0
 30
0.0
  0
VERTEX
  5
202
  8
0
  6
HIDDEN
 62
     7
 10
569.4876050784
 20
1209.9633969095
 30
0.0
  0
VERTEX
  5
203
  8
0
  6
HIDDEN
 62
     7
 10
569.4876050784
 20
1209.9633969095
 30
0.0
  0
SEQEND
  5
201
  8
0
  6
HIDDEN
 62
     7
  0
LINE
  5
9E
  8
0
  6
HIDDEN
 62
     7
 10
569.9876050784
 20
-850.9385268792
 30
0.0
 11
569.9876050784
 21
-855.9385268792
 31
0.0
  0
LINE
  5
9F
  8
0
  6
HIDDEN
 62
     7
 10
569.9876050784
 20
-845.9385268792
 30
0.0
 11
569.9876050784
 21
-850.9385268792
 31
0.0
  0
LINE
  5
A0
  8
0
  6
HIDDEN
 62
     7
 10
564.9876050784
 20
1200.0614731208
 30
0.0
 11
564.9876050784
 21
1164.0614731208
 31
0.0
  0
LINE
  5
A1
  8
0
  6
HIDDEN
 62
     7
 10
564.9876050784
 20
1164.0614731208
 30
0.0
 11
564.9876050784
 21
-942.9385268792
 31
0.0
  0
LINE
  5
A2
  8
0
  6
HIDDEN
 62
     7
 10
564.9876050784
 20
-942.9385268792
 30
0.0
 11
564.9876050784
 21
-978.9385268792
 31
0.0
  0
LINE
  5
A3
  8
0
  6
HIDDEN
 62
     7
 10
570.5482388254
 20
1209.5614731338
 30
0.0
 11
571.6088725724
 21
1209.5614731338
 31
0.0
  0
LINE
  5
A4
  8
0
  6
HIDDEN
 62
     7
 10
567.9876050915
 20
1213.1828463127
 30
0.0
 11
567.9876050915
 21
1212.1221597167
 31
0.0
  0
ARC
  5
A5
  8
0
  6
HIDDEN
 62
     7
 10
570.1876050785
 20
-945.3258619273
 30
0.0
 40
2.299999999999955
 50
0.0
 51
52.6241925045
  0
ARC
  5
A6
  8
0
  6
HIDDEN
 62
     7
 10
570.1876050785
 20
-931.5511918311
 30
0.0
 40
2.299999999999955
 50
307.3758074955
 51
0.0
  0
ARC
  5
A7
  8
0
  6
HIDDEN
 62
     7
 10
570.1876050785
 20
-945.3258619273
 30
0.0
 40
0.8000000000000665
 50
0.0
 51
52.6241925045
  0
ARC
  5
A8
  8
0
  6
HIDDEN
 62
     7
 10
570.1876050785
 20
-931.5511918311
 30
0.0
 40
0.8000000000000665
 50
307.3758074955
 51
0.0
  0
ARC
  5
A9
  8
0
  6
HIDDEN
 62
     7
 10
570.1876050785
 20
104.6741380727
 30
0.0
 40
2.299999999999976
 50
0.0
 51
52.6241925045
  0
ARC
  5
AA
  8
0
  6
HIDDEN
 62
     7
 10
570.1876050785
 20
118.4488081689
 30
0.0
 40
2.299999999999987
 50
307.3758074955
 51
0.0
  0
ARC
  5
AB
  8
0
  6
HIDDEN
 62
     7
 10
570.1876050785
 20
104.6741380727
 30
0.0
 40
0.7999999999999536
 50
0.0
 51
52.6241925045
  0
ARC
  5
AC
  8
0
  6
HIDDEN
 62
     7
 10
570.1876050785
 20
118.4488081689
 30
0.0
 40
0.799999999999965
 50
307.3758074955
 51
0.0
  0
ARC
  5
AD
  8
0
  6
HIDDEN
 62
     7
 10
570.1876050785
 20
1154.6741380727
 30
0.0
 40
0.7999999999999762
 50
0.0
 51
52.6241925045
  0
ARC
  5
AE
  8
0
  6
HIDDEN
 62
     7
 10
570.1876050785
 20
1168.4488081689
 30
0.0
 40
0.7999999999999762
 50
307.3758074955
 51
0.0
  0
ARC
  5
AF
  8
0
  6
HIDDEN
 62
     7
 10
570.1876050785
 20
1154.6741380727
 30
0.0
 40
2.299999999999955
 50
0.0
 51
52.6241925045
  0
ARC
  5
B0
  8
0
  6
HIDDEN
 62
     7
 10
570.1876050785
 20
1168.4488081689
 30
0.0
 40
2.299999999999955
 50
307.3758074955
 51
0.0
  0
LINE
  5
B1
  8
0
  6
HIDDEN
 62
     7
 10
570.6732373608
 20
-932.186928637
 30
0.0
 11
567.9770445492
 21
-934.2465203681
 31
0.0
  0
LINE
  5
B2
  8
0
  6
HIDDEN
 62
     7
 10
567.9770445492
 20
-942.6305333903
 30
0.0
 11
570.6732373608
 21
-944.6901251214
 31
0.0
  0
LINE
  5
B3
  8
0
  6
HIDDEN
 62
     7
 10
570.6732373608
 20
117.813071363
 30
0.0
 11
567.9770445492
 21
115.7534796319
 31
0.0
  0
LINE
  5
B4
  8
0
  6
HIDDEN
 62
     7
 10
567.9770445492
 20
107.3694666097
 30
0.0
 11
570.6732373608
 21
105.3098748786
 31
0.0
  0
LINE
  5
B5
  8
0
  6
HIDDEN
 62
     7
 10
570.6732373608
 20
1167.813071363
 30
0.0
 11
567.9770445492
 21
1165.7534796319
 31
0.0
  0
LINE
  5
B6
  8
0
  6
HIDDEN
 62
     7
 10
567.9770445492
 20
1157.3694666097
 30
0.0
 11
570.6732373608
 21
1155.3098748786
 31
0.0
  0
LINE
  5
B7
  8
0
  6
HIDDEN
 62
     7
 10
571.5837978901
 20
-933.3789351481
 30
0.0
 11
568.8876050785
 21
-935.4385268792
 31
0.0
  0
LINE
  5
B8
  8
0
  6
HIDDEN
 62
     7
 10
568.8876050785
 20
-941.4385268792
 30
0.0
 11
571.5837978901
 21
-943.4981186103
 31
0.0
  0
LINE
  5
B9
  8
0
  6
HIDDEN
 62
     7
 10
571.5837978901
 20
116.6210648519
 30
0.0
 11
568.8876050785
 21
114.5614731208
 31
0.0
  0
LINE
  5
BA
  8
0
  6
HIDDEN
 62
     7
 10
568.8876050785
 20
108.5614731208
 30
0.0
 11
571.5837978901
 21
106.5018813897
 31
0.0
  0
LINE
  5
BB
  8
0
  6
HIDDEN
 62
     7
 10
571.5837978901
 20
1166.6210648519
 30
0.0
 11
568.8876050785
 21
1164.5614731208
 31
0.0
  0
LINE
  5
BC
  8
0
  6
HIDDEN
 62
     7
 10
568.8876050785
 20
1158.5614731208
 30
0.0
 11
571.5837978901
 21
1156.5018813897
 31
0.0
  0
LINE
  5
BD
  8
0
  6
HIDDEN
 62
     7
 10
567.9770445492
 20
-942.6305333903
 30
0.0
 11
568.8876050785
 21
-941.4385268792
 31
0.0
  0
LINE
  5
BE
  8
0
  6
HIDDEN
 62
     7
 10
568.8876050785
 20
-935.4385268792
 30
0.0
 11
567.9770445492
 21
-934.2465203681
 31
0.0
  0
LINE
  5
BF
  8
0
  6
HIDDEN
 62
     7
 10
567.9770445492
 20
107.3694666097
 30
0.0
 11
568.8876050785
 21
108.5614731208
 31
0.0
  0
LINE
  5
C0
  8
0
  6
HIDDEN
 62
     7
 10
568.8876050785
 20
114.5614731208
 30
0.0
 11
567.9770445492
 21
115.7534796319
 31
0.0
  0
LINE
  5
C1
  8
0
  6
HIDDEN
 62
     7
 10
567.9770445492
 20
1157.3694666097
 30
0.0
 11
568.8876050785
 21
1158.5614731208
 31
0.0
  0
LINE
  5
C2
  8
0
  6
HIDDEN
 62
     7
 10
568.8876050785
 20
1164.5614731208
 30
0.0
 11
567.9770445492
 21
1165.7534796319
 31
0.0
  0
LINE
  5
C3
  8
0
  6
HIDDEN
 62
     7
 10
558.9876050784
 20
1212.5614731208
 30
0.0
 11
558.9876050784
 21
1214.0614731208
 31
0.0
  0
ARC
  5
C4
  8
0
  6
HIDDEN
 62
     7
 10
570.1876050784
 20
-975.8258619273
 30
0.0
 40
0.8000000000461114
 50
0.0
 51
52.6241925045
  0
ARC
  5
C5
  8
0
  6
HIDDEN
 62
     7
 10
570.1876050784
 20
-962.0511918311
 30
0.0
 40
0.8000000000461114
 50
307.3758074955
 51
0.0
  0
ARC
  5
C6
  8
0
  6
HIDDEN
 62
     7
 10
570.1876050784
 20
-975.8258619273
 30
0.0
 40
2.299999999999955
 50
0.0
 51
52.6241925045
  0
ARC
  5
C7
  8
0
  6
HIDDEN
 62
     7
 10
570.1876050784
 20
-962.0511918311
 30
0.0
 40
2.299999999999955
 50
307.3758074955
 51
0.0
  0
LINE
  5
C8
  8
0
  6
HIDDEN
 62
     7
 10
570.6732373606
 20
-962.686928637
 30
0.0
 11
567.9770445491
 21
-964.7465203681
 31
0.0
  0
LINE
  5
C9
  8
0
  6
HIDDEN
 62
     7
 10
567.9770445491
 20
-973.1305333903
 30
0.0
 11
570.6732373606
 21
-975.1901251214
 31
0.0
  0
LINE
  5
CA
  8
0
  6
HIDDEN
 62
     7
 10
571.58379789
 20
-963.8789351481
 30
0.0
 11
568.8876050784
 21
-965.9385268792
 31
0.0
  0
LINE
  5
CB
  8
0
  6
HIDDEN
 62
     7
 10
568.8876050784
 20
-971.9385268792
 30
0.0
 11
571.58379789
 21
-973.9981186103
 31
0.0
  0
LINE
  5
CC
  8
0
  6
HIDDEN
 62
     7
 10
567.9770445491
 20
-973.1305333903
 30
0.0
 11
568.8876050784
 21
-971.9385268792
 31
0.0
  0
LINE
  5
CD
  8
0
  6
HIDDEN
 62
     7
 10
568.8876050784
 20
-965.9385268792
 30
0.0
 11
567.9770445491
 21
-964.7465203681
 31
0.0
  0
LINE
  5
CE
  8
0
  6
HIDDEN
 62
     7
 10
571.6089125724
 20
1209.5614731338
 30
0.0
 11
571.6089782552
 21
1209.5614731338
 31
0.0
  0
LINE
  5
CF
  8
0
  6
HIDDEN
 62
     7
 10
570.9876050784
 20
-845.9385268792
 30
0.0
 11
569.9876050784
 21
-845.9385268792
 31
0.0
  0
LINE
  5
D0
  8
0
  6
HIDDEN
 62
     7
 10
569.9876050784
 20
-855.9385268792
 30
0.0
 11
570.9876050784
 21
-855.9385268792
 31
0.0
  0
LINE
  5
D1
  8
0
  6
HIDDEN
 62
     7
 10
569.9876050784
 20
-846.9385268792
 30
0.0
 11
554.9876050784
 21
-846.9385268792
 31
0.0
  0
LINE
  5
D2
  8
0
  6
HIDDEN
 62
     7
 10
554.9876050784
 20
-854.9385268792
 30
0.0
 11
569.9876050784
 21
-854.9385268792
 31
0.0
  0
LINE
  5
D3
  8
0
  6
CONTINUOUS
 62
     7
 10
430.0580691107
 20
-1116.4802194257
 30
0.0
 11
429.9517680657
 21
-1115.3558028532
 31
0.0
  0
LINE
  5
D4
  8
0
  6
CONTINUOUS
 62
     7
 10
-116.4419308893
 20
-1116.4802194257
 30
0.0
 11
-116.3354735916
 21
-1115.3549841542
 31
0.0
  0
LINE
  5
D5
  8
0
  6
CONTINUOUS
 62
     7
 10
429.9599928994
 20
-1117.9802194257
 30
0.0
 11
-116.3438546779
 21
-1117.9802194257
 31
0.0
  0
POLYLINE
  5
D6
  8
0
  6
CONTINUOUS
 62
     7
 66
     1
 10
0.0
 20
0.0
 30
0.0
  0
VERTEX
  5
205
  8
0
  6
CONTINUOUS
 62
     7
 10
-116.3438546779
 20
-1114.9802194257
 30
0.0
  0
VERTEX
  5
206
  8
0
  6
CONTINUOUS
 62
     7
 10
-116.1703215617
 20
-1115.5299370983
 30
0.0
  0
VERTEX
  5
207
  8
0
  6
CONTINUOUS
 62
     7
 10
-116.0441590073
 20
-1116.0897338591
 30
0.0
  0
VERTEX
  5
208
  8
0
  6
CONTINUOUS
 62
     7
 10
-115.9674906648
 20
-1116.6251363439
 30
0.0
  0
VERTEX
  5
209
  8
0
  6
CONTINUOUS
 62
     7
 10
-115.9419309026
 20
-1117.1015456632
 30
0.0
  0
VERTEX
  5
20A
  8
0
  6
CONTINUOUS
 62
     7
 10
-115.9674859099
 20
-1117.4890091683
 30
0.0
  0
VERTEX
  5
20B
  8
0
  6
CONTINUOUS
 62
     7
 10
-116.0441618728
 20
-1117.7675138919
 30
0.0
  0
VERTEX
  5
20C
  8
0
  6
CONTINUOUS
 62
     7
 10
-116.1692860598
 20
-1117.9284627788
 30
0.0
  0
VERTEX
  5
20D
  8
0
  6
CONTINUOUS
 62
     7
 10
-116.3438546779
 20
-1117.9802194257
 30
0.0
  0
SEQEND
  5
204
  8
0
  6
CONTINUOUS
 62
     7
  0
POLYLINE
  5
D7
  8
0
  6
CONTINUOUS
 62
     7
 66
     1
 10
0.0
 20
0.0
 30
0.0
  0
VERTEX
  5
20F
  8
0
  6
CONTINUOUS
 62
     7
 10
429.9599928994
 20
-1117.9802194257
 30
0.0
  0
VERTEX
  5
210
  8
0
  6
CONTINUOUS
 62
     7
 10
429.7864597832
 20
-1117.9294244847
 30
0.0
  0
VERTEX
  5
211
  8
0
  6
CONTINUOUS
 62
     7
 10
429.6602972287
 20
-1117.7675080225
 30
0.0
  0
VERTEX
  5
212
  8
0
  6
CONTINUOUS
 62
     7
 10
429.5836288872
 20
-1117.4890534838
 30
0.0
  0
VERTEX
  5
213
  8
0
  6
CONTINUOUS
 62
     7
 10
429.5580691241
 20
-1117.1015338752
 30
0.0
  0
VERTEX
  5
214
  8
0
  6
CONTINUOUS
 62
     7
 10
429.5836241305
 20
-1116.6252039372
 30
0.0
  0
VERTEX
  5
215
  8
0
  6
CONTINUOUS
 62
     7
 10
429.6603000942
 20
-1116.089719114
 30
0.0
  0
VERTEX
  5
216
  8
0
  6
CONTINUOUS
 62
     7
 10
429.7854242803
 20
-1115.5350717812
 30
0.0
  0
VERTEX
  5
217
  8
0
  6
CONTINUOUS
 62
     7
 10
429.9599928994
 20
-1114.9802194257
 30
0.0
  0
SEQEND
  5
20E
  8
0
  6
CONTINUOUS
 62
     7
  0
POLYLINE
  5
D8
  8
0
  6
CONTINUOUS
 62
     7
 66
     1
 10
0.0
 20
0.0
 30
0.0
  0
VERTEX
  5
219
  8
0
  6
CONTINUOUS
 62
     7
 10
-120.4419308893
 20
-1113.8821432143
 30
0.0
  0
VERTEX
  5
21A
  8
0
  6
CONTINUOUS
 62
     7
 10
-120.3911359483
 20
-1113.7086100981
 30
0.0
  0
VERTEX
  5
21B
  8
0
  6
CONTINUOUS
 62
     7
 10
-120.2292194861
 20
-1113.5824475436
 30
0.0
  0
VERTEX
  5
21C
  8
0
  6
CONTINUOUS
 62
     7
 10
-119.9507649502
 20
-1113.5057792021
 30
0.0
  0
VERTEX
  5
21D
  8
0
  6
CONTINUOUS
 62
     7
 10
-119.5632453388
 20
-1113.480219439
 30
0.0
  0
VERTEX
  5
21E
  8
0
  6
CONTINUOUS
 62
     7
 10
-119.086915401
 20
-1113.5057744454
 30
0.0
  0
VERTEX
  5
21F
  8
0
  6
CONTINUOUS
 62
     7
 10
-118.5514305776
 20
-1113.5824504091
 30
0.0
  0
VERTEX
  5
220
  8
0
  6
CONTINUOUS
 62
     7
 10
-117.9967832405
 20
-1113.7075745959
 30
0.0
  0
VERTEX
  5
221
  8
0
  6
CONTINUOUS
 62
     7
 10
-117.4419308893
 20
-1113.8821432143
 30
0.0
  0
SEQEND
  5
218
  8
0
  6
CONTINUOUS
 62
     7
  0
LINE
  5
D9
  8
0
  6
CONTINUOUS
 62
     7
 10
-118.9419308893
 20
-1113.8821432143
 30
0.0
 11
-120.4419308893
 21
-1113.8821432143
 31
0.0
  0
ARC
  5
DA
  8
0
  6
CONTINUOUS
 62
     7
 10
-118.9419308893
 20
-1116.4802194257
 30
0.0
 40
3.000000000000105
 50
30.0
 51
45.0
  0
LINE
  5
DB
  8
0
  6
CONTINUOUS
 62
     7
 10
-116.8206105457
 20
-1114.3588990821
 30
0.0
 11
-102.9419308893
 21
-1100.4802194257
 31
0.0
  0
LINE
  5
DC
  8
0
  6
CONTINUOUS
 62
     7
 10
-102.9419308893
 20
-1100.4802194257
 30
0.0
 11
-81.1534122861
 21
-1100.4802194257
 31
0.0
  0
ARC
  5
DD
  8
0
  6
CONTINUOUS
 62
     7
 10
-68.1919308893
 20
-1081.4802194257
 30
0.0
 40
23.00000000000026
 50
235.6988472432
 51
327.0792654719
  0
LINE
  5
DE
  8
0
  6
CONTINUOUS
 62
     7
 10
-48.885196313
 20
-1093.9802194257
 30
0.0
 11
362.5013345344
 21
-1093.9802194257
 31
0.0
  0
ARC
  5
DF
  8
0
  6
CONTINUOUS
 62
     7
 10
381.8080691107
 20
-1081.4802194257
 30
0.0
 40
23.00000000000026
 50
212.9207345281
 51
304.3011527568
  0
LINE
  5
E0
  8
0
  6
CONTINUOUS
 62
     7
 10
394.7695505076
 20
-1100.4802194257
 30
0.0
 11
416.5580691107
 21
-1100.4802194257
 31
0.0
  0
LINE
  5
E1
  8
0
  6
CONTINUOUS
 62
     7
 10
416.5580691107
 20
-1100.4802194257
 30
0.0
 11
430.4367487672
 21
-1114.3588990821
 31
0.0
  0
ARC
  5
E2
  8
0
  6
CONTINUOUS
 62
     7
 10
432.5580691107
 20
-1116.4802194257
 30
0.0
 40
3.000000000000105
 50
135.0
 51
150.0
  0
ARC
  5
E3
  8
0
  6
CONTINUOUS
 62
     7
 10
429.9420958813
 20
-1116.0930745581
 30
0.0
 40
0.3875583203782502
 50
172.2577538315
 51
272.646797529
  0
LINE
  5
E4
  8
0
  6
CONTINUOUS
 62
     7
 10
429.9599928994
 20
-1116.4802194257
 30
0.0
 11
429.9599928994
 21
-1117.9802194257
 31
0.0
  0
LINE
  5
E5
  8
0
  6
CONTINUOUS
 62
     7
 10
430.4367487672
 20
-1114.3588990821
 30
0.0
 11
416.5580691107
 21
-1100.4802194257
 31
0.0
  0
LINE
  5
E6
  8
0
  6
CONTINUOUS
 62
     7
 10
416.5580691107
 20
-1100.4802194257
 30
0.0
 11
431.0580691107
 21
-1100.4802194257
 31
0.0
  0
ARC
  5
E7
  8
0
  6
CONTINUOUS
 62
     7
 10
432.5580691107
 20
-1116.4802194257
 30
0.0
 40
3.000000000000273
 50
120.0
 51
135.0
  0
LINE
  5
E8
  8
0
  6
CONTINUOUS
 62
     7
 10
-120.4419308893
 20
-1113.8821432143
 30
0.0
 11
-120.4419308893
 21
-1100.4802194257
 31
0.0
  0
LINE
  5
E9
  8
0
  6
CONTINUOUS
 62
     7
 10
-120.4419308893
 20
-1100.4802194257
 30
0.0
 11
-117.4419308893
 21
-1100.4802194257
 31
0.0
  0
LINE
  5
EA
  8
0
  6
CONTINUOUS
 62
     7
 10
434.0580691107
 20
-1100.4802194257
 30
0.0
 11
434.0580691107
 21
-1113.8821432143
 31
0.0
  0
POLYLINE
  5
EB
  8
0
  6
CONTINUOUS
 62
     7
 66
     1
 10
0.0
 20
0.0
 30
0.0
  0
VERTEX
  5
223
  8
0
  6
CONTINUOUS
 62
     7
 10
431.0580691107
 20
-1113.8821432143
 30
0.0
  0
VERTEX
  5
224
  8
0
  6
CONTINUOUS
 62
     7
 10
431.6077867834
 20
-1113.7086100981
 30
0.0
  0
VERTEX
  5
225
  8
0
  6
CONTINUOUS
 62
     7
 10
432.1675835442
 20
-1113.5824475436
 30
0.0
  0
VERTEX
  5
226
  8
0
  6
CONTINUOUS
 62
     7
 10
432.702986029
 20
-1113.5057792021
 30
0.0
  0
VERTEX
  5
227
  8
0
  6
CONTINUOUS
 62
     7
 10
433.1793953483
 20
-1113.480219439
 30
0.0
  0
VERTEX
  5
228
  8
0
  6
CONTINUOUS
 62
     7
 10
433.5668588506
 20
-1113.5057744454
 30
0.0
  0
VERTEX
  5
229
  8
0
  6
CONTINUOUS
 62
     7
 10
433.845363577
 20
-1113.5824504091
 30
0.0
  0
VERTEX
  5
22A
  8
0
  6
CONTINUOUS
 62
     7
 10
434.0063124631
 20
-1113.7075745955
 30
0.0
  0
VERTEX
  5
22B
  8
0
  6
CONTINUOUS
 62
     7
 10
434.0580691107
 20
-1113.8821432143
 30
0.0
  0
SEQEND
  5
222
  8
0
  6
CONTINUOUS
 62
     7
  0
LINE
  5
EC
  8
0
  6
CONTINUOUS
 62
     7
 10
431.0580691107
 20
-1100.4802194257
 30
0.0
 11
434.0580691107
 21
-1100.4802194257
 31
0.0
  0
LINE
  5
ED
  8
0
  6
CONTINUOUS
 62
     7
 10
-116.3438546779
 20
-1117.9802194257
 30
0.0
 11
-116.3438546779
 21
-1116.4802194257
 31
0.0
  0
ARC
  5
EE
  8
0
  6
CONTINUOUS
 62
     7
 10
-116.315789473
 20
-1116.1023804693
 30
0.0
 40
0.3788798393613448
 50
265.751972542
 51
9.3397138717
  0
LINE
  5
EF
  8
0
  6
CONTINUOUS
 62
     7
 10
-117.4419308893
 20
-1100.4802194257
 30
0.0
 11
-102.9419308893
 21
-1100.4802194257
 31
0.0
  0
LINE
  5
F0
  8
0
  6
CONTINUOUS
 62
     7
 10
-102.9419308893
 20
-1100.4802194257
 30
0.0
 11
-116.8206105457
 21
-1114.3588990821
 31
0.0
  0
ARC
  5
F1
  8
0
  6
CONTINUOUS
 62
     7
 10
-118.9419308893
 20
-1116.4802194257
 30
0.0
 40
3.000000000000155
 50
45.0
 51
60.0
  0
LINE
  5
F2
  8
0
  6
CONTINUOUS
 62
     7
 10
434.0580691107
 20
-1113.8821432143
 30
0.0
 11
432.5580691107
 21
-1113.8821432143
 31
0.0
  0
ARC
  5
F3
  8
0
  6
CONTINUOUS
 62
     7
 10
432.1802301559
 20
-1113.8540780086
 30
0.0
 40
0.3788798378779598
 50
355.751972408
 51
99.3397136366
  0
LINE
  5
F4
  8
0
  6
CONTINUOUS
 62
     7
 10
432.5580691107
 20
-1113.8821432143
 30
0.0
 11
432.5580691107
 21
-1114.9802194257
 31
0.0
  0
LINE
  5
F5
  8
0
  6
CONTINUOUS
 62
     7
 10
434.0580691107
 20
-1113.8821432143
 30
0.0
 11
434.0580691107
 21
-1114.9802194257
 31
0.0
  0
LINE
  5
F6
  8
0
  6
CONTINUOUS
 62
     7
 10
434.0580691107
 20
-1114.9802194257
 30
0.0
 11
432.5580691107
 21
-1114.9802194257
 31
0.0
  0
LINE
  5
F7
  8
0
  6
CONTINUOUS
 62
     7
 10
-118.9419308893
 20
-1114.9802194257
 30
0.0
 11
-118.9419308893
 21
-1113.8821432143
 31
0.0
  0
LINE
  5
F8
  8
0
  6
CONTINUOUS
 62
     7
 10
-118.9419308893
 20
-1114.9802194257
 30
0.0
 11
-120.4419308893
 21
-1114.9802194257
 31
0.0
  0
LINE
  5
F9
  8
0
  6
CONTINUOUS
 62
     7
 10
-120.4419308893
 20
-1114.9802194257
 30
0.0
 11
-120.4419308893
 21
-1113.8821432143
 31
0.0
  0
LINE
  5
FA
  8
0
  6
CONTINUOUS
 62
     7
 10
-117.4419308893
 20
-1116.4802194257
 30
0.0
 11
-117.4419308893
 21
-1117.9802194257
 31
0.0
  0
LINE
  5
FB
  8
0
  6
CONTINUOUS
 62
     7
 10
-116.3438546779
 20
-1116.4802194257
 30
0.0
 11
-117.4419308893
 21
-1116.4802194257
 31
0.0
  0
LINE
  5
FC
  8
0
  6
CONTINUOUS
 62
     7
 10
-116.3438546779
 20
-1117.9802194257
 30
0.0
 11
-117.4419308893
 21
-1117.9802194257
 31
0.0
  0
LINE
  5
FD
  8
0
  6
CONTINUOUS
 62
     7
 10
431.0580691107
 20
-1116.4802194257
 30
0.0
 11
429.9599928994
 21
-1116.4802194257
 31
0.0
  0
LINE
  5
FE
  8
0
  6
CONTINUOUS
 62
     7
 10
431.0580691107
 20
-1117.9802194257
 30
0.0
 11
431.0580691107
 21
-1116.4802194257
 31
0.0
  0
LINE
  5
FF
  8
0
  6
CONTINUOUS
 62
     7
 10
431.0580691107
 20
-1117.9802194257
 30
0.0
 11
429.9599928994
 21
-1117.9802194257
 31
0.0
  0
ARC
  5
100
  8
0
  6
CONTINUOUS
 62
     7
 10
431.0580691107
 20
-1114.9802194257
 30
0.0
 40
2.999999999999432
 50
270.0
 51
0.0
  0
ARC
  5
101
  8
0
  6
CONTINUOUS
 62
     7
 10
431.0580691107
 20
-1114.9802194257
 30
0.0
 40
1.500000000000227
 50
270.0
 51
360.0
  0
ARC
  5
102
  8
0
  6
CONTINUOUS
 62
     7
 10
-117.4419308893
 20
-1114.9802194257
 30
0.0
 40
1.500000000000014
 50
180.0
 51
270.0
  0
ARC
  5
103
  8
0
  6
CONTINUOUS
 62
     7
 10
-117.4419308893
 20
-1114.9802194257
 30
0.0
 40
2.999999999999631
 50
180.0
 51
270.0
  0
ARC
  5
104
  8
0
  6
HIDDEN
 62
     7
 10
424.0580691107
 20
-1116.4802194257
 30
0.0
 40
6.00000000000002
 50
10.8012510124
 51
180.0
  0
ARC
  5
105
  8
0
  6
HIDDEN
 62
     7
 10
-110.4419308893
 20
-1116.4802194257
 30
0.0
 40
6.000000000000023
 50
0.0
 51
169.1907898743
  0
ARC
  5
106
  8
0
  6
HIDDEN
 62
     7
 10
-118.5547860228
 20
-1113.864246195
 30
0.0
 40
0.3875583193410225
 50
82.2577536476
 51
182.646797713
  0
POLYLINE
  5
107
  8
0
  6
HIDDEN
 62
     7
 66
     1
 10
0.0
 20
0.0
 30
0.0
  0
VERTEX
  5
22D
  8
0
  6
HIDDEN
 62
     7
 10
-117.4419308893
 20
-1113.8821432143
 30
0.0
  0
VERTEX
  5
22E
  8
0
  6
HIDDEN
 62
     7
 10
-117.4419308893
 20
-1113.8821432143
 30
0.0
  0
SEQEND
  5
22C
  8
0
  6
HIDDEN
 62
     7
  0
POLYLINE
  5
108
  8
0
  6
HIDDEN
 62
     7
 66
     1
 10
0.0
 20
0.0
 30
0.0
  0
VERTEX
  5
230
  8
0
  6
HIDDEN
 62
     7
 10
429.9599928994
 20
-1114.9802194257
 30
0.0
  0
VERTEX
  5
231
  8
0
  6
HIDDEN
 62
     7
 10
429.9599928994
 20
-1114.9802194257
 30
0.0
  0
SEQEND
  5
22F
  8
0
  6
HIDDEN
 62
     7
  0
POLYLINE
  5
109
  8
0
  6
HIDDEN
 62
     7
 66
     1
 10
0.0
 20
0.0
 30
0.0
  0
VERTEX
  5
233
  8
0
  6
HIDDEN
 62
     7
 10
-116.3438546779
 20
-1114.9802194257
 30
0.0
  0
VERTEX
  5
234
  8
0
  6
HIDDEN
 62
     7
 10
-116.3438546779
 20
-1114.9802194257
 30
0.0
  0
SEQEND
  5
232
  8
0
  6
HIDDEN
 62
     7
  0
POLYLINE
  5
10A
  8
0
  6
HIDDEN
 62
     7
 66
     1
 10
0.0
 20
0.0
 30
0.0
  0
VERTEX
  5
236
  8
0
  6
HIDDEN
 62
     7
 10
431.0580691107
 20
-1113.8821432143
 30
0.0
  0
VERTEX
  5
237
  8
0
  6
HIDDEN
 62
     7
 10
431.0580691107
 20
-1113.8821432143
 30
0.0
  0
SEQEND
  5
235
  8
0
  6
HIDDEN
 62
     7
  0
LINE
  5
10B
  8
0
  6
HIDDEN
 62
     7
 10
-118.9419308893
 20
-1113.8821432143
 30
0.0
 11
-118.9419308893
 21
-1100.4802194257
 31
0.0
  0
LINE
  5
10C
  8
0
  6
HIDDEN
 62
     7
 10
432.5580691107
 20
-1100.4802194257
 30
0.0
 11
432.5580691107
 21
-1113.8821432143
 31
0.0
  0
LINE
  5
10D
  8
0
  6
HIDDEN
 62
     7
 10
429.9599928994
 20
-1116.4802194257
 30
0.0
 11
-116.3438546779
 21
-1116.4802194257
 31
0.0
  0
LINE
  5
10E
  8
0
  6
HIDDEN
 62
     7
 10
-92.9999243782
 20
-1113.4696588964
 30
0.0
 11
-101.3839374003
 21
-1113.4696588964
 31
0.0
  0
LINE
  5
10F
  8
0
  6
HIDDEN
 62
     7
 10
415.0000756218
 20
-1113.4696588964
 30
0.0
 11
406.6160625997
 21
-1113.4696588964
 31
0.0
  0
LINE
  5
110
  8
0
  6
HIDDEN
 62
     7
 10
413.8080691107
 20
-1114.3802194257
 30
0.0
 11
407.8080691107
 21
-1114.3802194257
 31
0.0
  0
LINE
  5
111
  8
0
  6
HIDDEN
 62
     7
 10
-94.1919308893
 20
-1114.3802194257
 30
0.0
 11
-100.1919308893
 21
-1114.3802194257
 31
0.0
  0
LINE
  5
112
  8
0
  6
HIDDEN
 62
     7
 10
36.0000756218
 20
-1113.4696588963
 30
0.0
 11
27.6160625997
 21
-1113.4696588963
 31
0.0
  0
LINE
  5
113
  8
0
  6
HIDDEN
 62
     7
 10
286.0000756218
 20
-1113.4696588963
 30
0.0
 11
277.6160625997
 21
-1113.4696588963
 31
0.0
  0
LINE
  5
114
  8
0
  6
HIDDEN
 62
     7
 10
34.8080691107
 20
-1114.3802194256
 30
0.0
 11
28.8080691107
 21
-1114.3802194256
 31
0.0
  0
LINE
  5
115
  8
0
  6
HIDDEN
 62
     7
 10
284.8080691107
 20
-1114.3802194256
 30
0.0
 11
278.8080691107
 21
-1114.3802194256
 31
0.0
  0
LINE
  5
116
  8
0
  6
HIDDEN
 62
     7
 10
161.8080691107
 20
-1115.4802194256
 30
0.0
 11
151.8080691107
 21
-1115.4802194256
 31
0.0
  0
LINE
  5
117
  8
0
  6
HIDDEN
 62
     7
 10
160.8080691107
 20
-1096.9802194256
 30
0.0
 11
152.8080691107
 21
-1096.9802194256
 31
0.0
  0
LINE
  5
118
  8
0
  6
HIDDEN
 62
     7
 10
160.3080691107
 20
-1096.4802194256
 30
0.0
 11
153.3080691107
 21
-1096.4802194256
 31
0.0
  0
LINE
  5
119
  8
0
  6
HIDDEN
 62
     7
 10
424.0580691107
 20
-1110.4802194257
 30
0.0
 11
388.0580691107
 21
-1110.4802194257
 31
0.0
  0
LINE
  5
11A
  8
0
  6
HIDDEN
 62
     7
 10
-74.4419308893
 20
-1110.4802194257
 30
0.0
 11
-110.4419308893
 21
-1110.4802194257
 31
0.0
  0
LINE
  5
11B
  8
0
  6
HIDDEN
 62
     7
 10
388.0580691107
 20
-1110.4802194257
 30
0.0
 11
-74.4419308893
 21
-1110.4802194257
 31
0.0
  0
LINE
  5
11C
  8
0
  6
HIDDEN
 62
     7
 10
-118.5025646362
 20
-1113.4802194387
 30
0.0
 11
-119.5631983832
 21
-1113.4802194387
 31
0.0
  0
LINE
  5
11D
  8
0
  6
HIDDEN
 62
     7
 10
429.5580691238
 20
-1116.0408531726
 30
0.0
 11
429.5580691238
 21
-1117.1014869196
 31
0.0
  0
LINE
  5
11E
  8
0
  6
HIDDEN
 62
     7
 10
-115.9419309023
 20
-1117.1015926025
 30
0.0
 11
-115.9419309023
 21
-1116.040906014
 31
0.0
  0
LINE
  5
11F
  8
0
  6
HIDDEN
 62
     7
 10
433.1794423026
 20
-1113.4802194387
 30
0.0
 11
432.1187557067
 21
-1113.4802194387
 31
0.0
  0
ARC
  5
120
  8
0
  6
HIDDEN
 62
     7
 10
-104.0792659373
 20
-1115.6802194257
 30
0.0
 40
2.299999999999955
 50
270.0
 51
322.6241925045
  0
ARC
  5
121
  8
0
  6
HIDDEN
 62
     7
 10
-90.3045958412
 20
-1115.6802194257
 30
0.0
 40
2.299999999999965
 50
217.3758074955
 51
270.0
  0
ARC
  5
122
  8
0
  6
HIDDEN
 62
     7
 10
403.9207340627
 20
-1115.6802194257
 30
0.0
 40
0.799999999999862
 50
270.0
 51
322.6241925045
  0
ARC
  5
123
  8
0
  6
HIDDEN
 62
     7
 10
417.6954041588
 20
-1115.6802194257
 30
0.0
 40
0.799999999999862
 50
217.3758074955
 51
270.0
  0
ARC
  5
124
  8
0
  6
HIDDEN
 62
     7
 10
-104.0792659373
 20
-1115.6802194257
 30
0.0
 40
0.799999999999862
 50
270.0
 51
322.6241925045
  0
ARC
  5
125
  8
0
  6
HIDDEN
 62
     7
 10
-90.3045958412
 20
-1115.6802194257
 30
0.0
 40
0.7999999999998734
 50
217.3758074955
 51
270.0
  0
ARC
  5
126
  8
0
  6
HIDDEN
 62
     7
 10
403.9207340627
 20
-1115.6802194257
 30
0.0
 40
2.299999999999955
 50
270.0
 51
322.6241925045
  0
ARC
  5
127
  8
0
  6
HIDDEN
 62
     7
 10
417.6954041588
 20
-1115.6802194257
 30
0.0
 40
2.299999999999955
 50
217.3758074955
 51
270.0
  0
LINE
  5
128
  8
0
  6
HIDDEN
 62
     7
 10
-90.9403326471
 20
-1116.165851708
 30
0.0
 11
-92.9999243782
 21
-1113.4696588964
 31
0.0
  0
LINE
  5
129
  8
0
  6
HIDDEN
 62
     7
 10
-101.3839374003
 20
-1113.4696588964
 30
0.0
 11
-103.4435291314
 21
-1116.165851708
 31
0.0
  0
LINE
  5
12A
  8
0
  6
HIDDEN
 62
     7
 10
417.0596673529
 20
-1116.165851708
 30
0.0
 11
415.0000756218
 21
-1113.4696588964
 31
0.0
  0
LINE
  5
12B
  8
0
  6
HIDDEN
 62
     7
 10
406.6160625997
 20
-1113.4696588964
 30
0.0
 11
404.5564708686
 21
-1116.165851708
 31
0.0
  0
LINE
  5
12C
  8
0
  6
HIDDEN
 62
     7
 10
415.8676608418
 20
-1117.0764122373
 30
0.0
 11
413.8080691107
 21
-1114.3802194257
 31
0.0
  0
LINE
  5
12D
  8
0
  6
HIDDEN
 62
     7
 10
407.8080691107
 20
-1114.3802194257
 30
0.0
 11
405.7484773797
 21
-1117.0764122373
 31
0.0
  0
LINE
  5
12E
  8
0
  6
HIDDEN
 62
     7
 10
-92.1323391582
 20
-1117.0764122373
 30
0.0
 11
-94.1919308893
 21
-1114.3802194257
 31
0.0
  0
LINE
  5
12F
  8
0
  6
HIDDEN
 62
     7
 10
-100.1919308893
 20
-1114.3802194257
 30
0.0
 11
-102.2515226203
 21
-1117.0764122373
 31
0.0
  0
LINE
  5
130
  8
0
  6
HIDDEN
 62
     7
 10
-101.3839374003
 20
-1113.4696588964
 30
0.0
 11
-100.1919308893
 21
-1114.3802194257
 31
0.0
  0
LINE
  5
131
  8
0
  6
HIDDEN
 62
     7
 10
-94.1919308893
 20
-1114.3802194257
 30
0.0
 11
-92.9999243782
 21
-1113.4696588964
 31
0.0
  0
LINE
  5
132
  8
0
  6
HIDDEN
 62
     7
 10
406.6160625997
 20
-1113.4696588964
 30
0.0
 11
407.8080691107
 21
-1114.3802194257
 31
0.0
  0
LINE
  5
133
  8
0
  6
HIDDEN
 62
     7
 10
413.8080691107
 20
-1114.3802194257
 30
0.0
 11
415.0000756218
 21
-1113.4696588964
 31
0.0
  0
ARC
  5
134
  8
0
  6
HIDDEN
 62
     7
 10
274.9207340627
 20
-1115.6802194256
 30
0.0
 40
2.299999999999955
 50
270.0
 51
322.6241925045
  0
ARC
  5
135
  8
0
  6
HIDDEN
 62
     7
 10
288.6954041588
 20
-1115.6802194256
 30
0.0
 40
2.299999999999955
 50
217.3758074955
 51
270.0
  0
ARC
  5
136
  8
0
  6
HIDDEN
 62
     7
 10
24.9207340627
 20
-1115.6802194256
 30
0.0
 40
2.299999999999959
 50
270.0
 51
322.6241925045
  0
ARC
  5
137
  8
0
  6
HIDDEN
 62
     7
 10
38.6954041588
 20
-1115.6802194256
 30
0.0
 40
2.299999999999982
 50
217.3758074955
 51
270.0
  0
ARC
  5
138
  8
0
  6
HIDDEN
 62
     7
 10
274.9207340627
 20
-1115.6802194256
 30
0.0
 40
0.8000000000463388
 50
270.0
 51
322.6241925044
  0
ARC
  5
139
  8
0
  6
HIDDEN
 62
     7
 10
288.6954041588
 20
-1115.6802194256
 30
0.0
 40
0.8000000000463388
 50
217.3758074956
 51
270.0
  0
ARC
  5
13A
  8
0
  6
HIDDEN
 62
     7
 10
24.9207340627
 20
-1115.6802194256
 30
0.0
 40
0.8000000000463388
 50
270.0
 51
322.6241925044
  0
ARC
  5
13B
  8
0
  6
HIDDEN
 62
     7
 10
38.6954041588
 20
-1115.6802194256
 30
0.0
 40
0.8000000000463388
 50
217.3758074956
 51
270.0
  0
LINE
  5
13C
  8
0
  6
HIDDEN
 62
     7
 10
38.0596673529
 20
-1116.1658517078
 30
0.0
 11
36.0000756218
 21
-1113.4696588963
 31
0.0
  0
LINE
  5
13D
  8
0
  6
HIDDEN
 62
     7
 10
27.6160625997
 20
-1113.4696588963
 30
0.0
 11
25.5564708686
 21
-1116.1658517078
 31
0.0
  0
LINE
  5
13E
  8
0
  6
HIDDEN
 62
     7
 10
288.0596673529
 20
-1116.1658517078
 30
0.0
 11
286.0000756218
 21
-1113.4696588963
 31
0.0
  0
LINE
  5
13F
  8
0
  6
HIDDEN
 62
     7
 10
277.6160625997
 20
-1113.4696588963
 30
0.0
 11
275.5564708686
 21
-1116.1658517078
 31
0.0
  0
LINE
  5
140
  8
0
  6
HIDDEN
 62
     7
 10
36.8676608418
 20
-1117.0764122372
 30
0.0
 11
34.8080691107
 21
-1114.3802194256
 31
0.0
  0
LINE
  5
141
  8
0
  6
HIDDEN
 62
     7
 10
28.8080691107
 20
-1114.3802194256
 30
0.0
 11
26.7484773797
 21
-1117.0764122372
 31
0.0
  0
LINE
  5
142
  8
0
  6
HIDDEN
 62
     7
 10
286.8676608418
 20
-1117.0764122372
 30
0.0
 11
284.8080691107
 21
-1114.3802194256
 31
0.0
  0
LINE
  5
143
  8
0
  6
HIDDEN
 62
     7
 10
278.8080691107
 20
-1114.3802194256
 30
0.0
 11
276.7484773797
 21
-1117.0764122372
 31
0.0
  0
LINE
  5
144
  8
0
  6
HIDDEN
 62
     7
 10
27.6160625997
 20
-1113.4696588963
 30
0.0
 11
28.8080691107
 21
-1114.3802194256
 31
0.0
  0
LINE
  5
145
  8
0
  6
HIDDEN
 62
     7
 10
34.8080691107
 20
-1114.3802194256
 30
0.0
 11
36.0000756218
 21
-1113.4696588963
 31
0.0
  0
LINE
  5
146
  8
0
  6
HIDDEN
 62
     7
 10
277.6160625997
 20
-1113.4696588963
 30
0.0
 11
278.8080691107
 21
-1114.3802194256
 31
0.0
  0
LINE
  5
147
  8
0
  6
HIDDEN
 62
     7
 10
284.8080691107
 20
-1114.3802194256
 30
0.0
 11
286.0000756218
 21
-1113.4696588963
 31
0.0
  0
LINE
  5
148
  8
0
  6
HIDDEN
 62
     7
 10
161.8080691107
 20
-1116.4802194256
 30
0.0
 11
161.8080691107
 21
-1115.4802194256
 31
0.0
  0
LINE
  5
149
  8
0
  6
HIDDEN
 62
     7
 10
151.8080691107
 20
-1115.4802194256
 30
0.0
 11
151.8080691107
 21
-1116.4802194256
 31
0.0
  0
LINE
  5
14A
  8
0
  6
HIDDEN
 62
     7
 10
160.8080691107
 20
-1115.4802194256
 30
0.0
 11
160.8080691107
 21
-1096.9802194256
 31
0.0
  0
LINE
  5
14B
  8
0
  6
HIDDEN
 62
     7
 10
152.8080691107
 20
-1096.9802194256
 30
0.0
 11
152.8080691107
 21
-1115.4802194256
 31
0.0
  0
LINE
  5
14C
  8
0
  6
HIDDEN
 62
     7
 10
160.8080691107
 20
-1096.9802194256
 30
0.0
 11
160.3080691107
 21
-1096.4802194256
 31
0.0
  0
LINE
  5
14D
  8
0
  6
HIDDEN
 62
     7
 10
153.3080691107
 20
-1096.4802194256
 30
0.0
 11
152.8080691107
 21
-1096.9802194256
 31
0.0
  0
ARC
  5
14E
  8
0
  6
CONTINUOUS
 62
     7
 10
737.3357745847
 20
-942.9385268792
 30
0.0
 40
41.99999999999966
 50
180.0
 51
270.0
  0
ARC
  5
14F
  8
0
  6
CONTINUOUS
 62
     7
 10
737.3357745847
 20
-942.9385268792
 30
0.0
 40
29.99999999999955
 50
180.0
 51
270.0
  0
LINE
  5
150
  8
0
  6
CONTINUOUS
 62
     7
 10
707.3357745847
 20
1164.0614731208
 30
0.0
 11
707.3357745847
 21
-942.9385268792
 31
0.0
  0
LINE
  5
151
  8
0
  6
CONTINUOUS
 62
     7
 10
695.3357745847
 20
1164.0614731208
 30
0.0
 11
695.3357745847
 21
-942.9385268792
 31
0.0
  0
ARC
  5
152
  8
0
  6
CONTINUOUS
 62
     7
 10
737.3357745847
 20
1164.0614731208
 30
0.0
 40
42.0
 50
90.0
 51
180.0
  0
ARC
  5
153
  8
0
  6
CONTINUOUS
 62
     7
 10
737.3357745847
 20
1164.0614731208
 30
0.0
 40
30.0
 50
90.0
 51
180.0
  0
LINE
  5
154
  8
0
  6
CONTINUOUS
 62
     7
 10
737.3357745847
 20
1206.0614731208
 30
0.0
 11
1199.8357745847
 21
1206.0614731208
 31
0.0
  0
LINE
  5
155
  8
0
  6
CONTINUOUS
 62
     7
 10
737.3357745847
 20
1194.0614731208
 30
0.0
 11
1199.8357745847
 21
1194.0614731208
 31
0.0
  0
LINE
  5
156
  8
0
  6
CONTINUOUS
 62
     7
 10
1199.8357745847
 20
-984.9385268792
 30
0.0
 11
737.3357745847
 21
-984.9385268792
 31
0.0
  0
LINE
  5
157
  8
0
  6
CONTINUOUS
 62
     7
 10
1199.8357745847
 20
-972.9385268792
 30
0.0
 11
1099.1925012648
 21
-972.9385268792
 31
0.0
  0
LINE
  5
158
  8
0
  6
CONTINUOUS
 62
     7
 10
1087.9790479047
 20
-972.9385268792
 30
0.0
 11
849.1925012648
 21
-972.9385268792
 31
0.0
  0
LINE
  5
159
  8
0
  6
CONTINUOUS
 62
     7
 10
837.9790479047
 20
-972.9385268792
 30
0.0
 11
737.3357745847
 21
-972.9385268792
 31
0.0
  0
ARC
  5
15A
  8
0
  6
CONTINUOUS
 62
     7
 10
1199.8357745847
 20
-942.9385268792
 30
0.0
 40
41.99999999999977
 50
270.0
 51
360.0
  0
ARC
  5
15B
  8
0
  6
CONTINUOUS
 62
     7
 10
1199.8357745847
 20
-942.9385268792
 30
0.0
 40
29.99999999999977
 50
270.0
 51
360.0
  0
ARC
  5
15C
  8
0
  6
CONTINUOUS
 62
     7
 10
1199.8357745847
 20
1164.0614731208
 30
0.0
 40
41.99999999999977
 50
360.0
 51
90.0
  0
ARC
  5
15D
  8
0
  6
CONTINUOUS
 62
     7
 10
1199.8357745847
 20
1164.0614731208
 30
0.0
 40
29.99999999999977
 50
360.0
 51
90.0
  0
LINE
  5
15E
  8
0
  6
CONTINUOUS
 62
     7
 10
1241.8357745847
 20
1164.0614731208
 30
0.0
 11
1241.8357745847
 21
-942.9385268792
 31
0.0
  0
LINE
  5
15F
  8
0
  6
CONTINUOUS
 62
     7
 10
1229.8357745847
 20
1164.0614731208
 30
0.0
 11
1229.8357745847
 21
-942.9385268792
 31
0.0
  0
LINE
  5
160
  8
0
  6
CONTINUOUS
 62
     7
 10
730.6242931879
 20
1214.0614731208
 30
0.0
 11
730.6242931879
 21
1212.5614731208
 31
0.0
  0
LINE
  5
161
  8
0
  6
CONTINUOUS
 62
     7
 10
762.8925091611
 20
1212.5614731208
 30
0.0
 11
762.8925091611
 21
1214.0614731208
 31
0.0
  0
LINE
  5
162
  8
0
  6
CONTINUOUS
 62
     7
 10
762.8925091611
 20
1214.0614731208
 30
0.0
 11
730.6242931879
 21
1214.0614731208
 31
0.0
  0
LINE
  5
163
  8
0
  6
CONTINUOUS
 62
     7
 10
762.8925091611
 20
1212.5614731208
 30
0.0
 11
730.6242931879
 21
1212.5614731208
 31
0.0
  0
LINE
  5
164
  8
0
  6
CONTINUOUS
 62
     7
 10
1174.2790400084
 20
1212.5614731208
 30
0.0
 11
1174.2790400084
 21
1214.0614731208
 31
0.0
  0
LINE
  5
165
  8
0
  6
CONTINUOUS
 62
     7
 10
1174.2790400084
 20
1214.0614731208
 30
0.0
 11
762.8925091611
 21
1214.0614731208
 31
0.0
  0
LINE
  5
166
  8
0
  6
CONTINUOUS
 62
     7
 10
1174.2790400084
 20
1212.5614731208
 30
0.0
 11
762.8925091611
 21
1212.5614731208
 31
0.0
  0
LINE
  5
167
  8
0
  6
CONTINUOUS
 62
     7
 10
1206.5472559816
 20
1214.0614731208
 30
0.0
 11
1206.5472559816
 21
1212.5614731208
 31
0.0
  0
LINE
  5
168
  8
0
  6
CONTINUOUS
 62
     7
 10
1206.5472559816
 20
1214.0614731208
 30
0.0
 11
1174.2790400084
 21
1214.0614731208
 31
0.0
  0
LINE
  5
169
  8
0
  6
CONTINUOUS
 62
     7
 10
1206.5472559816
 20
1212.5614731208
 30
0.0
 11
1174.2790400084
 21
1212.5614731208
 31
0.0
  0
LINE
  5
16A
  8
0
  6
CONTINUOUS
 62
     7
 10
708.8357745847
 20
1214.0614731208
 30
0.0
 11
708.8357745847
 21
1212.5614731208
 31
0.0
  0
LINE
  5
16B
  8
0
  6
CONTINUOUS
 62
     7
 10
730.6242931879
 20
1214.0614731208
 30
0.0
 11
708.8357745847
 21
1214.0614731208
 31
0.0
  0
LINE
  5
16C
  8
0
  6
CONTINUOUS
 62
     7
 10
730.6242931879
 20
1212.5614731208
 30
0.0
 11
708.8357745847
 21
1212.5614731208
 31
0.0
  0
ARC
  5
16D
  8
0
  6
CONTINUOUS
 62
     7
 10
694.3357745847
 20
1211.0614731208
 30
0.0
 40
1.5
 50
90.0
 51
180.0
  0
ARC
  5
16E
  8
0
  6
CONTINUOUS
 62
     7
 10
694.3357745847
 20
1211.0614731208
 30
0.0
 40
3.000000000000114
 50
90.0
 51
180.0
  0
LINE
  5
16F
  8
0
  6
CONTINUOUS
 62
     7
 10
691.3357745847
 20
-985.9385268792
 30
0.0
 11
692.8357745847
 21
-985.9385268792
 31
0.0
  0
LINE
  5
170
  8
0
  6
CONTINUOUS
 62
     7
 10
692.8357745847
 20
1211.0614731208
 30
0.0
 11
692.8357745847
 21
-985.9385268792
 31
0.0
  0
LINE
  5
171
  8
0
  6
CONTINUOUS
 62
     7
 10
691.3357745847
 20
1211.0614731208
 30
0.0
 11
691.3357745847
 21
-985.9385268792
 31
0.0
  0
LINE
  5
172
  8
0
  6
CONTINUOUS
 62
     7
 10
708.8357745847
 20
1214.0614731208
 30
0.0
 11
708.8357745847
 21
1212.5614731208
 31
0.0
  0
LINE
  5
173
  8
0
  6
CONTINUOUS
 62
     7
 10
708.8357745847
 20
1214.0614731208
 30
0.0
 11
694.3357745847
 21
1214.0614731208
 31
0.0
  0
LINE
  5
174
  8
0
  6
CONTINUOUS
 62
     7
 10
708.8357745847
 20
1212.5614731208
 30
0.0
 11
694.3357745847
 21
1212.5614731208
 31
0.0
  0
LINE
  5
175
  8
0
  6
CONTINUOUS
 62
     7
 10
1228.3357745847
 20
1214.0614731208
 30
0.0
 11
1228.3357745847
 21
1212.5614731208
 31
0.0
  0
LINE
  5
176
  8
0
  6
CONTINUOUS
 62
     7
 10
1228.3357745847
 20
1214.0614731208
 30
0.0
 11
1206.5472559816
 21
1214.0614731208
 31
0.0
  0
LINE
  5
177
  8
0
  6
CONTINUOUS
 62
     7
 10
1228.3357745847
 20
1212.5614731208
 30
0.0
 11
1206.5472559816
 21
1212.5614731208
 31
0.0
  0
LINE
  5
178
  8
0
  6
CONTINUOUS
 62
     7
 10
1228.3357745847
 20
1214.0614731208
 30
0.0
 11
1228.3357745847
 21
1212.5614731208
 31
0.0
  0
LINE
  5
179
  8
0
  6
CONTINUOUS
 62
     7
 10
1242.8357745847
 20
1214.0614731208
 30
0.0
 11
1228.3357745847
 21
1214.0614731208
 31
0.0
  0
LINE
  5
17A
  8
0
  6
CONTINUOUS
 62
     7
 10
1242.8357745847
 20
1212.5614731208
 30
0.0
 11
1228.3357745847
 21
1212.5614731208
 31
0.0
  0
ARC
  5
17B
  8
0
  6
CONTINUOUS
 62
     7
 10
1242.8357745847
 20
1211.0614731208
 30
0.0
 40
3.0
 50
360.0
 51
90.0
  0
ARC
  5
17C
  8
0
  6
CONTINUOUS
 62
     7
 10
1242.8357745847
 20
1211.0614731208
 30
0.0
 40
1.5
 50
360.0
 51
90.0
  0
LINE
  5
17D
  8
0
  6
CONTINUOUS
 62
     7
 10
1245.8357745847
 20
-985.9385268792
 30
0.0
 11
1244.3357745847
 21
-985.9385268792
 31
0.0
  0
LINE
  5
17E
  8
0
  6
CONTINUOUS
 62
     7
 10
1245.8357745847
 20
-985.9385268792
 30
0.0
 11
1245.8357745847
 21
1211.0614731208
 31
0.0
  0
LINE
  5
17F
  8
0
  6
CONTINUOUS
 62
     7
 10
1244.3357745847
 20
-985.9385268792
 30
0.0
 11
1244.3357745847
 21
1211.0614731208
 31
0.0
  0
CIRCLE
  5
180
  8
0
  6
CONTINUOUS
 62
     7
 10
843.5857745847
 20
-968.9385268792
 30
0.0
 40
4.192006511087698
  0
CIRCLE
  5
181
  8
0
  6
CONTINUOUS
 62
     7
 10
843.5857745847
 20
-968.9385268792
 30
0.0
 40
2.999999999999886
  0
CIRCLE
  5
182
  8
0
  6
CONTINUOUS
 62
     7
 10
1093.5857745847
 20
-968.9385268792
 30
0.0
 40
4.192006511087584
  0
CIRCLE
  5
183
  8
0
  6
CONTINUOUS
 62
     7
 10
1093.5857745847
 20
-968.9385268792
 30
0.0
 40
2.999999999999773
  0
CIRCLE
  5
184
  8
0
  6
CONTINUOUS
 62
     7
 10
714.5857745847
 20
-938.4385268792
 30
0.0
 40
4.192006511087584
  0
CIRCLE
  5
185
  8
0
  6
CONTINUOUS
 62
     7
 10
714.5857745847
 20
1161.5614731208
 30
0.0
 40
4.192006511087698
  0
CIRCLE
  5
186
  8
0
  6
CONTINUOUS
 62
     7
 10
714.5857745847
 20
111.5614731208
 30
0.0
 40
4.192006511087584
  0
CIRCLE
  5
187
  8
0
  6
CONTINUOUS
 62
     7
 10
714.5857745847
 20
-938.4385268792
 30
0.0
 40
3.0
  0
CIRCLE
  5
188
  8
0
  6
CONTINUOUS
 62
     7
 10
714.5857745847
 20
1161.5614731208
 30
0.0
 40
3.000000000000114
  0
CIRCLE
  5
189
  8
0
  6
CONTINUOUS
 62
     7
 10
714.5857745847
 20
111.5614731208
 30
0.0
 40
3.0
  0
CIRCLE
  5
18A
  8
0
  6
CONTINUOUS
 62
     7
 10
1222.5857745847
 20
1161.5614731208
 30
0.0
 40
4.192006511087584
  0
CIRCLE
  5
18B
  8
0
  6
CONTINUOUS
 62
     7
 10
1222.5857745847
 20
-938.4385268792
 30
0.0
 40
4.192006511087584
  0
CIRCLE
  5
18C
  8
0
  6
CONTINUOUS
 62
     7
 10
1222.5857745847
 20
111.5614731208
 30
0.0
 40
4.192006511087584
  0
CIRCLE
  5
18D
  8
0
  6
CONTINUOUS
 62
     7
 10
1222.5857745847
 20
1161.5614731208
 30
0.0
 40
2.999999999999773
  0
CIRCLE
  5
18E
  8
0
  6
CONTINUOUS
 62
     7
 10
1222.5857745847
 20
-938.4385268792
 30
0.0
 40
3.0
  0
CIRCLE
  5
18F
  8
0
  6
CONTINUOUS
 62
     7
 10
1222.5857745847
 20
111.5614731208
 30
0.0
 40
2.999999999999773
  0
ARC
  5
190
  8
0
  6
CONTINUOUS
 62
     7
 10
692.0923839846
 20
1216.0848968719
 30
0.0
 40
6.519629067282883
 50
276.5473023669
 51
290.1267372998
  0
POLYLINE
  5
191
  8
0
  6
CONTINUOUS
 62
     7
 66
     1
 10
0.0
 20
0.0
 30
0.0
  0
VERTEX
  5
239
  8
0
  6
CONTINUOUS
 62
     7
 10
692.8357745847
 20
1209.9633969095
 30
0.0
  0
VERTEX
  5
23A
  8
0
  6
CONTINUOUS
 62
     7
 10
692.8611720552
 20
1209.7898637932
 30
0.0
  0
VERTEX
  5
23B
  8
0
  6
CONTINUOUS
 62
     7
 10
692.9421302863
 20
1209.6637012388
 30
0.0
  0
VERTEX
  5
23C
  8
0
  6
CONTINUOUS
 62
     7
 10
693.0813575557
 20
1209.5870328964
 30
0.0
  0
VERTEX
  5
23D
  8
0
  6
CONTINUOUS
 62
     7
 10
693.27511736
 20
1209.5614731341
 30
0.0
  0
VERTEX
  5
23E
  8
0
  6
CONTINUOUS
 62
     7
 10
693.5132823311
 20
1209.5870281414
 30
0.0
  0
VERTEX
  5
23F
  8
0
  6
CONTINUOUS
 62
     7
 10
693.7810247406
 20
1209.6637041043
 30
0.0
  0
VERTEX
  5
240
  8
0
  6
CONTINUOUS
 62
     7
 10
694.058348409
 20
1209.788828291
 30
0.0
  0
VERTEX
  5
241
  8
0
  6
CONTINUOUS
 62
     7
 10
694.3357745847
 20
1209.9633969095
 30
0.0
  0
SEQEND
  5
238
  8
0
  6
CONTINUOUS
 62
     7
  0
ARC
  5
192
  8
0
  6
CONTINUOUS
 62
     7
 10
689.3374106849
 20
1213.2989390436
 30
0.0
 40
6.494061578523891
 50
339.8462635126
 51
353.4794224018
  0
POLYLINE
  5
193
  8
0
  6
CONTINUOUS
 62
     7
 66
     1
 10
0.0
 20
0.0
 30
0.0
  0
VERTEX
  5
243
  8
0
  6
CONTINUOUS
 62
     7
 10
695.4338507961
 20
1211.0614731208
 30
0.0
  0
VERTEX
  5
244
  8
0
  6
CONTINUOUS
 62
     7
 10
695.6073839123
 20
1211.3363319571
 30
0.0
  0
VERTEX
  5
245
  8
0
  6
CONTINUOUS
 62
     7
 10
695.7335464667
 20
1211.6162303375
 30
0.0
  0
VERTEX
  5
246
  8
0
  6
CONTINUOUS
 62
     7
 10
695.8102148083
 20
1211.8839315801
 30
0.0
  0
VERTEX
  5
247
  8
0
  6
CONTINUOUS
 62
     7
 10
695.8357745714
 20
1212.1221362396
 30
0.0
  0
VERTEX
  5
248
  8
0
  6
CONTINUOUS
 62
     7
 10
695.810219565
 20
1212.3158679905
 30
0.0
  0
VERTEX
  5
249
  8
0
  6
CONTINUOUS
 62
     7
 10
695.7335436013
 20
1212.4551203539
 30
0.0
  0
VERTEX
  5
24A
  8
0
  6
CONTINUOUS
 62
     7
 10
695.6084194152
 20
1212.5355947969
 30
0.0
  0
VERTEX
  5
24B
  8
0
  6
CONTINUOUS
 62
     7
 10
695.4338507961
 20
1212.5614731208
 30
0.0
  0
SEQEND
  5
242
  8
0
  6
CONTINUOUS
 62
     7
  0
LINE
  5
194
  8
0
  6
CONTINUOUS
 62
     7
 10
692.8357745847
 20
-985.9385268792
 30
0.0
 11
694.3357745847
 21
-985.9385268792
 31
0.0
  0
POLYLINE
  5
195
  8
0
  6
CONTINUOUS
 62
     7
 66
     1
 10
0.0
 20
0.0
 30
0.0
  0
VERTEX
  5
24D
  8
0
  6
CONTINUOUS
 62
     7
 10
1241.7376983734
 20
1212.5614731208
 30
0.0
  0
VERTEX
  5
24E
  8
0
  6
CONTINUOUS
 62
     7
 10
1241.5641652572
 20
1212.5360756503
 30
0.0
  0
VERTEX
  5
24F
  8
0
  6
CONTINUOUS
 62
     7
 10
1241.4380027027
 20
1212.4551174192
 30
0.0
  0
VERTEX
  5
250
  8
0
  6
CONTINUOUS
 62
     7
 10
1241.3613343603
 20
1212.31589015
 30
0.0
  0
VERTEX
  5
251
  8
0
  6
CONTINUOUS
 62
     7
 10
1241.3357745981
 20
1212.1221303456
 30
0.0
  0
VERTEX
  5
252
  8
0
  6
CONTINUOUS
 62
     7
 10
1241.3613296054
 20
1211.8839653741
 30
0.0
  0
VERTEX
  5
253
  8
0
  6
CONTINUOUS
 62
     7
 10
1241.4380055682
 20
1211.616222965
 30
0.0
  0
VERTEX
  5
254
  8
0
  6
CONTINUOUS
 62
     7
 10
1241.5631297553
 20
1211.3388992958
 30
0.0
  0
VERTEX
  5
255
  8
0
  6
CONTINUOUS
 62
     7
 10
1241.7376983734
 20
1211.0614731208
 30
0.0
  0
SEQEND
  5
24C
  8
0
  6
CONTINUOUS
 62
     7
  0
ARC
  5
196
  8
0
  6
CONTINUOUS
 62
     7
 10
1247.8591983442
 20
1213.3048637233
 30
0.0
 40
6.519629075994794
 50
186.5473023788
 51
200.1267372936
  0
ARC
  5
197
  8
0
  6
CONTINUOUS
 62
     7
 10
1245.0732405072
 20
1216.0598370195
 30
0.0
 40
6.494061577287123
 50
249.8462635119
 51
263.4794224036
  0
POLYLINE
  5
198
  8
0
  6
CONTINUOUS
 62
     7
 66
     1
 10
0.0
 20
0.0
 30
0.0
  0
VERTEX
  5
257
  8
0
  6
CONTINUOUS
 62
     7
 10
1242.8357745847
 20
1209.9633969095
 30
0.0
  0
VERTEX
  5
258
  8
0
  6
CONTINUOUS
 62
     7
 10
1243.1106334211
 20
1209.7898637932
 30
0.0
  0
VERTEX
  5
259
  8
0
  6
CONTINUOUS
 62
     7
 10
1243.3905318015
 20
1209.6637012388
 30
0.0
  0
VERTEX
  5
25A
  8
0
  6
CONTINUOUS
 62
     7
 10
1243.6582330441
 20
1209.5870328973
 30
0.0
  0
VERTEX
  5
25B
  8
0
  6
CONTINUOUS
 62
     7
 10
1243.8964377035
 20
1209.5614731341
 30
0.0
  0
VERTEX
  5
25C
  8
0
  6
CONTINUOUS
 62
     7
 10
1244.0901694587
 20
1209.5870281405
 30
0.0
  0
VERTEX
  5
25D
  8
0
  6
CONTINUOUS
 62
     7
 10
1244.2294218179
 20
1209.6637041043
 30
0.0
  0
VERTEX
  5
25E
  8
0
  6
CONTINUOUS
 62
     7
 10
1244.3098962612
 20
1209.7888282936
 30
0.0
  0
VERTEX
  5
25F
  8
0
  6
CONTINUOUS
 62
     7
 10
1244.3357745847
 20
1209.9633969095
 30
0.0
  0
SEQEND
  5
256
  8
0
  6
CONTINUOUS
 62
     7
  0
LINE
  5
199
  8
0
  6
CONTINUOUS
 62
     7
 10
1242.8357745847
 20
-985.9385268792
 30
0.0
 11
1244.3357745847
 21
-985.9385268792
 31
0.0
  0
ARC
  5
19A
  8
0
  6
CONTINUOUS
 62
     7
 10
692.8357745847
 20
1212.5614731208
 30
0.0
 40
3.00000000000022
 50
300.0
 51
330.0
  0
ARC
  5
19B
  8
0
  6
CONTINUOUS
 62
     7
 10
1244.3357745847
 20
1212.5614731208
 30
0.0
 40
3.000000000000049
 50
210.0
 51
240.0
  0
LINE
  5
19C
  8
0
  6
CONTINUOUS
 62
     7
 10
694.3357745847
 20
-985.9385268792
 30
0.0
 11
1242.8357745847
 21
-985.9385268792
 31
0.0
  0
CIRCLE
  5
19D
  8
0
  6
CONTINUOUS
 62
     7
 10
968.5857745847
 20
-850.9385268792
 30
0.0
 40
4.000000000000114
  0
CIRCLE
  5
19E
  8
0
  6
CONTINUOUS
 62
     7
 10
968.5857745847
 20
-850.9385268792
 30
0.0
 40
3.5
  0
CIRCLE
  5
19F
  8
0
  6
CONTINUOUS
 62
     7
 10
968.5857745847
 20
-850.9385268792
 30
0.0
 40
5.0
  0
LINE
  5
1A0
  8
0
  6
HIDDEN
 62
     7
 10
1099.1925012648
 20
-972.9385268792
 30
0.0
 11
1087.9790479047
 21
-972.9385268792
 31
0.0
  0
LINE
  5
1A1
  8
0
  6
HIDDEN
 62
     7
 10
849.1925012648
 20
-972.9385268792
 30
0.0
 11
837.9790479047
 21
-972.9385268792
 31
0.0
  0
LINE
  5
1A2
  8
0
  6
HIDDEN
 62
     7
 10
694.9570949283
 20
1212.5614731208
 30
0.0
 11
694.9570949283
 21
1214.0614731208
 31
0.0
  0
LINE
  5
1A3
  8
0
  6
HIDDEN
 62
     7
 10
1242.2144542412
 20
1214.0614731208
 30
0.0
 11
1242.2144542412
 21
1212.5614731208
 31
0.0
  0
LINE
  5
1A4
  8
0
  6
HIDDEN
 62
     7
 10
694.3357745847
 20
1214.0614731208
 30
0.0
 11
694.3357745847
 21
1212.5614731208
 31
0.0
  0
LINE
  5
1A5
  8
0
  6
HIDDEN
 62
     7
 10
694.9570949283
 20
1214.0614731208
 30
0.0
 11
694.9570949283
 21
1212.5614731208
 31
0.0
  0
LINE
  5
1A6
  8
0
  6
HIDDEN
 62
     7
 10
691.3357745847
 20
1211.0614731208
 30
0.0
 11
692.8357745847
 21
1211.0614731208
 31
0.0
  0
LINE
  5
1A7
  8
0
  6
HIDDEN
 62
     7
 10
1242.8357745847
 20
1212.5614731208
 30
0.0
 11
1242.8357745847
 21
1214.0614731208
 31
0.0
  0
LINE
  5
1A8
  8
0
  6
HIDDEN
 62
     7
 10
1242.2144542412
 20
1212.5614731208
 30
0.0
 11
1242.2144542412
 21
1214.0614731208
 31
0.0
  0
LINE
  5
1A9
  8
0
  6
HIDDEN
 62
     7
 10
1244.3357745847
 20
1211.0614731208
 30
0.0
 11
1245.8357745847
 21
1211.0614731208
 31
0.0
  0
POLYLINE
  5
1AA
  8
0
  6
HIDDEN
 62
     7
 66
     1
 10
0.0
 20
0.0
 30
0.0
  0
VERTEX
  5
261
  8
0
  6
HIDDEN
 62
     7
 10
691.3357745847
 20
1209.9633969095
 30
0.0
  0
VERTEX
  5
262
  8
0
  6
HIDDEN
 62
     7
 10
691.3865695257
 20
1209.7898637932
 30
0.0
  0
VERTEX
  5
263
  8
0
  6
HIDDEN
 62
     7
 10
691.5484859879
 20
1209.6637012388
 30
0.0
  0
VERTEX
  5
264
  8
0
  6
HIDDEN
 62
     7
 10
691.8269405267
 20
1209.5870328964
 30
0.0
  0
VERTEX
  5
265
  8
0
  6
HIDDEN
 62
     7
 10
692.2144601352
 20
1209.5614731341
 30
0.0
  0
VERTEX
  5
266
  8
0
  6
HIDDEN
 62
     7
 10
692.6907900774
 20
1209.5870281414
 30
0.0
  0
VERTEX
  5
267
  8
0
  6
HIDDEN
 62
     7
 10
692.8357745847
 20
1209.6077884437
 30
0.0
  0
SEQEND
  5
260
  8
0
  6
HIDDEN
 62
     7
  0
POLYLINE
  5
1AB
  8
0
  6
HIDDEN
 62
     7
 66
     1
 10
0.0
 20
0.0
 30
0.0
  0
VERTEX
  5
269
  8
0
  6
HIDDEN
 62
     7
 10
694.3357745847
 20
1209.9633969095
 30
0.0
  0
VERTEX
  5
26A
  8
0
  6
HIDDEN
 62
     7
 10
694.3357745847
 20
1209.9633969095
 30
0.0
  0
SEQEND
  5
268
  8
0
  6
HIDDEN
 62
     7
  0
LINE
  5
1AC
  8
0
  6
HIDDEN
 62
     7
 10
691.3357745847
 20
1209.9633969095
 30
0.0
 11
692.8357745847
 21
1209.9633969095
 31
0.0
  0
POLYLINE
  5
1AD
  8
0
  6
HIDDEN
 62
     7
 66
     1
 10
0.0
 20
0.0
 30
0.0
  0
VERTEX
  5
26C
  8
0
  6
HIDDEN
 62
     7
 10
695.7894630559
 20
1212.5614731208
 30
0.0
  0
VERTEX
  5
26D
  8
0
  6
HIDDEN
 62
     7
 10
695.8102148083
 20
1212.7063900393
 30
0.0
  0
VERTEX
  5
26E
  8
0
  6
HIDDEN
 62
     7
 10
695.8357745714
 20
1213.1827993584
 30
0.0
  0
VERTEX
  5
26F
  8
0
  6
HIDDEN
 62
     7
 10
695.810219565
 20
1213.5702628603
 30
0.0
  0
VERTEX
  5
270
  8
0
  6
HIDDEN
 62
     7
 10
695.7335436013
 20
1213.848767587
 30
0.0
  0
VERTEX
  5
271
  8
0
  6
HIDDEN
 62
     7
 10
695.6084194152
 20
1214.009716473
 30
0.0
  0
VERTEX
  5
272
  8
0
  6
HIDDEN
 62
     7
 10
695.4338507961
 20
1214.0614731208
 30
0.0
  0
SEQEND
  5
26B
  8
0
  6
HIDDEN
 62
     7
  0
POLYLINE
  5
1AE
  8
0
  6
HIDDEN
 62
     7
 66
     1
 10
0.0
 20
0.0
 30
0.0
  0
VERTEX
  5
274
  8
0
  6
HIDDEN
 62
     7
 10
695.4338507961
 20
1211.0614731208
 30
0.0
  0
VERTEX
  5
275
  8
0
  6
HIDDEN
 62
     7
 10
695.4338507961
 20
1211.0614731208
 30
0.0
  0
SEQEND
  5
273
  8
0
  6
HIDDEN
 62
     7
  0
LINE
  5
1AF
  8
0
  6
HIDDEN
 62
     7
 10
695.4338507961
 20
1212.5614731208
 30
0.0
 11
695.4338507961
 21
1214.0614731208
 31
0.0
  0
POLYLINE
  5
1B0
  8
0
  6
HIDDEN
 62
     7
 66
     1
 10
0.0
 20
0.0
 30
0.0
  0
VERTEX
  5
277
  8
0
  6
HIDDEN
 62
     7
 10
1241.7376983734
 20
1214.0614731208
 30
0.0
  0
VERTEX
  5
278
  8
0
  6
HIDDEN
 62
     7
 10
1241.5641652572
 20
1214.0106781799
 30
0.0
  0
VERTEX
  5
279
  8
0
  6
HIDDEN
 62
     7
 10
1241.4380027027
 20
1213.8487617176
 30
0.0
  0
VERTEX
  5
27A
  8
0
  6
HIDDEN
 62
     7
 10
1241.3613343603
 20
1213.5703071791
 30
0.0
  0
VERTEX
  5
27B
  8
0
  6
HIDDEN
 62
     7
 10
1241.3357745981
 20
1213.1827875703
 30
0.0
  0
VERTEX
  5
27C
  8
0
  6
HIDDEN
 62
     7
 10
1241.3613296054
 20
1212.7064576274
 30
0.0
  0
VERTEX
  5
27D
  8
0
  6
HIDDEN
 62
     7
 10
1241.3820899076
 20
1212.5614731208
 30
0.0
  0
SEQEND
  5
276
  8
0
  6
HIDDEN
 62
     7
  0
POLYLINE
  5
1B1
  8
0
  6
HIDDEN
 62
     7
 66
     1
 10
0.0
 20
0.0
 30
0.0
  0
VERTEX
  5
27F
  8
0
  6
HIDDEN
 62
     7
 10
1241.7376983734
 20
1211.0614731208
 30
0.0
  0
VERTEX
  5
280
  8
0
  6
HIDDEN
 62
     7
 10
1241.7376983734
 20
1211.0614731208
 30
0.0
  0
SEQEND
  5
27E
  8
0
  6
HIDDEN
 62
     7
  0
LINE
  5
1B2
  8
0
  6
HIDDEN
 62
     7
 10
1241.7376983734
 20
1214.0614731208
 30
0.0
 11
1241.7376983734
 21
1212.5614731208
 31
0.0
  0
POLYLINE
  5
1B3
  8
0
  6
HIDDEN
 62
     7
 66
     1
 10
0.0
 20
0.0
 30
0.0
  0
VERTEX
  5
282
  8
0
  6
HIDDEN
 62
     7
 10
1244.3357745847
 20
1209.6077846497
 30
0.0
  0
VERTEX
  5
283
  8
0
  6
HIDDEN
 62
     7
 10
1244.4806915034
 20
1209.5870328973
 30
0.0
  0
VERTEX
  5
284
  8
0
  6
HIDDEN
 62
     7
 10
1244.9571008223
 20
1209.5614731341
 30
0.0
  0
VERTEX
  5
285
  8
0
  6
HIDDEN
 62
     7
 10
1245.3445643326
 20
1209.5870281405
 30
0.0
  0
VERTEX
  5
286
  8
0
  6
HIDDEN
 62
     7
 10
1245.623069051
 20
1209.6637041043
 30
0.0
  0
VERTEX
  5
287
  8
0
  6
HIDDEN
 62
     7
 10
1245.7840179377
 20
1209.7888282936
 30
0.0
  0
VERTEX
  5
288
  8
0
  6
HIDDEN
 62
     7
 10
1245.8357745847
 20
1209.9633969095
 30
0.0
  0
SEQEND
  5
281
  8
0
  6
HIDDEN
 62
     7
  0
POLYLINE
  5
1B4
  8
0
  6
HIDDEN
 62
     7
 66
     1
 10
0.0
 20
0.0
 30
0.0
  0
VERTEX
  5
28A
  8
0
  6
HIDDEN
 62
     7
 10
1242.8357745847
 20
1209.9633969095
 30
0.0
  0
VERTEX
  5
28B
  8
0
  6
HIDDEN
 62
     7
 10
1242.8357745847
 20
1209.9633969095
 30
0.0
  0
SEQEND
  5
289
  8
0
  6
HIDDEN
 62
     7
  0
LINE
  5
1B5
  8
0
  6
HIDDEN
 62
     7
 10
1244.3357745847
 20
1209.9633969095
 30
0.0
 11
1245.8357745847
 21
1209.9633969095
 31
0.0
  0
LINE
  5
1B6
  8
0
  6
HIDDEN
 62
     7
 10
692.2145070758
 20
1209.5614731338
 30
0.0
 11
693.2751408302
 21
1209.5614731338
 31
0.0
  0
LINE
  5
1B7
  8
0
  6
HIDDEN
 62
     7
 10
693.2751408303
 20
1209.5614731338
 30
0.0
 11
692.2145070758
 21
1209.5614731338
 31
0.0
  0
LINE
  5
1B8
  8
0
  6
HIDDEN
 62
     7
 10
695.8357745717
 20
1212.1221597167
 30
0.0
 11
695.8357745717
 21
1213.1828463127
 31
0.0
  0
LINE
  5
1B9
  8
0
  6
HIDDEN
 62
     7
 10
1241.3357745978
 20
1213.1827406298
 30
0.0
 11
1241.3357745978
 21
1212.1221068753
 31
0.0
  0
LINE
  5
1BA
  8
0
  6
HIDDEN
 62
     7
 10
1241.3357745978
 20
1212.1221068753
 30
0.0
 11
1241.3357745978
 21
1213.1827406298
 31
0.0
  0
LINE
  5
1BB
  8
0
  6
HIDDEN
 62
     7
 10
1243.8964611807
 20
1209.5614731338
 30
0.0
 11
1244.9571477766
 21
1209.5614731338
 31
0.0
  0
ENDSEC
  0
EOF
