  0
SECTION
  2
HEADER
  9
$ACADVER
  1
AC1009
  9
$DWGCODEPAGE
  3
ansi_1252
  9
$INSBASE
 10
0.0
 20
0.0
 30
0.0
  9
$EXTMIN
 10
0.0
 20
0.0
 30
0.0
  9
$EXTMAX
 10
297.0
 20
210.0
 30
0.0
  9
$LIMMIN
 10
0.0
 20
0.0
  9
$LIMMAX
 10
0.0
 20
0.0
  9
$ORTHOMODE
 70
     0
  9
$REGENMODE
 70
     1
  9
$FILLMODE
 70
     1
  9
$QTEXTMODE
 70
     0
  9
$MIRRTEXT
 70
     1
  9
$DRAGMODE
 70
     2
  9
$LTSCALE
 40
1.0
  9
$OSMODE
 70
    37
  9
$ATTMODE
 70
     1
  9
$TEXTSIZE
 40
3.5
  9
$TRACEWID
 40
1.0
  9
$TEXTSTYLE
  7
STANDARD
  9
$CLAYER
  8
0
  9
$CELTYPE
  6
BYLAYER
  9
$CECOLOR
 62
   256
  9
$DIMSCALE
 40
1.0
  9
$DIMASZ
 40
6.0
  9
$DIMEXO
 40
1.0
  9
$DIMDLI
 40
3.75
  9
$DIMRND
 40
0.0
  9
$DIMDLE
 40
0.0
  9
$DIMEXE
 40
1.0
  9
$DIMTP
 40
0.0
  9
$DIMTM
 40
0.0
  9
$DIMTXT
 40
3.5
  9
$DIMCEN
 40
2.5
  9
$DIMTSZ
 40
0.0
  9
$DIMTOL
 70
     0
  9
$DIMLIM
 70
     0
  9
$DIMTIH
 70
     1
  9
$DIMTOH
 70
     1
  9
$DIMSE1
 70
     0
  9
$DIMSE2
 70
     0
  9
$DIMTAD
 70
     1
  9
$DIMZIN
 70
     0
  9
$DIMBLK
  1

  9
$DIMASO
 70
     1
  9
$DIMSHO
 70
     1
  9
$DIMPOST
  1

  9
$DIMAPOST
  1

  9
$DIMALT
 70
     0
  9
$DIMALTD
 70
     3
  9
$DIMALTF
 40
0.0393700787
  9
$DIMLFAC
 40
1.0
  9
$DIMTOFL
 70
     1
  9
$DIMTVP
 40
0.0
  9
$DIMTIX
 70
     0
  9
$DIMSOXD
 70
     0
  9
$DIMSAH
 70
     0
  9
$DIMBLK1
  1

  9
$DIMBLK2
  1

  9
$DIMSTYLE
  2
ISO-25
  9
$DIMCLRD
 70
     0
  9
$DIMCLRE
 70
     0
  9
$DIMCLRT
 70
     0
  9
$DIMTFAC
 40
1.0
  9
$DIMGAP
 40
1.524
  9
$LUNITS
 70
     2
  9
$LUPREC
 70
     2
  9
$SKETCHINC
 40
1.0
  9
$FILLETRAD
 40
10.0
  9
$AUNITS
 70
     0
  9
$AUPREC
 70
     0
  9
$MENU
  1
.
  9
$ELEVATION
 40
0.0
  9
$PELEVATION
 40
0.0
  9
$THICKNESS
 40
0.0
  9
$LIMCHECK
 70
     0
  9
$CHAMFERA
 40
10.0
  9
$CHAMFERB
 40
10.0
  9
$SKPOLY
 70
     0
  9
$TDCREATE
 40
2455099.66194191
  9
$TDUPDATE
 40
2455099.661941921
  9
$TDINDWG
 40
0.0000000116
  9
$TDUSRTIMER
 40
0.0000000116
  9
$USRTIMER
 70
     1
  9
$ANGBASE
 50
0.0
  9
$ANGDIR
 70
     0
  9
$PDMODE
 70
     0
  9
$PDSIZE
 40
-1.0
  9
$PLINEWID
 40
0.0
  9
$COORDS
 70
     1
  9
$SPLFRAME
 70
     0
  9
$SPLINETYPE
 70
     6
  9
$SPLINESEGS
 70
     8
  9
$ATTDIA
 70
     0
  9
$ATTREQ
 70
     1
  9
$HANDLING
 70
     1
  9
$HANDSEED
  5
155
  9
$SURFTAB1
 70
     6
  9
$SURFTAB2
 70
     6
  9
$SURFTYPE
 70
     6
  9
$SURFU
 70
     6
  9
$SURFV
 70
     6
  9
$UCSNAME
  2

  9
$UCSORG
 10
0.0
 20
0.0
 30
0.0
  9
$UCSXDIR
 10
1.0
 20
0.0
 30
0.0
  9
$UCSYDIR
 10
0.0
 20
1.0
 30
0.0
  9
$PUCSNAME
  2

  9
$PUCSORG
 10
0.0
 20
0.0
 30
0.0
  9
$PUCSXDIR
 10
1.0
 20
0.0
 30
0.0
  9
$PUCSYDIR
 10
0.0
 20
1.0
 30
0.0
  9
$USERI1
 70
     0
  9
$USERI2
 70
     0
  9
$USERI3
 70
     0
  9
$USERI4
 70
     0
  9
$USERI5
 70
     0
  9
$USERR1
 40
0.0
  9
$USERR2
 40
0.0
  9
$USERR3
 40
0.0
  9
$USERR4
 40
0.0
  9
$USERR5
 40
0.0
  9
$WORLDVIEW
 70
     1
  9
$SHADEDGE
 70
     3
  9
$SHADEDIF
 70
    70
  9
$TILEMODE
 70
     1
  9
$MAXACTVP
 70
    64
  9
$PLIMCHECK
 70
     0
  9
$PEXTMIN
 10
1.0000000000E+20
 20
1.0000000000E+20
 30
1.0000000000E+20
  9
$PEXTMAX
 10
-1.0000000000E+20
 20
-1.0000000000E+20
 30
-1.0000000000E+20
  9
$PLIMMIN
 10
0.0
 20
0.0
  9
$PLIMMAX
 10
420.0
 20
297.0
  9
$UNITMODE
 70
     0
  9
$VISRETAIN
 70
     1
  9
$PLINEGEN
 70
     0
  9
$PSLTSCALE
 70
     1
  0
ENDSEC
  0
SECTION
  2
TABLES
  0
TABLE
  2
VPORT
 70
     1
  0
VPORT
  2
*ACTIVE
 70
     0
 10
0.0
 20
0.0
 11
1.0
 21
1.0
 12
148.5
 22
105.0
 13
0.0
 23
0.0
 14
10.0
 24
10.0
 15
10.0
 25
10.0
 16
0.0
 26
0.0
 36
1.0
 17
0.0
 27
0.0
 37
0.0
 40
210.0
 41
1.4142857143
 42
50.0
 43
0.0
 44
0.0
 50
0.0
 51
0.0
 71
     0
 72
  2000
 73
     1
 74
     3
 75
     0
 76
     0
 77
     0
 78
     0
  0
ENDTAB
  0
TABLE
  2
LTYPE
 70
     6
  0
LTYPE
  2
CONTINUOUS
 70
     0
  3
Solid line
 72
    65
 73
     0
 40
0.0
  0
LTYPE
  2
HIDDEN
 70
     0
  3
Hidden __ __ __ __ __ __ __ __ __ __ __ __ __ __
 72
    65
 73
     2
 40
1.905
 49
1.27
 49
-0.635
  0
LTYPE
  2
PHANTOM
 70
     0
  3
Phantom ______  __  __  ______  __  __  ______
 72
    65
 73
     6
 40
12.7
 49
6.35
 49
-1.27
 49
1.27
 49
-1.27
 49
1.27
 49
-1.27
  0
LTYPE
  2
CENTER
 70
     0
  3
Center ____ _ ____ _ ____ _ ____ _ ____ _ ____
 72
    65
 73
     4
 40
10.16
 49
6.35
 49
-1.27
 49
1.27
 49
-1.27
  0
LTYPE
  2
CENTERX2
 70
     0
  3
Center (2x) ________  __  ________  __  _____
 72
    65
 73
     4
 40
20.32
 49
12.7
 49
-2.54
 49
2.54
 49
-2.54
  0
LTYPE
  2
DOT2
 70
     0
  3
Dot (.5x) ........................................
 72
    65
 73
     2
 40
0.635
 49
0.0
 49
-0.635
  0
ENDTAB
  0
TABLE
  2
LAYER
 70
     5
  0
LAYER
  2
0
 70
     0
 62
     7
  6
CONTINUOUS
  0
LAYER
  2
SLD-0
 70
     0
 62
     7
  6
CONTINUOUS
  0
LAYER
  2
AM_BOR
 70
     0
 62
     7
  6
CONTINUOUS
  0
LAYER
  2
BIEGLINIE__ZU_
 70
     0
 62
     8
  6
CONTINUOUS
  0
LAYER
  2
BIEGELINIE__WEG_
 70
     0
 62
     8
  6
HIDDEN
  0
ENDTAB
  0
TABLE
  2
STYLE
 70
     1
  0
STYLE
  2
STANDARD
 70
     0
 40
0.0
 41
1.0
 50
0.0
 71
     0
 42
2.5
  3
txt
  4

  0
ENDTAB
  0
TABLE
  2
VIEW
 70
     0
  0
ENDTAB
  0
TABLE
  2
UCS
 70
     0
  0
ENDTAB
  0
TABLE
  2
APPID
 70
     1
  0
APPID
  2
ACAD
 70
     0
  0
ENDTAB
  0
TABLE
  2
DIMSTYLE
 70
     1
  0
DIMSTYLE
  2
ISO-25
 70
     0
  3

  4

  5

  6

  7

 40
1.0
 41
2.5
 42
0.625
 43
3.75
 44
1.25
 45
0.0
 46
0.0
 47
0.0
 48
0.0
140
2.5
141
2.5
142
0.0
143
0.0393700787
144
1.0
145
0.0
146
1.0
147
0.625
 71
     0
 72
     0
 73
     0
 74
     0
 75
     0
 76
     0
 77
     1
 78
     8
170
     0
171
     3
172
     1
173
     0
174
     0
175
     0
176
     0
177
     0
178
     0
  0
ENDTAB
  0
ENDSEC
  0
SECTION
  2
BLOCKS
  0
BLOCK
  8
0
  2
$MODEL_SPACE
 70
     0
 10
0.0
 20
0.0
 30
0.0
  3
$MODEL_SPACE
  1

  0
ENDBLK
  5
21
  8
0
  0
BLOCK
 67
     1
  8
0
  2
$PAPER_SPACE
 70
     0
 10
0.0
 20
0.0
 30
0.0
  3
$PAPER_SPACE
  1

  0
ENDBLK
  5
1D
 67
     1
  8
0
  0
ENDSEC
  0
SECTION
  2
ENTITIES
  0
ARC
  5
33
  8
0
  6
CONTINUOUS
 62
     7
 10
38.9170423764
 20
-340.1159763308
 30
0.0
 40
9.999999999999979
 50
270.0
 51
360.0
  0
LINE
  5
34
  8
0
  6
CONTINUOUS
 62
     7
 10
-321.0829576236
 20
-350.1159763308
 30
0.0
 11
38.9170423764
 21
-350.1159763308
 31
0.0
  0
ARC
  5
35
  8
0
  6
CONTINUOUS
 62
     7
 10
-321.0829576236
 20
-340.1159763308
 30
0.0
 40
10.0
 50
180.0
 51
270.0
  0
LINE
  5
36
  8
0
  6
CONTINUOUS
 62
     7
 10
-331.0829576236
 20
-220.1159763308
 30
0.0
 11
-331.0829576236
 21
-340.1159763308
 31
0.0
  0
ARC
  5
37
  8
0
  6
CONTINUOUS
 62
     7
 10
-321.0829576236
 20
-220.1159763308
 30
0.0
 40
10.0
 50
90.0
 51
180.0
  0
CIRCLE
  5
38
  8
0
  6
CONTINUOUS
 62
     7
 10
-316.0829576236
 20
-280.1159763308
 30
0.0
 40
6.383543879575676
  0
CIRCLE
  5
39
  8
0
  6
CONTINUOUS
 62
     7
 10
-271.0829576236
 20
-225.1159763308
 30
0.0
 40
6.383543879575676
  0
CIRCLE
  5
3A
  8
0
  6
CONTINUOUS
 62
     7
 10
-141.0829576236
 20
-225.1159763308
 30
0.0
 40
6.383543879575703
  0
CIRCLE
  5
3B
  8
0
  6
CONTINUOUS
 62
     7
 10
33.9170423764
 20
-280.1159763308
 30
0.0
 40
6.383543879575675
  0
CIRCLE
  5
3C
  8
0
  6
CONTINUOUS
 62
     7
 10
-11.0829576236
 20
-225.1159763308
 30
0.0
 40
6.383543879575675
  0
CIRCLE
  5
3D
  8
0
  6
CONTINUOUS
 62
     7
 10
-141.0829576236
 20
-335.1159763308
 30
0.0
 40
6.383543879575675
  0
CIRCLE
  5
3E
  8
0
  6
CONTINUOUS
 62
     7
 10
-11.0829576236
 20
-335.1159763308
 30
0.0
 40
6.383543879575675
  0
CIRCLE
  5
3F
  8
0
  6
CONTINUOUS
 62
     7
 10
-271.0829576236
 20
-335.1159763308
 30
0.0
 40
6.383543879575676
  0
LINE
  5
40
  8
0
  6
CONTINUOUS
 62
     7
 10
38.9170423764
 20
-210.1159763308
 30
0.0
 11
-321.0829576236
 21
-210.1159763308
 31
0.0
  0
ARC
  5
41
  8
0
  6
CONTINUOUS
 62
     7
 10
38.9170423764
 20
-220.1159763308
 30
0.0
 40
10.00000000000003
 50
0.0
 51
90.0
  0
LINE
  5
42
  8
0
  6
CONTINUOUS
 62
     7
 10
48.9170423764
 20
-340.1159763308
 30
0.0
 11
48.9170423764
 21
-220.1159763308
 31
0.0
  0
CIRCLE
  5
43
  8
0
  6
CONTINUOUS
 62
     7
 10
-141.0829576236
 20
-225.1159763308
 30
0.0
 40
5.06204688540563
  0
CIRCLE
  5
44
  8
0
  6
CONTINUOUS
 62
     7
 10
-11.0829576236
 20
-335.1159763308
 30
0.0
 40
5.062046885405616
  0
CIRCLE
  5
45
  8
0
  6
CONTINUOUS
 62
     7
 10
-271.0829576236
 20
-225.1159763308
 30
0.0
 40
5.062046885405602
  0
CIRCLE
  5
46
  8
0
  6
CONTINUOUS
 62
     7
 10
-271.0829576236
 20
-335.1159763308
 30
0.0
 40
5.062046885405602
  0
CIRCLE
  5
47
  8
0
  6
CONTINUOUS
 62
     7
 10
33.9170423764
 20
-280.1159763308
 30
0.0
 40
5.062046885405612
  0
CIRCLE
  5
48
  8
0
  6
CONTINUOUS
 62
     7
 10
-141.0829576236
 20
-335.1159763308
 30
0.0
 40
5.06204688540563
  0
CIRCLE
  5
49
  8
0
  6
CONTINUOUS
 62
     7
 10
-11.0829576236
 20
-225.1159763308
 30
0.0
 40
5.062046885405616
  0
CIRCLE
  5
4A
  8
0
  6
CONTINUOUS
 62
     7
 10
-316.0829576236
 20
-280.1159763308
 30
0.0
 40
5.062046885405659
  0
CIRCLE
  5
4B
  8
0
  6
CONTINUOUS
 62
     7
 10
-11.0829576236
 20
-225.1159763308
 30
0.0
 40
2.500000000000005
  0
CIRCLE
  5
4C
  8
0
  6
CONTINUOUS
 62
     7
 10
-11.0829576236
 20
-335.1159763308
 30
0.0
 40
2.500000000000004
  0
CIRCLE
  5
4D
  8
0
  6
CONTINUOUS
 62
     7
 10
-141.0829576236
 20
-335.1159763308
 30
0.0
 40
2.500000000000019
  0
CIRCLE
  5
4E
  8
0
  6
CONTINUOUS
 62
     7
 10
-141.0829576236
 20
-225.1159763308
 30
0.0
 40
2.50000000000002
  0
CIRCLE
  5
4F
  8
0
  6
CONTINUOUS
 62
     7
 10
-271.0829576236
 20
-225.1159763308
 30
0.0
 40
2.499999999999991
  0
CIRCLE
  5
50
  8
0
  6
CONTINUOUS
 62
     7
 10
-271.0829576236
 20
-335.1159763308
 30
0.0
 40
2.49999999999999
  0
CIRCLE
  5
51
  8
0
  6
CONTINUOUS
 62
     7
 10
33.9170423764
 20
-280.1159763308
 30
0.0
 40
2.500000000000005
  0
CIRCLE
  5
52
  8
0
  6
CONTINUOUS
 62
     7
 10
-316.0829576236
 20
-280.1159763308
 30
0.0
 40
2.500000000000048
  0
LINE
  5
53
  8
0
  6
CONTINUOUS
 62
     7
 10
19.9170423764
 20
-430.4258278247
 30
0.0
 11
-302.0829576236
 21
-430.4258278247
 31
0.0
  0
LINE
  5
54
  8
0
  6
CONTINUOUS
 62
     7
 10
42.4170423764
 20
-430.4258278247
 30
0.0
 11
19.9170423764
 21
-430.4258278247
 31
0.0
  0
LINE
  5
55
  8
0
  6
CONTINUOUS
 62
     7
 10
-302.0829576236
 20
-430.4258278247
 30
0.0
 11
-324.5829576236
 21
-430.4258278247
 31
0.0
  0
ARC
  5
56
  8
0
  6
CONTINUOUS
 62
     7
 10
42.4170423764
 20
-434.4258278247
 30
0.0
 40
4.000000000000057
 50
0.0
 51
90.0
  0
ARC
  5
57
  8
0
  6
CONTINUOUS
 62
     7
 10
-324.5829576236
 20
-434.4258278247
 30
0.0
 40
4.000000000000057
 50
90.0
 51
180.0
  0
LINE
  5
58
  8
0
  6
CONTINUOUS
 62
     7
 10
-331.0829576236
 20
-435.9258278247
 30
0.0
 11
-331.0829576236
 21
-434.4258278247
 31
0.0
  0
LINE
  5
59
  8
0
  6
CONTINUOUS
 62
     7
 10
-321.0829576236
 20
-434.4258278247
 30
0.0
 11
-331.0829576236
 21
-434.4258278247
 31
0.0
  0
LINE
  5
5A
  8
0
  6
CONTINUOUS
 62
     7
 10
-321.0829576236
 20
-435.9258278247
 30
0.0
 11
-331.0829576236
 21
-435.9258278247
 31
0.0
  0
LINE
  5
5B
  8
0
  6
CONTINUOUS
 62
     7
 10
38.9170423764
 20
-434.4258278247
 30
0.0
 11
-321.0829576236
 21
-434.4258278247
 31
0.0
  0
LINE
  5
5C
  8
0
  6
CONTINUOUS
 62
     7
 10
38.9170423764
 20
-435.9258278247
 30
0.0
 11
-321.0829576236
 21
-435.9258278247
 31
0.0
  0
LINE
  5
5D
  8
0
  6
CONTINUOUS
 62
     7
 10
48.9170423764
 20
-435.9258278247
 30
0.0
 11
48.9170423764
 21
-434.4258278247
 31
0.0
  0
LINE
  5
5E
  8
0
  6
CONTINUOUS
 62
     7
 10
48.9170423764
 20
-434.4258278247
 30
0.0
 11
38.9170423764
 21
-434.4258278247
 31
0.0
  0
LINE
  5
5F
  8
0
  6
CONTINUOUS
 62
     7
 10
48.9170423764
 20
-435.9258278247
 30
0.0
 11
38.9170423764
 21
-435.9258278247
 31
0.0
  0
ARC
  5
60
  8
0
  6
HIDDEN
 62
     7
 10
42.4170423764
 20
-434.4258278247
 30
0.0
 40
4.000000000000057
 50
90.0
 51
180.0
  0
ARC
  5
61
  8
0
  6
HIDDEN
 62
     7
 10
-324.5829576236
 20
-434.4258278247
 30
0.0
 40
4.000000000000057
 50
0.0
 51
90.0
  0
LINE
  5
62
  8
0
  6
HIDDEN
 62
     7
 10
-137.6860139624
 20
-432.3735416405
 30
0.0
 11
-144.4799012848
 21
-432.3735416405
 31
0.0
  0
LINE
  5
63
  8
0
  6
HIDDEN
 62
     7
 10
-14.4799012848
 20
-432.3735416405
 30
0.0
 11
-7.6860139624
 21
-432.3735416405
 31
0.0
  0
LINE
  5
64
  8
0
  6
HIDDEN
 62
     7
 10
-267.6860139624
 20
-432.3735416405
 30
0.0
 11
-274.4799012848
 21
-432.3735416405
 31
0.0
  0
LINE
  5
65
  8
0
  6
HIDDEN
 62
     7
 10
-138.5834302935
 20
-433.5758278246
 30
0.0
 11
-143.5829576236
 21
-433.5758278246
 31
0.0
  0
LINE
  5
66
  8
0
  6
HIDDEN
 62
     7
 10
-13.5824849537
 20
-433.5758278246
 30
0.0
 11
-8.5829576236
 21
-433.5758278246
 31
0.0
  0
LINE
  5
67
  8
0
  6
HIDDEN
 62
     7
 10
-268.5834302935
 20
-433.5758278246
 30
0.0
 11
-273.5829576236
 21
-433.5758278246
 31
0.0
  0
LINE
  5
68
  8
0
  6
HIDDEN
 62
     7
 10
-312.6860139624
 20
-432.3735416405
 30
0.0
 11
-319.4799012848
 21
-432.3735416405
 31
0.0
  0
LINE
  5
69
  8
0
  6
HIDDEN
 62
     7
 10
30.5200987152
 20
-432.3735416405
 30
0.0
 11
37.3139860376
 21
-432.3735416405
 31
0.0
  0
LINE
  5
6A
  8
0
  6
HIDDEN
 62
     7
 10
-313.5834302935
 20
-433.5758278246
 30
0.0
 11
-318.5829576236
 21
-433.5758278246
 31
0.0
  0
LINE
  5
6B
  8
0
  6
HIDDEN
 62
     7
 10
31.4175150463
 20
-433.5758278246
 30
0.0
 11
36.4170423764
 21
-433.5758278246
 31
0.0
  0
POLYLINE
  5
6C
  8
0
  6
HIDDEN
 62
     7
 66
     1
 10
0.0
 20
0.0
 30
0.0
  0
VERTEX
  5
14D
  8
0
  6
HIDDEN
 62
     7
 10
-268.5834302935
 20
-433.5758278246
 30
0.0
  0
VERTEX
  5
14E
  8
0
  6
HIDDEN
 62
     7
 10
-268.5834302935
 20
-433.5758278246
 30
0.0
  0
SEQEND
  5
14C
  8
0
  6
HIDDEN
 62
     7
  0
POLYLINE
  5
6D
  8
0
  6
HIDDEN
 62
     7
 66
     1
 10
0.0
 20
0.0
 30
0.0
  0
VERTEX
  5
150
  8
0
  6
HIDDEN
 62
     7
 10
-13.5824849537
 20
-433.5758278246
 30
0.0
  0
VERTEX
  5
151
  8
0
  6
HIDDEN
 62
     7
 10
-13.5824849537
 20
-433.5758278246
 30
0.0
  0
SEQEND
  5
14F
  8
0
  6
HIDDEN
 62
     7
  0
POLYLINE
  5
6E
  8
0
  6
HIDDEN
 62
     7
 66
     1
 10
0.0
 20
0.0
 30
0.0
  0
VERTEX
  5
153
  8
0
  6
HIDDEN
 62
     7
 10
-138.5834302935
 20
-433.5758278246
 30
0.0
  0
VERTEX
  5
154
  8
0
  6
HIDDEN
 62
     7
 10
-138.5834302935
 20
-433.5758278246
 30
0.0
  0
SEQEND
  5
152
  8
0
  6
HIDDEN
 62
     7
  0
ARC
  5
6F
  8
0
  6
HIDDEN
 62
     7
 10
-147.4665015032
 20
-433.7158278246
 30
0.0
 40
0.7100000000461932
 50
270.0
 51
306.7241071729
  0
ARC
  5
70
  8
0
  6
HIDDEN
 62
     7
 10
-134.699413744
 20
-433.7158278246
 30
0.0
 40
0.7100000000461932
 50
233.2758928271
 51
270.0
  0
ARC
  5
71
  8
0
  6
HIDDEN
 62
     7
 10
-147.4665015032
 20
-433.7158278246
 30
0.0
 40
2.210000000000034
 50
270.0
 51
306.7241071729
  0
ARC
  5
72
  8
0
  6
HIDDEN
 62
     7
 10
-134.699413744
 20
-433.7158278246
 30
0.0
 40
2.21
 50
233.2758928271
 51
270.0
  0
ARC
  5
73
  8
0
  6
HIDDEN
 62
     7
 10
-277.4665015032
 20
-433.7158278246
 30
0.0
 40
0.7100000000461932
 50
270.0
 51
306.7241071729
  0
ARC
  5
74
  8
0
  6
HIDDEN
 62
     7
 10
-264.699413744
 20
-433.7158278246
 30
0.0
 40
0.7100000000461932
 50
233.2758928271
 51
270.0
  0
ARC
  5
75
  8
0
  6
HIDDEN
 62
     7
 10
-17.4665015032
 20
-433.7158278246
 30
0.0
 40
0.7100000000461932
 50
270.0
 51
306.7241071729
  0
ARC
  5
76
  8
0
  6
HIDDEN
 62
     7
 10
-4.699413744
 20
-433.7158278246
 30
0.0
 40
0.7100000000461932
 50
233.2758928271
 51
270.0
  0
ARC
  5
77
  8
0
  6
HIDDEN
 62
     7
 10
-17.4665015032
 20
-433.7158278246
 30
0.0
 40
2.210000000000006
 50
270.0
 51
306.7241071729
  0
ARC
  5
78
  8
0
  6
HIDDEN
 62
     7
 10
-4.699413744
 20
-433.7158278246
 30
0.0
 40
2.210000000000023
 50
233.2758928271
 51
270.0
  0
ARC
  5
79
  8
0
  6
HIDDEN
 62
     7
 10
-277.4665015032
 20
-433.7158278246
 30
0.0
 40
2.210000000000034
 50
270.0
 51
306.7241071729
  0
ARC
  5
7A
  8
0
  6
HIDDEN
 62
     7
 10
-264.699413744
 20
-433.7158278246
 30
0.0
 40
2.210000000000034
 50
233.2758928271
 51
270.0
  0
LINE
  5
7B
  8
0
  6
HIDDEN
 62
     7
 10
-135.123967077
 20
-434.2849099518
 30
0.0
 11
-137.6860139624
 21
-432.3735416405
 31
0.0
  0
LINE
  5
7C
  8
0
  6
HIDDEN
 62
     7
 10
-144.4799012848
 20
-432.3735416405
 30
0.0
 11
-147.0419481702
 21
-434.2849099518
 31
0.0
  0
LINE
  5
7D
  8
0
  6
HIDDEN
 62
     7
 10
-5.123967077
 20
-434.2849099518
 30
0.0
 11
-7.6860139624
 21
-432.3735416405
 31
0.0
  0
LINE
  5
7E
  8
0
  6
HIDDEN
 62
     7
 10
-14.4799012848
 20
-432.3735416405
 30
0.0
 11
-17.0419481702
 21
-434.2849099518
 31
0.0
  0
LINE
  5
7F
  8
0
  6
HIDDEN
 62
     7
 10
-265.123967077
 20
-434.2849099518
 30
0.0
 11
-267.6860139624
 21
-432.3735416405
 31
0.0
  0
LINE
  5
80
  8
0
  6
HIDDEN
 62
     7
 10
-274.4799012848
 20
-432.3735416405
 30
0.0
 11
-277.0419481702
 21
-434.2849099518
 31
0.0
  0
LINE
  5
81
  8
0
  6
HIDDEN
 62
     7
 10
-136.0209107382
 20
-435.487196136
 30
0.0
 11
-138.5829576236
 21
-433.5758278246
 31
0.0
  0
LINE
  5
82
  8
0
  6
HIDDEN
 62
     7
 10
-143.5829576236
 20
-433.5758278246
 30
0.0
 11
-146.145004509
 21
-435.487196136
 31
0.0
  0
LINE
  5
83
  8
0
  6
HIDDEN
 62
     7
 10
-6.0209107382
 20
-435.487196136
 30
0.0
 11
-8.5829576236
 21
-433.5758278246
 31
0.0
  0
LINE
  5
84
  8
0
  6
HIDDEN
 62
     7
 10
-13.5829576236
 20
-433.5758278246
 30
0.0
 11
-16.145004509
 21
-435.487196136
 31
0.0
  0
LINE
  5
85
  8
0
  6
HIDDEN
 62
     7
 10
-266.0209107382
 20
-435.487196136
 30
0.0
 11
-268.5829576236
 21
-433.5758278246
 31
0.0
  0
LINE
  5
86
  8
0
  6
HIDDEN
 62
     7
 10
-273.5829576236
 20
-433.5758278246
 30
0.0
 11
-276.145004509
 21
-435.487196136
 31
0.0
  0
LINE
  5
87
  8
0
  6
HIDDEN
 62
     7
 10
-144.4799012848
 20
-432.3735416405
 30
0.0
 11
-143.5829576236
 21
-433.5758278246
 31
0.0
  0
LINE
  5
88
  8
0
  6
HIDDEN
 62
     7
 10
-138.5829576236
 20
-433.5758278246
 30
0.0
 11
-137.6860139624
 21
-432.3735416405
 31
0.0
  0
LINE
  5
89
  8
0
  6
HIDDEN
 62
     7
 10
-274.4799012848
 20
-432.3735416405
 30
0.0
 11
-273.5829576236
 21
-433.5758278246
 31
0.0
  0
LINE
  5
8A
  8
0
  6
HIDDEN
 62
     7
 10
-268.5829576236
 20
-433.5758278246
 30
0.0
 11
-267.6860139624
 21
-432.3735416405
 31
0.0
  0
LINE
  5
8B
  8
0
  6
HIDDEN
 62
     7
 10
-14.4799012848
 20
-432.3735416405
 30
0.0
 11
-13.5829576236
 21
-433.5758278246
 31
0.0
  0
LINE
  5
8C
  8
0
  6
HIDDEN
 62
     7
 10
-8.5829576236
 20
-433.5758278246
 30
0.0
 11
-7.6860139624
 21
-432.3735416405
 31
0.0
  0
ARC
  5
8D
  8
0
  6
HIDDEN
 62
     7
 10
27.5334984968
 20
-433.7158278246
 30
0.0
 40
0.7100000000461364
 50
270.0
 51
306.7241071729
  0
ARC
  5
8E
  8
0
  6
HIDDEN
 62
     7
 10
40.300586256
 20
-433.7158278246
 30
0.0
 40
0.7100000000461364
 50
233.2758928271
 51
270.0
  0
ARC
  5
8F
  8
0
  6
HIDDEN
 62
     7
 10
-322.4665015032
 20
-433.7158278246
 30
0.0
 40
0.7100000000461364
 50
270.0
 51
306.7241071729
  0
ARC
  5
90
  8
0
  6
HIDDEN
 62
     7
 10
-309.699413744
 20
-433.7158278246
 30
0.0
 40
0.7100000000461364
 50
233.2758928271
 51
270.0
  0
ARC
  5
91
  8
0
  6
HIDDEN
 62
     7
 10
27.5334984968
 20
-433.7158278246
 30
0.0
 40
2.210000000000021
 50
270.0
 51
306.7241071729
  0
ARC
  5
92
  8
0
  6
HIDDEN
 62
     7
 10
40.300586256
 20
-433.7158278246
 30
0.0
 40
2.210000000000021
 50
233.2758928271
 51
270.0
  0
ARC
  5
93
  8
0
  6
HIDDEN
 62
     7
 10
-322.4665015032
 20
-433.7158278246
 30
0.0
 40
2.210000000000034
 50
270.0
 51
306.7241071729
  0
ARC
  5
94
  8
0
  6
HIDDEN
 62
     7
 10
-309.699413744
 20
-433.7158278246
 30
0.0
 40
2.21
 50
233.2758928271
 51
270.0
  0
LINE
  5
95
  8
0
  6
HIDDEN
 62
     7
 10
-310.123967077
 20
-434.2849099518
 30
0.0
 11
-312.6860139624
 21
-432.3735416405
 31
0.0
  0
LINE
  5
96
  8
0
  6
HIDDEN
 62
     7
 10
-319.4799012848
 20
-432.3735416405
 30
0.0
 11
-322.0419481702
 21
-434.2849099518
 31
0.0
  0
LINE
  5
97
  8
0
  6
HIDDEN
 62
     7
 10
39.876032923
 20
-434.2849099518
 30
0.0
 11
37.3139860376
 21
-432.3735416405
 31
0.0
  0
LINE
  5
98
  8
0
  6
HIDDEN
 62
     7
 10
30.5200987152
 20
-432.3735416405
 30
0.0
 11
27.9580518298
 21
-434.2849099518
 31
0.0
  0
LINE
  5
99
  8
0
  6
HIDDEN
 62
     7
 10
-311.0209107382
 20
-435.487196136
 30
0.0
 11
-313.5829576236
 21
-433.5758278246
 31
0.0
  0
LINE
  5
9A
  8
0
  6
HIDDEN
 62
     7
 10
-318.5829576236
 20
-433.5758278246
 30
0.0
 11
-321.145004509
 21
-435.487196136
 31
0.0
  0
LINE
  5
9B
  8
0
  6
HIDDEN
 62
     7
 10
38.9790892618
 20
-435.487196136
 30
0.0
 11
36.4170423764
 21
-433.5758278246
 31
0.0
  0
LINE
  5
9C
  8
0
  6
HIDDEN
 62
     7
 10
31.4170423764
 20
-433.5758278246
 30
0.0
 11
28.854995491
 21
-435.487196136
 31
0.0
  0
LINE
  5
9D
  8
0
  6
HIDDEN
 62
     7
 10
-319.4799012848
 20
-432.3735416405
 30
0.0
 11
-318.5829576236
 21
-433.5758278246
 31
0.0
  0
LINE
  5
9E
  8
0
  6
HIDDEN
 62
     7
 10
-313.5829576236
 20
-433.5758278246
 30
0.0
 11
-312.6860139624
 21
-432.3735416405
 31
0.0
  0
LINE
  5
9F
  8
0
  6
HIDDEN
 62
     7
 10
30.5200987152
 20
-432.3735416405
 30
0.0
 11
31.4170423764
 21
-433.5758278246
 31
0.0
  0
LINE
  5
A0
  8
0
  6
HIDDEN
 62
     7
 10
36.4170423764
 20
-433.5758278246
 30
0.0
 11
37.3139860376
 21
-432.3735416405
 31
0.0
  0
LINE
  5
A1
  8
0
  6
CONTINUOUS
 62
     7
 10
139.954974373
 20
-321.1159763308
 30
0.0
 11
139.954974373
 21
-343.6159763308
 31
0.0
  0
LINE
  5
A2
  8
0
  6
CONTINUOUS
 62
     7
 10
139.954974373
 20
-216.6159763308
 30
0.0
 11
139.954974373
 21
-239.1159763308
 31
0.0
  0
LINE
  5
A3
  8
0
  6
CONTINUOUS
 62
     7
 10
139.954974373
 20
-239.1159763308
 30
0.0
 11
139.954974373
 21
-321.1159763308
 31
0.0
  0
ARC
  5
A4
  8
0
  6
CONTINUOUS
 62
     7
 10
143.954974373
 20
-343.6159763308
 30
0.0
 40
4.000000000000028
 50
180.0
 51
270.0
  0
ARC
  5
A5
  8
0
  6
CONTINUOUS
 62
     7
 10
143.954974373
 20
-216.6159763308
 30
0.0
 40
4.000000000000028
 50
90.0
 51
180.0
  0
LINE
  5
A6
  8
0
  6
CONTINUOUS
 62
     7
 10
145.454974373
 20
-210.1159763308
 30
0.0
 11
143.954974373
 21
-210.1159763308
 31
0.0
  0
LINE
  5
A7
  8
0
  6
CONTINUOUS
 62
     7
 10
143.954974373
 20
-210.1159763308
 30
0.0
 11
143.954974373
 21
-220.1159763308
 31
0.0
  0
LINE
  5
A8
  8
0
  6
CONTINUOUS
 62
     7
 10
145.454974373
 20
-210.1159763308
 30
0.0
 11
145.454974373
 21
-220.1159763308
 31
0.0
  0
LINE
  5
A9
  8
0
  6
CONTINUOUS
 62
     7
 10
143.954974373
 20
-220.1159763308
 30
0.0
 11
143.954974373
 21
-340.1159763308
 31
0.0
  0
LINE
  5
AA
  8
0
  6
CONTINUOUS
 62
     7
 10
145.454974373
 20
-220.1159763308
 30
0.0
 11
145.454974373
 21
-340.1159763308
 31
0.0
  0
LINE
  5
AB
  8
0
  6
CONTINUOUS
 62
     7
 10
145.454974373
 20
-350.1159763308
 30
0.0
 11
143.954974373
 21
-350.1159763308
 31
0.0
  0
LINE
  5
AC
  8
0
  6
CONTINUOUS
 62
     7
 10
143.954974373
 20
-340.1159763308
 30
0.0
 11
143.954974373
 21
-350.1159763308
 31
0.0
  0
LINE
  5
AD
  8
0
  6
CONTINUOUS
 62
     7
 10
145.454974373
 20
-340.1159763308
 30
0.0
 11
145.454974373
 21
-350.1159763308
 31
0.0
  0
ARC
  5
AE
  8
0
  6
HIDDEN
 62
     7
 10
143.954974373
 20
-343.6159763308
 30
0.0
 40
4.000000000000057
 50
90.0
 51
180.0
  0
ARC
  5
AF
  8
0
  6
HIDDEN
 62
     7
 10
143.954974373
 20
-216.6159763308
 30
0.0
 40
4.000000000000028
 50
180.0
 51
270.0
  0
LINE
  5
B0
  8
0
  6
HIDDEN
 62
     7
 10
141.9026881888
 20
-276.7190326696
 30
0.0
 11
141.9026881888
 21
-283.512919992
 31
0.0
  0
LINE
  5
B1
  8
0
  6
HIDDEN
 62
     7
 10
143.1049743729
 20
-277.6159763308
 30
0.0
 11
143.1049743729
 21
-282.6159763308
 31
0.0
  0
LINE
  5
B2
  8
0
  6
HIDDEN
 62
     7
 10
141.9026881888
 20
-338.512919992
 30
0.0
 11
141.9026881888
 21
-331.7190326696
 31
0.0
  0
LINE
  5
B3
  8
0
  6
HIDDEN
 62
     7
 10
141.9026881888
 20
-221.7190326696
 30
0.0
 11
141.9026881888
 21
-228.512919992
 31
0.0
  0
LINE
  5
B4
  8
0
  6
HIDDEN
 62
     7
 10
143.1049743729
 20
-222.6159763308
 30
0.0
 11
143.1049743729
 21
-227.6159763308
 31
0.0
  0
LINE
  5
B5
  8
0
  6
HIDDEN
 62
     7
 10
143.1049743729
 20
-337.6159763308
 30
0.0
 11
143.1049743729
 21
-332.6159763308
 31
0.0
  0
ARC
  5
B6
  8
0
  6
HIDDEN
 62
     7
 10
143.2449743729
 20
-286.4995202104
 30
0.0
 40
2.210000000000036
 50
0.0
 51
36.7241071729
  0
ARC
  5
B7
  8
0
  6
HIDDEN
 62
     7
 10
143.2449743729
 20
-273.7324324512
 30
0.0
 40
2.210000000000036
 50
323.2758928271
 51
0.0
  0
ARC
  5
B8
  8
0
  6
HIDDEN
 62
     7
 10
143.2449743729
 20
-286.4995202104
 30
0.0
 40
0.7100000000461932
 50
0.0
 51
36.7241071729
  0
ARC
  5
B9
  8
0
  6
HIDDEN
 62
     7
 10
143.2449743729
 20
-273.7324324512
 30
0.0
 40
0.7100000000461932
 50
323.2758928271
 51
0.0
  0
LINE
  5
BA
  8
0
  6
HIDDEN
 62
     7
 10
143.8140565001
 20
-274.1569857842
 30
0.0
 11
141.9026881888
 21
-276.7190326696
 31
0.0
  0
LINE
  5
BB
  8
0
  6
HIDDEN
 62
     7
 10
141.9026881888
 20
-283.512919992
 30
0.0
 11
143.8140565001
 21
-286.0749668774
 31
0.0
  0
LINE
  5
BC
  8
0
  6
HIDDEN
 62
     7
 10
145.0163426843
 20
-275.0539294454
 30
0.0
 11
143.1049743729
 21
-277.6159763308
 31
0.0
  0
LINE
  5
BD
  8
0
  6
HIDDEN
 62
     7
 10
143.1049743729
 20
-282.6159763308
 30
0.0
 11
145.0163426843
 21
-285.1780232162
 31
0.0
  0
LINE
  5
BE
  8
0
  6
HIDDEN
 62
     7
 10
141.9026881888
 20
-283.512919992
 30
0.0
 11
143.1049743729
 21
-282.6159763308
 31
0.0
  0
LINE
  5
BF
  8
0
  6
HIDDEN
 62
     7
 10
143.1049743729
 20
-277.6159763308
 30
0.0
 11
141.9026881888
 21
-276.7190326696
 31
0.0
  0
ARC
  5
C0
  8
0
  6
HIDDEN
 62
     7
 10
143.2449743729
 20
-231.4995202104
 30
0.0
 40
0.7100000000461648
 50
0.0
 51
36.7241071729
  0
ARC
  5
C1
  8
0
  6
HIDDEN
 62
     7
 10
143.2449743729
 20
-218.7324324512
 30
0.0
 40
0.7100000000461648
 50
323.2758928271
 51
0.0
  0
ARC
  5
C2
  8
0
  6
HIDDEN
 62
     7
 10
143.2449743729
 20
-231.4995202104
 30
0.0
 40
2.210000000000017
 50
0.0
 51
36.7241071729
  0
ARC
  5
C3
  8
0
  6
HIDDEN
 62
     7
 10
143.2449743729
 20
-218.7324324512
 30
0.0
 40
2.210000000000008
 50
323.2758928271
 51
0.0
  0
ARC
  5
C4
  8
0
  6
HIDDEN
 62
     7
 10
143.2449743729
 20
-341.4995202104
 30
0.0
 40
2.210000000000008
 50
0.0
 51
36.7241071729
  0
ARC
  5
C5
  8
0
  6
HIDDEN
 62
     7
 10
143.2449743729
 20
-328.7324324512
 30
0.0
 40
2.210000000000008
 50
323.2758928271
 51
0.0
  0
ARC
  5
C6
  8
0
  6
HIDDEN
 62
     7
 10
143.2449743729
 20
-341.4995202104
 30
0.0
 40
0.7100000000461648
 50
0.0
 51
36.7241071729
  0
ARC
  5
C7
  8
0
  6
HIDDEN
 62
     7
 10
143.2449743729
 20
-328.7324324512
 30
0.0
 40
0.7100000000461648
 50
323.2758928271
 51
0.0
  0
LINE
  5
C8
  8
0
  6
HIDDEN
 62
     7
 10
143.8140565001
 20
-329.1569857842
 30
0.0
 11
141.9026881888
 21
-331.7190326696
 31
0.0
  0
LINE
  5
C9
  8
0
  6
HIDDEN
 62
     7
 10
141.9026881888
 20
-338.512919992
 30
0.0
 11
143.8140565001
 21
-341.0749668774
 31
0.0
  0
LINE
  5
CA
  8
0
  6
HIDDEN
 62
     7
 10
143.8140565001
 20
-219.1569857842
 30
0.0
 11
141.9026881888
 21
-221.7190326696
 31
0.0
  0
LINE
  5
CB
  8
0
  6
HIDDEN
 62
     7
 10
141.9026881888
 20
-228.512919992
 30
0.0
 11
143.8140565001
 21
-231.0749668774
 31
0.0
  0
LINE
  5
CC
  8
0
  6
HIDDEN
 62
     7
 10
145.0163426843
 20
-220.0539294454
 30
0.0
 11
143.1049743729
 21
-222.6159763308
 31
0.0
  0
LINE
  5
CD
  8
0
  6
HIDDEN
 62
     7
 10
143.1049743729
 20
-227.6159763308
 30
0.0
 11
145.0163426843
 21
-230.1780232162
 31
0.0
  0
LINE
  5
CE
  8
0
  6
HIDDEN
 62
     7
 10
145.0163426843
 20
-330.0539294454
 30
0.0
 11
143.1049743729
 21
-332.6159763308
 31
0.0
  0
LINE
  5
CF
  8
0
  6
HIDDEN
 62
     7
 10
143.1049743729
 20
-337.6159763308
 30
0.0
 11
145.0163426843
 21
-340.1780232162
 31
0.0
  0
LINE
  5
D0
  8
0
  6
HIDDEN
 62
     7
 10
141.9026881888
 20
-338.512919992
 30
0.0
 11
143.1049743729
 21
-337.6159763308
 31
0.0
  0
LINE
  5
D1
  8
0
  6
HIDDEN
 62
     7
 10
143.1049743729
 20
-332.6159763308
 30
0.0
 11
141.9026881888
 21
-331.7190326696
 31
0.0
  0
LINE
  5
D2
  8
0
  6
HIDDEN
 62
     7
 10
141.9026881888
 20
-228.512919992
 30
0.0
 11
143.1049743729
 21
-227.6159763308
 31
0.0
  0
LINE
  5
D3
  8
0
  6
HIDDEN
 62
     7
 10
143.1049743729
 20
-222.6159763308
 30
0.0
 11
141.9026881888
 21
-221.7190326696
 31
0.0
  0
ARC
  5
D4
  8
0
  6
CONTINUOUS
 62
     7
 10
280.3818289441
 20
-321.1159763308
 30
0.0
 40
18.49999999999994
 50
180.0
 51
270.0
  0
ARC
  5
D5
  8
0
  6
CONTINUOUS
 62
     7
 10
280.3818289441
 20
-321.1159763308
 30
0.0
 40
26.5
 50
180.0
 51
270.0
  0
LINE
  5
D6
  8
0
  6
CONTINUOUS
 62
     7
 10
261.8818289441
 20
-239.1159763308
 30
0.0
 11
261.8818289441
 21
-275.5883243497
 31
0.0
  0
LINE
  5
D7
  8
0
  6
CONTINUOUS
 62
     7
 10
261.8818289441
 20
-284.643628312
 30
0.0
 11
261.8818289441
 21
-321.1159763308
 31
0.0
  0
LINE
  5
D8
  8
0
  6
CONTINUOUS
 62
     7
 10
253.8818289441
 20
-239.1159763308
 30
0.0
 11
253.8818289441
 21
-321.1159763308
 31
0.0
  0
ARC
  5
D9
  8
0
  6
CONTINUOUS
 62
     7
 10
280.3818289441
 20
-239.1159763308
 30
0.0
 40
18.50000000000006
 50
90.0
 51
180.0
  0
ARC
  5
DA
  8
0
  6
CONTINUOUS
 62
     7
 10
280.3818289441
 20
-239.1159763308
 30
0.0
 40
26.50000000000003
 50
90.0
 51
180.0
  0
LINE
  5
DB
  8
0
  6
CONTINUOUS
 62
     7
 10
280.3818289441
 20
-339.6159763308
 30
0.0
 11
306.854176963
 21
-339.6159763308
 31
0.0
  0
LINE
  5
DC
  8
0
  6
CONTINUOUS
 62
     7
 10
315.9094809253
 20
-339.6159763308
 30
0.0
 11
436.854176963
 21
-339.6159763308
 31
0.0
  0
LINE
  5
DD
  8
0
  6
CONTINUOUS
 62
     7
 10
445.9094809253
 20
-339.6159763308
 30
0.0
 11
566.854176963
 21
-339.6159763308
 31
0.0
  0
LINE
  5
DE
  8
0
  6
CONTINUOUS
 62
     7
 10
575.9094809253
 20
-339.6159763308
 30
0.0
 11
602.3818289441
 21
-339.6159763308
 31
0.0
  0
LINE
  5
DF
  8
0
  6
CONTINUOUS
 62
     7
 10
280.3818289441
 20
-347.6159763308
 30
0.0
 11
602.3818289441
 21
-347.6159763308
 31
0.0
  0
LINE
  5
E0
  8
0
  6
CONTINUOUS
 62
     7
 10
280.3818289441
 20
-212.6159763308
 30
0.0
 11
602.3818289441
 21
-212.6159763308
 31
0.0
  0
LINE
  5
E1
  8
0
  6
CONTINUOUS
 62
     7
 10
280.3818289441
 20
-220.6159763308
 30
0.0
 11
306.854176963
 21
-220.6159763308
 31
0.0
  0
LINE
  5
E2
  8
0
  6
CONTINUOUS
 62
     7
 10
315.9094809253
 20
-220.6159763308
 30
0.0
 11
436.854176963
 21
-220.6159763308
 31
0.0
  0
LINE
  5
E3
  8
0
  6
CONTINUOUS
 62
     7
 10
445.9094809253
 20
-220.6159763308
 30
0.0
 11
566.854176963
 21
-220.6159763308
 31
0.0
  0
LINE
  5
E4
  8
0
  6
CONTINUOUS
 62
     7
 10
575.9094809253
 20
-220.6159763308
 30
0.0
 11
602.3818289441
 21
-220.6159763308
 31
0.0
  0
ARC
  5
E5
  8
0
  6
CONTINUOUS
 62
     7
 10
602.3818289441
 20
-321.1159763308
 30
0.0
 40
18.49999999999994
 50
270.0
 51
0.0
  0
ARC
  5
E6
  8
0
  6
CONTINUOUS
 62
     7
 10
602.3818289441
 20
-321.1159763308
 30
0.0
 40
26.5
 50
270.0
 51
0.0
  0
ARC
  5
E7
  8
0
  6
CONTINUOUS
 62
     7
 10
602.3818289441
 20
-239.1159763308
 30
0.0
 40
18.5
 50
0.0
 51
90.0
  0
ARC
  5
E8
  8
0
  6
CONTINUOUS
 62
     7
 10
602.3818289441
 20
-239.1159763308
 30
0.0
 40
26.5
 50
0.0
 51
90.0
  0
LINE
  5
E9
  8
0
  6
CONTINUOUS
 62
     7
 10
620.8818289441
 20
-321.1159763308
 30
0.0
 11
620.8818289441
 21
-284.643628312
 31
0.0
  0
LINE
  5
EA
  8
0
  6
CONTINUOUS
 62
     7
 10
620.8818289441
 20
-275.5883243497
 30
0.0
 11
620.8818289441
 21
-239.1159763308
 31
0.0
  0
LINE
  5
EB
  8
0
  6
CONTINUOUS
 62
     7
 10
628.8818289441
 20
-321.1159763308
 30
0.0
 11
628.8818289441
 21
-239.1159763308
 31
0.0
  0
CIRCLE
  5
EC
  8
0
  6
CONTINUOUS
 62
     7
 10
266.3818289441
 20
-280.1159763308
 30
0.0
 40
3.396943661201419
  0
CIRCLE
  5
ED
  8
0
  6
CONTINUOUS
 62
     7
 10
266.3818289441
 20
-280.1159763308
 30
0.0
 40
2.499999999999991
  0
CIRCLE
  5
EE
  8
0
  6
CONTINUOUS
 62
     7
 10
311.3818289441
 20
-335.1159763308
 30
0.0
 40
3.396943661201419
  0
CIRCLE
  5
EF
  8
0
  6
CONTINUOUS
 62
     7
 10
311.3818289441
 20
-225.1159763308
 30
0.0
 40
3.396943661201419
  0
CIRCLE
  5
F0
  8
0
  6
CONTINUOUS
 62
     7
 10
311.3818289441
 20
-225.1159763308
 30
0.0
 40
2.500000000000048
  0
CIRCLE
  5
F1
  8
0
  6
CONTINUOUS
 62
     7
 10
311.3818289441
 20
-335.1159763308
 30
0.0
 40
2.500000000000047
  0
CIRCLE
  5
F2
  8
0
  6
CONTINUOUS
 62
     7
 10
441.3818289441
 20
-335.1159763308
 30
0.0
 40
3.396943661201362
  0
CIRCLE
  5
F3
  8
0
  6
CONTINUOUS
 62
     7
 10
441.3818289441
 20
-225.1159763308
 30
0.0
 40
3.396943661201362
  0
CIRCLE
  5
F4
  8
0
  6
CONTINUOUS
 62
     7
 10
441.3818289441
 20
-335.1159763308
 30
0.0
 40
2.49999999999999
  0
CIRCLE
  5
F5
  8
0
  6
CONTINUOUS
 62
     7
 10
441.3818289441
 20
-225.1159763308
 30
0.0
 40
2.499999999999991
  0
CIRCLE
  5
F6
  8
0
  6
CONTINUOUS
 62
     7
 10
571.3818289441
 20
-335.1159763308
 30
0.0
 40
3.396943661201362
  0
CIRCLE
  5
F7
  8
0
  6
CONTINUOUS
 62
     7
 10
571.3818289441
 20
-225.1159763308
 30
0.0
 40
3.396943661201362
  0
CIRCLE
  5
F8
  8
0
  6
CONTINUOUS
 62
     7
 10
571.3818289441
 20
-335.1159763308
 30
0.0
 40
2.49999999999999
  0
CIRCLE
  5
F9
  8
0
  6
CONTINUOUS
 62
     7
 10
571.3818289441
 20
-225.1159763308
 30
0.0
 40
2.499999999999991
  0
CIRCLE
  5
FA
  8
0
  6
CONTINUOUS
 62
     7
 10
616.3818289441
 20
-280.1159763308
 30
0.0
 40
3.396943661201476
  0
CIRCLE
  5
FB
  8
0
  6
CONTINUOUS
 62
     7
 10
616.3818289441
 20
-280.1159763308
 30
0.0
 40
2.499999999999991
  0
LINE
  5
FC
  8
0
  6
CONTINUOUS
 62
     7
 10
631.3818289441
 20
-220.1159763308
 30
0.0
 11
631.3818289441
 21
-340.1159763308
 31
0.0
  0
ARC
  5
FD
  8
0
  6
CONTINUOUS
 62
     7
 10
621.3818289441
 20
-340.1159763308
 30
0.0
 40
10.0
 50
270.0
 51
360.0
  0
LINE
  5
FE
  8
0
  6
CONTINUOUS
 62
     7
 10
621.3818289441
 20
-350.1159763308
 30
0.0
 11
261.3818289441
 21
-350.1159763308
 31
0.0
  0
LINE
  5
FF
  8
0
  6
CONTINUOUS
 62
     7
 10
251.3818289441
 20
-340.1159763308
 30
0.0
 11
251.3818289441
 21
-220.1159763308
 31
0.0
  0
ARC
  5
100
  8
0
  6
CONTINUOUS
 62
     7
 10
261.3818289441
 20
-220.1159763308
 30
0.0
 40
10.00000000000003
 50
90.0
 51
180.0
  0
LINE
  5
101
  8
0
  6
CONTINUOUS
 62
     7
 10
261.3818289441
 20
-210.1159763308
 30
0.0
 11
621.3818289441
 21
-210.1159763308
 31
0.0
  0
ARC
  5
102
  8
0
  6
CONTINUOUS
 62
     7
 10
621.3818289441
 20
-220.1159763308
 30
0.0
 40
10.0
 50
0.0
 51
90.0
  0
ARC
  5
103
  8
0
  6
CONTINUOUS
 62
     7
 10
261.3818289441
 20
-340.1159763308
 30
0.0
 40
9.999999999999972
 50
180.0
 51
270.0
  0
ARC
  5
104
  8
0
  6
CONTINUOUS
 62
     7
 10
266.3818289441
 20
-280.1159763308
 30
0.0
 40
5.958990546607097
 50
220.924087845
 51
0.0
  0
ARC
  5
105
  8
0
  6
CONTINUOUS
 62
     7
 10
266.3818289441
 20
-280.1159763308
 30
0.0
 40
5.958990546607097
 50
0.0
 51
139.075912155
  0
ARC
  5
106
  8
0
  6
CONTINUOUS
 62
     7
 10
311.3818289441
 20
-335.1159763308
 30
0.0
 40
5.958990546607026
 50
180.0
 51
229.075912155
  0
ARC
  5
107
  8
0
  6
CONTINUOUS
 62
     7
 10
311.3818289441
 20
-335.1159763308
 30
0.0
 40
5.958990546607026
 50
310.924087845
 51
180.0
  0
ARC
  5
108
  8
0
  6
CONTINUOUS
 62
     7
 10
311.3818289441
 20
-225.1159763308
 30
0.0
 40
5.958990546606992
 50
130.924087845
 51
0.0
  0
ARC
  5
109
  8
0
  6
CONTINUOUS
 62
     7
 10
311.3818289441
 20
-225.1159763308
 30
0.0
 40
5.958990546606992
 50
0.0
 51
49.075912155
  0
ARC
  5
10A
  8
0
  6
CONTINUOUS
 62
     7
 10
441.3818289441
 20
-335.1159763308
 30
0.0
 40
5.958990546607083
 50
310.924087845
 51
0.0
  0
ARC
  5
10B
  8
0
  6
CONTINUOUS
 62
     7
 10
441.3818289441
 20
-335.1159763308
 30
0.0
 40
5.958990546607083
 50
0.0
 51
229.075912155
  0
ARC
  5
10C
  8
0
  6
CONTINUOUS
 62
     7
 10
441.3818289441
 20
-225.1159763308
 30
0.0
 40
5.958990546607023
 50
180.0
 51
49.075912155
  0
ARC
  5
10D
  8
0
  6
CONTINUOUS
 62
     7
 10
441.3818289441
 20
-225.1159763308
 30
0.0
 40
5.958990546606985
 50
130.924087845
 51
180.0
  0
ARC
  5
10E
  8
0
  6
CONTINUOUS
 62
     7
 10
571.3818289441
 20
-335.1159763308
 30
0.0
 40
5.958990546607097
 50
310.924087845
 51
0.0
  0
ARC
  5
10F
  8
0
  6
CONTINUOUS
 62
     7
 10
571.3818289441
 20
-335.1159763308
 30
0.0
 40
5.958990546607083
 50
0.0
 51
229.075912155
  0
ARC
  5
110
  8
0
  6
CONTINUOUS
 62
     7
 10
571.3818289441
 20
-225.1159763308
 30
0.0
 40
5.958990546607044
 50
180.0
 51
49.075912155
  0
ARC
  5
111
  8
0
  6
CONTINUOUS
 62
     7
 10
571.3818289441
 20
-225.1159763308
 30
0.0
 40
5.95899054660697
 50
130.924087845
 51
180.0
  0
ARC
  5
112
  8
0
  6
CONTINUOUS
 62
     7
 10
616.3818289441
 20
-280.1159763308
 30
0.0
 40
5.958990546607011
 50
180.0
 51
319.075912155
  0
ARC
  5
113
  8
0
  6
CONTINUOUS
 62
     7
 10
616.3818289441
 20
-280.1159763308
 30
0.0
 40
5.958990546607049
 50
40.924087845
 51
180.0
  0
ARC
  5
114
  8
0
  6
CONTINUOUS
 62
     7
 10
266.3818289441
 20
-280.1159763308
 30
0.0
 40
6.383543879575742
 50
0.0
 51
134.8245017792
  0
ARC
  5
115
  8
0
  6
CONTINUOUS
 62
     7
 10
266.3818289441
 20
-280.1159763308
 30
0.0
 40
6.383543879575742
 50
225.1754982208
 51
0.0
  0
ARC
  5
116
  8
0
  6
CONTINUOUS
 62
     7
 10
311.3818289441
 20
-225.1159763308
 30
0.0
 40
6.383543879575655
 50
0.0
 51
44.8245017792
  0
ARC
  5
117
  8
0
  6
CONTINUOUS
 62
     7
 10
311.3818289441
 20
-225.1159763308
 30
0.0
 40
6.383543879575702
 50
135.1754982208
 51
0.0
  0
ARC
  5
118
  8
0
  6
CONTINUOUS
 62
     7
 10
311.3818289441
 20
-335.1159763308
 30
0.0
 40
6.383543879575742
 50
0.0
 51
224.8245017792
  0
ARC
  5
119
  8
0
  6
CONTINUOUS
 62
     7
 10
311.3818289441
 20
-335.1159763308
 30
0.0
 40
6.383543879575662
 50
315.1754982208
 51
0.0
  0
ARC
  5
11A
  8
0
  6
CONTINUOUS
 62
     7
 10
441.3818289441
 20
-335.1159763308
 30
0.0
 40
6.383543879575711
 50
0.0
 51
224.8245017792
  0
ARC
  5
11B
  8
0
  6
CONTINUOUS
 62
     7
 10
441.3818289441
 20
-335.1159763308
 30
0.0
 40
6.383543879575711
 50
315.1754982208
 51
0.0
  0
ARC
  5
11C
  8
0
  6
CONTINUOUS
 62
     7
 10
441.3818289441
 20
-225.1159763308
 30
0.0
 40
6.383543879575711
 50
0.0
 51
44.8245017792
  0
ARC
  5
11D
  8
0
  6
CONTINUOUS
 62
     7
 10
441.3818289441
 20
-225.1159763308
 30
0.0
 40
6.383543879575711
 50
135.1754982208
 51
0.0
  0
ARC
  5
11E
  8
0
  6
CONTINUOUS
 62
     7
 10
571.3818289441
 20
-335.1159763308
 30
0.0
 40
6.383543879575702
 50
0.0
 51
224.8245017792
  0
ARC
  5
11F
  8
0
  6
CONTINUOUS
 62
     7
 10
571.3818289441
 20
-335.1159763308
 30
0.0
 40
6.383543879575702
 50
315.1754982208
 51
0.0
  0
ARC
  5
120
  8
0
  6
CONTINUOUS
 62
     7
 10
571.3818289441
 20
-225.1159763308
 30
0.0
 40
6.383543879575655
 50
0.0
 51
44.8245017792
  0
ARC
  5
121
  8
0
  6
CONTINUOUS
 62
     7
 10
571.3818289441
 20
-225.1159763308
 30
0.0
 40
6.383543879575702
 50
135.1754982208
 51
0.0
  0
ARC
  5
122
  8
0
  6
CONTINUOUS
 62
     7
 10
616.3818289441
 20
-280.1159763308
 30
0.0
 40
6.383543879575702
 50
45.1754982208
 51
314.8245017792
  0
LINE
  5
123
  8
0
  6
HIDDEN
 62
     7
 10
261.8818289441
 20
-275.5883243497
 30
0.0
 11
261.8818289441
 21
-284.643628312
 31
0.0
  0
LINE
  5
124
  8
0
  6
HIDDEN
 62
     7
 10
306.854176963
 20
-339.6159763308
 30
0.0
 11
315.9094809253
 21
-339.6159763308
 31
0.0
  0
LINE
  5
125
  8
0
  6
HIDDEN
 62
     7
 10
436.854176963
 20
-339.6159763308
 30
0.0
 11
445.9094809253
 21
-339.6159763308
 31
0.0
  0
LINE
  5
126
  8
0
  6
HIDDEN
 62
     7
 10
566.854176963
 20
-339.6159763308
 30
0.0
 11
575.9094809253
 21
-339.6159763308
 31
0.0
  0
LINE
  5
127
  8
0
  6
HIDDEN
 62
     7
 10
306.854176963
 20
-220.6159763308
 30
0.0
 11
315.9094809253
 21
-220.6159763308
 31
0.0
  0
LINE
  5
128
  8
0
  6
HIDDEN
 62
     7
 10
436.854176963
 20
-220.6159763308
 30
0.0
 11
445.9094809253
 21
-220.6159763308
 31
0.0
  0
LINE
  5
129
  8
0
  6
HIDDEN
 62
     7
 10
566.854176963
 20
-220.6159763308
 30
0.0
 11
575.9094809253
 21
-220.6159763308
 31
0.0
  0
LINE
  5
12A
  8
0
  6
HIDDEN
 62
     7
 10
620.8818289441
 20
-284.643628312
 30
0.0
 11
620.8818289441
 21
-275.5883243497
 31
0.0
  0
CIRCLE
  5
12B
  8
0
  6
HIDDEN
 62
     7
 10
266.3818289441
 20
-280.1159763308
 30
0.0
 40
5.062046885405602
  0
CIRCLE
  5
12C
  8
0
  6
HIDDEN
 62
     7
 10
311.3818289441
 20
-225.1159763308
 30
0.0
 40
5.062046885405602
  0
CIRCLE
  5
12D
  8
0
  6
HIDDEN
 62
     7
 10
311.3818289441
 20
-335.1159763308
 30
0.0
 40
5.062046885405602
  0
CIRCLE
  5
12E
  8
0
  6
HIDDEN
 62
     7
 10
441.3818289441
 20
-335.1159763308
 30
0.0
 40
5.062046885405602
  0
CIRCLE
  5
12F
  8
0
  6
HIDDEN
 62
     7
 10
441.3818289441
 20
-225.1159763308
 30
0.0
 40
5.062046885405602
  0
CIRCLE
  5
130
  8
0
  6
HIDDEN
 62
     7
 10
571.3818289441
 20
-225.1159763308
 30
0.0
 40
5.062046885405659
  0
CIRCLE
  5
131
  8
0
  6
HIDDEN
 62
     7
 10
571.3818289441
 20
-335.1159763308
 30
0.0
 40
5.062046885405659
  0
CIRCLE
  5
132
  8
0
  6
HIDDEN
 62
     7
 10
616.3818289441
 20
-280.1159763308
 30
0.0
 40
5.062046885405659
  0
CIRCLE
  5
133
  8
0
  6
HIDDEN
 62
     7
 10
616.3818289441
 20
-280.1159763308
 30
0.0
 40
6.383543879575677
  0
CIRCLE
  5
134
  8
0
  6
HIDDEN
 62
     7
 10
571.3818289441
 20
-335.1159763308
 30
0.0
 40
6.383543879575675
  0
CIRCLE
  5
135
  8
0
  6
HIDDEN
 62
     7
 10
571.3818289441
 20
-225.1159763308
 30
0.0
 40
6.383543879575675
  0
CIRCLE
  5
136
  8
0
  6
HIDDEN
 62
     7
 10
441.3818289441
 20
-225.1159763308
 30
0.0
 40
6.383543879575703
  0
CIRCLE
  5
137
  8
0
  6
HIDDEN
 62
     7
 10
441.3818289441
 20
-335.1159763308
 30
0.0
 40
6.383543879575675
  0
CIRCLE
  5
138
  8
0
  6
HIDDEN
 62
     7
 10
311.3818289441
 20
-335.1159763308
 30
0.0
 40
6.383543879575676
  0
CIRCLE
  5
139
  8
0
  6
HIDDEN
 62
     7
 10
311.3818289441
 20
-225.1159763308
 30
0.0
 40
6.383543879575676
  0
CIRCLE
  5
13A
  8
0
  6
HIDDEN
 62
     7
 10
266.3818289441
 20
-280.1159763308
 30
0.0
 40
6.383543879575676
  0
ARC
  5
13B
  8
0
  6
HIDDEN
 62
     7
 10
266.3818289441
 20
-280.1159763308
 30
0.0
 40
5.958990546607097
 50
139.075912155
 51
220.924087845
  0
ARC
  5
13C
  8
0
  6
HIDDEN
 62
     7
 10
311.3818289441
 20
-335.1159763308
 30
0.0
 40
5.958990546607023
 50
229.075912155
 51
310.924087845
  0
ARC
  5
13D
  8
0
  6
HIDDEN
 62
     7
 10
311.3818289441
 20
-225.1159763308
 30
0.0
 40
5.958990546606992
 50
49.075912155
 51
130.924087845
  0
ARC
  5
13E
  8
0
  6
HIDDEN
 62
     7
 10
441.3818289441
 20
-335.1159763308
 30
0.0
 40
5.958990546607017
 50
229.075912155
 51
310.924087845
  0
ARC
  5
13F
  8
0
  6
HIDDEN
 62
     7
 10
441.3818289441
 20
-225.1159763308
 30
0.0
 40
5.958990546607023
 50
49.075912155
 51
130.924087845
  0
ARC
  5
140
  8
0
  6
HIDDEN
 62
     7
 10
571.3818289441
 20
-335.1159763308
 30
0.0
 40
5.958990546607097
 50
229.075912155
 51
310.924087845
  0
ARC
  5
141
  8
0
  6
HIDDEN
 62
     7
 10
571.3818289441
 20
-225.1159763308
 30
0.0
 40
5.958990546607044
 50
49.075912155
 51
130.924087845
  0
ARC
  5
142
  8
0
  6
HIDDEN
 62
     7
 10
616.3818289441
 20
-280.1159763308
 30
0.0
 40
5.958990546607049
 50
319.075912155
 51
40.924087845
  0
ARC
  5
143
  8
0
  6
HIDDEN
 62
     7
 10
266.3818289441
 20
-280.1159763308
 30
0.0
 40
6.383543879575742
 50
134.8245017792
 51
225.1754982208
  0
ARC
  5
144
  8
0
  6
HIDDEN
 62
     7
 10
311.3818289441
 20
-225.1159763308
 30
0.0
 40
6.383543879575702
 50
44.8245017792
 51
135.1754982208
  0
ARC
  5
145
  8
0
  6
HIDDEN
 62
     7
 10
311.3818289441
 20
-335.1159763308
 30
0.0
 40
6.383543879575742
 50
224.8245017792
 51
315.1754982208
  0
ARC
  5
146
  8
0
  6
HIDDEN
 62
     7
 10
441.3818289441
 20
-335.1159763308
 30
0.0
 40
6.383543879575662
 50
224.8245017792
 51
315.1754982208
  0
ARC
  5
147
  8
0
  6
HIDDEN
 62
     7
 10
441.3818289441
 20
-225.1159763308
 30
0.0
 40
6.383543879575662
 50
44.8245017792
 51
135.1754982208
  0
ARC
  5
148
  8
0
  6
HIDDEN
 62
     7
 10
571.3818289441
 20
-335.1159763308
 30
0.0
 40
6.383543879575702
 50
224.8245017792
 51
315.1754982208
  0
ARC
  5
149
  8
0
  6
HIDDEN
 62
     7
 10
571.3818289441
 20
-225.1159763308
 30
0.0
 40
6.383543879575702
 50
44.8245017792
 51
135.1754982208
  0
ARC
  5
14A
  8
0
  6
HIDDEN
 62
     7
 10
616.3818289441
 20
-280.1159763308
 30
0.0
 40
6.383543879575768
 50
0.0
 51
45.1754982208
  0
ARC
  5
14B
  8
0
  6
HIDDEN
 62
     7
 10
616.3818289441
 20
-280.1159763308
 30
0.0
 40
6.383543879575768
 50
314.8245017792
 51
0.0
  0
ENDSEC
  0
EOF
