  0
SECTION
  2
HEADER
  9
$ACADVER
  1
AC1009
  9
$DWGCODEPAGE
  3
ansi_1252
  9
$INSBASE
 10
0.0
 20
0.0
 30
0.0
  9
$EXTMIN
 10
0.0
 20
0.0
 30
0.0
  9
$EXTMAX
 10
297.0
 20
210.0
 30
0.0
  9
$LIMMIN
 10
0.0
 20
0.0
  9
$LIMMAX
 10
0.0
 20
0.0
  9
$ORTHOMODE
 70
     0
  9
$REGENMODE
 70
     1
  9
$FILLMODE
 70
     1
  9
$QTEXTMODE
 70
     0
  9
$MIRRTEXT
 70
     1
  9
$DRAGMODE
 70
     2
  9
$LTSCALE
 40
1.0
  9
$OSMODE
 70
    37
  9
$ATTMODE
 70
     1
  9
$TEXTSIZE
 40
3.5277777778
  9
$TRACEWID
 40
1.0
  9
$TEXTSTYLE
  7
STANDARD
  9
$CLAYER
  8
0
  9
$CELTYPE
  6
BYLAYER
  9
$CECOLOR
 62
   256
  9
$DIMSCALE
 40
1.0
  9
$DIMASZ
 40
1.8
  9
$DIMEXO
 40
0.7
  9
$DIMDLI
 40
3.75
  9
$DIMRND
 40
0.0
  9
$DIMDLE
 40
0.0
  9
$DIMEXE
 40
0.5
  9
$DIMTP
 40
0.0
  9
$DIMTM
 40
0.0
  9
$DIMTXT
 40
2.4694444444
  9
$DIMCEN
 40
2.5
  9
$DIMTSZ
 40
0.0
  9
$DIMTOL
 70
     0
  9
$DIMLIM
 70
     0
  9
$DIMTIH
 70
     1
  9
$DIMTOH
 70
     1
  9
$DIMSE1
 70
     0
  9
$DIMSE2
 70
     0
  9
$DIMTAD
 70
     1
  9
$DIMZIN
 70
     0
  9
$DIMBLK
  1

  9
$DIMASO
 70
     1
  9
$DIMSHO
 70
     1
  9
$DIMPOST
  1

  9
$DIMAPOST
  1

  9
$DIMALT
 70
     0
  9
$DIMALTD
 70
     3
  9
$DIMALTF
 40
0.0393700787
  9
$DIMLFAC
 40
1.0
  9
$DIMTOFL
 70
     1
  9
$DIMTVP
 40
0.0
  9
$DIMTIX
 70
     0
  9
$DIMSOXD
 70
     0
  9
$DIMSAH
 70
     0
  9
$DIMBLK1
  1

  9
$DIMBLK2
  1

  9
$DIMSTYLE
  2
ISO-25
  9
$DIMCLRD
 70
     0
  9
$DIMCLRE
 70
     0
  9
$DIMCLRT
 70
     0
  9
$DIMTFAC
 40
1.0
  9
$DIMGAP
 40
2.0
  9
$LUNITS
 70
     2
  9
$LUPREC
 70
     2
  9
$SKETCHINC
 40
1.0
  9
$FILLETRAD
 40
10.0
  9
$AUNITS
 70
     0
  9
$AUPREC
 70
     0
  9
$MENU
  1
.
  9
$ELEVATION
 40
0.0
  9
$PELEVATION
 40
0.0
  9
$THICKNESS
 40
0.0
  9
$LIMCHECK
 70
     0
  9
$CHAMFERA
 40
10.0
  9
$CHAMFERB
 40
10.0
  9
$SKPOLY
 70
     0
  9
$TDCREATE
 40
2455099.498317419
  9
$TDUPDATE
 40
2455099.498317431
  9
$TDINDWG
 40
0.0000000116
  9
$TDUSRTIMER
 40
0.0000000116
  9
$USRTIMER
 70
     1
  9
$ANGBASE
 50
0.0
  9
$ANGDIR
 70
     0
  9
$PDMODE
 70
     0
  9
$PDSIZE
 40
-1.0
  9
$PLINEWID
 40
0.0
  9
$COORDS
 70
     1
  9
$SPLFRAME
 70
     0
  9
$SPLINETYPE
 70
     6
  9
$SPLINESEGS
 70
     8
  9
$ATTDIA
 70
     0
  9
$ATTREQ
 70
     1
  9
$HANDLING
 70
     1
  9
$HANDSEED
  5
D5
  9
$SURFTAB1
 70
     6
  9
$SURFTAB2
 70
     6
  9
$SURFTYPE
 70
     6
  9
$SURFU
 70
     6
  9
$SURFV
 70
     6
  9
$UCSNAME
  2

  9
$UCSORG
 10
0.0
 20
0.0
 30
0.0
  9
$UCSXDIR
 10
1.0
 20
0.0
 30
0.0
  9
$UCSYDIR
 10
0.0
 20
1.0
 30
0.0
  9
$PUCSNAME
  2

  9
$PUCSORG
 10
0.0
 20
0.0
 30
0.0
  9
$PUCSXDIR
 10
1.0
 20
0.0
 30
0.0
  9
$PUCSYDIR
 10
0.0
 20
1.0
 30
0.0
  9
$USERI1
 70
     0
  9
$USERI2
 70
     0
  9
$USERI3
 70
     0
  9
$USERI4
 70
     0
  9
$USERI5
 70
     0
  9
$USERR1
 40
0.0
  9
$USERR2
 40
0.0
  9
$USERR3
 40
0.0
  9
$USERR4
 40
0.0
  9
$USERR5
 40
0.0
  9
$WORLDVIEW
 70
     1
  9
$SHADEDGE
 70
     3
  9
$SHADEDIF
 70
    70
  9
$TILEMODE
 70
     1
  9
$MAXACTVP
 70
    64
  9
$PLIMCHECK
 70
     0
  9
$PEXTMIN
 10
1.0000000000E+20
 20
1.0000000000E+20
 30
1.0000000000E+20
  9
$PEXTMAX
 10
-1.0000000000E+20
 20
-1.0000000000E+20
 30
-1.0000000000E+20
  9
$PLIMMIN
 10
0.0
 20
0.0
  9
$PLIMMAX
 10
420.0
 20
297.0
  9
$UNITMODE
 70
     0
  9
$VISRETAIN
 70
     1
  9
$PLINEGEN
 70
     0
  9
$PSLTSCALE
 70
     1
  0
ENDSEC
  0
SECTION
  2
TABLES
  0
TABLE
  2
VPORT
 70
     1
  0
VPORT
  2
*ACTIVE
 70
     0
 10
0.0
 20
0.0
 11
1.0
 21
1.0
 12
148.5
 22
105.0
 13
0.0
 23
0.0
 14
10.0
 24
10.0
 15
10.0
 25
10.0
 16
0.0
 26
0.0
 36
1.0
 17
0.0
 27
0.0
 37
0.0
 40
210.0
 41
1.4142857143
 42
50.0
 43
0.0
 44
0.0
 50
0.0
 51
0.0
 71
     0
 72
  2000
 73
     1
 74
     3
 75
     0
 76
     0
 77
     0
 78
     0
  0
ENDTAB
  0
TABLE
  2
LTYPE
 70
     6
  0
LTYPE
  2
CONTINUOUS
 70
     0
  3
Solid line
 72
    65
 73
     0
 40
0.0
  0
LTYPE
  2
HIDDEN
 70
     0
  3
Hidden __ __ __ __ __ __ __ __ __ __ __ __ __ __
 72
    65
 73
     2
 40
1.905
 49
1.27
 49
-0.635
  0
LTYPE
  2
PHANTOM
 70
     0
  3
Phantom ______  __  __  ______  __  __  ______
 72
    65
 73
     6
 40
12.7
 49
6.35
 49
-1.27
 49
1.27
 49
-1.27
 49
1.27
 49
-1.27
  0
LTYPE
  2
CENTER
 70
     0
  3
Center ____ _ ____ _ ____ _ ____ _ ____ _ ____
 72
    65
 73
     4
 40
10.16
 49
6.35
 49
-1.27
 49
1.27
 49
-1.27
  0
LTYPE
  2
CENTERX2
 70
     0
  3
Center (2x) ________  __  ________  __  _____
 72
    65
 73
     4
 40
20.32
 49
12.7
 49
-2.54
 49
2.54
 49
-2.54
  0
LTYPE
  2
DOT2
 70
     0
  3
Dot (.5x) ........................................
 72
    65
 73
     2
 40
0.635
 49
0.0
 49
-0.635
  0
ENDTAB
  0
TABLE
  2
LAYER
 70
     5
  0
LAYER
  2
0
 70
     0
 62
     7
  6
CONTINUOUS
  0
LAYER
  2
SLD-0
 70
     0
 62
     7
  6
CONTINUOUS
  0
LAYER
  2
AM_BOR
 70
     0
 62
     7
  6
CONTINUOUS
  0
LAYER
  2
BIEGLINIE__ZU_
 70
     0
 62
     8
  6
CONTINUOUS
  0
LAYER
  2
BIEGELINIE__WEG_
 70
     0
 62
     8
  6
HIDDEN
  0
ENDTAB
  0
TABLE
  2
STYLE
 70
     1
  0
STYLE
  2
STANDARD
 70
     0
 40
0.0
 41
1.0
 50
0.0
 71
     0
 42
2.5
  3
txt
  4

  0
ENDTAB
  0
TABLE
  2
VIEW
 70
     0
  0
ENDTAB
  0
TABLE
  2
UCS
 70
     0
  0
ENDTAB
  0
TABLE
  2
APPID
 70
     1
  0
APPID
  2
ACAD
 70
     0
  0
ENDTAB
  0
TABLE
  2
DIMSTYLE
 70
     1
  0
DIMSTYLE
  2
ISO-25
 70
     0
  3

  4

  5

  6

  7

 40
1.0
 41
2.5
 42
0.625
 43
3.75
 44
1.25
 45
0.0
 46
0.0
 47
0.0
 48
0.0
140
2.5
141
2.5
142
0.0
143
0.0393700787
144
1.0
145
0.0
146
1.0
147
0.625
 71
     0
 72
     0
 73
     0
 74
     0
 75
     0
 76
     0
 77
     1
 78
     8
170
     0
171
     3
172
     1
173
     0
174
     0
175
     0
176
     0
177
     0
178
     0
  0
ENDTAB
  0
ENDSEC
  0
SECTION
  2
BLOCKS
  0
BLOCK
  8
0
  2
$MODEL_SPACE
 70
     0
 10
0.0
 20
0.0
 30
0.0
  3
$MODEL_SPACE
  1

  0
ENDBLK
  5
21
  8
0
  0
BLOCK
 67
     1
  8
0
  2
$PAPER_SPACE
 70
     0
 10
0.0
 20
0.0
 30
0.0
  3
$PAPER_SPACE
  1

  0
ENDBLK
  5
1D
 67
     1
  8
0
  0
ENDSEC
  0
SECTION
  2
ENTITIES
  0
POLYLINE
  5
33
  8
0
  6
CONTINUOUS
 62
     7
 66
     1
 10
0.0
 20
0.0
 30
0.0
  0
VERTEX
  5
B2
  8
0
  6
CONTINUOUS
 62
     7
 10
409.8483757112
 20
673.9603762713
 30
0.0
  0
VERTEX
  5
B3
  8
0
  6
CONTINUOUS
 62
     7
 10
411.7957655404
 20
672.6869305101
 30
0.0
  0
VERTEX
  5
B4
  8
0
  6
CONTINUOUS
 62
     7
 10
413.4369476768
 20
671.4122591222
 30
0.0
  0
VERTEX
  5
B5
  8
0
  6
CONTINUOUS
 62
     7
 10
414.5103192872
 20
670.1375812559
 30
0.0
  0
VERTEX
  5
B6
  8
0
  6
CONTINUOUS
 62
     7
 10
414.8483757112
 20
668.9603762713
 30
0.0
  0
SEQEND
  5
B1
  8
0
  6
CONTINUOUS
 62
     7
  0
LINE
  5
34
  8
0
  6
CONTINUOUS
 62
     7
 10
414.8483757112
 20
668.9603762713
 30
0.0
 11
414.8483757112
 21
-450.1964779782
 31
0.0
  0
POLYLINE
  5
35
  8
0
  6
CONTINUOUS
 62
     7
 66
     1
 10
0.0
 20
0.0
 30
0.0
  0
VERTEX
  5
B8
  8
0
  6
CONTINUOUS
 62
     7
 10
414.8483757112
 20
-450.1964779782
 30
0.0
  0
VERTEX
  5
B9
  8
0
  6
CONTINUOUS
 62
     7
 10
414.4535546278
 20
-451.4699237394
 30
0.0
  0
VERTEX
  5
BA
  8
0
  6
CONTINUOUS
 62
     7
 10
413.3300636995
 20
-452.7445951273
 30
0.0
  0
VERTEX
  5
BB
  8
0
  6
CONTINUOUS
 62
     7
 10
411.6556615477
 20
-454.0192729936
 30
0.0
  0
VERTEX
  5
BC
  8
0
  6
CONTINUOUS
 62
     7
 10
409.8483757112
 20
-455.1964779782
 30
0.0
  0
SEQEND
  5
B7
  8
0
  6
CONTINUOUS
 62
     7
  0
POLYLINE
  5
36
  8
0
  6
CONTINUOUS
 62
     7
 66
     1
 10
0.0
 20
0.0
 30
0.0
  0
VERTEX
  5
BE
  8
0
  6
CONTINUOUS
 62
     7
 10
-120.1516242888
 20
-455.1964779782
 30
0.0
  0
VERTEX
  5
BF
  8
0
  6
CONTINUOUS
 62
     7
 10
-122.099014118
 20
-453.923032217
 30
0.0
  0
VERTEX
  5
C0
  8
0
  6
CONTINUOUS
 62
     7
 10
-123.7401962544
 20
-452.6483608292
 30
0.0
  0
VERTEX
  5
C1
  8
0
  6
CONTINUOUS
 62
     7
 10
-124.8135678647
 20
-451.3736829629
 30
0.0
  0
VERTEX
  5
C2
  8
0
  6
CONTINUOUS
 62
     7
 10
-125.1516242888
 20
-450.1964779782
 30
0.0
  0
SEQEND
  5
BD
  8
0
  6
CONTINUOUS
 62
     7
  0
LINE
  5
37
  8
0
  6
CONTINUOUS
 62
     7
 10
-125.1516242888
 20
668.9603762713
 30
0.0
 11
-125.1516242888
 21
-450.1964779782
 31
0.0
  0
POLYLINE
  5
38
  8
0
  6
CONTINUOUS
 62
     7
 66
     1
 10
0.0
 20
0.0
 30
0.0
  0
VERTEX
  5
C4
  8
0
  6
CONTINUOUS
 62
     7
 10
-125.1516242888
 20
668.9603762713
 30
0.0
  0
VERTEX
  5
C5
  8
0
  6
CONTINUOUS
 62
     7
 10
-124.7568032053
 20
670.2338220325
 30
0.0
  0
VERTEX
  5
C6
  8
0
  6
CONTINUOUS
 62
     7
 10
-123.633312277
 20
671.5084934203
 30
0.0
  0
VERTEX
  5
C7
  8
0
  6
CONTINUOUS
 62
     7
 10
-121.9589101252
 20
672.7831712866
 30
0.0
  0
VERTEX
  5
C8
  8
0
  6
CONTINUOUS
 62
     7
 10
-120.1516242888
 20
673.9603762713
 30
0.0
  0
SEQEND
  5
C3
  8
0
  6
CONTINUOUS
 62
     7
  0
ARC
  5
39
  8
0
  6
CONTINUOUS
 62
     7
 10
-111.9016242888
 20
679.3819491465
 30
0.0
 40
2.000000000000006
 50
0.0
 51
135.0
  0
LINE
  5
3A
  8
0
  6
CONTINUOUS
 62
     7
 10
-109.9016242888
 20
672.3819491465
 30
0.0
 11
-109.9016242888
 21
679.3819491465
 31
0.0
  0
ARC
  5
3B
  8
0
  6
CONTINUOUS
 62
     7
 10
-105.1516242888
 20
672.3819491465
 30
0.0
 40
4.750000000000043
 50
180.0
 51
0.0
  0
LINE
  5
3C
  8
0
  6
CONTINUOUS
 62
     7
 10
-100.4016242888
 20
684.3819491465
 30
0.0
 11
-100.4016242888
 21
672.3819491465
 31
0.0
  0
LINE
  5
3D
  8
0
  6
CONTINUOUS
 62
     7
 10
390.0983757112
 20
684.3819491465
 30
0.0
 11
-100.4016242888
 21
684.3819491465
 31
0.0
  0
LINE
  5
3E
  8
0
  6
CONTINUOUS
 62
     7
 10
390.0983757112
 20
684.3819491465
 30
0.0
 11
390.0983757112
 21
672.3819491465
 31
0.0
  0
ARC
  5
3F
  8
0
  6
CONTINUOUS
 62
     7
 10
394.8483757112
 20
672.3819491465
 30
0.0
 40
4.750000000000057
 50
180.0
 51
0.0
  0
LINE
  5
40
  8
0
  6
CONTINUOUS
 62
     7
 10
399.5983757112
 20
672.3819491465
 30
0.0
 11
399.5983757112
 21
679.3819491465
 31
0.0
  0
ARC
  5
41
  8
0
  6
CONTINUOUS
 62
     7
 10
401.5983757112
 20
679.3819491465
 30
0.0
 40
2.0
 50
45.0
 51
180.0
  0
LINE
  5
42
  8
0
  6
CONTINUOUS
 62
     7
 10
403.0125892736
 20
680.7961627089
 30
0.0
 11
409.8483757112
 21
673.9603762713
 31
0.0
  0
LINE
  5
43
  8
0
  6
CONTINUOUS
 62
     7
 10
403.0125892736
 20
-462.0322644159
 30
0.0
 11
409.8483757112
 21
-455.1964779782
 31
0.0
  0
ARC
  5
44
  8
0
  6
CONTINUOUS
 62
     7
 10
401.5983757112
 20
-460.6180508535
 30
0.0
 40
2.0
 50
180.0
 51
315.0
  0
LINE
  5
45
  8
0
  6
CONTINUOUS
 62
     7
 10
399.5983757112
 20
-453.6180508535
 30
0.0
 11
399.5983757112
 21
-460.6180508535
 31
0.0
  0
ARC
  5
46
  8
0
  6
CONTINUOUS
 62
     7
 10
394.8483757112
 20
-453.6180508535
 30
0.0
 40
4.750000000000057
 50
0.0
 51
180.0
  0
LINE
  5
47
  8
0
  6
CONTINUOUS
 62
     7
 10
390.0983757112
 20
-465.6180508535
 30
0.0
 11
390.0983757112
 21
-453.6180508535
 31
0.0
  0
LINE
  5
48
  8
0
  6
CONTINUOUS
 62
     7
 10
-100.4016242888
 20
-465.6180508535
 30
0.0
 11
390.0983757112
 21
-465.6180508535
 31
0.0
  0
LINE
  5
49
  8
0
  6
CONTINUOUS
 62
     7
 10
-100.4016242888
 20
-465.6180508535
 30
0.0
 11
-100.4016242888
 21
-453.6180508535
 31
0.0
  0
ARC
  5
4A
  8
0
  6
CONTINUOUS
 62
     7
 10
-105.1516242888
 20
-453.6180508535
 30
0.0
 40
4.750000000000043
 50
0.0
 51
180.0
  0
LINE
  5
4B
  8
0
  6
CONTINUOUS
 62
     7
 10
-109.9016242888
 20
-453.6180508535
 30
0.0
 11
-109.9016242888
 21
-460.6180508535
 31
0.0
  0
ARC
  5
4C
  8
0
  6
CONTINUOUS
 62
     7
 10
-111.9016242888
 20
-460.6180508535
 30
0.0
 40
2.000000000000006
 50
225.0
 51
0.0
  0
LINE
  5
4D
  8
0
  6
CONTINUOUS
 62
     7
 10
-113.3158378511
 20
-462.0322644159
 30
0.0
 11
-120.1516242888
 21
-455.1964779782
 31
0.0
  0
LINE
  5
4E
  8
0
  6
CONTINUOUS
 62
     7
 10
-113.3158378511
 20
680.7961627089
 30
0.0
 11
-120.1516242888
 21
673.9603762713
 31
0.0
  0
CIRCLE
  5
4F
  8
0
  6
CONTINUOUS
 62
     7
 10
364.8483757112
 20
672.3819491465
 30
0.0
 40
4.0
  0
CIRCLE
  5
50
  8
0
  6
CONTINUOUS
 62
     7
 10
364.8483757112
 20
-453.6180508535
 30
0.0
 40
4.0
  0
CIRCLE
  5
51
  8
0
  6
CONTINUOUS
 62
     7
 10
-75.1516242888
 20
-453.6180508535
 30
0.0
 40
4.0
  0
CIRCLE
  5
52
  8
0
  6
CONTINUOUS
 62
     7
 10
-75.1516242888
 20
672.3819491465
 30
0.0
 40
4.0
  0
LINE
  5
53
  8
0
  6
HIDDEN
 62
     7
 10
-122.6516242888
 20
-450.1964779782
 30
0.0
 11
-122.6516242888
 21
668.9603762713
 31
0.0
  0
ARC
  5
54
  8
0
  6
HIDDEN
 62
     7
 10
-113.8252789986
 20
-448.9083053331
 30
0.0
 40
8.91985201364238
 50
188.3034839128
 51
224.8266184414
  0
ARC
  5
55
  8
0
  6
HIDDEN
 62
     7
 10
-113.6410856517
 20
667.5801069527
 30
0.0
 40
9.115643143572719
 50
135.5789883857
 51
171.2909092602
  0
LINE
  5
56
  8
0
  6
HIDDEN
 62
     7
 10
412.3483757112
 20
668.9603762713
 30
0.0
 11
412.3483757112
 21
-450.1964779782
 31
0.0
  0
ARC
  5
57
  8
0
  6
HIDDEN
 62
     7
 10
403.5032097036
 20
-448.8988949744
 30
0.0
 40
8.939836875179873
 50
315.2156407931
 51
351.6542568528
  0
ARC
  5
58
  8
0
  6
HIDDEN
 62
     7
 10
403.8182084071
 20
667.8202926192
 30
0.0
 40
8.606017950824059
 50
7.6126461707
 51
45.5174561834
  0
LINE
  5
59
  8
0
  6
HIDDEN
 62
     7
 10
412.3483757112
 20
668.9603762713
 30
0.0
 11
414.8483757112
 21
668.9603762713
 31
0.0
  0
LINE
  5
5A
  8
0
  6
HIDDEN
 62
     7
 10
412.3483757112
 20
-450.1964779782
 30
0.0
 11
414.8483757112
 21
-450.1964779782
 31
0.0
  0
LINE
  5
5B
  8
0
  6
HIDDEN
 62
     7
 10
-122.6516242888
 20
668.9603762713
 30
0.0
 11
-125.1516242888
 21
668.9603762713
 31
0.0
  0
LINE
  5
5C
  8
0
  6
HIDDEN
 62
     7
 10
-122.6516242888
 20
-450.1964779782
 30
0.0
 11
-125.1516242888
 21
-450.1964779782
 31
0.0
  0
LINE
  5
5D
  8
0
  6
HIDDEN
 62
     7
 10
414.8483757112
 20
634.3819491465
 30
0.0
 11
412.3483757112
 21
634.3819491465
 31
0.0
  0
LINE
  5
5E
  8
0
  6
HIDDEN
 62
     7
 10
414.8483757112
 20
-415.6180508535
 30
0.0
 11
412.3483757112
 21
-415.6180508535
 31
0.0
  0
LINE
  5
5F
  8
0
  6
HIDDEN
 62
     7
 10
-125.1516242888
 20
-415.6180508535
 30
0.0
 11
-122.6516242888
 21
-415.6180508535
 31
0.0
  0
LINE
  5
60
  8
0
  6
HIDDEN
 62
     7
 10
-125.1516242888
 20
634.3819491465
 30
0.0
 11
-122.6516242888
 21
634.3819491465
 31
0.0
  0
TEXT
  5
61
  8
SLD-0
 10
447.4755277817
 20
-527.0726124848
 30
0.0
 40
19.05
  1
AT-1240
 41
0.7
 11
447.4755277817
 21
-532.5154696276
 31
0.0
 73
     1
  0
LINE
  5
62
  8
0
  6
CONTINUOUS
 62
     7
 10
535.8011781782
 20
681.3819491465
 30
0.0
 11
533.3011781782
 21
681.3819491465
 31
0.0
  0
LINE
  5
63
  8
0
  6
CONTINUOUS
 62
     7
 10
533.3011781782
 20
-462.6180508535
 30
0.0
 11
535.8011781782
 21
-462.6180508535
 31
0.0
  0
LINE
  5
64
  8
0
  6
CONTINUOUS
 62
     7
 10
530.3011781782
 20
-450.1964779782
 30
0.0
 11
530.8011781782
 21
-450.1964779782
 31
0.0
  0
LINE
  5
65
  8
0
  6
CONTINUOUS
 62
     7
 10
530.3011781782
 20
-415.6180508535
 30
0.0
 11
530.3011781782
 21
-450.1964779782
 31
0.0
  0
LINE
  5
66
  8
0
  6
CONTINUOUS
 62
     7
 10
520.3011781782
 20
634.3819491465
 30
0.0
 11
520.3011781782
 21
-415.6180508535
 31
0.0
  0
LINE
  5
67
  8
0
  6
CONTINUOUS
 62
     7
 10
530.3011781782
 20
634.3819491465
 30
0.0
 11
520.3011781782
 21
634.3819491465
 31
0.0
  0
LINE
  5
68
  8
0
  6
CONTINUOUS
 62
     7
 10
530.3011781782
 20
668.9603762713
 30
0.0
 11
530.3011781782
 21
634.3819491465
 31
0.0
  0
LINE
  5
69
  8
0
  6
CONTINUOUS
 62
     7
 10
530.8011781782
 20
668.9603762713
 30
0.0
 11
530.3011781782
 21
668.9603762713
 31
0.0
  0
LINE
  5
6A
  8
0
  6
CONTINUOUS
 62
     7
 10
520.3011781782
 20
-415.6180508535
 30
0.0
 11
530.3011781782
 21
-415.6180508535
 31
0.0
  0
POLYLINE
  5
6B
  8
0
  6
CONTINUOUS
 62
     7
 66
     1
 10
0.0
 20
0.0
 30
0.0
  0
VERTEX
  5
CA
  8
0
  6
CONTINUOUS
 62
     7
 10
535.8011781782
 20
-455.1964779782
 30
0.0
  0
VERTEX
  5
CB
  8
0
  6
CONTINUOUS
 62
     7
 10
535.4063570947
 20
-453.923032217
 30
0.0
  0
VERTEX
  5
CC
  8
0
  6
CONTINUOUS
 62
     7
 10
534.2828661665
 20
-452.6483608292
 30
0.0
  0
VERTEX
  5
CD
  8
0
  6
CONTINUOUS
 62
     7
 10
532.6084640146
 20
-451.3736829629
 30
0.0
  0
VERTEX
  5
CE
  8
0
  6
CONTINUOUS
 62
     7
 10
530.8011781782
 20
-450.1964779782
 30
0.0
  0
SEQEND
  5
C9
  8
0
  6
CONTINUOUS
 62
     7
  0
POLYLINE
  5
6C
  8
0
  6
CONTINUOUS
 62
     7
 66
     1
 10
0.0
 20
0.0
 30
0.0
  0
VERTEX
  5
D0
  8
0
  6
CONTINUOUS
 62
     7
 10
530.8011781782
 20
668.9603762713
 30
0.0
  0
VERTEX
  5
D1
  8
0
  6
CONTINUOUS
 62
     7
 10
532.7485680074
 20
670.2338220325
 30
0.0
  0
VERTEX
  5
D2
  8
0
  6
CONTINUOUS
 62
     7
 10
534.3897501438
 20
671.5084934203
 30
0.0
  0
VERTEX
  5
D3
  8
0
  6
CONTINUOUS
 62
     7
 10
535.4631217542
 20
672.7831712866
 30
0.0
  0
VERTEX
  5
D4
  8
0
  6
CONTINUOUS
 62
     7
 10
535.8011781782
 20
673.9603762713
 30
0.0
  0
SEQEND
  5
CF
  8
0
  6
CONTINUOUS
 62
     7
  0
LINE
  5
6D
  8
0
  6
CONTINUOUS
 62
     7
 10
535.8011781782
 20
673.9603762713
 30
0.0
 11
535.8011781782
 21
-455.1964779782
 31
0.0
  0
LINE
  5
6E
  8
0
  6
CONTINUOUS
 62
     7
 10
533.3011781782
 20
673.9603762713
 30
0.0
 11
535.8011781782
 21
673.9603762713
 31
0.0
  0
ARC
  5
6F
  8
0
  6
CONTINUOUS
 62
     7
 10
524.474832888
 20
675.2485489164
 30
0.0
 40
8.919852013638298
 50
315.1733815586
 51
351.6965160872
  0
LINE
  5
70
  8
0
  6
CONTINUOUS
 62
     7
 10
533.3011781782
 20
-455.1964779782
 30
0.0
 11
535.8011781782
 21
-455.1964779782
 31
0.0
  0
ARC
  5
71
  8
0
  6
CONTINUOUS
 62
     7
 10
524.2906395412
 20
-456.5767472967
 30
0.0
 40
9.11564314357035
 50
8.7090907398
 51
44.4210116143
  0
LINE
  5
72
  8
0
  6
CONTINUOUS
 62
     7
 10
533.3011781782
 20
-455.1964779782
 30
0.0
 11
533.3011781782
 21
-462.0322644159
 31
0.0
  0
LINE
  5
73
  8
0
  6
CONTINUOUS
 62
     7
 10
535.8011781782
 20
-462.0322644159
 30
0.0
 11
535.8011781782
 21
-455.1964779782
 31
0.0
  0
LINE
  5
74
  8
0
  6
CONTINUOUS
 62
     7
 10
533.3011781782
 20
673.9603762713
 30
0.0
 11
533.3011781782
 21
680.7961627089
 31
0.0
  0
LINE
  5
75
  8
0
  6
CONTINUOUS
 62
     7
 10
535.8011781782
 20
680.7961627089
 30
0.0
 11
535.8011781782
 21
673.9603762713
 31
0.0
  0
LINE
  5
76
  8
0
  6
CONTINUOUS
 62
     7
 10
533.3011781782
 20
680.7961627089
 30
0.0
 11
533.3011781782
 21
681.3819491465
 31
0.0
  0
LINE
  5
77
  8
0
  6
CONTINUOUS
 62
     7
 10
535.8011781782
 20
681.3819491465
 30
0.0
 11
535.8011781782
 21
680.7961627089
 31
0.0
  0
LINE
  5
78
  8
0
  6
CONTINUOUS
 62
     7
 10
533.3011781782
 20
-462.0322644159
 30
0.0
 11
533.3011781782
 21
-462.6180508535
 31
0.0
  0
LINE
  5
79
  8
0
  6
CONTINUOUS
 62
     7
 10
535.8011781782
 20
-462.6180508535
 30
0.0
 11
535.8011781782
 21
-462.0322644159
 31
0.0
  0
LINE
  5
7A
  8
0
  6
CONTINUOUS
 62
     7
 10
533.3011781782
 20
-465.6180508535
 30
0.0
 11
535.8011781782
 21
-465.6180508535
 31
0.0
  0
LINE
  5
7B
  8
0
  6
CONTINUOUS
 62
     7
 10
533.3011781782
 20
-462.6180508535
 30
0.0
 11
533.3011781782
 21
-465.6180508535
 31
0.0
  0
LINE
  5
7C
  8
0
  6
CONTINUOUS
 62
     7
 10
535.8011781782
 20
-465.6180508535
 30
0.0
 11
535.8011781782
 21
-462.6180508535
 31
0.0
  0
LINE
  5
7D
  8
0
  6
CONTINUOUS
 62
     7
 10
533.3011781782
 20
684.3819491465
 30
0.0
 11
535.8011781782
 21
684.3819491465
 31
0.0
  0
LINE
  5
7E
  8
0
  6
CONTINUOUS
 62
     7
 10
533.3011781782
 20
681.3819491465
 30
0.0
 11
533.3011781782
 21
684.3819491465
 31
0.0
  0
LINE
  5
7F
  8
0
  6
CONTINUOUS
 62
     7
 10
535.8011781782
 20
684.3819491465
 30
0.0
 11
535.8011781782
 21
681.3819491465
 31
0.0
  0
LINE
  5
80
  8
0
  6
HIDDEN
 62
     7
 10
533.3011781782
 20
673.9603762713
 30
0.0
 11
533.3011781782
 21
-455.1964779782
 31
0.0
  0
LINE
  5
81
  8
0
  6
HIDDEN
 62
     7
 10
535.8011781782
 20
-448.8680508535
 30
0.0
 11
533.3011781782
 21
-448.8680508535
 31
0.0
  0
LINE
  5
82
  8
0
  6
HIDDEN
 62
     7
 10
533.3011781782
 20
667.6319491465
 30
0.0
 11
535.8011781782
 21
667.6319491465
 31
0.0
  0
LINE
  5
83
  8
0
  6
HIDDEN
 62
     7
 10
535.8011781782
 20
-449.6180508535
 30
0.0
 11
533.3011781782
 21
-449.6180508535
 31
0.0
  0
LINE
  5
84
  8
0
  6
HIDDEN
 62
     7
 10
533.3011781782
 20
-457.6180508535
 30
0.0
 11
535.8011781782
 21
-457.6180508535
 31
0.0
  0
LINE
  5
85
  8
0
  6
HIDDEN
 62
     7
 10
535.8011781782
 20
676.3819491465
 30
0.0
 11
533.3011781782
 21
676.3819491465
 31
0.0
  0
LINE
  5
86
  8
0
  6
HIDDEN
 62
     7
 10
533.3011781782
 20
668.3819491465
 30
0.0
 11
535.8011781782
 21
668.3819491465
 31
0.0
  0
LINE
  5
87
  8
0
  6
CONTINUOUS
 62
     7
 10
390.0983757112
 20
-564.8333343777
 30
0.0
 11
390.0983757112
 21
-567.3333343777
 31
0.0
  0
LINE
  5
88
  8
0
  6
CONTINUOUS
 62
     7
 10
-100.4016242888
 20
-564.8333343777
 30
0.0
 11
-100.4016242888
 21
-567.3333343777
 31
0.0
  0
LINE
  5
89
  8
0
  6
CONTINUOUS
 62
     7
 10
390.0983757112
 20
-564.8333343777
 30
0.0
 11
-100.4016242888
 21
-564.8333343777
 31
0.0
  0
LINE
  5
8A
  8
0
  6
CONTINUOUS
 62
     7
 10
390.0983757112
 20
-567.3333343777
 30
0.0
 11
-100.4016242888
 21
-567.3333343777
 31
0.0
  0
LINE
  5
8B
  8
0
  6
CONTINUOUS
 62
     7
 10
399.5983757112
 20
-564.8333343777
 30
0.0
 11
399.5983757112
 21
-567.3333343777
 31
0.0
  0
LINE
  5
8C
  8
0
  6
CONTINUOUS
 62
     7
 10
403.0125892736
 20
-564.8333343777
 30
0.0
 11
399.5983757112
 21
-564.8333343777
 31
0.0
  0
LINE
  5
8D
  8
0
  6
CONTINUOUS
 62
     7
 10
399.5983757112
 20
-567.3333343777
 30
0.0
 11
403.0125892736
 21
-567.3333343777
 31
0.0
  0
LINE
  5
8E
  8
0
  6
CONTINUOUS
 62
     7
 10
-109.9016242888
 20
-564.8333343777
 30
0.0
 11
-109.9016242888
 21
-567.3333343777
 31
0.0
  0
LINE
  5
8F
  8
0
  6
CONTINUOUS
 62
     7
 10
-113.3158378511
 20
-564.8333343777
 30
0.0
 11
-109.9016242888
 21
-564.8333343777
 31
0.0
  0
LINE
  5
90
  8
0
  6
CONTINUOUS
 62
     7
 10
-109.9016242888
 20
-567.3333343777
 30
0.0
 11
-113.3158378511
 21
-567.3333343777
 31
0.0
  0
LINE
  5
91
  8
0
  6
CONTINUOUS
 62
     7
 10
-120.1516242888
 20
-564.8333343777
 30
0.0
 11
-120.1516242888
 21
-567.3333343777
 31
0.0
  0
LINE
  5
92
  8
0
  6
CONTINUOUS
 62
     7
 10
-120.1516242888
 20
-564.8333343777
 30
0.0
 11
-113.3158378511
 21
-564.8333343777
 31
0.0
  0
LINE
  5
93
  8
0
  6
CONTINUOUS
 62
     7
 10
-113.3158378511
 20
-567.3333343777
 30
0.0
 11
-120.1516242888
 21
-567.3333343777
 31
0.0
  0
LINE
  5
94
  8
0
  6
CONTINUOUS
 62
     7
 10
409.8483757112
 20
-564.8333343777
 30
0.0
 11
409.8483757112
 21
-567.3333343777
 31
0.0
  0
LINE
  5
95
  8
0
  6
CONTINUOUS
 62
     7
 10
409.8483757112
 20
-564.8333343777
 30
0.0
 11
403.0125892736
 21
-564.8333343777
 31
0.0
  0
LINE
  5
96
  8
0
  6
CONTINUOUS
 62
     7
 10
403.0125892736
 20
-567.3333343777
 30
0.0
 11
409.8483757112
 21
-567.3333343777
 31
0.0
  0
ARC
  5
97
  8
0
  6
CONTINUOUS
 62
     7
 10
409.8483757112
 20
-562.3333343777
 30
0.0
 40
5.000000000000114
 50
270.0
 51
360.0
  0
ARC
  5
98
  8
0
  6
CONTINUOUS
 62
     7
 10
409.8483757112
 20
-562.3333343777
 30
0.0
 40
2.5
 50
270.0
 51
360.0
  0
LINE
  5
99
  8
0
  6
CONTINUOUS
 62
     7
 10
412.3483757112
 20
-562.3333343777
 30
0.0
 11
414.8483757112
 21
-562.3333343777
 31
0.0
  0
ARC
  5
9A
  8
0
  6
CONTINUOUS
 62
     7
 10
-120.1516242888
 20
-562.3333343777
 30
0.0
 40
5.000000000000227
 50
180.0
 51
270.0
  0
LINE
  5
9B
  8
0
  6
CONTINUOUS
 62
     7
 10
-122.6516242888
 20
-562.3333343777
 30
0.0
 11
-125.1516242888
 21
-562.3333343777
 31
0.0
  0
ARC
  5
9C
  8
0
  6
CONTINUOUS
 62
     7
 10
-120.1516242888
 20
-562.3333343777
 30
0.0
 40
2.499999999999787
 50
180.0
 51
270.0
  0
LINE
  5
9D
  8
0
  6
CONTINUOUS
 62
     7
 10
399.5983757112
 20
-564.8333343777
 30
0.0
 11
390.0983757112
 21
-564.8333343777
 31
0.0
  0
LINE
  5
9E
  8
0
  6
CONTINUOUS
 62
     7
 10
390.0983757112
 20
-567.3333343777
 30
0.0
 11
399.5983757112
 21
-567.3333343777
 31
0.0
  0
LINE
  5
9F
  8
0
  6
CONTINUOUS
 62
     7
 10
-109.9016242888
 20
-564.8333343777
 30
0.0
 11
-100.4016242888
 21
-564.8333343777
 31
0.0
  0
LINE
  5
A0
  8
0
  6
CONTINUOUS
 62
     7
 10
-100.4016242888
 20
-567.3333343777
 30
0.0
 11
-109.9016242888
 21
-567.3333343777
 31
0.0
  0
LINE
  5
A1
  8
0
  6
CONTINUOUS
 62
     7
 10
412.3483757112
 20
-561.8333343777
 30
0.0
 11
412.3483757112
 21
-562.3333343777
 31
0.0
  0
LINE
  5
A2
  8
0
  6
CONTINUOUS
 62
     7
 10
414.8483757112
 20
-561.8333343777
 30
0.0
 11
412.3483757112
 21
-561.8333343777
 31
0.0
  0
LINE
  5
A3
  8
0
  6
CONTINUOUS
 62
     7
 10
414.8483757112
 20
-561.8333343777
 30
0.0
 11
414.8483757112
 21
-562.3333343777
 31
0.0
  0
LINE
  5
A4
  8
0
  6
CONTINUOUS
 62
     7
 10
-125.1516242888
 20
-562.3333343777
 30
0.0
 11
-125.1516242888
 21
-561.8333343777
 31
0.0
  0
LINE
  5
A5
  8
0
  6
CONTINUOUS
 62
     7
 10
-122.6516242888
 20
-562.3333343777
 30
0.0
 11
-122.6516242888
 21
-561.8333343777
 31
0.0
  0
LINE
  5
A6
  8
0
  6
CONTINUOUS
 62
     7
 10
-125.1516242888
 20
-561.8333343777
 30
0.0
 11
-122.6516242888
 21
-561.8333343777
 31
0.0
  0
LINE
  5
A7
  8
0
  6
CONTINUOUS
 62
     7
 10
-125.1516242888
 20
-551.8333343777
 30
0.0
 11
-122.6516242888
 21
-551.8333343777
 31
0.0
  0
LINE
  5
A8
  8
0
  6
CONTINUOUS
 62
     7
 10
-125.1516242888
 20
-561.8333343777
 30
0.0
 11
-125.1516242888
 21
-551.8333343777
 31
0.0
  0
LINE
  5
A9
  8
0
  6
CONTINUOUS
 62
     7
 10
-122.6516242888
 20
-561.8333343777
 30
0.0
 11
-122.6516242888
 21
-551.8333343777
 31
0.0
  0
LINE
  5
AA
  8
0
  6
CONTINUOUS
 62
     7
 10
414.8483757112
 20
-551.8333343777
 30
0.0
 11
412.3483757112
 21
-551.8333343777
 31
0.0
  0
LINE
  5
AB
  8
0
  6
CONTINUOUS
 62
     7
 10
412.3483757112
 20
-551.8333343777
 30
0.0
 11
412.3483757112
 21
-561.8333343777
 31
0.0
  0
LINE
  5
AC
  8
0
  6
CONTINUOUS
 62
     7
 10
414.8483757112
 20
-551.8333343777
 30
0.0
 11
414.8483757112
 21
-561.8333343777
 31
0.0
  0
LINE
  5
AD
  8
0
  6
HIDDEN
 62
     7
 10
368.8483757112
 20
-567.3333343777
 30
0.0
 11
368.8483757112
 21
-564.8333343777
 31
0.0
  0
LINE
  5
AE
  8
0
  6
HIDDEN
 62
     7
 10
360.8483757112
 20
-564.8333343777
 30
0.0
 11
360.8483757112
 21
-567.3333343777
 31
0.0
  0
LINE
  5
AF
  8
0
  6
HIDDEN
 62
     7
 10
-71.1516242888
 20
-567.3333343777
 30
0.0
 11
-71.1516242888
 21
-564.8333343777
 31
0.0
  0
LINE
  5
B0
  8
0
  6
HIDDEN
 62
     7
 10
-79.1516242888
 20
-564.8333343777
 30
0.0
 11
-79.1516242888
 21
-567.3333343777
 31
0.0
  0
ENDSEC
  0
EOF
