  0
SECTION
  2
HEADER
  9
$ACADVER
  1
AC1009
  9
$DWGCODEPAGE
  3
ansi_1252
  9
$INSBASE
 10
0.0
 20
0.0
 30
0.0
  9
$EXTMIN
 10
0.0
 20
0.0
 30
0.0
  9
$EXTMAX
 10
297.0
 20
210.0
 30
0.0
  9
$LIMMIN
 10
0.0
 20
0.0
  9
$LIMMAX
 10
0.0
 20
0.0
  9
$ORTHOMODE
 70
     0
  9
$REGENMODE
 70
     1
  9
$FILLMODE
 70
     1
  9
$QTEXTMODE
 70
     0
  9
$MIRRTEXT
 70
     1
  9
$DRAGMODE
 70
     2
  9
$LTSCALE
 40
1.0
  9
$OSMODE
 70
    37
  9
$ATTMODE
 70
     1
  9
$TEXTSIZE
 40
3.5277777778
  9
$TRACEWID
 40
1.0
  9
$TEXTSTYLE
  7
STANDARD
  9
$CLAYER
  8
0
  9
$CELTYPE
  6
BYLAYER
  9
$CECOLOR
 62
   256
  9
$DIMSCALE
 40
1.0
  9
$DIMASZ
 40
1.8
  9
$DIMEXO
 40
0.7
  9
$DIMDLI
 40
3.75
  9
$DIMRND
 40
0.0
  9
$DIMDLE
 40
0.0
  9
$DIMEXE
 40
0.5
  9
$DIMTP
 40
0.0
  9
$DIMTM
 40
0.0
  9
$DIMTXT
 40
2.4694444444
  9
$DIMCEN
 40
2.5
  9
$DIMTSZ
 40
0.0
  9
$DIMTOL
 70
     0
  9
$DIMLIM
 70
     0
  9
$DIMTIH
 70
     1
  9
$DIMTOH
 70
     1
  9
$DIMSE1
 70
     0
  9
$DIMSE2
 70
     0
  9
$DIMTAD
 70
     1
  9
$DIMZIN
 70
     0
  9
$DIMBLK
  1

  9
$DIMASO
 70
     1
  9
$DIMSHO
 70
     1
  9
$DIMPOST
  1

  9
$DIMAPOST
  1

  9
$DIMALT
 70
     0
  9
$DIMALTD
 70
     3
  9
$DIMALTF
 40
0.0393700787
  9
$DIMLFAC
 40
1.0
  9
$DIMTOFL
 70
     1
  9
$DIMTVP
 40
0.0
  9
$DIMTIX
 70
     0
  9
$DIMSOXD
 70
     0
  9
$DIMSAH
 70
     0
  9
$DIMBLK1
  1

  9
$DIMBLK2
  1

  9
$DIMSTYLE
  2
ISO-25
  9
$DIMCLRD
 70
     0
  9
$DIMCLRE
 70
     0
  9
$DIMCLRT
 70
     0
  9
$DIMTFAC
 40
1.0
  9
$DIMGAP
 40
2.0
  9
$LUNITS
 70
     2
  9
$LUPREC
 70
     2
  9
$SKETCHINC
 40
1.0
  9
$FILLETRAD
 40
10.0
  9
$AUNITS
 70
     0
  9
$AUPREC
 70
     0
  9
$MENU
  1
.
  9
$ELEVATION
 40
0.0
  9
$PELEVATION
 40
0.0
  9
$THICKNESS
 40
0.0
  9
$LIMCHECK
 70
     0
  9
$CHAMFERA
 40
10.0
  9
$CHAMFERB
 40
10.0
  9
$SKPOLY
 70
     0
  9
$TDCREATE
 40
2455099.505043033
  9
$TDUPDATE
 40
2455099.505043044
  9
$TDINDWG
 40
0.0000000116
  9
$TDUSRTIMER
 40
0.0000000116
  9
$USRTIMER
 70
     1
  9
$ANGBASE
 50
0.0
  9
$ANGDIR
 70
     0
  9
$PDMODE
 70
     0
  9
$PDSIZE
 40
-1.0
  9
$PLINEWID
 40
0.0
  9
$COORDS
 70
     1
  9
$SPLFRAME
 70
     0
  9
$SPLINETYPE
 70
     6
  9
$SPLINESEGS
 70
     8
  9
$ATTDIA
 70
     0
  9
$ATTREQ
 70
     1
  9
$HANDLING
 70
     1
  9
$HANDSEED
  5
D5
  9
$SURFTAB1
 70
     6
  9
$SURFTAB2
 70
     6
  9
$SURFTYPE
 70
     6
  9
$SURFU
 70
     6
  9
$SURFV
 70
     6
  9
$UCSNAME
  2

  9
$UCSORG
 10
0.0
 20
0.0
 30
0.0
  9
$UCSXDIR
 10
1.0
 20
0.0
 30
0.0
  9
$UCSYDIR
 10
0.0
 20
1.0
 30
0.0
  9
$PUCSNAME
  2

  9
$PUCSORG
 10
0.0
 20
0.0
 30
0.0
  9
$PUCSXDIR
 10
1.0
 20
0.0
 30
0.0
  9
$PUCSYDIR
 10
0.0
 20
1.0
 30
0.0
  9
$USERI1
 70
     0
  9
$USERI2
 70
     0
  9
$USERI3
 70
     0
  9
$USERI4
 70
     0
  9
$USERI5
 70
     0
  9
$USERR1
 40
0.0
  9
$USERR2
 40
0.0
  9
$USERR3
 40
0.0
  9
$USERR4
 40
0.0
  9
$USERR5
 40
0.0
  9
$WORLDVIEW
 70
     1
  9
$SHADEDGE
 70
     3
  9
$SHADEDIF
 70
    70
  9
$TILEMODE
 70
     1
  9
$MAXACTVP
 70
    64
  9
$PLIMCHECK
 70
     0
  9
$PEXTMIN
 10
1.0000000000E+20
 20
1.0000000000E+20
 30
1.0000000000E+20
  9
$PEXTMAX
 10
-1.0000000000E+20
 20
-1.0000000000E+20
 30
-1.0000000000E+20
  9
$PLIMMIN
 10
0.0
 20
0.0
  9
$PLIMMAX
 10
420.0
 20
297.0
  9
$UNITMODE
 70
     0
  9
$VISRETAIN
 70
     1
  9
$PLINEGEN
 70
     0
  9
$PSLTSCALE
 70
     1
  0
ENDSEC
  0
SECTION
  2
TABLES
  0
TABLE
  2
VPORT
 70
     1
  0
VPORT
  2
*ACTIVE
 70
     0
 10
0.0
 20
0.0
 11
1.0
 21
1.0
 12
148.5
 22
105.0
 13
0.0
 23
0.0
 14
10.0
 24
10.0
 15
10.0
 25
10.0
 16
0.0
 26
0.0
 36
1.0
 17
0.0
 27
0.0
 37
0.0
 40
210.0
 41
1.4142857143
 42
50.0
 43
0.0
 44
0.0
 50
0.0
 51
0.0
 71
     0
 72
  2000
 73
     1
 74
     3
 75
     0
 76
     0
 77
     0
 78
     0
  0
ENDTAB
  0
TABLE
  2
LTYPE
 70
     6
  0
LTYPE
  2
CONTINUOUS
 70
     0
  3
Solid line
 72
    65
 73
     0
 40
0.0
  0
LTYPE
  2
HIDDEN
 70
     0
  3
Hidden __ __ __ __ __ __ __ __ __ __ __ __ __ __
 72
    65
 73
     2
 40
1.905
 49
1.27
 49
-0.635
  0
LTYPE
  2
PHANTOM
 70
     0
  3
Phantom ______  __  __  ______  __  __  ______
 72
    65
 73
     6
 40
12.7
 49
6.35
 49
-1.27
 49
1.27
 49
-1.27
 49
1.27
 49
-1.27
  0
LTYPE
  2
CENTER
 70
     0
  3
Center ____ _ ____ _ ____ _ ____ _ ____ _ ____
 72
    65
 73
     4
 40
10.16
 49
6.35
 49
-1.27
 49
1.27
 49
-1.27
  0
LTYPE
  2
CENTERX2
 70
     0
  3
Center (2x) ________  __  ________  __  _____
 72
    65
 73
     4
 40
20.32
 49
12.7
 49
-2.54
 49
2.54
 49
-2.54
  0
LTYPE
  2
DOT2
 70
     0
  3
Dot (.5x) ........................................
 72
    65
 73
     2
 40
0.635
 49
0.0
 49
-0.635
  0
ENDTAB
  0
TABLE
  2
LAYER
 70
     5
  0
LAYER
  2
0
 70
     0
 62
     7
  6
CONTINUOUS
  0
LAYER
  2
SLD-0
 70
     0
 62
     7
  6
CONTINUOUS
  0
LAYER
  2
AM_BOR
 70
     0
 62
     7
  6
CONTINUOUS
  0
LAYER
  2
BIEGLINIE__ZU_
 70
     0
 62
     8
  6
CONTINUOUS
  0
LAYER
  2
BIEGELINIE__WEG_
 70
     0
 62
     8
  6
HIDDEN
  0
ENDTAB
  0
TABLE
  2
STYLE
 70
     1
  0
STYLE
  2
STANDARD
 70
     0
 40
0.0
 41
1.0
 50
0.0
 71
     0
 42
2.5
  3
txt
  4

  0
ENDTAB
  0
TABLE
  2
VIEW
 70
     0
  0
ENDTAB
  0
TABLE
  2
UCS
 70
     0
  0
ENDTAB
  0
TABLE
  2
APPID
 70
     1
  0
APPID
  2
ACAD
 70
     0
  0
ENDTAB
  0
TABLE
  2
DIMSTYLE
 70
     1
  0
DIMSTYLE
  2
ISO-25
 70
     0
  3

  4

  5

  6

  7

 40
1.0
 41
2.5
 42
0.625
 43
3.75
 44
1.25
 45
0.0
 46
0.0
 47
0.0
 48
0.0
140
2.5
141
2.5
142
0.0
143
0.0393700787
144
1.0
145
0.0
146
1.0
147
0.625
 71
     0
 72
     0
 73
     0
 74
     0
 75
     0
 76
     0
 77
     1
 78
     8
170
     0
171
     3
172
     1
173
     0
174
     0
175
     0
176
     0
177
     0
178
     0
  0
ENDTAB
  0
ENDSEC
  0
SECTION
  2
BLOCKS
  0
BLOCK
  8
0
  2
$MODEL_SPACE
 70
     0
 10
0.0
 20
0.0
 30
0.0
  3
$MODEL_SPACE
  1

  0
ENDBLK
  5
21
  8
0
  0
BLOCK
 67
     1
  8
0
  2
$PAPER_SPACE
 70
     0
 10
0.0
 20
0.0
 30
0.0
  3
$PAPER_SPACE
  1

  0
ENDBLK
  5
1D
 67
     1
  8
0
  0
ENDSEC
  0
SECTION
  2
ENTITIES
  0
TEXT
  5
33
  8
SLD-0
 10
576.0682462968
 20
-590.0180185434
 30
0.0
 40
19.05
  1
AT-1260
 41
0.7
 11
576.0682462968
 21
-595.4608756863
 31
0.0
 73
     1
  0
POLYLINE
  5
34
  8
0
  6
CONTINUOUS
 62
     7
 66
     1
 10
0.0
 20
0.0
 30
0.0
  0
VERTEX
  5
B2
  8
0
  6
CONTINUOUS
 62
     7
 10
510.4569797594
 20
678.0988837985
 30
0.0
  0
VERTEX
  5
B3
  8
0
  6
CONTINUOUS
 62
     7
 10
512.4043695886
 20
676.8254380373
 30
0.0
  0
VERTEX
  5
B4
  8
0
  6
CONTINUOUS
 62
     7
 10
514.045551725
 20
675.5507666495
 30
0.0
  0
VERTEX
  5
B5
  8
0
  6
CONTINUOUS
 62
     7
 10
515.1189233353
 20
674.2760887832
 30
0.0
  0
VERTEX
  5
B6
  8
0
  6
CONTINUOUS
 62
     7
 10
515.4569797594
 20
673.0988837985
 30
0.0
  0
SEQEND
  5
B1
  8
0
  6
CONTINUOUS
 62
     7
  0
LINE
  5
35
  8
0
  6
CONTINUOUS
 62
     7
 10
515.4569797594
 20
673.0988837985
 30
0.0
 11
515.4569797594
 21
-446.057970451
 31
0.0
  0
POLYLINE
  5
36
  8
0
  6
CONTINUOUS
 62
     7
 66
     1
 10
0.0
 20
0.0
 30
0.0
  0
VERTEX
  5
B8
  8
0
  6
CONTINUOUS
 62
     7
 10
515.4569797594
 20
-446.057970451
 30
0.0
  0
VERTEX
  5
B9
  8
0
  6
CONTINUOUS
 62
     7
 10
515.0621586759
 20
-447.3314162122
 30
0.0
  0
VERTEX
  5
BA
  8
0
  6
CONTINUOUS
 62
     7
 10
513.9386677477
 20
-448.6060876
 30
0.0
  0
VERTEX
  5
BB
  8
0
  6
CONTINUOUS
 62
     7
 10
512.2642655958
 20
-449.8807654663
 30
0.0
  0
VERTEX
  5
BC
  8
0
  6
CONTINUOUS
 62
     7
 10
510.4569797594
 20
-451.057970451
 30
0.0
  0
SEQEND
  5
B7
  8
0
  6
CONTINUOUS
 62
     7
  0
POLYLINE
  5
37
  8
0
  6
CONTINUOUS
 62
     7
 66
     1
 10
0.0
 20
0.0
 30
0.0
  0
VERTEX
  5
BE
  8
0
  6
CONTINUOUS
 62
     7
 10
-219.5430202406
 20
-451.057970451
 30
0.0
  0
VERTEX
  5
BF
  8
0
  6
CONTINUOUS
 62
     7
 10
-221.4904100698
 20
-449.7845246898
 30
0.0
  0
VERTEX
  5
C0
  8
0
  6
CONTINUOUS
 62
     7
 10
-223.1315922062
 20
-448.5098533019
 30
0.0
  0
VERTEX
  5
C1
  8
0
  6
CONTINUOUS
 62
     7
 10
-224.2049638166
 20
-447.2351754356
 30
0.0
  0
VERTEX
  5
C2
  8
0
  6
CONTINUOUS
 62
     7
 10
-224.5430202406
 20
-446.057970451
 30
0.0
  0
SEQEND
  5
BD
  8
0
  6
CONTINUOUS
 62
     7
  0
LINE
  5
38
  8
0
  6
CONTINUOUS
 62
     7
 10
-224.5430202406
 20
673.0988837985
 30
0.0
 11
-224.5430202406
 21
-446.057970451
 31
0.0
  0
POLYLINE
  5
39
  8
0
  6
CONTINUOUS
 62
     7
 66
     1
 10
0.0
 20
0.0
 30
0.0
  0
VERTEX
  5
C4
  8
0
  6
CONTINUOUS
 62
     7
 10
-224.5430202406
 20
673.0988837985
 30
0.0
  0
VERTEX
  5
C5
  8
0
  6
CONTINUOUS
 62
     7
 10
-224.1481991571
 20
674.3723295597
 30
0.0
  0
VERTEX
  5
C6
  8
0
  6
CONTINUOUS
 62
     7
 10
-223.0247082289
 20
675.6470009476
 30
0.0
  0
VERTEX
  5
C7
  8
0
  6
CONTINUOUS
 62
     7
 10
-221.3503060771
 20
676.9216788139
 30
0.0
  0
VERTEX
  5
C8
  8
0
  6
CONTINUOUS
 62
     7
 10
-219.5430202406
 20
678.0988837985
 30
0.0
  0
SEQEND
  5
C3
  8
0
  6
CONTINUOUS
 62
     7
  0
ARC
  5
3A
  8
0
  6
CONTINUOUS
 62
     7
 10
-211.2930202406
 20
683.5204566738
 30
0.0
 40
1.999999999999943
 50
0.0
 51
135.0
  0
LINE
  5
3B
  8
0
  6
CONTINUOUS
 62
     7
 10
-209.2930202406
 20
676.5204566738
 30
0.0
 11
-209.2930202406
 21
683.5204566738
 31
0.0
  0
ARC
  5
3C
  8
0
  6
CONTINUOUS
 62
     7
 10
-204.5430202406
 20
676.5204566738
 30
0.0
 40
4.750000000000057
 50
180.0
 51
0.0
  0
LINE
  5
3D
  8
0
  6
CONTINUOUS
 62
     7
 10
-199.7930202406
 20
688.5204566738
 30
0.0
 11
-199.7930202406
 21
676.5204566738
 31
0.0
  0
LINE
  5
3E
  8
0
  6
CONTINUOUS
 62
     7
 10
490.7069797594
 20
688.5204566738
 30
0.0
 11
-199.7930202406
 21
688.5204566738
 31
0.0
  0
LINE
  5
3F
  8
0
  6
CONTINUOUS
 62
     7
 10
490.7069797594
 20
688.5204566738
 30
0.0
 11
490.7069797594
 21
676.5204566738
 31
0.0
  0
ARC
  5
40
  8
0
  6
CONTINUOUS
 62
     7
 10
495.4569797594
 20
676.5204566738
 30
0.0
 40
4.750000000000057
 50
180.0
 51
0.0
  0
LINE
  5
41
  8
0
  6
CONTINUOUS
 62
     7
 10
500.2069797594
 20
676.5204566738
 30
0.0
 11
500.2069797594
 21
683.5204566738
 31
0.0
  0
ARC
  5
42
  8
0
  6
CONTINUOUS
 62
     7
 10
502.2069797594
 20
683.5204566738
 30
0.0
 40
1.999999999999896
 50
45.0
 51
180.0
  0
LINE
  5
43
  8
0
  6
CONTINUOUS
 62
     7
 10
503.6211933217
 20
684.9346702361
 30
0.0
 11
510.4569797594
 21
678.0988837985
 31
0.0
  0
LINE
  5
44
  8
0
  6
CONTINUOUS
 62
     7
 10
503.6211933217
 20
-457.8937568886
 30
0.0
 11
510.4569797594
 21
-451.057970451
 31
0.0
  0
ARC
  5
45
  8
0
  6
CONTINUOUS
 62
     7
 10
502.2069797594
 20
-456.4795433262
 30
0.0
 40
1.999999999999896
 50
180.0
 51
315.0
  0
LINE
  5
46
  8
0
  6
CONTINUOUS
 62
     7
 10
500.2069797594
 20
-449.4795433262
 30
0.0
 11
500.2069797594
 21
-456.4795433262
 31
0.0
  0
ARC
  5
47
  8
0
  6
CONTINUOUS
 62
     7
 10
495.4569797594
 20
-449.4795433262
 30
0.0
 40
4.750000000000057
 50
0.0
 51
180.0
  0
LINE
  5
48
  8
0
  6
CONTINUOUS
 62
     7
 10
490.7069797594
 20
-461.4795433262
 30
0.0
 11
490.7069797594
 21
-449.4795433262
 31
0.0
  0
LINE
  5
49
  8
0
  6
CONTINUOUS
 62
     7
 10
-199.7930202406
 20
-461.4795433262
 30
0.0
 11
490.7069797594
 21
-461.4795433262
 31
0.0
  0
LINE
  5
4A
  8
0
  6
CONTINUOUS
 62
     7
 10
-199.7930202406
 20
-461.4795433262
 30
0.0
 11
-199.7930202406
 21
-449.4795433262
 31
0.0
  0
ARC
  5
4B
  8
0
  6
CONTINUOUS
 62
     7
 10
-204.5430202406
 20
-449.4795433262
 30
0.0
 40
4.750000000000057
 50
0.0
 51
180.0
  0
LINE
  5
4C
  8
0
  6
CONTINUOUS
 62
     7
 10
-209.2930202406
 20
-449.4795433262
 30
0.0
 11
-209.2930202406
 21
-456.4795433262
 31
0.0
  0
ARC
  5
4D
  8
0
  6
CONTINUOUS
 62
     7
 10
-211.2930202406
 20
-456.4795433262
 30
0.0
 40
1.999999999999943
 50
225.0
 51
0.0
  0
LINE
  5
4E
  8
0
  6
CONTINUOUS
 62
     7
 10
-212.707233803
 20
-457.8937568886
 30
0.0
 11
-219.5430202406
 21
-451.057970451
 31
0.0
  0
LINE
  5
4F
  8
0
  6
CONTINUOUS
 62
     7
 10
-212.707233803
 20
684.9346702361
 30
0.0
 11
-219.5430202406
 21
678.0988837985
 31
0.0
  0
CIRCLE
  5
50
  8
0
  6
CONTINUOUS
 62
     7
 10
465.4569797594
 20
676.5204566738
 30
0.0
 40
4.0
  0
CIRCLE
  5
51
  8
0
  6
CONTINUOUS
 62
     7
 10
465.4569797594
 20
-449.4795433262
 30
0.0
 40
4.0
  0
CIRCLE
  5
52
  8
0
  6
CONTINUOUS
 62
     7
 10
-174.5430202406
 20
-449.4795433262
 30
0.0
 40
4.0
  0
CIRCLE
  5
53
  8
0
  6
CONTINUOUS
 62
     7
 10
-174.5430202406
 20
676.5204566738
 30
0.0
 40
4.0
  0
LINE
  5
54
  8
0
  6
HIDDEN
 62
     7
 10
-222.0430202406
 20
-446.057970451
 30
0.0
 11
-222.0430202406
 21
673.0988837985
 31
0.0
  0
ARC
  5
55
  8
0
  6
HIDDEN
 62
     7
 10
-213.2166749504
 20
-444.7697978059
 30
0.0
 40
8.91985201363986
 50
188.3034839128
 51
224.8266184414
  0
ARC
  5
56
  8
0
  6
HIDDEN
 62
     7
 10
-213.0324816036
 20
671.71861448
 30
0.0
 40
9.115643143572397
 50
135.5789883857
 51
171.2909092602
  0
LINE
  5
57
  8
0
  6
HIDDEN
 62
     7
 10
512.9569797594
 20
673.0988837985
 30
0.0
 11
512.9569797594
 21
-446.057970451
 31
0.0
  0
ARC
  5
58
  8
0
  6
HIDDEN
 62
     7
 10
504.1118137517
 20
-444.7603874471
 30
0.0
 40
8.93983687517786
 50
315.215640793
 51
351.6542568528
  0
ARC
  5
59
  8
0
  6
HIDDEN
 62
     7
 10
504.4268124552
 20
671.9588001465
 30
0.0
 40
8.606017950823858
 50
7.6126461707
 51
45.5174561834
  0
LINE
  5
5A
  8
0
  6
HIDDEN
 62
     7
 10
512.9569797594
 20
673.0988837985
 30
0.0
 11
515.4569797594
 21
673.0988837985
 31
0.0
  0
LINE
  5
5B
  8
0
  6
HIDDEN
 62
     7
 10
512.9569797594
 20
-446.057970451
 30
0.0
 11
515.4569797594
 21
-446.057970451
 31
0.0
  0
LINE
  5
5C
  8
0
  6
HIDDEN
 62
     7
 10
-222.0430202406
 20
673.0988837985
 30
0.0
 11
-224.5430202406
 21
673.0988837985
 31
0.0
  0
LINE
  5
5D
  8
0
  6
HIDDEN
 62
     7
 10
-222.0430202406
 20
-446.057970451
 30
0.0
 11
-224.5430202406
 21
-446.057970451
 31
0.0
  0
LINE
  5
5E
  8
0
  6
HIDDEN
 62
     7
 10
515.4569797594
 20
638.5204566738
 30
0.0
 11
512.9569797594
 21
638.5204566738
 31
0.0
  0
LINE
  5
5F
  8
0
  6
HIDDEN
 62
     7
 10
515.4569797594
 20
-411.4795433262
 30
0.0
 11
512.9569797594
 21
-411.4795433262
 31
0.0
  0
LINE
  5
60
  8
0
  6
HIDDEN
 62
     7
 10
-224.5430202406
 20
-411.4795433262
 30
0.0
 11
-222.0430202406
 21
-411.4795433262
 31
0.0
  0
LINE
  5
61
  8
0
  6
HIDDEN
 62
     7
 10
-224.5430202406
 20
638.5204566738
 30
0.0
 11
-222.0430202406
 21
638.5204566738
 31
0.0
  0
LINE
  5
62
  8
0
  6
CONTINUOUS
 62
     7
 10
669.2659127638
 20
685.5204566738
 30
0.0
 11
666.7659127638
 21
685.5204566738
 31
0.0
  0
LINE
  5
63
  8
0
  6
CONTINUOUS
 62
     7
 10
666.7659127638
 20
-458.4795433262
 30
0.0
 11
669.2659127638
 21
-458.4795433262
 31
0.0
  0
LINE
  5
64
  8
0
  6
CONTINUOUS
 62
     7
 10
663.7659127638
 20
-446.057970451
 30
0.0
 11
664.2659127638
 21
-446.057970451
 31
0.0
  0
LINE
  5
65
  8
0
  6
CONTINUOUS
 62
     7
 10
663.7659127638
 20
-411.4795433262
 30
0.0
 11
663.7659127638
 21
-446.057970451
 31
0.0
  0
LINE
  5
66
  8
0
  6
CONTINUOUS
 62
     7
 10
653.7659127638
 20
638.5204566738
 30
0.0
 11
653.7659127638
 21
-411.4795433262
 31
0.0
  0
LINE
  5
67
  8
0
  6
CONTINUOUS
 62
     7
 10
663.7659127638
 20
638.5204566738
 30
0.0
 11
653.7659127638
 21
638.5204566738
 31
0.0
  0
LINE
  5
68
  8
0
  6
CONTINUOUS
 62
     7
 10
663.7659127638
 20
673.0988837985
 30
0.0
 11
663.7659127638
 21
638.5204566738
 31
0.0
  0
LINE
  5
69
  8
0
  6
CONTINUOUS
 62
     7
 10
664.2659127638
 20
673.0988837985
 30
0.0
 11
663.7659127638
 21
673.0988837985
 31
0.0
  0
LINE
  5
6A
  8
0
  6
CONTINUOUS
 62
     7
 10
653.7659127638
 20
-411.4795433262
 30
0.0
 11
663.7659127638
 21
-411.4795433262
 31
0.0
  0
POLYLINE
  5
6B
  8
0
  6
CONTINUOUS
 62
     7
 66
     1
 10
0.0
 20
0.0
 30
0.0
  0
VERTEX
  5
CA
  8
0
  6
CONTINUOUS
 62
     7
 10
669.2659127638
 20
-451.057970451
 30
0.0
  0
VERTEX
  5
CB
  8
0
  6
CONTINUOUS
 62
     7
 10
668.8710916803
 20
-449.7845246898
 30
0.0
  0
VERTEX
  5
CC
  8
0
  6
CONTINUOUS
 62
     7
 10
667.7476007521
 20
-448.5098533019
 30
0.0
  0
VERTEX
  5
CD
  8
0
  6
CONTINUOUS
 62
     7
 10
666.0731986002
 20
-447.2351754356
 30
0.0
  0
VERTEX
  5
CE
  8
0
  6
CONTINUOUS
 62
     7
 10
664.2659127638
 20
-446.057970451
 30
0.0
  0
SEQEND
  5
C9
  8
0
  6
CONTINUOUS
 62
     7
  0
POLYLINE
  5
6C
  8
0
  6
CONTINUOUS
 62
     7
 66
     1
 10
0.0
 20
0.0
 30
0.0
  0
VERTEX
  5
D0
  8
0
  6
CONTINUOUS
 62
     7
 10
664.2659127638
 20
673.0988837985
 30
0.0
  0
VERTEX
  5
D1
  8
0
  6
CONTINUOUS
 62
     7
 10
666.213302593
 20
674.3723295597
 30
0.0
  0
VERTEX
  5
D2
  8
0
  6
CONTINUOUS
 62
     7
 10
667.8544847294
 20
675.6470009476
 30
0.0
  0
VERTEX
  5
D3
  8
0
  6
CONTINUOUS
 62
     7
 10
668.9278563397
 20
676.9216788139
 30
0.0
  0
VERTEX
  5
D4
  8
0
  6
CONTINUOUS
 62
     7
 10
669.2659127638
 20
678.0988837985
 30
0.0
  0
SEQEND
  5
CF
  8
0
  6
CONTINUOUS
 62
     7
  0
LINE
  5
6D
  8
0
  6
CONTINUOUS
 62
     7
 10
669.2659127638
 20
678.0988837985
 30
0.0
 11
669.2659127638
 21
-451.057970451
 31
0.0
  0
LINE
  5
6E
  8
0
  6
CONTINUOUS
 62
     7
 10
666.7659127638
 20
678.0988837985
 30
0.0
 11
669.2659127638
 21
678.0988837985
 31
0.0
  0
ARC
  5
6F
  8
0
  6
CONTINUOUS
 62
     7
 10
657.9395674736
 20
679.3870564436
 30
0.0
 40
8.919852013640309
 50
315.1733815586
 51
351.6965160872
  0
LINE
  5
70
  8
0
  6
CONTINUOUS
 62
     7
 10
666.7659127638
 20
-451.057970451
 30
0.0
 11
669.2659127638
 21
-451.057970451
 31
0.0
  0
ARC
  5
71
  8
0
  6
CONTINUOUS
 62
     7
 10
657.7553741267
 20
-452.4382397695
 30
0.0
 40
9.115643143571676
 50
8.7090907398
 51
44.4210116143
  0
LINE
  5
72
  8
0
  6
CONTINUOUS
 62
     7
 10
666.7659127638
 20
-451.057970451
 30
0.0
 11
666.7659127638
 21
-457.8937568886
 31
0.0
  0
LINE
  5
73
  8
0
  6
CONTINUOUS
 62
     7
 10
669.2659127638
 20
-457.8937568886
 30
0.0
 11
669.2659127638
 21
-451.057970451
 31
0.0
  0
LINE
  5
74
  8
0
  6
CONTINUOUS
 62
     7
 10
666.7659127638
 20
678.0988837985
 30
0.0
 11
666.7659127638
 21
684.9346702361
 31
0.0
  0
LINE
  5
75
  8
0
  6
CONTINUOUS
 62
     7
 10
669.2659127638
 20
684.9346702361
 30
0.0
 11
669.2659127638
 21
678.0988837985
 31
0.0
  0
LINE
  5
76
  8
0
  6
CONTINUOUS
 62
     7
 10
666.7659127638
 20
684.9346702361
 30
0.0
 11
666.7659127638
 21
685.5204566738
 31
0.0
  0
LINE
  5
77
  8
0
  6
CONTINUOUS
 62
     7
 10
669.2659127638
 20
685.5204566738
 30
0.0
 11
669.2659127638
 21
684.9346702361
 31
0.0
  0
LINE
  5
78
  8
0
  6
CONTINUOUS
 62
     7
 10
666.7659127638
 20
-457.8937568886
 30
0.0
 11
666.7659127638
 21
-458.4795433262
 31
0.0
  0
LINE
  5
79
  8
0
  6
CONTINUOUS
 62
     7
 10
669.2659127638
 20
-458.4795433262
 30
0.0
 11
669.2659127638
 21
-457.8937568886
 31
0.0
  0
LINE
  5
7A
  8
0
  6
CONTINUOUS
 62
     7
 10
666.7659127638
 20
-461.4795433262
 30
0.0
 11
669.2659127638
 21
-461.4795433262
 31
0.0
  0
LINE
  5
7B
  8
0
  6
CONTINUOUS
 62
     7
 10
666.7659127638
 20
-458.4795433262
 30
0.0
 11
666.7659127638
 21
-461.4795433262
 31
0.0
  0
LINE
  5
7C
  8
0
  6
CONTINUOUS
 62
     7
 10
669.2659127638
 20
-461.4795433262
 30
0.0
 11
669.2659127638
 21
-458.4795433262
 31
0.0
  0
LINE
  5
7D
  8
0
  6
CONTINUOUS
 62
     7
 10
666.7659127638
 20
688.5204566738
 30
0.0
 11
669.2659127638
 21
688.5204566738
 31
0.0
  0
LINE
  5
7E
  8
0
  6
CONTINUOUS
 62
     7
 10
666.7659127638
 20
685.5204566738
 30
0.0
 11
666.7659127638
 21
688.5204566738
 31
0.0
  0
LINE
  5
7F
  8
0
  6
CONTINUOUS
 62
     7
 10
669.2659127638
 20
688.5204566738
 30
0.0
 11
669.2659127638
 21
685.5204566738
 31
0.0
  0
LINE
  5
80
  8
0
  6
HIDDEN
 62
     7
 10
666.7659127638
 20
678.0988837985
 30
0.0
 11
666.7659127638
 21
-451.057970451
 31
0.0
  0
LINE
  5
81
  8
0
  6
HIDDEN
 62
     7
 10
666.7659127638
 20
671.7704566738
 30
0.0
 11
669.2659127638
 21
671.7704566738
 31
0.0
  0
LINE
  5
82
  8
0
  6
HIDDEN
 62
     7
 10
669.2659127638
 20
-444.7295433262
 30
0.0
 11
666.7659127638
 21
-444.7295433262
 31
0.0
  0
LINE
  5
83
  8
0
  6
HIDDEN
 62
     7
 10
669.2659127638
 20
-445.4795433262
 30
0.0
 11
666.7659127638
 21
-445.4795433262
 31
0.0
  0
LINE
  5
84
  8
0
  6
HIDDEN
 62
     7
 10
666.7659127638
 20
-453.4795433262
 30
0.0
 11
669.2659127638
 21
-453.4795433262
 31
0.0
  0
LINE
  5
85
  8
0
  6
HIDDEN
 62
     7
 10
669.2659127638
 20
680.5204566738
 30
0.0
 11
666.7659127638
 21
680.5204566738
 31
0.0
  0
LINE
  5
86
  8
0
  6
HIDDEN
 62
     7
 10
666.7659127638
 20
672.5204566738
 30
0.0
 11
669.2659127638
 21
672.5204566738
 31
0.0
  0
LINE
  5
87
  8
0
  6
CONTINUOUS
 62
     7
 10
490.7069797594
 20
-600.0457258813
 30
0.0
 11
490.7069797594
 21
-602.5457258813
 31
0.0
  0
LINE
  5
88
  8
0
  6
CONTINUOUS
 62
     7
 10
-199.7930202406
 20
-600.0457258813
 30
0.0
 11
-199.7930202406
 21
-602.5457258813
 31
0.0
  0
LINE
  5
89
  8
0
  6
CONTINUOUS
 62
     7
 10
490.7069797594
 20
-600.0457258813
 30
0.0
 11
-199.7930202406
 21
-600.0457258813
 31
0.0
  0
LINE
  5
8A
  8
0
  6
CONTINUOUS
 62
     7
 10
490.7069797594
 20
-602.5457258813
 30
0.0
 11
-199.7930202406
 21
-602.5457258813
 31
0.0
  0
LINE
  5
8B
  8
0
  6
CONTINUOUS
 62
     7
 10
500.2069797594
 20
-600.0457258813
 30
0.0
 11
500.2069797594
 21
-602.5457258813
 31
0.0
  0
LINE
  5
8C
  8
0
  6
CONTINUOUS
 62
     7
 10
503.6211933217
 20
-600.0457258813
 30
0.0
 11
500.2069797594
 21
-600.0457258813
 31
0.0
  0
LINE
  5
8D
  8
0
  6
CONTINUOUS
 62
     7
 10
500.2069797594
 20
-602.5457258813
 30
0.0
 11
503.6211933217
 21
-602.5457258813
 31
0.0
  0
LINE
  5
8E
  8
0
  6
CONTINUOUS
 62
     7
 10
-209.2930202406
 20
-600.0457258813
 30
0.0
 11
-209.2930202406
 21
-602.5457258813
 31
0.0
  0
LINE
  5
8F
  8
0
  6
CONTINUOUS
 62
     7
 10
-212.707233803
 20
-600.0457258813
 30
0.0
 11
-209.2930202406
 21
-600.0457258813
 31
0.0
  0
LINE
  5
90
  8
0
  6
CONTINUOUS
 62
     7
 10
-209.2930202406
 20
-602.5457258813
 30
0.0
 11
-212.707233803
 21
-602.5457258813
 31
0.0
  0
LINE
  5
91
  8
0
  6
CONTINUOUS
 62
     7
 10
-219.5430202406
 20
-600.0457258813
 30
0.0
 11
-219.5430202406
 21
-602.5457258813
 31
0.0
  0
LINE
  5
92
  8
0
  6
CONTINUOUS
 62
     7
 10
-219.5430202406
 20
-600.0457258813
 30
0.0
 11
-212.707233803
 21
-600.0457258813
 31
0.0
  0
LINE
  5
93
  8
0
  6
CONTINUOUS
 62
     7
 10
-212.707233803
 20
-602.5457258813
 30
0.0
 11
-219.5430202406
 21
-602.5457258813
 31
0.0
  0
LINE
  5
94
  8
0
  6
CONTINUOUS
 62
     7
 10
510.4569797594
 20
-600.0457258813
 30
0.0
 11
510.4569797594
 21
-602.5457258813
 31
0.0
  0
LINE
  5
95
  8
0
  6
CONTINUOUS
 62
     7
 10
510.4569797594
 20
-600.0457258813
 30
0.0
 11
503.6211933217
 21
-600.0457258813
 31
0.0
  0
LINE
  5
96
  8
0
  6
CONTINUOUS
 62
     7
 10
503.6211933217
 20
-602.5457258813
 30
0.0
 11
510.4569797594
 21
-602.5457258813
 31
0.0
  0
ARC
  5
97
  8
0
  6
CONTINUOUS
 62
     7
 10
510.4569797594
 20
-597.5457258813
 30
0.0
 40
5.000000000000171
 50
270.0
 51
360.0
  0
ARC
  5
98
  8
0
  6
CONTINUOUS
 62
     7
 10
510.4569797594
 20
-597.5457258813
 30
0.0
 40
2.5
 50
270.0
 51
360.0
  0
LINE
  5
99
  8
0
  6
CONTINUOUS
 62
     7
 10
512.9569797594
 20
-597.5457258813
 30
0.0
 11
515.4569797594
 21
-597.5457258813
 31
0.0
  0
ARC
  5
9A
  8
0
  6
CONTINUOUS
 62
     7
 10
-219.5430202406
 20
-597.5457258813
 30
0.0
 40
5.000000000000284
 50
180.0
 51
270.0
  0
LINE
  5
9B
  8
0
  6
CONTINUOUS
 62
     7
 10
-222.0430202406
 20
-597.5457258813
 30
0.0
 11
-224.5430202406
 21
-597.5457258813
 31
0.0
  0
ARC
  5
9C
  8
0
  6
CONTINUOUS
 62
     7
 10
-219.5430202406
 20
-597.5457258813
 30
0.0
 40
2.5
 50
180.0
 51
270.0
  0
LINE
  5
9D
  8
0
  6
CONTINUOUS
 62
     7
 10
500.2069797594
 20
-600.0457258813
 30
0.0
 11
490.7069797594
 21
-600.0457258813
 31
0.0
  0
LINE
  5
9E
  8
0
  6
CONTINUOUS
 62
     7
 10
490.7069797594
 20
-602.5457258813
 30
0.0
 11
500.2069797594
 21
-602.5457258813
 31
0.0
  0
LINE
  5
9F
  8
0
  6
CONTINUOUS
 62
     7
 10
-209.2930202406
 20
-600.0457258813
 30
0.0
 11
-199.7930202406
 21
-600.0457258813
 31
0.0
  0
LINE
  5
A0
  8
0
  6
CONTINUOUS
 62
     7
 10
-199.7930202406
 20
-602.5457258813
 30
0.0
 11
-209.2930202406
 21
-602.5457258813
 31
0.0
  0
LINE
  5
A1
  8
0
  6
CONTINUOUS
 62
     7
 10
512.9569797594
 20
-597.0457258813
 30
0.0
 11
512.9569797594
 21
-597.5457258813
 31
0.0
  0
LINE
  5
A2
  8
0
  6
CONTINUOUS
 62
     7
 10
515.4569797594
 20
-597.0457258813
 30
0.0
 11
512.9569797594
 21
-597.0457258813
 31
0.0
  0
LINE
  5
A3
  8
0
  6
CONTINUOUS
 62
     7
 10
515.4569797594
 20
-597.0457258813
 30
0.0
 11
515.4569797594
 21
-597.5457258813
 31
0.0
  0
LINE
  5
A4
  8
0
  6
CONTINUOUS
 62
     7
 10
-224.5430202406
 20
-597.5457258813
 30
0.0
 11
-224.5430202406
 21
-597.0457258813
 31
0.0
  0
LINE
  5
A5
  8
0
  6
CONTINUOUS
 62
     7
 10
-222.0430202406
 20
-597.5457258813
 30
0.0
 11
-222.0430202406
 21
-597.0457258813
 31
0.0
  0
LINE
  5
A6
  8
0
  6
CONTINUOUS
 62
     7
 10
-224.5430202406
 20
-597.0457258813
 30
0.0
 11
-222.0430202406
 21
-597.0457258813
 31
0.0
  0
LINE
  5
A7
  8
0
  6
CONTINUOUS
 62
     7
 10
-224.5430202406
 20
-587.0457258813
 30
0.0
 11
-222.0430202406
 21
-587.0457258813
 31
0.0
  0
LINE
  5
A8
  8
0
  6
CONTINUOUS
 62
     7
 10
-224.5430202406
 20
-597.0457258813
 30
0.0
 11
-224.5430202406
 21
-587.0457258813
 31
0.0
  0
LINE
  5
A9
  8
0
  6
CONTINUOUS
 62
     7
 10
-222.0430202406
 20
-597.0457258813
 30
0.0
 11
-222.0430202406
 21
-587.0457258813
 31
0.0
  0
LINE
  5
AA
  8
0
  6
CONTINUOUS
 62
     7
 10
515.4569797594
 20
-587.0457258813
 30
0.0
 11
512.9569797594
 21
-587.0457258813
 31
0.0
  0
LINE
  5
AB
  8
0
  6
CONTINUOUS
 62
     7
 10
512.9569797594
 20
-587.0457258813
 30
0.0
 11
512.9569797594
 21
-597.0457258813
 31
0.0
  0
LINE
  5
AC
  8
0
  6
CONTINUOUS
 62
     7
 10
515.4569797594
 20
-587.0457258813
 30
0.0
 11
515.4569797594
 21
-597.0457258813
 31
0.0
  0
LINE
  5
AD
  8
0
  6
HIDDEN
 62
     7
 10
469.4569797594
 20
-602.5457258813
 30
0.0
 11
469.4569797594
 21
-600.0457258813
 31
0.0
  0
LINE
  5
AE
  8
0
  6
HIDDEN
 62
     7
 10
461.4569797594
 20
-600.0457258813
 30
0.0
 11
461.4569797594
 21
-602.5457258813
 31
0.0
  0
LINE
  5
AF
  8
0
  6
HIDDEN
 62
     7
 10
-170.5430202406
 20
-602.5457258813
 30
0.0
 11
-170.5430202406
 21
-600.0457258813
 31
0.0
  0
LINE
  5
B0
  8
0
  6
HIDDEN
 62
     7
 10
-178.5430202406
 20
-600.0457258813
 30
0.0
 11
-178.5430202406
 21
-602.5457258813
 31
0.0
  0
ENDSEC
  0
EOF
