  0
SECTION
  2
HEADER
  9
$ACADVER
  1
AC1009
  9
$DWGCODEPAGE
  3
ansi_1252
  9
$INSBASE
 10
0.0
 20
0.0
 30
0.0
  9
$EXTMIN
 10
0.0
 20
0.0
 30
0.0
  9
$EXTMAX
 10
297.0
 20
210.0
 30
0.0
  9
$LIMMIN
 10
0.0
 20
0.0
  9
$LIMMAX
 10
297.0
 20
210.0
  9
$ORTHOMODE
 70
     0
  9
$REGENMODE
 70
     1
  9
$FILLMODE
 70
     1
  9
$QTEXTMODE
 70
     0
  9
$MIRRTEXT
 70
     1
  9
$DRAGMODE
 70
     2
  9
$LTSCALE
 40
1.0
  9
$OSMODE
 70
    37
  9
$ATTMODE
 70
     1
  9
$TEXTSIZE
 40
3.5277777778
  9
$TRACEWID
 40
1.0
  9
$TEXTSTYLE
  7
STANDARD
  9
$CLAYER
  8
0
  9
$CELTYPE
  6
BYLAYER
  9
$CECOLOR
 62
   256
  9
$DIMSCALE
 40
1.0
  9
$DIMASZ
 40
1.8
  9
$DIMEXO
 40
0.7
  9
$DIMDLI
 40
3.75
  9
$DIMRND
 40
0.0
  9
$DIMDLE
 40
0.0
  9
$DIMEXE
 40
0.5
  9
$DIMTP
 40
0.0
  9
$DIMTM
 40
0.0
  9
$DIMTXT
 40
2.4694444444
  9
$DIMCEN
 40
2.5
  9
$DIMTSZ
 40
0.0
  9
$DIMTOL
 70
     0
  9
$DIMLIM
 70
     0
  9
$DIMTIH
 70
     1
  9
$DIMTOH
 70
     1
  9
$DIMSE1
 70
     0
  9
$DIMSE2
 70
     0
  9
$DIMTAD
 70
     1
  9
$DIMZIN
 70
     0
  9
$DIMBLK
  1

  9
$DIMASO
 70
     1
  9
$DIMSHO
 70
     1
  9
$DIMPOST
  1

  9
$DIMAPOST
  1

  9
$DIMALT
 70
     0
  9
$DIMALTD
 70
     3
  9
$DIMALTF
 40
0.0393700787
  9
$DIMLFAC
 40
1.0
  9
$DIMTOFL
 70
     1
  9
$DIMTVP
 40
0.0
  9
$DIMTIX
 70
     0
  9
$DIMSOXD
 70
     0
  9
$DIMSAH
 70
     0
  9
$DIMBLK1
  1

  9
$DIMBLK2
  1

  9
$DIMSTYLE
  2
ISO-25
  9
$DIMCLRD
 70
     0
  9
$DIMCLRE
 70
     0
  9
$DIMCLRT
 70
     0
  9
$DIMTFAC
 40
1.0
  9
$DIMGAP
 40
2.0
  9
$LUNITS
 70
     2
  9
$LUPREC
 70
     2
  9
$SKETCHINC
 40
1.0
  9
$FILLETRAD
 40
10.0
  9
$AUNITS
 70
     0
  9
$AUPREC
 70
     2
  9
$MENU
  1
.
  9
$ELEVATION
 40
0.0
  9
$PELEVATION
 40
0.0
  9
$THICKNESS
 40
0.0
  9
$LIMCHECK
 70
     0
  9
$CHAMFERA
 40
10.0
  9
$CHAMFERB
 40
10.0
  9
$SKPOLY
 70
     0
  9
$TDCREATE
 40
2455828.342630509
  9
$TDUPDATE
 40
2455828.342630521
  9
$TDINDWG
 40
0.0000000116
  9
$TDUSRTIMER
 40
0.0000000116
  9
$USRTIMER
 70
     1
  9
$ANGBASE
 50
0.0
  9
$ANGDIR
 70
     0
  9
$PDMODE
 70
     0
  9
$PDSIZE
 40
-1.0
  9
$PLINEWID
 40
0.0
  9
$COORDS
 70
     1
  9
$SPLFRAME
 70
     0
  9
$SPLINETYPE
 70
     6
  9
$SPLINESEGS
 70
     8
  9
$ATTDIA
 70
     0
  9
$ATTREQ
 70
     1
  9
$HANDLING
 70
     1
  9
$HANDSEED
  5
130
  9
$SURFTAB1
 70
     6
  9
$SURFTAB2
 70
     6
  9
$SURFTYPE
 70
     6
  9
$SURFU
 70
     6
  9
$SURFV
 70
     6
  9
$UCSNAME
  2

  9
$UCSORG
 10
0.0
 20
0.0
 30
0.0
  9
$UCSXDIR
 10
1.0
 20
0.0
 30
0.0
  9
$UCSYDIR
 10
0.0
 20
1.0
 30
0.0
  9
$PUCSNAME
  2

  9
$PUCSORG
 10
0.0
 20
0.0
 30
0.0
  9
$PUCSXDIR
 10
1.0
 20
0.0
 30
0.0
  9
$PUCSYDIR
 10
0.0
 20
1.0
 30
0.0
  9
$USERI1
 70
     0
  9
$USERI2
 70
     0
  9
$USERI3
 70
     0
  9
$USERI4
 70
     0
  9
$USERI5
 70
     0
  9
$USERR1
 40
0.0
  9
$USERR2
 40
0.0
  9
$USERR3
 40
0.0
  9
$USERR4
 40
0.0
  9
$USERR5
 40
0.0
  9
$WORLDVIEW
 70
     1
  9
$SHADEDGE
 70
     3
  9
$SHADEDIF
 70
    70
  9
$TILEMODE
 70
     1
  9
$MAXACTVP
 70
    64
  9
$PLIMCHECK
 70
     0
  9
$PEXTMIN
 10
1.0000000000E+20
 20
1.0000000000E+20
 30
1.0000000000E+20
  9
$PEXTMAX
 10
-1.0000000000E+20
 20
-1.0000000000E+20
 30
-1.0000000000E+20
  9
$PLIMMIN
 10
0.0
 20
0.0
  9
$PLIMMAX
 10
420.0
 20
297.0
  9
$UNITMODE
 70
     0
  9
$VISRETAIN
 70
     1
  9
$PLINEGEN
 70
     0
  9
$PSLTSCALE
 70
     1
  0
ENDSEC
  0
SECTION
  2
TABLES
  0
TABLE
  2
VPORT
 70
     1
  0
VPORT
  2
*ACTIVE
 70
     0
 10
0.0
 20
0.0
 11
1.0
 21
1.0
 12
148.5
 22
105.0
 13
0.0
 23
0.0
 14
10.0
 24
10.0
 15
10.0
 25
10.0
 16
0.0
 26
0.0
 36
1.0
 17
0.0
 27
0.0
 37
0.0
 40
210.0
 41
1.4142857143
 42
50.0
 43
0.0
 44
0.0
 50
0.0
 51
0.0
 71
     0
 72
  2000
 73
     1
 74
     3
 75
     0
 76
     0
 77
     0
 78
     0
  0
ENDTAB
  0
TABLE
  2
LTYPE
 70
     6
  0
LTYPE
  2
CONTINUOUS
 70
     0
  3
Solid line
 72
    65
 73
     0
 40
0.0
  0
LTYPE
  2
HIDDEN
 70
     0
  3
Hidden __ __ __ __ __ __ __ __ __ __ __ __ __ __
 72
    65
 73
     2
 40
1.905
 49
1.27
 49
-0.635
  0
LTYPE
  2
PHANTOM
 70
     0
  3
Phantom ______  __  __  ______  __  __  ______
 72
    65
 73
     6
 40
12.7
 49
6.35
 49
-1.27
 49
1.27
 49
-1.27
 49
1.27
 49
-1.27
  0
LTYPE
  2
CENTER
 70
     0
  3
Center ____ _ ____ _ ____ _ ____ _ ____ _ ____
 72
    65
 73
     4
 40
10.16
 49
6.35
 49
-1.27
 49
1.27
 49
-1.27
  0
LTYPE
  2
CENTERX2
 70
     0
  3
Center (2x) ________  __  ________  __  _____
 72
    65
 73
     4
 40
20.32
 49
12.7
 49
-2.54
 49
2.54
 49
-2.54
  0
LTYPE
  2
DOT2
 70
     0
  3
Dot (.5x) ........................................
 72
    65
 73
     2
 40
0.635
 49
0.0
 49
-0.635
  0
ENDTAB
  0
TABLE
  2
LAYER
 70
     5
  0
LAYER
  2
0
 70
     0
 62
     7
  6
CONTINUOUS
  0
LAYER
  2
SLD-0
 70
     0
 62
     7
  6
CONTINUOUS
  0
LAYER
  2
AM_BOR
 70
     0
 62
     7
  6
CONTINUOUS
  0
LAYER
  2
BIEGLINIE__ZU_
 70
     0
 62
     8
  6
CONTINUOUS
  0
LAYER
  2
BIEGELINIE__WEG_
 70
     0
 62
     8
  6
HIDDEN
  0
ENDTAB
  0
TABLE
  2
STYLE
 70
     1
  0
STYLE
  2
STANDARD
 70
     0
 40
0.0
 41
1.0
 50
0.0
 71
     0
 42
2.5
  3
txt
  4

  0
ENDTAB
  0
TABLE
  2
VIEW
 70
     0
  0
ENDTAB
  0
TABLE
  2
UCS
 70
     0
  0
ENDTAB
  0
TABLE
  2
APPID
 70
     1
  0
APPID
  2
ACAD
 70
     0
  0
ENDTAB
  0
TABLE
  2
DIMSTYLE
 70
     1
  0
DIMSTYLE
  2
ISO-25
 70
     0
  3

  4

  5

  6

  7

 40
1.0
 41
2.5
 42
0.625
 43
3.75
 44
1.25
 45
0.0
 46
0.0
 47
0.0
 48
0.0
140
2.5
141
2.5
142
0.0
143
0.0393700787
144
1.0
145
0.0
146
1.0
147
0.625
 71
     0
 72
     0
 73
     0
 74
     0
 75
     0
 76
     0
 77
     1
 78
     8
170
     0
171
     3
172
     1
173
     0
174
     0
175
     0
176
     0
177
     0
178
     0
  0
ENDTAB
  0
ENDSEC
  0
SECTION
  2
BLOCKS
  0
BLOCK
  8
0
  2
$MODEL_SPACE
 70
     0
 10
0.0
 20
0.0
 30
0.0
  3
$MODEL_SPACE
  1

  0
ENDBLK
  5
21
  8
0
  0
BLOCK
 67
     1
  8
0
  2
$PAPER_SPACE
 70
     0
 10
0.0
 20
0.0
 30
0.0
  3
$PAPER_SPACE
  1

  0
ENDBLK
  5
1D
 67
     1
  8
0
  0
ENDSEC
  0
SECTION
  2
ENTITIES
  0
CIRCLE
  5
48
  8
0
  6
CONTINUOUS
 62
     7
 10
579.3974883303
 20
559.2552379611
 30
0.0
 40
4.0
  0
CIRCLE
  5
49
  8
0
  6
CONTINUOUS
 62
     7
 10
579.3974883303
 20
-340.7447620389
 30
0.0
 40
4.0
  0
CIRCLE
  5
4A
  8
0
  6
CONTINUOUS
 62
     7
 10
-290.6025116697
 20
-340.7447620389
 30
0.0
 40
4.000000000000057
  0
CIRCLE
  5
4B
  8
0
  6
CONTINUOUS
 62
     7
 10
-290.6025116697
 20
559.2552379611
 30
0.0
 40
4.000000000000057
  0
LINE
  5
4C
  8
0
  6
CONTINUOUS
 62
     7
 10
579.3974883303
 20
-352.7447620389
 30
0.0
 11
549.3974883303
 21
-352.7447620389
 31
0.0
  0
LINE
  5
4D
  8
0
  6
CONTINUOUS
 62
     7
 10
-260.6025116697
 20
-352.7447620389
 30
0.0
 11
-290.6025116697
 21
-352.7447620389
 31
0.0
  0
LINE
  5
4E
  8
0
  6
CONTINUOUS
 62
     7
 10
-290.6025116697
 20
-352.7447620389
 30
0.0
 11
-290.6025116697
 21
-362.7447620389
 31
0.0
  0
ARC
  5
4F
  8
0
  6
CONTINUOUS
 62
     7
 10
-293.6025116697
 20
-362.7447620389
 30
0.0
 40
3.0
 50
270.0
 51
0.0
  0
LINE
  5
50
  8
0
  6
CONTINUOUS
 62
     7
 10
-315.8525116697
 20
-365.7447620389
 30
0.0
 11
-293.6025116697
 21
-365.7447620389
 31
0.0
  0
LINE
  5
51
  8
0
  6
CONTINUOUS
 62
     7
 10
-315.8525116697
 20
-365.7447620389
 30
0.0
 11
-315.8525116697
 21
-353.7447620389
 31
0.0
  0
ARC
  5
52
  8
0
  6
CONTINUOUS
 62
     7
 10
-320.6025116697
 20
-353.7447620389
 30
0.0
 40
4.750000000000171
 50
0.0
 51
180.0
  0
LINE
  5
53
  8
0
  6
CONTINUOUS
 62
     7
 10
-325.3525116697
 20
-353.7447620389
 30
0.0
 11
-325.3525116697
 21
-360.7447620389
 31
0.0
  0
ARC
  5
54
  8
0
  6
CONTINUOUS
 62
     7
 10
-327.3525116697
 20
-360.7447620389
 30
0.0
 40
2.0
 50
225.0
 51
0.0
  0
LINE
  5
55
  8
0
  6
CONTINUOUS
 62
     7
 10
-328.766725232
 20
-362.1589756012
 30
0.0
 11
-340.6025116697
 21
-350.3231891636
 31
0.0
  0
LINE
  5
56
  8
0
  6
CONTINUOUS
 62
     7
 10
-340.6025116697
 20
-318.7447620389
 30
0.0
 11
-340.6025116697
 21
-350.3231891636
 31
0.0
  0
ARC
  5
57
  8
0
  6
CONTINUOUS
 62
     7
 10
-337.6025116697
 20
-318.7447620389
 30
0.0
 40
3.0
 50
90.0
 51
180.0
  0
LINE
  5
58
  8
0
  6
CONTINUOUS
 62
     7
 10
-337.6025116697
 20
-315.7447620389
 30
0.0
 11
-334.6025116697
 21
-315.7447620389
 31
0.0
  0
LINE
  5
59
  8
0
  6
CONTINUOUS
 62
     7
 10
-334.6025116697
 20
-315.7447620389
 30
0.0
 11
-334.6025116697
 21
-305.7447620389
 31
0.0
  0
LINE
  5
5A
  8
0
  6
CONTINUOUS
 62
     7
 10
-335.6025116697
 20
-305.7447620389
 30
0.0
 11
-334.6025116697
 21
-305.7447620389
 31
0.0
  0
LINE
  5
5B
  8
0
  6
CONTINUOUS
 62
     7
 10
-335.6025116697
 20
524.2552379611
 30
0.0
 11
-334.6025116697
 21
524.2552379611
 31
0.0
  0
LINE
  5
5C
  8
0
  6
CONTINUOUS
 62
     7
 10
-334.6025116697
 20
524.2552379611
 30
0.0
 11
-334.6025116697
 21
534.2552379611
 31
0.0
  0
LINE
  5
5D
  8
0
  6
CONTINUOUS
 62
     7
 10
-334.6025116697
 20
534.2552379611
 30
0.0
 11
-337.6025116697
 21
534.2552379611
 31
0.0
  0
ARC
  5
5E
  8
0
  6
CONTINUOUS
 62
     7
 10
-337.6025116697
 20
537.2552379611
 30
0.0
 40
3.0
 50
180.0
 51
270.0
  0
LINE
  5
5F
  8
0
  6
CONTINUOUS
 62
     7
 10
-340.6025116697
 20
568.8336650859
 30
0.0
 11
-340.6025116697
 21
537.2552379611
 31
0.0
  0
LINE
  5
60
  8
0
  6
CONTINUOUS
 62
     7
 10
-328.766725232
 20
580.6694515235
 30
0.0
 11
-340.6025116697
 21
568.8336650859
 31
0.0
  0
ARC
  5
61
  8
0
  6
CONTINUOUS
 62
     7
 10
-327.3525116697
 20
579.2552379611
 30
0.0
 40
2.000000000000096
 50
0.0
 51
135.0
  0
LINE
  5
62
  8
0
  6
CONTINUOUS
 62
     7
 10
-325.3525116697
 20
572.2552379611
 30
0.0
 11
-325.3525116697
 21
579.2552379611
 31
0.0
  0
ARC
  5
63
  8
0
  6
CONTINUOUS
 62
     7
 10
-320.6025116697
 20
572.2552379611
 30
0.0
 40
4.750000000000171
 50
180.0
 51
0.0
  0
LINE
  5
64
  8
0
  6
CONTINUOUS
 62
     7
 10
-315.8525116697
 20
584.2552379611
 30
0.0
 11
-315.8525116697
 21
572.2552379611
 31
0.0
  0
LINE
  5
65
  8
0
  6
CONTINUOUS
 62
     7
 10
-293.6025116697
 20
584.2552379611
 30
0.0
 11
-315.8525116697
 21
584.2552379611
 31
0.0
  0
ARC
  5
66
  8
0
  6
CONTINUOUS
 62
     7
 10
-293.6025116697
 20
581.2552379611
 30
0.0
 40
3.0
 50
0.0
 51
90.0
  0
LINE
  5
67
  8
0
  6
CONTINUOUS
 62
     7
 10
-290.6025116697
 20
581.2552379611
 30
0.0
 11
-290.6025116697
 21
571.2552379611
 31
0.0
  0
LINE
  5
68
  8
0
  6
CONTINUOUS
 62
     7
 10
-290.6025116697
 20
571.2552379611
 30
0.0
 11
-260.6025116697
 21
571.2552379611
 31
0.0
  0
LINE
  5
69
  8
0
  6
CONTINUOUS
 62
     7
 10
549.3974883303
 20
571.2552379611
 30
0.0
 11
579.3974883303
 21
571.2552379611
 31
0.0
  0
LINE
  5
6A
  8
0
  6
CONTINUOUS
 62
     7
 10
579.3974883303
 20
571.2552379611
 30
0.0
 11
579.3974883303
 21
581.2552379611
 31
0.0
  0
ARC
  5
6B
  8
0
  6
CONTINUOUS
 62
     7
 10
582.3974883303
 20
581.2552379611
 30
0.0
 40
3.000000000000114
 50
90.0
 51
180.0
  0
LINE
  5
6C
  8
0
  6
CONTINUOUS
 62
     7
 10
604.6474883303
 20
584.2552379611
 30
0.0
 11
582.3974883303
 21
584.2552379611
 31
0.0
  0
LINE
  5
6D
  8
0
  6
CONTINUOUS
 62
     7
 10
604.6474883303
 20
584.2552379611
 30
0.0
 11
604.6474883303
 21
572.2552379611
 31
0.0
  0
ARC
  5
6E
  8
0
  6
CONTINUOUS
 62
     7
 10
609.3974883303
 20
572.2552379611
 30
0.0
 40
4.750000000000227
 50
180.0
 51
0.0
  0
LINE
  5
6F
  8
0
  6
CONTINUOUS
 62
     7
 10
614.1474883303
 20
572.2552379611
 30
0.0
 11
614.1474883303
 21
579.2552379611
 31
0.0
  0
ARC
  5
70
  8
0
  6
CONTINUOUS
 62
     7
 10
616.1474883303
 20
579.2552379611
 30
0.0
 40
2.000000000000177
 50
45.0
 51
180.0
  0
LINE
  5
71
  8
0
  6
CONTINUOUS
 62
     7
 10
617.5617018927
 20
580.6694515235
 30
0.0
 11
629.3974883303
 21
568.8336650859
 31
0.0
  0
LINE
  5
72
  8
0
  6
CONTINUOUS
 62
     7
 10
629.3974883303
 20
537.2552379611
 30
0.0
 11
629.3974883303
 21
568.8336650859
 31
0.0
  0
ARC
  5
73
  8
0
  6
CONTINUOUS
 62
     7
 10
626.3974883303
 20
537.2552379611
 30
0.0
 40
3.0
 50
270.0
 51
0.0
  0
LINE
  5
74
  8
0
  6
CONTINUOUS
 62
     7
 10
626.3974883303
 20
534.2552379611
 30
0.0
 11
623.3974883303
 21
534.2552379611
 31
0.0
  0
LINE
  5
75
  8
0
  6
CONTINUOUS
 62
     7
 10
623.3974883303
 20
534.2552379611
 30
0.0
 11
623.3974883303
 21
524.2552379611
 31
0.0
  0
LINE
  5
76
  8
0
  6
CONTINUOUS
 62
     7
 10
624.3974883303
 20
524.2552379611
 30
0.0
 11
623.3974883303
 21
524.2552379611
 31
0.0
  0
LINE
  5
77
  8
0
  6
CONTINUOUS
 62
     7
 10
624.3974883303
 20
-305.7447620389
 30
0.0
 11
623.3974883303
 21
-305.7447620389
 31
0.0
  0
LINE
  5
78
  8
0
  6
CONTINUOUS
 62
     7
 10
623.3974883303
 20
-305.7447620389
 30
0.0
 11
623.3974883303
 21
-315.7447620389
 31
0.0
  0
LINE
  5
79
  8
0
  6
CONTINUOUS
 62
     7
 10
623.3974883303
 20
-315.7447620389
 30
0.0
 11
626.3974883303
 21
-315.7447620389
 31
0.0
  0
ARC
  5
7A
  8
0
  6
CONTINUOUS
 62
     7
 10
626.3974883303
 20
-318.7447620389
 30
0.0
 40
3.000000000000114
 50
0.0
 51
90.0
  0
LINE
  5
7B
  8
0
  6
CONTINUOUS
 62
     7
 10
629.3974883303
 20
-350.3231891636
 30
0.0
 11
629.3974883303
 21
-318.7447620389
 31
0.0
  0
LINE
  5
7C
  8
0
  6
CONTINUOUS
 62
     7
 10
617.5617018927
 20
-362.1589756012
 30
0.0
 11
629.3974883303
 21
-350.3231891636
 31
0.0
  0
ARC
  5
7D
  8
0
  6
CONTINUOUS
 62
     7
 10
616.1474883303
 20
-360.7447620389
 30
0.0
 40
2.000000000000016
 50
180.0
 51
315.0
  0
LINE
  5
7E
  8
0
  6
CONTINUOUS
 62
     7
 10
614.1474883303
 20
-353.7447620389
 30
0.0
 11
614.1474883303
 21
-360.7447620389
 31
0.0
  0
ARC
  5
7F
  8
0
  6
CONTINUOUS
 62
     7
 10
609.3974883303
 20
-353.7447620389
 30
0.0
 40
4.750000000000227
 50
0.0
 51
180.0
  0
LINE
  5
80
  8
0
  6
CONTINUOUS
 62
     7
 10
604.6474883303
 20
-365.7447620389
 30
0.0
 11
604.6474883303
 21
-353.7447620389
 31
0.0
  0
LINE
  5
81
  8
0
  6
CONTINUOUS
 62
     7
 10
582.3974883303
 20
-365.7447620389
 30
0.0
 11
604.6474883303
 21
-365.7447620389
 31
0.0
  0
ARC
  5
82
  8
0
  6
CONTINUOUS
 62
     7
 10
582.3974883303
 20
-362.7447620389
 30
0.0
 40
3.000000000000114
 50
180.0
 51
270.0
  0
LINE
  5
83
  8
0
  6
CONTINUOUS
 62
     7
 10
579.3974883303
 20
-362.7447620389
 30
0.0
 11
579.3974883303
 21
-352.7447620389
 31
0.0
  0
LINE
  5
84
  8
0
  6
CONTINUOUS
 62
     7
 10
-340.6025116697
 20
-305.7447620389
 30
0.0
 11
-340.6025116697
 21
524.2552379611
 31
0.0
  0
LINE
  5
85
  8
0
  6
CONTINUOUS
 62
     7
 10
-340.6025116697
 20
524.2552379611
 30
0.0
 11
-335.6025116697
 21
524.2552379611
 31
0.0
  0
LINE
  5
86
  8
0
  6
CONTINUOUS
 62
     7
 10
-335.6025116697
 20
-305.7447620389
 30
0.0
 11
-340.6025116697
 21
-305.7447620389
 31
0.0
  0
LINE
  5
87
  8
0
  6
CONTINUOUS
 62
     7
 10
-260.6025116697
 20
571.2552379611
 30
0.0
 11
-260.6025116697
 21
573.7552379611
 31
0.0
  0
LINE
  5
88
  8
0
  6
CONTINUOUS
 62
     7
 10
-260.6025116697
 20
573.7552379611
 30
0.0
 11
549.3974883303
 21
573.7552379611
 31
0.0
  0
LINE
  5
89
  8
0
  6
CONTINUOUS
 62
     7
 10
549.3974883303
 20
573.7552379611
 30
0.0
 11
549.3974883303
 21
571.2552379611
 31
0.0
  0
LINE
  5
8A
  8
0
  6
CONTINUOUS
 62
     7
 10
549.3974883303
 20
-352.7447620389
 30
0.0
 11
549.3974883303
 21
-355.2447620389
 31
0.0
  0
LINE
  5
8B
  8
0
  6
CONTINUOUS
 62
     7
 10
549.3974883303
 20
-355.2447620389
 30
0.0
 11
-260.6025116697
 21
-355.2447620389
 31
0.0
  0
LINE
  5
8C
  8
0
  6
CONTINUOUS
 62
     7
 10
-260.6025116697
 20
-355.2447620389
 30
0.0
 11
-260.6025116697
 21
-352.7447620389
 31
0.0
  0
LINE
  5
8D
  8
0
  6
CONTINUOUS
 62
     7
 10
629.3974883303
 20
-305.7447620389
 30
0.0
 11
629.3974883303
 21
524.2552379611
 31
0.0
  0
LINE
  5
8E
  8
0
  6
CONTINUOUS
 62
     7
 10
624.3974883303
 20
524.2552379611
 30
0.0
 11
629.3974883303
 21
524.2552379611
 31
0.0
  0
LINE
  5
8F
  8
0
  6
CONTINUOUS
 62
     7
 10
629.3974883303
 20
-305.7447620389
 30
0.0
 11
624.3974883303
 21
-305.7447620389
 31
0.0
  0
LINE
  5
90
  8
0
  6
HIDDEN
 62
     7
 10
-338.1025116697
 20
-305.7447620389
 30
0.0
 11
-338.1025116697
 21
524.2552379611
 31
0.0
  0
LINE
  5
91
  8
0
  6
HIDDEN
 62
     7
 10
-260.6025116697
 20
571.2552379611
 30
0.0
 11
549.3974883303
 21
571.2552379611
 31
0.0
  0
LINE
  5
92
  8
0
  6
HIDDEN
 62
     7
 10
549.3974883303
 20
-352.7447620389
 30
0.0
 11
-260.6025116697
 21
-352.7447620389
 31
0.0
  0
LINE
  5
93
  8
0
  6
HIDDEN
 62
     7
 10
626.8974883303
 20
524.2552379611
 30
0.0
 11
626.8974883303
 21
-305.7447620389
 31
0.0
  0
LINE
  5
94
  8
0
  6
CONTINUOUS
 62
     7
 10
746.0406726855
 20
581.2552379611
 30
0.0
 11
743.5406726855
 21
581.2552379611
 31
0.0
  0
LINE
  5
95
  8
0
  6
CONTINUOUS
 62
     7
 10
743.5406726855
 20
-362.7447620389
 30
0.0
 11
746.0406726855
 21
-362.7447620389
 31
0.0
  0
ARC
  5
96
  8
0
  6
CONTINUOUS
 62
     7
 10
733.5406726855
 20
521.2552379611
 30
0.0
 40
3.0
 50
90.0
 51
180.0
  0
LINE
  5
97
  8
0
  6
CONTINUOUS
 62
     7
 10
733.5406726855
 20
524.2552379611
 30
0.0
 11
741.0406726855
 21
524.2552379611
 31
0.0
  0
LINE
  5
98
  8
0
  6
CONTINUOUS
 62
     7
 10
741.0406726855
 20
-305.7447620389
 30
0.0
 11
733.5406726855
 21
-305.7447620389
 31
0.0
  0
ARC
  5
99
  8
0
  6
CONTINUOUS
 62
     7
 10
733.5406726855
 20
-302.7447620389
 30
0.0
 40
3.0
 50
180.0
 51
270.0
  0
LINE
  5
9A
  8
0
  6
CONTINUOUS
 62
     7
 10
730.5406726855
 20
-302.7447620389
 30
0.0
 11
730.5406726855
 21
521.2552379611
 31
0.0
  0
LINE
  5
9B
  8
0
  6
CONTINUOUS
 62
     7
 10
743.5406726855
 20
568.8336650859
 30
0.0
 11
746.0406726855
 21
568.8336650859
 31
0.0
  0
LINE
  5
9C
  8
0
  6
CONTINUOUS
 62
     7
 10
746.0406726855
 20
568.8336650859
 30
0.0
 11
746.0406726855
 21
537.2552379611
 31
0.0
  0
LINE
  5
9D
  8
0
  6
CONTINUOUS
 62
     7
 10
743.5406726855
 20
568.8336650859
 30
0.0
 11
743.5406726855
 21
537.2552379611
 31
0.0
  0
LINE
  5
9E
  8
0
  6
CONTINUOUS
 62
     7
 10
746.0406726855
 20
-305.7447620389
 30
0.0
 11
741.0406726855
 21
-305.7447620389
 31
0.0
  0
LINE
  5
9F
  8
0
  6
CONTINUOUS
 62
     7
 10
746.0406726855
 20
524.2552379611
 30
0.0
 11
746.0406726855
 21
-305.7447620389
 31
0.0
  0
LINE
  5
A0
  8
0
  6
CONTINUOUS
 62
     7
 10
741.0406726855
 20
524.2552379611
 30
0.0
 11
746.0406726855
 21
524.2552379611
 31
0.0
  0
LINE
  5
A1
  8
0
  6
CONTINUOUS
 62
     7
 10
746.0406726855
 20
534.2552379611
 30
0.0
 11
743.5406726855
 21
534.2552379611
 31
0.0
  0
LINE
  5
A2
  8
0
  6
CONTINUOUS
 62
     7
 10
746.0406726855
 20
537.2552379611
 30
0.0
 11
746.0406726855
 21
534.2552379611
 31
0.0
  0
LINE
  5
A3
  8
0
  6
CONTINUOUS
 62
     7
 10
743.5406726855
 20
534.2552379611
 30
0.0
 11
743.5406726855
 21
537.2552379611
 31
0.0
  0
LINE
  5
A4
  8
0
  6
CONTINUOUS
 62
     7
 10
746.0406726855
 20
580.6694515235
 30
0.0
 11
746.0406726855
 21
568.8336650859
 31
0.0
  0
LINE
  5
A5
  8
0
  6
CONTINUOUS
 62
     7
 10
743.5406726855
 20
568.8336650859
 30
0.0
 11
743.5406726855
 21
580.6694515235
 31
0.0
  0
LINE
  5
A6
  8
0
  6
CONTINUOUS
 62
     7
 10
743.5406726855
 20
-315.7447620389
 30
0.0
 11
746.0406726855
 21
-315.7447620389
 31
0.0
  0
LINE
  5
A7
  8
0
  6
CONTINUOUS
 62
     7
 10
746.0406726855
 20
-315.7447620389
 30
0.0
 11
746.0406726855
 21
-318.7447620389
 31
0.0
  0
LINE
  5
A8
  8
0
  6
CONTINUOUS
 62
     7
 10
743.5406726855
 20
-318.7447620389
 30
0.0
 11
743.5406726855
 21
-315.7447620389
 31
0.0
  0
LINE
  5
A9
  8
0
  6
CONTINUOUS
 62
     7
 10
743.5406726855
 20
-350.3231891636
 30
0.0
 11
746.0406726855
 21
-350.3231891636
 31
0.0
  0
LINE
  5
AA
  8
0
  6
CONTINUOUS
 62
     7
 10
746.0406726855
 20
-318.7447620389
 30
0.0
 11
746.0406726855
 21
-350.3231891636
 31
0.0
  0
LINE
  5
AB
  8
0
  6
CONTINUOUS
 62
     7
 10
743.5406726855
 20
-318.7447620389
 30
0.0
 11
743.5406726855
 21
-350.3231891636
 31
0.0
  0
LINE
  5
AC
  8
0
  6
CONTINUOUS
 62
     7
 10
746.0406726855
 20
-362.1589756012
 30
0.0
 11
746.0406726855
 21
-350.3231891636
 31
0.0
  0
LINE
  5
AD
  8
0
  6
CONTINUOUS
 62
     7
 10
743.5406726855
 20
-350.3231891636
 30
0.0
 11
743.5406726855
 21
-362.1589756012
 31
0.0
  0
LINE
  5
AE
  8
0
  6
CONTINUOUS
 62
     7
 10
746.0406726855
 20
-315.7447620389
 30
0.0
 11
746.0406726855
 21
-305.7447620389
 31
0.0
  0
LINE
  5
AF
  8
0
  6
CONTINUOUS
 62
     7
 10
743.5406726855
 20
-315.7447620389
 30
0.0
 11
743.5406726855
 21
-305.7447620389
 31
0.0
  0
LINE
  5
B0
  8
0
  6
CONTINUOUS
 62
     7
 10
746.0406726855
 20
524.2552379611
 30
0.0
 11
746.0406726855
 21
534.2552379611
 31
0.0
  0
LINE
  5
B1
  8
0
  6
CONTINUOUS
 62
     7
 10
743.5406726855
 20
524.2552379611
 30
0.0
 11
743.5406726855
 21
534.2552379611
 31
0.0
  0
LINE
  5
B2
  8
0
  6
CONTINUOUS
 62
     7
 10
746.0406726855
 20
581.2552379611
 30
0.0
 11
746.0406726855
 21
580.6694515235
 31
0.0
  0
LINE
  5
B3
  8
0
  6
CONTINUOUS
 62
     7
 10
743.5406726855
 20
580.6694515235
 30
0.0
 11
743.5406726855
 21
581.2552379611
 31
0.0
  0
LINE
  5
B4
  8
0
  6
CONTINUOUS
 62
     7
 10
746.0406726855
 20
-362.7447620389
 30
0.0
 11
746.0406726855
 21
-362.1589756012
 31
0.0
  0
LINE
  5
B5
  8
0
  6
CONTINUOUS
 62
     7
 10
743.5406726855
 20
-362.1589756012
 30
0.0
 11
743.5406726855
 21
-362.7447620389
 31
0.0
  0
LINE
  5
B6
  8
0
  6
CONTINUOUS
 62
     7
 10
743.5406726855
 20
-365.7447620389
 30
0.0
 11
746.0406726855
 21
-365.7447620389
 31
0.0
  0
LINE
  5
B7
  8
0
  6
CONTINUOUS
 62
     7
 10
746.0406726855
 20
-365.7447620389
 30
0.0
 11
746.0406726855
 21
-362.7447620389
 31
0.0
  0
LINE
  5
B8
  8
0
  6
CONTINUOUS
 62
     7
 10
743.5406726855
 20
-362.7447620389
 30
0.0
 11
743.5406726855
 21
-365.7447620389
 31
0.0
  0
LINE
  5
B9
  8
0
  6
CONTINUOUS
 62
     7
 10
743.5406726855
 20
584.2552379611
 30
0.0
 11
746.0406726855
 21
584.2552379611
 31
0.0
  0
LINE
  5
BA
  8
0
  6
CONTINUOUS
 62
     7
 10
746.0406726855
 20
584.2552379611
 30
0.0
 11
746.0406726855
 21
581.2552379611
 31
0.0
  0
LINE
  5
BB
  8
0
  6
CONTINUOUS
 62
     7
 10
743.5406726855
 20
581.2552379611
 30
0.0
 11
743.5406726855
 21
584.2552379611
 31
0.0
  0
LINE
  5
BC
  8
0
  6
CONTINUOUS
 62
     7
 10
733.5406726855
 20
-355.2447620389
 30
0.0
 11
741.0406726855
 21
-355.2447620389
 31
0.0
  0
LINE
  5
BD
  8
0
  6
CONTINUOUS
 62
     7
 10
733.5406726855
 20
-352.7447620389
 30
0.0
 11
741.0406726855
 21
-352.7447620389
 31
0.0
  0
LINE
  5
BE
  8
0
  6
CONTINUOUS
 62
     7
 10
741.0406726855
 20
573.7552379611
 30
0.0
 11
733.5406726855
 21
573.7552379611
 31
0.0
  0
LINE
  5
BF
  8
0
  6
CONTINUOUS
 62
     7
 10
741.0406726855
 20
571.2552379611
 30
0.0
 11
733.5406726855
 21
571.2552379611
 31
0.0
  0
ARC
  5
C0
  8
0
  6
CONTINUOUS
 62
     7
 10
741.0406726855
 20
568.7552379611
 30
0.0
 40
2.5
 50
0.0
 51
90.0
  0
ARC
  5
C1
  8
0
  6
CONTINUOUS
 62
     7
 10
741.0406726855
 20
568.7552379611
 30
0.0
 40
5.000000000000016
 50
60.0
 51
90.0
  0
ARC
  5
C2
  8
0
  6
CONTINUOUS
 62
     7
 10
741.0406726855
 20
-350.2447620389
 30
0.0
 40
2.499999999999886
 50
270.0
 51
360.0
  0
ARC
  5
C3
  8
0
  6
CONTINUOUS
 62
     7
 10
741.0406726855
 20
-350.2447620389
 30
0.0
 40
5.000000000000114
 50
270.0
 51
300.0
  0
LINE
  5
C4
  8
0
  6
CONTINUOUS
 62
     7
 10
730.5406726855
 20
571.2552379611
 30
0.0
 11
730.5406726855
 21
573.7552379611
 31
0.0
  0
LINE
  5
C5
  8
0
  6
CONTINUOUS
 62
     7
 10
730.5406726855
 20
573.7552379611
 30
0.0
 11
733.5406726855
 21
573.7552379611
 31
0.0
  0
LINE
  5
C6
  8
0
  6
CONTINUOUS
 62
     7
 10
733.5406726855
 20
571.2552379611
 30
0.0
 11
730.5406726855
 21
571.2552379611
 31
0.0
  0
LINE
  5
C7
  8
0
  6
CONTINUOUS
 62
     7
 10
730.5406726855
 20
-355.2447620389
 30
0.0
 11
730.5406726855
 21
-352.7447620389
 31
0.0
  0
LINE
  5
C8
  8
0
  6
CONTINUOUS
 62
     7
 10
730.5406726855
 20
-352.7447620389
 30
0.0
 11
733.5406726855
 21
-352.7447620389
 31
0.0
  0
LINE
  5
C9
  8
0
  6
CONTINUOUS
 62
     7
 10
733.5406726855
 20
-355.2447620389
 30
0.0
 11
730.5406726855
 21
-355.2447620389
 31
0.0
  0
TEXT
  5
CA
  8
SLD-0
 10
642.5232511289
 20
-431.6764118162
 30
0.0
 40
19.05
  1
AT-1090
 41
0.7
 11
642.5232511289
 21
-438.4060159958
 31
0.0
 73
     1
  0
LINE
  5
ED
  8
0
  6
CONTINUOUS
 62
     7
 10
-315.8525116697
 20
-460.8193138411
 30
0.0
 11
-315.8525116697
 21
-463.3193138411
 31
0.0
  0
LINE
  5
EE
  8
0
  6
CONTINUOUS
 62
     7
 10
-293.6025116697
 20
-460.8193138411
 30
0.0
 11
-315.8525116697
 21
-460.8193138411
 31
0.0
  0
LINE
  5
EF
  8
0
  6
CONTINUOUS
 62
     7
 10
-293.6025116697
 20
-463.3193138411
 30
0.0
 11
-315.8525116697
 21
-463.3193138411
 31
0.0
  0
LINE
  5
F0
  8
0
  6
CONTINUOUS
 62
     7
 10
604.6474883303
 20
-460.8193138411
 30
0.0
 11
604.6474883303
 21
-463.3193138411
 31
0.0
  0
LINE
  5
F1
  8
0
  6
CONTINUOUS
 62
     7
 10
604.6474883303
 20
-460.8193138411
 30
0.0
 11
582.3974883303
 21
-460.8193138411
 31
0.0
  0
LINE
  5
F2
  8
0
  6
CONTINUOUS
 62
     7
 10
604.6474883303
 20
-463.3193138411
 30
0.0
 11
582.3974883303
 21
-463.3193138411
 31
0.0
  0
LINE
  5
F3
  8
0
  6
CONTINUOUS
 62
     7
 10
579.3974883303
 20
-463.3193138411
 30
0.0
 11
579.3974883303
 21
-460.8193138411
 31
0.0
  0
LINE
  5
F4
  8
0
  6
CONTINUOUS
 62
     7
 10
579.3974883303
 20
-460.8193138411
 30
0.0
 11
582.3974883303
 21
-460.8193138411
 31
0.0
  0
LINE
  5
F5
  8
0
  6
CONTINUOUS
 62
     7
 10
582.3974883303
 20
-463.3193138411
 30
0.0
 11
579.3974883303
 21
-463.3193138411
 31
0.0
  0
LINE
  5
F6
  8
0
  6
CONTINUOUS
 62
     7
 10
-290.6025116697
 20
-460.8193138411
 30
0.0
 11
-290.6025116697
 21
-463.3193138411
 31
0.0
  0
LINE
  5
F7
  8
0
  6
CONTINUOUS
 62
     7
 10
-293.6025116697
 20
-460.8193138411
 30
0.0
 11
-290.6025116697
 21
-460.8193138411
 31
0.0
  0
LINE
  5
F8
  8
0
  6
CONTINUOUS
 62
     7
 10
-290.6025116697
 20
-463.3193138411
 30
0.0
 11
-293.6025116697
 21
-463.3193138411
 31
0.0
  0
LINE
  5
F9
  8
0
  6
CONTINUOUS
 62
     7
 10
-325.3525116697
 20
-460.8193138411
 30
0.0
 11
-325.3525116697
 21
-463.3193138411
 31
0.0
  0
LINE
  5
FA
  8
0
  6
CONTINUOUS
 62
     7
 10
-328.766725232
 20
-460.8193138411
 30
0.0
 11
-325.3525116697
 21
-460.8193138411
 31
0.0
  0
LINE
  5
FB
  8
0
  6
CONTINUOUS
 62
     7
 10
-325.3525116697
 20
-463.3193138411
 30
0.0
 11
-328.766725232
 21
-463.3193138411
 31
0.0
  0
LINE
  5
FC
  8
0
  6
CONTINUOUS
 62
     7
 10
614.1474883303
 20
-460.8193138411
 30
0.0
 11
614.1474883303
 21
-463.3193138411
 31
0.0
  0
LINE
  5
FD
  8
0
  6
CONTINUOUS
 62
     7
 10
617.5617018927
 20
-460.8193138411
 30
0.0
 11
614.1474883303
 21
-460.8193138411
 31
0.0
  0
LINE
  5
FE
  8
0
  6
CONTINUOUS
 62
     7
 10
614.1474883303
 20
-463.3193138411
 30
0.0
 11
617.5617018927
 21
-463.3193138411
 31
0.0
  0
LINE
  5
FF
  8
0
  6
CONTINUOUS
 62
     7
 10
629.3974883303
 20
-460.8193138411
 30
0.0
 11
629.3974883303
 21
-463.3193138411
 31
0.0
  0
LINE
  5
100
  8
0
  6
CONTINUOUS
 62
     7
 10
629.3974883303
 20
-460.8193138411
 30
0.0
 11
617.5617018927
 21
-460.8193138411
 31
0.0
  0
LINE
  5
101
  8
0
  6
CONTINUOUS
 62
     7
 10
617.5617018927
 20
-463.3193138411
 30
0.0
 11
629.3974883303
 21
-463.3193138411
 31
0.0
  0
LINE
  5
102
  8
0
  6
CONTINUOUS
 62
     7
 10
-340.6025116697
 20
-460.8193138411
 30
0.0
 11
-340.6025116697
 21
-463.3193138411
 31
0.0
  0
LINE
  5
103
  8
0
  6
CONTINUOUS
 62
     7
 10
-340.6025116697
 20
-460.8193138411
 30
0.0
 11
-328.766725232
 21
-460.8193138411
 31
0.0
  0
LINE
  5
104
  8
0
  6
CONTINUOUS
 62
     7
 10
-328.766725232
 20
-463.3193138411
 30
0.0
 11
-340.6025116697
 21
-463.3193138411
 31
0.0
  0
ARC
  5
105
  8
0
  6
CONTINUOUS
 62
     7
 10
546.3974883303
 20
-450.8193138411
 30
0.0
 40
3.0
 50
0.0
 51
90.0
  0
LINE
  5
106
  8
0
  6
CONTINUOUS
 62
     7
 10
549.3974883303
 20
-450.8193138411
 30
0.0
 11
549.3974883303
 21
-458.3193138411
 31
0.0
  0
LINE
  5
107
  8
0
  6
CONTINUOUS
 62
     7
 10
-260.6025116697
 20
-458.3193138411
 30
0.0
 11
-260.6025116697
 21
-450.8193138411
 31
0.0
  0
ARC
  5
108
  8
0
  6
CONTINUOUS
 62
     7
 10
-257.6025116697
 20
-450.8193138411
 30
0.0
 40
3.0
 50
90.0
 51
180.0
  0
LINE
  5
109
  8
0
  6
CONTINUOUS
 62
     7
 10
-257.6025116697
 20
-447.8193138411
 30
0.0
 11
546.3974883303
 21
-447.8193138411
 31
0.0
  0
LINE
  5
10A
  8
0
  6
CONTINUOUS
 62
     7
 10
-260.6025116697
 20
-462.64944086
 30
0.0
 11
-260.6025116697
 21
-458.3193138411
 31
0.0
  0
LINE
  5
10B
  8
0
  6
CONTINUOUS
 62
     7
 10
549.3974883303
 20
-458.3193138411
 30
0.0
 11
549.3974883303
 21
-462.64944086
 31
0.0
  0
LINE
  5
10C
  8
0
  6
CONTINUOUS
 62
     7
 10
549.3974883303
 20
-463.3193138411
 30
0.0
 11
-260.6025116697
 21
-463.3193138411
 31
0.0
  0
LINE
  5
10D
  8
0
  6
CONTINUOUS
 62
     7
 10
-325.3525116697
 20
-460.8193138411
 30
0.0
 11
-315.8525116697
 21
-460.8193138411
 31
0.0
  0
LINE
  5
10E
  8
0
  6
CONTINUOUS
 62
     7
 10
-315.8525116697
 20
-463.3193138411
 30
0.0
 11
-325.3525116697
 21
-463.3193138411
 31
0.0
  0
LINE
  5
10F
  8
0
  6
CONTINUOUS
 62
     7
 10
614.1474883303
 20
-460.8193138411
 30
0.0
 11
604.6474883303
 21
-460.8193138411
 31
0.0
  0
LINE
  5
110
  8
0
  6
CONTINUOUS
 62
     7
 10
604.6474883303
 20
-463.3193138411
 30
0.0
 11
614.1474883303
 21
-463.3193138411
 31
0.0
  0
LINE
  5
111
  8
0
  6
CONTINUOUS
 62
     7
 10
-260.6025116697
 20
-462.64944086
 30
0.0
 11
-260.6025116697
 21
-463.3193138411
 31
0.0
  0
LINE
  5
112
  8
0
  6
CONTINUOUS
 62
     7
 10
-290.6025116697
 20
-460.8193138411
 30
0.0
 11
-260.6025116697
 21
-460.8193138411
 31
0.0
  0
LINE
  5
113
  8
0
  6
CONTINUOUS
 62
     7
 10
-290.6025116697
 20
-463.3193138411
 30
0.0
 11
-260.6025116697
 21
-463.3193138411
 31
0.0
  0
LINE
  5
114
  8
0
  6
CONTINUOUS
 62
     7
 10
549.3974883303
 20
-462.64944086
 30
0.0
 11
549.3974883303
 21
-463.3193138411
 31
0.0
  0
LINE
  5
115
  8
0
  6
CONTINUOUS
 62
     7
 10
549.3974883303
 20
-460.8193138411
 30
0.0
 11
579.3974883303
 21
-460.8193138411
 31
0.0
  0
LINE
  5
116
  8
0
  6
CONTINUOUS
 62
     7
 10
549.3974883303
 20
-463.3193138411
 30
0.0
 11
579.3974883303
 21
-463.3193138411
 31
0.0
  0
LINE
  5
117
  8
0
  6
CONTINUOUS
 62
     7
 10
626.8974883303
 20
-447.8193138411
 30
0.0
 11
629.3974883303
 21
-447.8193138411
 31
0.0
  0
LINE
  5
118
  8
0
  6
CONTINUOUS
 62
     7
 10
629.3974883303
 20
-447.8193138411
 30
0.0
 11
629.3974883303
 21
-450.8193138411
 31
0.0
  0
LINE
  5
119
  8
0
  6
CONTINUOUS
 62
     7
 10
626.8974883303
 20
-450.8193138411
 30
0.0
 11
626.8974883303
 21
-447.8193138411
 31
0.0
  0
LINE
  5
11A
  8
0
  6
CONTINUOUS
 62
     7
 10
629.3974883303
 20
-458.3193138411
 30
0.0
 11
629.3974883303
 21
-450.8193138411
 31
0.0
  0
LINE
  5
11B
  8
0
  6
CONTINUOUS
 62
     7
 10
626.8974883303
 20
-458.3193138411
 30
0.0
 11
626.8974883303
 21
-450.8193138411
 31
0.0
  0
ARC
  5
11C
  8
0
  6
CONTINUOUS
 62
     7
 10
624.3974883303
 20
-458.3193138411
 30
0.0
 40
4.999999999999886
 50
330.0
 51
0.0
  0
ARC
  5
11D
  8
0
  6
CONTINUOUS
 62
     7
 10
624.3974883303
 20
-458.3193138411
 30
0.0
 40
2.5
 50
270.0
 51
0.0
  0
LINE
  5
11E
  8
0
  6
CONTINUOUS
 62
     7
 10
-340.6025116697
 20
-450.8193138411
 30
0.0
 11
-340.6025116697
 21
-458.3193138411
 31
0.0
  0
LINE
  5
11F
  8
0
  6
CONTINUOUS
 62
     7
 10
-338.1025116697
 20
-450.8193138411
 30
0.0
 11
-338.1025116697
 21
-458.3193138411
 31
0.0
  0
LINE
  5
120
  8
0
  6
CONTINUOUS
 62
     7
 10
-340.6025116697
 20
-447.8193138411
 30
0.0
 11
-338.1025116697
 21
-447.8193138411
 31
0.0
  0
LINE
  5
121
  8
0
  6
CONTINUOUS
 62
     7
 10
-340.6025116697
 20
-450.8193138411
 30
0.0
 11
-340.6025116697
 21
-447.8193138411
 31
0.0
  0
LINE
  5
122
  8
0
  6
CONTINUOUS
 62
     7
 10
-338.1025116697
 20
-447.8193138411
 30
0.0
 11
-338.1025116697
 21
-450.8193138411
 31
0.0
  0
ARC
  5
123
  8
0
  6
CONTINUOUS
 62
     7
 10
-335.6025116697
 20
-458.3193138411
 30
0.0
 40
5.000000000000057
 50
180.0
 51
210.0
  0
ARC
  5
124
  8
0
  6
CONTINUOUS
 62
     7
 10
-335.6025116697
 20
-458.3193138411
 30
0.0
 40
2.499999999999943
 50
180.0
 51
270.0
  0
LINE
  5
125
  8
0
  6
HIDDEN
 62
     7
 10
549.3974883303
 20
-460.8193138411
 30
0.0
 11
-260.6025116697
 21
-460.8193138411
 31
0.0
  0
LINE
  5
126
  8
0
  6
HIDDEN
 62
     7
 10
623.3974883303
 20
-460.8193138411
 30
0.0
 11
623.3974883303
 21
-463.3193138411
 31
0.0
  0
LINE
  5
127
  8
0
  6
HIDDEN
 62
     7
 10
-334.6025116697
 20
-460.8193138411
 30
0.0
 11
-334.6025116697
 21
-463.3193138411
 31
0.0
  0
ARC
  5
128
  8
0
  6
HIDDEN
 62
     7
 10
624.3974883303
 20
-458.3193138411
 30
0.0
 40
4.999999999999943
 50
270.0
 51
330.0
  0
ARC
  5
129
  8
0
  6
HIDDEN
 62
     7
 10
-335.6025116697
 20
-458.3193138411
 30
0.0
 40
4.999999999999972
 50
210.0
 51
270.0
  0
LINE
  5
12A
  8
0
  6
HIDDEN
 62
     7
 10
-286.6025116697
 20
-463.3193138411
 30
0.0
 11
-286.6025116697
 21
-460.8193138411
 31
0.0
  0
LINE
  5
12B
  8
0
  6
HIDDEN
 62
     7
 10
-294.6025116697
 20
-460.8193138411
 30
0.0
 11
-294.6025116697
 21
-463.3193138411
 31
0.0
  0
LINE
  5
12C
  8
0
  6
HIDDEN
 62
     7
 10
583.3974883303
 20
-463.3193138411
 30
0.0
 11
583.3974883303
 21
-460.8193138411
 31
0.0
  0
LINE
  5
12D
  8
0
  6
HIDDEN
 62
     7
 10
575.3974883303
 20
-460.8193138411
 30
0.0
 11
575.3974883303
 21
-463.3193138411
 31
0.0
  0
ENDSEC
  0
EOF
